  0
SECTION
  2
HEADER
  9
$ACADVER
  1
AC1024
  9
$ACADMAINTVER
 70
     6
  9
$DWGCODEPAGE
  3
UNDEFINED
  9
$INSBASE
 10
0.0
 20
0.0
 30
0.0
  9
$EXTMIN
 10
1.000000000000000E+20
 20
1.000000000000000E+20
 30
1.000000000000000E+20
  9
$EXTMAX
 10
-1.000000000000000E+20
 20
-1.000000000000000E+20
 30
-1.000000000000000E+20
  9
$LIMMIN
 10
0.0
 20
0.0
  9
$LIMMAX
 10
12.0
 20
9.0
  9
$ORTHOMODE
 70
     0
  9
$REGENMODE
 70
     1
  9
$FILLMODE
 70
     1
  9
$QTEXTMODE
 70
     0
  9
$MIRRTEXT
 70
     1
  9
$LTSCALE
 40
1.0
  9
$ATTMODE
 70
     1
  9
$TEXTSIZE
 40
0.2
  9
$TRACEWID
 40
0.05
  9
$TEXTSTYLE
  7
Standard
  9
$CLAYER
  8
0
  9
$CELTYPE
  6
ByLayer
  9
$CECOLOR
 62
   256
  9
$CELTSCALE
 40
1.0
  9
$DISPSILH
 70
     0
  9
$DIMSCALE
 40
1.0
  9
$DIMASZ
 40
0.18
  9
$DIMEXO
 40
0.0625
  9
$DIMDLI
 40
0.38
  9
$DIMRND
 40
0.0
  9
$DIMDLE
 40
0.0
  9
$DIMEXE
 40
0.18
  9
$DIMTP
 40
0.0
  9
$DIMTM
 40
0.0
  9
$DIMTXT
 40
0.18
  9
$DIMCEN
 40
0.09
  9
$DIMTSZ
 40
0.0
  9
$DIMTOL
 70
     0
  9
$DIMLIM
 70
     0
  9
$DIMTIH
 70
     1
  9
$DIMTOH
 70
     1
  9
$DIMSE1
 70
     0
  9
$DIMSE2
 70
     0
  9
$DIMTAD
 70
     0
  9
$DIMZIN
 70
     0
  9
$DIMBLK
  1

  9
$DIMASO
 70
     1
  9
$DIMSHO
 70
     1
  9
$DIMPOST
  1

  9
$DIMAPOST
  1

  9
$DIMALT
 70
     0
  9
$DIMALTD
 70
     2
  9
$DIMALTF
 40
25.4
  9
$DIMLFAC
 40
1.0
  9
$DIMTOFL
 70
     0
  9
$DIMTVP
 40
0.0
  9
$DIMTIX
 70
     0
  9
$DIMSOXD
 70
     0
  9
$DIMSAH
 70
     0
  9
$DIMBLK1
  1

  9
$DIMBLK2
  1

  9
$DIMSTYLE
  2
Standard
  9
$DIMCLRD
 70
     0
  9
$DIMCLRE
 70
     0
  9
$DIMCLRT
 70
     0
  9
$DIMTFAC
 40
1.0
  9
$DIMGAP
 40
0.09
  9
$DIMJUST
 70
     0
  9
$DIMSD1
 70
     0
  9
$DIMSD2
 70
     0
  9
$DIMTOLJ
 70
     1
  9
$DIMTZIN
 70
     0
  9
$DIMALTZ
 70
     0
  9
$DIMALTTZ
 70
     0
  9
$DIMUPT
 70
     0
  9
$DIMDEC
 70
     4
  9
$DIMTDEC
 70
     4
  9
$DIMALTU
 70
     2
  9
$DIMALTTD
 70
     2
  9
$DIMTXSTY
  7
Standard
  9
$DIMAUNIT
 70
     0
  9
$DIMADEC
 70
     0
  9
$DIMALTRND
 40
0.0
  9
$DIMAZIN
 70
     0
  9
$DIMDSEP
 70
    46
  9
$DIMATFIT
 70
     3
  9
$DIMFRAC
 70
     0
  9
$DIMLDRBLK
  1

  9
$DIMLUNIT
 70
     2
  9
$DIMLWD
 70
    -2
  9
$DIMLWE
 70
    -2
  9
$DIMTMOVE
 70
     0
  9
$DIMFXL
 40
1.0
  9
$DIMFXLON
 70
     0
  9
$DIMJOGANG
 40
0.7853981633974483
  9
$DIMTFILL
 70
     0
  9
$DIMTFILLCLR
 70
     0
  9
$DIMARCSYM
 70
     0
  9
$DIMLTYPE
  6

  9
$DIMLTEX1
  6

  9
$DIMLTEX2
  6

  9
$DIMTXTDIRECTION
 70
     0
  9
$LUNITS
 70
     2
  9
$LUPREC
 70
     4
  9
$SKETCHINC
 40
0.1
  9
$FILLETRAD
 40
0.5
  9
$AUNITS
 70
     0
  9
$AUPREC
 70
     0
  9
$MENU
  1
.
  9
$ELEVATION
 40
0.0
  9
$PELEVATION
 40
0.0
  9
$THICKNESS
 40
0.0
  9
$LIMCHECK
 70
     0
  9
$CHAMFERA
 40
0.5
  9
$CHAMFERB
 40
0.5
  9
$CHAMFERC
 40
1.0
  9
$CHAMFERD
 40
0.0
  9
$SKPOLY
 70
     0
  9
$TDCREATE
 40
2457917.588368044
  9
$TDUCREATE
 40
2457917.213368055
  9
$TDUPDATE
 40
2457917.588368044
  9
$TDUUPDATE
 40
2457917.213368055
  9
$TDINDWG
 40
0.0000000116
  9
$TDUSRTIMER
 40
0.0000000116
  9
$USRTIMER
 70
     1
  9
$ANGBASE
 50
0.0
  9
$ANGDIR
 70
     0
  9
$PDMODE
 70
     0
  9
$PDSIZE
 40
0.0
  9
$PLINEWID
 40
0.0
  9
$SPLFRAME
 70
     0
  9
$SPLINETYPE
 70
     6
  9
$SPLINESEGS
 70
     8
  9
$HANDSEED
  5
E4
  9
$SURFTAB1
 70
     6
  9
$SURFTAB2
 70
     6
  9
$SURFTYPE
 70
     6
  9
$SURFU
 70
     6
  9
$SURFV
 70
     6
  9
$UCSBASE
  2

  9
$UCSNAME
  2

  9
$UCSORG
 10
0.0
 20
0.0
 30
0.0
  9
$UCSXDIR
 10
1.0
 20
0.0
 30
0.0
  9
$UCSYDIR
 10
0.0
 20
1.0
 30
0.0
  9
$UCSORTHOREF
  2

  9
$UCSORTHOVIEW
 70
     0
  9
$UCSORGTOP
 10
0.0
 20
0.0
 30
0.0
  9
$UCSORGBOTTOM
 10
0.0
 20
0.0
 30
0.0
  9
$UCSORGLEFT
 10
0.0
 20
0.0
 30
0.0
  9
$UCSORGRIGHT
 10
0.0
 20
0.0
 30
0.0
  9
$UCSORGFRONT
 10
0.0
 20
0.0
 30
0.0
  9
$UCSORGBACK
 10
0.0
 20
0.0
 30
0.0
  9
$PUCSBASE
  2

  9
$PUCSNAME
  2

  9
$PUCSORG
 10
0.0
 20
0.0
 30
0.0
  9
$PUCSXDIR
 10
1.0
 20
0.0
 30
0.0
  9
$PUCSYDIR
 10
0.0
 20
1.0
 30
0.0
  9
$PUCSORTHOREF
  2

  9
$PUCSORTHOVIEW
 70
     0
  9
$PUCSORGTOP
 10
0.0
 20
0.0
 30
0.0
  9
$PUCSORGBOTTOM
 10
0.0
 20
0.0
 30
0.0
  9
$PUCSORGLEFT
 10
0.0
 20
0.0
 30
0.0
  9
$PUCSORGRIGHT
 10
0.0
 20
0.0
 30
0.0
  9
$PUCSORGFRONT
 10
0.0
 20
0.0
 30
0.0
  9
$PUCSORGBACK
 10
0.0
 20
0.0
 30
0.0
  9
$USERI1
 70
     0
  9
$USERI2
 70
     0
  9
$USERI3
 70
     0
  9
$USERI4
 70
     0
  9
$USERI5
 70
     0
  9
$USERR1
 40
0.0
  9
$USERR2
 40
0.0
  9
$USERR3
 40
0.0
  9
$USERR4
 40
0.0
  9
$USERR5
 40
0.0
  9
$WORLDVIEW
 70
     1
  9
$SHADEDGE
 70
     3
  9
$SHADEDIF
 70
    70
  9
$TILEMODE
 70
     1
  9
$MAXACTVP
 70
    64
  9
$PINSBASE
 10
0.0
 20
0.0
 30
0.0
  9
$PLIMCHECK
 70
     0
  9
$PEXTMIN
 10
1.000000000000000E+20
 20
1.000000000000000E+20
 30
1.000000000000000E+20
  9
$PEXTMAX
 10
-1.000000000000000E+20
 20
-1.000000000000000E+20
 30
-1.000000000000000E+20
  9
$PLIMMIN
 10
0.0
 20
0.0
  9
$PLIMMAX
 10
12.0
 20
9.0
  9
$UNITMODE
 70
     0
  9
$VISRETAIN
 70
     1
  9
$PLINEGEN
 70
     0
  9
$PSLTSCALE
 70
     1
  9
$TREEDEPTH
 70
  3020
  9
$CMLSTYLE
  2
Standard
  9
$CMLJUST
 70
     0
  9
$CMLSCALE
 40
1.0
  9
$PROXYGRAPHICS
 70
     1
  9
$MEASUREMENT
 70
     0
  9
$CELWEIGHT
370
    -1
  9
$ENDCAPS
280
     0
  9
$JOINSTYLE
280
     0
  9
$LWDISPLAY
290
     1
  9
$INSUNITS
 70
     1
  9
$HYPERLINKBASE
  1

  9
$STYLESHEET
  1

  9
$XEDIT
290
     1
  9
$CEPSNTYPE
380
     0
  9
$PSTYLEMODE
290
     1
  9
$FINGERPRINTGUID
  2
{2A23FFA2-EF22-EEEB-8777-CB03B8D4E1BD}
  9
$VERSIONGUID
  2
{FAEB1C32-E019-11D5-929B-00C0DF256EC4}
  9
$EXTNAMES
290
     1
  9
$PSVPSCALE
 40
0.0
  9
$OLESTARTUP
290
     0
  9
$SORTENTS
280
   127
  9
$INDEXCTL
280
     0
  9
$HIDETEXT
280
     1
  9
$XCLIPFRAME
280
     2
  9
$HALOGAP
280
     0
  9
$OBSCOLOR
 70
   257
  9
$OBSLTYPE
280
     0
  9
$INTERSECTIONDISPLAY
280
     0
  9
$INTERSECTIONCOLOR
 70
   257
  9
$DIMASSOC
280
     2
  9
$PROJECTNAME
  1

  9
$CAMERADISPLAY
290
     0
  9
$LENSLENGTH
 40
50.0
  9
$CAMERAHEIGHT
 40
0.0
  9
$STEPSPERSEC
 40
2.0
  9
$STEPSIZE
 40
6.0
  9
$3DDWFPREC
 40
2.0
  9
$PSOLWIDTH
 40
0.25
  9
$PSOLHEIGHT
 40
4.0
  9
$LOFTANG1
 40
1.570796326794897
  9
$LOFTANG2
 40
1.570796326794897
  9
$LOFTMAG1
 40
0.0
  9
$LOFTMAG2
 40
0.0
  9
$LOFTPARAM
 70
     7
  9
$LOFTNORMALS
280
     1
  9
$LATITUDE
 40
37.795
  9
$LONGITUDE
 40
-122.394
  9
$NORTHDIRECTION
 40
0.0
  9
$TIMEZONE
 70
 -8000
  9
$LIGHTGLYPHDISPLAY
280
     1
  9
$TILEMODELIGHTSYNCH
280
     1
  9
$CMATERIAL
347
3C
  9
$SOLIDHIST
280
     1
  9
$SHOWHIST
280
     1
  9
$DWFFRAME
280
     2
  9
$DGNFRAME
280
     2
  9
$REALWORLDSCALE
290
     1
  9
$INTERFERECOLOR
 62
   256
  9
$CSHADOW
280
     0
  9
$SHADOWPLANELOCATION
 40
0.0
  0
ENDSEC
  0
SECTION
  2
CLASSES
  0
CLASS
  1
ACDBDICTIONARYWDFLT
  2
AcDbDictionaryWithDefault
  3
ObjectDBX Classes
 90
        0
 91
        4
280
     0
281
     0
  0
CLASS
  1
VISUALSTYLE
  2
AcDbVisualStyle
  3
ObjectDBX Classes
 90
     4095
 91
        4
280
     0
281
     0
  0
CLASS
  1
MATERIAL
  2
AcDbMaterial
  3
ObjectDBX Classes
 90
     1153
 91
        4
280
     0
281
     0
  0
CLASS
  1
SUN
  2
AcDbSun
  3
SCENEOE
 90
     1024
 91
        4
280
     0
281
     0
  0
ENDSEC
  0
SECTION
  2
TABLES
  0
TABLE
  2
VPORT
  5
8
330
0
100
AcDbSymbolTable
 70
     1
  0
VPORT
  5
29
330
8
100
AcDbSymbolTableRecord
100
AcDbViewportTableRecord
  2
*Active
 70
     0
 10
0.0
 20
0.0
 11
1.0
 21
1.0
 12
0.0
 22
0.0
 13
0.0
 23
0.0
 14
0.5
 24
0.5
 15
0.5
 25
0.5
 16
0.0
 26
0.0
 36
1.0
 17
63.499999984125
 27
-89.00059456108309
 37
0.0
 40
178.0011891221662
 41
0.7134783795241226
 42
50.0
 43
0.0
 44
0.0
 50
0.0
 51
0.0
 71
     0
 72
   100
 73
     1
 74
     3
 75
     0
 76
     0
 77
     0
 78
     0
281
     0
 65
     1
110
0.0
120
0.0
130
0.0
111
1.0
121
0.0
131
0.0
112
0.0
122
1.0
132
0.0
 79
     0
146
0.0
 60
     3
 61
     5
292
     1
282
     1
141
0.0
142
0.0
 63
   250
361
3F
  0
ENDTAB
  0
TABLE
  2
LTYPE
  5
5
330
0
100
AcDbSymbolTable
 70
     1
  0
LTYPE
  5
14
330
5
100
AcDbSymbolTableRecord
100
AcDbLinetypeTableRecord
  2
ByBlock
 70
     0
  3

 72
    65
 73
     0
 40
0.0
  0
LTYPE
  5
15
330
5
100
AcDbSymbolTableRecord
100
AcDbLinetypeTableRecord
  2
ByLayer
 70
     0
  3

 72
    65
 73
     0
 40
0.0
  0
LTYPE
  5
16
330
5
100
AcDbSymbolTableRecord
100
AcDbLinetypeTableRecord
  2
Continuous
 70
     0
  3
Solid line
 72
    65
 73
     0
 40
0.0
  0
ENDTAB
  0
TABLE
  2
LAYER
  5
2
330
0
100
AcDbSymbolTable
 70
     2
  0
LAYER
  5
10
330
2
100
AcDbSymbolTableRecord
100
AcDbLayerTableRecord
  2
0
 70
     0
 62
     7
  6
Continuous
370
    -3
390
F
347
3E
  0
LAYER
  5
40
330
2
100
AcDbSymbolTableRecord
100
AcDbLayerTableRecord
  2
_U+30EC_U+30A4_U+30E4_U+30FC 1
 70
     0
 62
     7
  6
Continuous
370
    -3
390
F
347
3E
  0
ENDTAB
  0
TABLE
  2
STYLE
  5
3
330
0
100
AcDbSymbolTable
 70
     1
  0
STYLE
  5
11
330
3
100
AcDbSymbolTableRecord
100
AcDbTextStyleTableRecord
  2
Standard
 70
     0
 40
0.0
 41
1.0
 50
0.0
 71
     0
 42
0.2
  3
txt
  4

  0
ENDTAB
  0
TABLE
  2
VIEW
  5
6
330
0
100
AcDbSymbolTable
 70
     0
  0
ENDTAB
  0
TABLE
  2
UCS
  5
7
330
0
100
AcDbSymbolTable
 70
     0
  0
ENDTAB
  0
TABLE
  2
APPID
  5
9
330
0
100
AcDbSymbolTable
 70
     1
  0
APPID
  5
12
330
9
100
AcDbSymbolTableRecord
100
AcDbRegAppTableRecord
  2
ACAD
 70
     0
  0
ENDTAB
  0
TABLE
  2
DIMSTYLE
  5
A
330
0
100
AcDbSymbolTable
 70
     1
100
AcDbDimStyleTable
  0
DIMSTYLE
105
27
330
A
100
AcDbSymbolTableRecord
100
AcDbDimStyleTableRecord
  2
Standard
 70
     0
178
     0
340
11
  0
ENDTAB
  0
TABLE
  2
BLOCK_RECORD
  5
1
330
0
100
AcDbSymbolTable
 70
     6
  0
BLOCK_RECORD
  5
1F
330
1
100
AcDbSymbolTableRecord
100
AcDbBlockTableRecord
  2
*Model_Space
340
22
 70
     0
280
     1
281
     0
  0
BLOCK_RECORD
  5
1B
330
1
100
AcDbSymbolTableRecord
100
AcDbBlockTableRecord
  2
*Paper_Space
340
1E
 70
     0
280
     1
281
     0
  0
BLOCK_RECORD
  5
23
330
1
100
AcDbSymbolTableRecord
100
AcDbBlockTableRecord
  2
*Paper_Space0
340
26
 70
     0
280
     1
281
     0
  0
BLOCK_RECORD
  5
8D
330
1
100
AcDbSymbolTableRecord
100
AcDbBlockTableRecord
  2
block 2
340
0
102
{BLKREFS
331
8E
102
}
 70
     0
280
     1
281
     0
  0
BLOCK_RECORD
  5
A1
330
1
100
AcDbSymbolTableRecord
100
AcDbBlockTableRecord
  2
block 3
340
0
102
{BLKREFS
331
A2
102
}
 70
     0
280
     1
281
     0
  0
BLOCK_RECORD
  5
AF
330
1
100
AcDbSymbolTableRecord
100
AcDbBlockTableRecord
  2
block 4
340
0
102
{BLKREFS
331
B0
102
}
 70
     0
280
     1
281
     0
  0
BLOCK_RECORD
  5
C1
330
1
100
AcDbSymbolTableRecord
100
AcDbBlockTableRecord
  2
block 5
340
0
102
{BLKREFS
331
C2
102
}
 70
     0
280
     1
281
     0
  0
BLOCK_RECORD
  5
D1
330
1
100
AcDbSymbolTableRecord
100
AcDbBlockTableRecord
  2
block 6
340
0
102
{BLKREFS
331
D2
102
}
 70
     0
280
     1
281
     0
  0
ENDTAB
  0
ENDSEC
  0
SECTION
  2
BLOCKS
  0
BLOCK
  5
20
330
1F
100
AcDbEntity
  8
0
100
AcDbBlockBegin
  2
*Model_Space
 70
     0
 10
0.0
 20
0.0
 30
0.0
  3
*Model_Space
  1

  0
ENDBLK
  5
21
330
1F
100
AcDbEntity
  8
0
100
AcDbBlockEnd
  0
BLOCK
  5
1C
330
1B
100
AcDbEntity
 67
     1
  8
0
100
AcDbBlockBegin
  2
*Paper_Space
 70
     0
 10
0.0
 20
0.0
 30
0.0
  3
*Paper_Space
  1

  0
ENDBLK
  5
1D
330
1B
100
AcDbEntity
 67
     1
  8
0
100
AcDbBlockEnd
  0
BLOCK
  5
24
330
23
100
AcDbEntity
  8
0
100
AcDbBlockBegin
  2
*Paper_Space0
 70
     0
 10
0.0
 20
0.0
 30
0.0
  3
*Paper_Space0
  1

  0
ENDBLK
  5
25
330
23
100
AcDbEntity
  8
0
100
AcDbBlockEnd
  0
BLOCK
  5
8F
330
8D
100
AcDbEntity
  8
0
100
AcDbBlockBegin
  2
block 2
 70
     0
 10
0.0
 20
0.0
 30
0.0
  3
block 2
  1

  0
SPLINE
  5
91
330
8D
100
AcDbEntity
  8
_U+30EC_U+30A4_U+30E4_U+30FC 1
370
     0
100
AcDbSpline
210
0.0
220
0.0
230
1.0
 70
    11
 71
     3
 72
    26
 73
    22
 74
     0
 42
0.0000000001
 43
0.0000000001
 12
1.0
 22
0.0
 32
0.0
 13
1.0
 23
0.0
 33
0.0
 40
0.0
 40
0.0
 40
0.0
 40
0.0
 40
1.0
 40
1.0
 40
1.0
 40
2.0
 40
2.0
 40
2.0
 40
3.0
 40
3.0
 40
3.0
 40
4.0
 40
4.0
 40
4.0
 40
5.0
 40
5.0
 40
5.0
 40
6.0
 40
6.0
 40
6.0
 40
7.0
 40
7.0
 40
7.0
 40
7.0
 10
54.1258951687602
 20
-98.9800048580675
 30
0.0
 10
54.1258951687602
 20
-98.9800048580675
 30
0.0
 10
54.1258951687602
 20
-97.87585175504493
 30
0.0
 10
54.1258951687602
 20
-97.87585175504493
 30
0.0
 10
54.1258951687602
 20
-97.87585175504493
 30
0.0
 10
53.79671629514457
 20
-97.87585175504493
 30
0.0
 10
53.79671629514457
 20
-97.87585175504493
 30
0.0
 10
53.79671629514457
 20
-97.87585175504493
 30
0.0
 10
53.79671629514457
 20
-97.72771264917918
 30
0.0
 10
53.79671629514457
 20
-97.72771264917918
 30
0.0
 10
54.12796222605134
 20
-97.71289873859261
 30
0.0
 10
54.17429876032796
 20
-97.5499457221403
 30
0.0
 10
54.2039265815011
 20
-97.43556855203
 30
0.0
 10
54.2039265815011
 20
-97.43556855203
 30
0.0
 10
54.34948186575291
 20
-97.43556855203
 30
0.0
 10
54.34948186575291
 20
-97.43556855203
 30
0.0
 10
54.34948186575291
 20
-97.43556855203
 30
0.0
 10
54.34948186575291
 20
-98.9800048580675
 30
0.0
 10
54.34948186575291
 20
-98.9800048580675
 30
0.0
 10
54.34948186575291
 20
-98.9800048580675
 30
0.0
 10
54.1258951687602
 20
-98.9800048580675
 30
0.0
 10
54.1258951687602
 20
-98.9800048580675
 30
0.0
  0
HATCH
  5
92
330
8D
100
AcDbEntity
  8
_U+30EC_U+30A4_U+30E4_U+30FC 1
 62
     7
420
 16777215
100
AcDbHatch
 10
0.0
 20
0.0
 30
0.0
210
0.0
220
0.0
230
1.0
  2
SOLID
 70
     1
 71
     0
 91
        1
 92
        1
 93
        1
 72
     4
 94
        3
 73
     0
 74
     1
 95
       26
 96
       22
 40
0.0
 40
0.0
 40
0.0
 40
0.0
 40
1.0
 40
1.0
 40
1.0
 40
2.0
 40
2.0
 40
2.0
 40
3.0
 40
3.0
 40
3.0
 40
4.0
 40
4.0
 40
4.0
 40
5.0
 40
5.0
 40
5.0
 40
6.0
 40
6.0
 40
6.0
 40
7.0
 40
7.0
 40
7.0
 40
7.0
 10
54.1258951687602
 20
-98.9800048580675
 10
54.1258951687602
 20
-98.9800048580675
 10
54.1258951687602
 20
-97.87585175504493
 10
54.1258951687602
 20
-97.87585175504493
 10
54.1258951687602
 20
-97.87585175504493
 10
53.79671629514457
 20
-97.87585175504493
 10
53.79671629514457
 20
-97.87585175504493
 10
53.79671629514457
 20
-97.87585175504493
 10
53.79671629514457
 20
-97.72771264917918
 10
53.79671629514457
 20
-97.72771264917918
 10
54.12796222605134
 20
-97.71289873859261
 10
54.17429876032796
 20
-97.5499457221403
 10
54.2039265815011
 20
-97.43556855203
 10
54.2039265815011
 20
-97.43556855203
 10
54.34948186575291
 20
-97.43556855203
 10
54.34948186575291
 20
-97.43556855203
 10
54.34948186575291
 20
-97.43556855203
 10
54.34948186575291
 20
-98.9800048580675
 10
54.34948186575291
 20
-98.9800048580675
 10
54.34948186575291
 20
-98.9800048580675
 10
54.1258951687602
 20
-98.9800048580675
 10
54.1258951687602
 20
-98.9800048580675
 97
        0
 97
        0
 75
     2
 76
     1
 98
        0
  0
SPLINE
  5
93
330
8D
100
AcDbEntity
  8
_U+30EC_U+30A4_U+30E4_U+30FC 1
370
     0
100
AcDbSpline
210
0.0
220
0.0
230
1.0
 70
    11
 71
     3
 72
    53
 73
    49
 74
     0
 42
0.0000000001
 43
0.0000000001
 12
1.0
 22
0.0
 32
0.0
 13
1.0
 23
0.0
 33
0.0
 40
0.0
 40
0.0
 40
0.0
 40
0.0
 40
1.0
 40
1.0
 40
1.0
 40
2.0
 40
2.0
 40
2.0
 40
3.0
 40
3.0
 40
3.0
 40
4.0
 40
4.0
 40
4.0
 40
5.0
 40
5.0
 40
5.0
 40
6.0
 40
6.0
 40
6.0
 40
7.0
 40
7.0
 40
7.0
 40
8.0
 40
8.0
 40
8.0
 40
9.0
 40
9.0
 40
9.0
 40
10.0
 40
10.0
 40
10.0
 40
11.0
 40
11.0
 40
11.0
 40
12.0
 40
12.0
 40
12.0
 40
13.0
 40
13.0
 40
13.0
 40
14.0
 40
14.0
 40
14.0
 40
15.0
 40
15.0
 40
15.0
 40
16.0
 40
16.0
 40
16.0
 40
16.0
 10
55.32754447401534
 20
-99.03064776170068
 30
0.0
 10
55.24951306127443
 20
-99.03064776170068
 30
0.0
 10
55.14822725400808
 20
-99.01376679382295
 30
0.0
 10
55.04694144674174
 20
-98.95037703689435
 30
0.0
 10
54.8739976533822
 20
-98.84047849091489
 30
0.0
 10
54.85281031614791
 20
-98.70922035292686
 30
0.0
 10
54.83386229097903
 20
-98.60138886423854
 30
0.0
 10
54.83386229097903
 20
-98.60138886423854
 30
0.0
 10
55.0553819306806
 20
-98.60138886423854
 30
0.0
 10
55.0553819306806
 20
-98.60138886423854
 30
0.0
 10
55.11033120367033
 20
-98.80017087373746
 30
0.0
 10
55.236766207979
 20
-98.82979869491061
 30
0.0
 10
55.32978378608075
 20
-98.82979869491061
 30
0.0
 10
55.46896564368485
 20
-98.82979869491061
 30
0.0
 10
55.62089435458437
 20
-98.73023543538689
 30
0.0
 10
55.62089435458437
 20
-98.49769149013252
 30
0.0
 10
55.62089435458437
 20
-98.24172089557847
 30
0.0
 10
55.44157713457711
 20
-98.1717854572279
 30
0.0
 10
55.32117104736763
 20
-98.1717854572279
 30
0.0
 10
55.28964842367759
 20
-98.1717854572279
 30
0.0
 10
55.14822725400808
 20
-98.1717854572279
 30
0.0
 10
55.05968830003717
 20
-98.30097653792475
 30
0.0
 10
55.05968830003717
 20
-98.30097653792475
 30
0.0
 10
54.88450519461221
 20
-98.28202851275589
 30
0.0
 10
54.88450519461221
 20
-98.28202851275589
 30
0.0
 10
54.88450519461221
 20
-98.28202851275589
 30
0.0
 10
55.00473902704743
 20
-97.43556855203
 30
0.0
 10
55.00473902704743
 20
-97.43556855203
 30
0.0
 10
55.00473902704743
 20
-97.43556855203
 30
0.0
 10
55.78126354942274
 20
-97.43556855203
 30
0.0
 10
55.78126354942274
 20
-97.43556855203
 30
0.0
 10
55.78126354942274
 20
-97.43556855203
 30
0.0
 10
55.78126354942274
 20
-97.63021644694662
 30
0.0
 10
55.78126354942274
 20
-97.63021644694662
 30
0.0
 10
55.78126354942274
 20
-97.63021644694662
 30
0.0
 10
55.16717527917696
 20
-97.63021644694662
 30
0.0
 10
55.16717527917696
 20
-97.63021644694662
 30
0.0
 10
55.16717527917696
 20
-97.63021644694662
 30
0.0
 10
55.10171846495721
 20
-98.0532741725353
 30
0.0
 10
55.10171846495721
 20
-98.0532741725353
 30
0.0
 10
55.16304116459466
 20
-98.01951223677985
 30
0.0
 10
55.24537894669213
 20
-97.97920461960243
 30
0.0
 10
55.3635457218362
 20
-97.97920461960243
 30
0.0
 10
55.61676024000207
 20
-97.97920461960243
 30
0.0
 10
55.8530937902902
 20
-98.16558428535444
 30
0.0
 10
55.8530937902902
 20
-98.47874346496366
 30
0.0
 10
55.8530937902902
 20
-98.79603675915516
 30
0.0
 10
55.62933483852323
 20
-99.03064776170068
 30
0.0
 10
55.32754447401534
 20
-99.03064776170068
 30
0.0
  0
HATCH
  5
94
330
8D
100
AcDbEntity
  8
_U+30EC_U+30A4_U+30E4_U+30FC 1
 62
     7
420
 16777215
100
AcDbHatch
 10
0.0
 20
0.0
 30
0.0
210
0.0
220
0.0
230
1.0
  2
SOLID
 70
     1
 71
     0
 91
        1
 92
        1
 93
        1
 72
     4
 94
        3
 73
     0
 74
     1
 95
       53
 96
       49
 40
0.0
 40
0.0
 40
0.0
 40
0.0
 40
1.0
 40
1.0
 40
1.0
 40
2.0
 40
2.0
 40
2.0
 40
3.0
 40
3.0
 40
3.0
 40
4.0
 40
4.0
 40
4.0
 40
5.0
 40
5.0
 40
5.0
 40
6.0
 40
6.0
 40
6.0
 40
7.0
 40
7.0
 40
7.0
 40
8.0
 40
8.0
 40
8.0
 40
9.0
 40
9.0
 40
9.0
 40
10.0
 40
10.0
 40
10.0
 40
11.0
 40
11.0
 40
11.0
 40
12.0
 40
12.0
 40
12.0
 40
13.0
 40
13.0
 40
13.0
 40
14.0
 40
14.0
 40
14.0
 40
15.0
 40
15.0
 40
15.0
 40
16.0
 40
16.0
 40
16.0
 40
16.0
 10
55.32754447401534
 20
-99.03064776170068
 10
55.24951306127443
 20
-99.03064776170068
 10
55.14822725400808
 20
-99.01376679382295
 10
55.04694144674174
 20
-98.95037703689435
 10
54.8739976533822
 20
-98.84047849091489
 10
54.85281031614791
 20
-98.70922035292686
 10
54.83386229097903
 20
-98.60138886423854
 10
54.83386229097903
 20
-98.60138886423854
 10
55.0553819306806
 20
-98.60138886423854
 10
55.0553819306806
 20
-98.60138886423854
 10
55.11033120367033
 20
-98.80017087373746
 10
55.236766207979
 20
-98.82979869491061
 10
55.32978378608075
 20
-98.82979869491061
 10
55.46896564368485
 20
-98.82979869491061
 10
55.62089435458437
 20
-98.73023543538689
 10
55.62089435458437
 20
-98.49769149013252
 10
55.62089435458437
 20
-98.24172089557847
 10
55.44157713457711
 20
-98.1717854572279
 10
55.32117104736763
 20
-98.1717854572279
 10
55.28964842367759
 20
-98.1717854572279
 10
55.14822725400808
 20
-98.1717854572279
 10
55.05968830003717
 20
-98.30097653792475
 10
55.05968830003717
 20
-98.30097653792475
 10
54.88450519461221
 20
-98.28202851275589
 10
54.88450519461221
 20
-98.28202851275589
 10
54.88450519461221
 20
-98.28202851275589
 10
55.00473902704743
 20
-97.43556855203
 10
55.00473902704743
 20
-97.43556855203
 10
55.00473902704743
 20
-97.43556855203
 10
55.78126354942274
 20
-97.43556855203
 10
55.78126354942274
 20
-97.43556855203
 10
55.78126354942274
 20
-97.43556855203
 10
55.78126354942274
 20
-97.63021644694662
 10
55.78126354942274
 20
-97.63021644694662
 10
55.78126354942274
 20
-97.63021644694662
 10
55.16717527917696
 20
-97.63021644694662
 10
55.16717527917696
 20
-97.63021644694662
 10
55.16717527917696
 20
-97.63021644694662
 10
55.10171846495721
 20
-98.0532741725353
 10
55.10171846495721
 20
-98.0532741725353
 10
55.16304116459466
 20
-98.01951223677985
 10
55.24537894669213
 20
-97.97920461960243
 10
55.3635457218362
 20
-97.97920461960243
 10
55.61676024000207
 20
-97.97920461960243
 10
55.8530937902902
 20
-98.16558428535444
 10
55.8530937902902
 20
-98.47874346496366
 10
55.8530937902902
 20
-98.79603675915516
 10
55.62933483852323
 20
-99.03064776170068
 10
55.32754447401534
 20
-99.03064776170068
 97
        0
 97
        0
 75
     2
 76
     1
 98
        0
  0
ENDBLK
  5
90
330
8D
100
AcDbEntity
  8
0
100
AcDbBlockEnd
  0
BLOCK
  5
A3
330
A1
100
AcDbEntity
  8
0
100
AcDbBlockBegin
  2
block 3
 70
     0
 10
0.0
 20
0.0
 30
0.0
  3
block 3
  1

  0
SPLINE
  5
A5
330
A1
100
AcDbEntity
  8
_U+30EC_U+30A4_U+30E4_U+30FC 1
370
     0
100
AcDbSpline
210
0.0
220
0.0
230
1.0
 70
    11
 71
     3
 72
    62
 73
    58
 74
     0
 42
0.0000000001
 43
0.0000000001
 12
1.0
 22
0.0
 32
0.0
 13
1.0
 23
0.0
 33
0.0
 40
0.0
 40
0.0
 40
0.0
 40
0.0
 40
1.0
 40
1.0
 40
1.0
 40
2.0
 40
2.0
 40
2.0
 40
3.0
 40
3.0
 40
3.0
 40
4.0
 40
4.0
 40
4.0
 40
5.0
 40
5.0
 40
5.0
 40
6.0
 40
6.0
 40
6.0
 40
7.0
 40
7.0
 40
7.0
 40
8.0
 40
8.0
 40
8.0
 40
9.0
 40
9.0
 40
9.0
 40
10.0
 40
10.0
 40
10.0
 40
11.0
 40
11.0
 40
11.0
 40
12.0
 40
12.0
 40
12.0
 40
13.0
 40
13.0
 40
13.0
 40
14.0
 40
14.0
 40
14.0
 40
15.0
 40
15.0
 40
15.0
 40
16.0
 40
16.0
 40
16.0
 40
17.0
 40
17.0
 40
17.0
 40
18.0
 40
18.0
 40
18.0
 40
19.0
 40
19.0
 40
19.0
 40
19.0
 10
76.93036022382297
 20
-93.98599444264934
 30
0.0
 10
76.93036022382297
 20
-94.08073456849371
 30
0.0
 10
76.90934514136295
 20
-94.29812009361298
 30
0.0
 10
76.72330998515946
 20
-94.42283255017902
 30
0.0
 10
76.61099987234032
 20
-94.49655759356337
 30
0.0
 10
76.51178112236511
 20
-94.50069170814567
 30
0.0
 10
76.42703177342797
 20
-94.50517033227649
 30
0.0
 10
76.42703177342797
 20
-94.50517033227649
 30
0.0
 10
76.42703177342797
 20
-94.28537324031755
 30
0.0
 10
76.42703177342797
 20
-94.28537324031755
 30
0.0
 10
76.50110132636084
 20
-94.2833061830264
 30
0.0
 10
76.73571232890636
 20
-94.27297089657065
 30
0.0
 10
76.73571232890636
 20
-93.99012855723164
 30
0.0
 10
76.73571232890636
 20
-93.8530137569187
 30
0.0
 10
76.6661214001043
 20
-93.70108504601917
 30
0.0
 10
76.43771156943224
 20
-93.70108504601917
 30
0.0
 10
76.3212673420308
 20
-93.70108504601917
 30
0.0
 10
76.27269149568878
 20
-93.73898109635692
 30
0.0
 10
76.24099661722448
 20
-93.77067597482123
 30
0.0
 10
76.1669270642916
 20
-93.84440101820557
 30
0.0
 10
76.15418021099617
 20
-93.96050073605849
 30
0.0
 10
76.15418021099617
 20
-94.01527775427397
 30
0.0
 10
76.15418021099617
 20
-94.03457028899136
 30
0.0
 10
76.15624726828733
 20
-94.07039928203795
 30
0.0
 10
76.16038138286963
 20
-94.09761553637144
 30
0.0
 10
76.16038138286963
 20
-94.09761553637144
 30
0.0
 10
75.96573348795302
 20
-94.09761553637144
 30
0.0
 10
75.96573348795302
 20
-94.09761553637144
 30
0.0
 10
75.97227916937499
 20
-94.05971948603369
 30
0.0
 10
75.97434622666614
 20
-94.01768932111364
 30
0.0
 10
75.97434622666614
 20
-94.01114363969167
 30
0.0
 10
75.97434622666614
 20
-93.94568682547191
 30
0.0
 10
75.95298663465759
 20
-93.74759383507005
 30
0.0
 10
75.71630857482093
 20
-93.74759383507005
 30
0.0
 10
75.53854164778204
 20
-93.74759383507005
 30
0.0
 10
75.48342012001804
 20
-93.87816295396102
 30
0.0
 10
75.48342012001804
 20
-93.98806149994049
 30
0.0
 10
75.48342012001804
 20
-94.2516113045621
 30
0.0
 10
75.71630857482093
 20
-94.26022404327523
 30
0.0
 10
75.78796656091413
 20
-94.26435815785753
 30
0.0
 10
75.78796656091413
 20
-94.26435815785753
 30
0.0
 10
75.78796656091413
 20
-94.46692977239022
 30
0.0
 10
75.78796656091413
 20
-94.46692977239022
 30
0.0
 10
75.66325410434808
 20
-94.45866154322562
 30
0.0
 10
75.28670516781027
 20
-94.43110077934362
 30
0.0
 10
75.28670516781027
 20
-93.97531464664506
 30
0.0
 10
75.28670516781027
 20
-93.75172794965235
 30
0.0
 10
75.413829191216
 20
-93.51126028478191
 30
0.0
 10
75.70976289339895
 20
-93.51126028478191
 30
0.0
 10
75.89614255915097
 20
-93.51126028478191
 30
0.0
 10
75.97848034124844
 20
-93.60600041062628
 30
0.0
 10
76.03980304088589
 20
-93.70521916060147
 30
0.0
 10
76.06736380476788
 20
-93.64389646096403
 30
0.0
 10
76.1476345295742
 20
-93.4626844384399
 30
0.0
 10
76.42496471613681
 20
-93.4626844384399
 30
0.0
 10
76.76327309278835
 20
-93.4626844384399
 30
0.0
 10
76.93036022382297
 20
-93.70935327518377
 30
0.0
 10
76.93036022382297
 20
-93.98599444264934
 30
0.0
  0
HATCH
  5
A6
330
A1
100
AcDbEntity
  8
_U+30EC_U+30A4_U+30E4_U+30FC 1
 62
     7
420
 16777215
100
AcDbHatch
 10
0.0
 20
0.0
 30
0.0
210
0.0
220
0.0
230
1.0
  2
SOLID
 70
     1
 71
     0
 91
        1
 92
        1
 93
        1
 72
     4
 94
        3
 73
     0
 74
     1
 95
       62
 96
       58
 40
0.0
 40
0.0
 40
0.0
 40
0.0
 40
1.0
 40
1.0
 40
1.0
 40
2.0
 40
2.0
 40
2.0
 40
3.0
 40
3.0
 40
3.0
 40
4.0
 40
4.0
 40
4.0
 40
5.0
 40
5.0
 40
5.0
 40
6.0
 40
6.0
 40
6.0
 40
7.0
 40
7.0
 40
7.0
 40
8.0
 40
8.0
 40
8.0
 40
9.0
 40
9.0
 40
9.0
 40
10.0
 40
10.0
 40
10.0
 40
11.0
 40
11.0
 40
11.0
 40
12.0
 40
12.0
 40
12.0
 40
13.0
 40
13.0
 40
13.0
 40
14.0
 40
14.0
 40
14.0
 40
15.0
 40
15.0
 40
15.0
 40
16.0
 40
16.0
 40
16.0
 40
17.0
 40
17.0
 40
17.0
 40
18.0
 40
18.0
 40
18.0
 40
19.0
 40
19.0
 40
19.0
 40
19.0
 10
76.93036022382297
 20
-93.98599444264934
 10
76.93036022382297
 20
-94.08073456849371
 10
76.90934514136295
 20
-94.29812009361298
 10
76.72330998515946
 20
-94.42283255017902
 10
76.61099987234032
 20
-94.49655759356337
 10
76.51178112236511
 20
-94.50069170814567
 10
76.42703177342797
 20
-94.50517033227649
 10
76.42703177342797
 20
-94.50517033227649
 10
76.42703177342797
 20
-94.28537324031755
 10
76.42703177342797
 20
-94.28537324031755
 10
76.50110132636084
 20
-94.2833061830264
 10
76.73571232890636
 20
-94.27297089657065
 10
76.73571232890636
 20
-93.99012855723164
 10
76.73571232890636
 20
-93.8530137569187
 10
76.6661214001043
 20
-93.70108504601917
 10
76.43771156943224
 20
-93.70108504601917
 10
76.3212673420308
 20
-93.70108504601917
 10
76.27269149568878
 20
-93.73898109635692
 10
76.24099661722448
 20
-93.77067597482123
 10
76.1669270642916
 20
-93.84440101820557
 10
76.15418021099617
 20
-93.96050073605849
 10
76.15418021099617
 20
-94.01527775427397
 10
76.15418021099617
 20
-94.03457028899136
 10
76.15624726828733
 20
-94.07039928203795
 10
76.16038138286963
 20
-94.09761553637144
 10
76.16038138286963
 20
-94.09761553637144
 10
75.96573348795302
 20
-94.09761553637144
 10
75.96573348795302
 20
-94.09761553637144
 10
75.97227916937499
 20
-94.05971948603369
 10
75.97434622666614
 20
-94.01768932111364
 10
75.97434622666614
 20
-94.01114363969167
 10
75.97434622666614
 20
-93.94568682547191
 10
75.95298663465759
 20
-93.74759383507005
 10
75.71630857482093
 20
-93.74759383507005
 10
75.53854164778204
 20
-93.74759383507005
 10
75.48342012001804
 20
-93.87816295396102
 10
75.48342012001804
 20
-93.98806149994049
 10
75.48342012001804
 20
-94.2516113045621
 10
75.71630857482093
 20
-94.26022404327523
 10
75.78796656091413
 20
-94.26435815785753
 10
75.78796656091413
 20
-94.26435815785753
 10
75.78796656091413
 20
-94.46692977239022
 10
75.78796656091413
 20
-94.46692977239022
 10
75.66325410434808
 20
-94.45866154322562
 10
75.28670516781027
 20
-94.43110077934362
 10
75.28670516781027
 20
-93.97531464664506
 10
75.28670516781027
 20
-93.75172794965235
 10
75.413829191216
 20
-93.51126028478191
 10
75.70976289339895
 20
-93.51126028478191
 10
75.89614255915097
 20
-93.51126028478191
 10
75.97848034124844
 20
-93.60600041062628
 10
76.03980304088589
 20
-93.70521916060147
 10
76.06736380476788
 20
-93.64389646096403
 10
76.1476345295742
 20
-93.4626844384399
 10
76.42496471613681
 20
-93.4626844384399
 10
76.76327309278835
 20
-93.4626844384399
 10
76.93036022382297
 20
-93.70935327518377
 10
76.93036022382297
 20
-93.98599444264934
 97
        0
 97
        0
 75
     2
 76
     1
 98
        0
  0
ENDBLK
  5
A4
330
A1
100
AcDbEntity
  8
0
100
AcDbBlockEnd
  0
BLOCK
  5
B1
330
AF
100
AcDbEntity
  8
0
100
AcDbBlockBegin
  2
block 4
 70
     0
 10
0.0
 20
0.0
 30
0.0
  3
block 4
  1

  0
SPLINE
  5
B3
330
AF
100
AcDbEntity
  8
_U+30EC_U+30A4_U+30E4_U+30FC 1
370
     0
100
AcDbSpline
210
0.0
220
0.0
230
1.0
 70
    11
 71
     3
 72
    26
 73
    22
 74
     0
 42
0.0000000001
 43
0.0000000001
 12
1.0
 22
0.0
 32
0.0
 13
1.0
 23
0.0
 33
0.0
 40
0.0
 40
0.0
 40
0.0
 40
0.0
 40
1.0
 40
1.0
 40
1.0
 40
2.0
 40
2.0
 40
2.0
 40
3.0
 40
3.0
 40
3.0
 40
4.0
 40
4.0
 40
4.0
 40
5.0
 40
5.0
 40
5.0
 40
6.0
 40
6.0
 40
6.0
 40
7.0
 40
7.0
 40
7.0
 40
7.0
 10
77.50810273669937
 20
-83.20870223614227
 30
0.0
 10
77.50810273669937
 20
-83.20870223614227
 30
0.0
 10
76.40394963367679
 20
-83.20870223614227
 30
0.0
 10
76.40394963367679
 20
-83.20870223614227
 30
0.0
 10
76.40394963367679
 20
-83.20870223614227
 30
0.0
 10
76.40394963367679
 20
-83.53805336453216
 30
0.0
 10
76.40394963367679
 20
-83.53805336453216
 30
0.0
 10
76.40394963367679
 20
-83.53805336453216
 30
0.0
 10
76.25581052781105
 20
-83.53805336453216
 30
0.0
 10
76.25581052781105
 20
-83.53805336453216
 30
0.0
 10
76.24099661722448
 20
-83.20663517885113
 30
0.0
 10
76.07804360077216
 20
-83.16012638980025
 30
0.0
 10
75.96366643066186
 20
-83.13084307817563
 30
0.0
 10
75.96366643066186
 20
-83.13084307817563
 30
0.0
 10
75.96366643066186
 20
-82.98511553914956
 30
0.0
 10
75.96366643066186
 20
-82.98511553914956
 30
0.0
 10
75.96366643066186
 20
-82.98511553914956
 30
0.0
 10
77.50810273669937
 20
-82.98511553914956
 30
0.0
 10
77.50810273669937
 20
-82.98511553914956
 30
0.0
 10
77.50810273669937
 20
-82.98511553914956
 30
0.0
 10
77.50810273669937
 20
-83.20870223614227
 30
0.0
 10
77.50810273669937
 20
-83.20870223614227
 30
0.0
  0
HATCH
  5
B4
330
AF
100
AcDbEntity
  8
_U+30EC_U+30A4_U+30E4_U+30FC 1
 62
     7
420
 16777215
100
AcDbHatch
 10
0.0
 20
0.0
 30
0.0
210
0.0
220
0.0
230
1.0
  2
SOLID
 70
     1
 71
     0
 91
        1
 92
        1
 93
        1
 72
     4
 94
        3
 73
     0
 74
     1
 95
       26
 96
       22
 40
0.0
 40
0.0
 40
0.0
 40
0.0
 40
1.0
 40
1.0
 40
1.0
 40
2.0
 40
2.0
 40
2.0
 40
3.0
 40
3.0
 40
3.0
 40
4.0
 40
4.0
 40
4.0
 40
5.0
 40
5.0
 40
5.0
 40
6.0
 40
6.0
 40
6.0
 40
7.0
 40
7.0
 40
7.0
 40
7.0
 10
77.50810273669937
 20
-83.20870223614227
 10
77.50810273669937
 20
-83.20870223614227
 10
76.40394963367679
 20
-83.20870223614227
 10
76.40394963367679
 20
-83.20870223614227
 10
76.40394963367679
 20
-83.20870223614227
 10
76.40394963367679
 20
-83.53805336453216
 10
76.40394963367679
 20
-83.53805336453216
 10
76.40394963367679
 20
-83.53805336453216
 10
76.25581052781105
 20
-83.53805336453216
 10
76.25581052781105
 20
-83.53805336453216
 10
76.24099661722448
 20
-83.20663517885113
 10
76.07804360077216
 20
-83.16012638980025
 10
75.96366643066186
 20
-83.13084307817563
 10
75.96366643066186
 20
-83.13084307817563
 10
75.96366643066186
 20
-82.98511553914956
 10
75.96366643066186
 20
-82.98511553914956
 10
75.96366643066186
 20
-82.98511553914956
 10
77.50810273669937
 20
-82.98511553914956
 10
77.50810273669937
 20
-82.98511553914956
 10
77.50810273669937
 20
-82.98511553914956
 10
77.50810273669937
 20
-83.20870223614227
 10
77.50810273669937
 20
-83.20870223614227
 97
        0
 97
        0
 75
     2
 76
     1
 98
        0
  0
ENDBLK
  5
B2
330
AF
100
AcDbEntity
  8
0
100
AcDbBlockEnd
  0
BLOCK
  5
C3
330
C1
100
AcDbEntity
  8
0
100
AcDbBlockBegin
  2
block 5
 70
     0
 10
0.0
 20
0.0
 30
0.0
  3
block 5
  1

  0
SPLINE
  5
C5
330
C1
100
AcDbEntity
  8
_U+30EC_U+30A4_U+30E4_U+30FC 1
370
     0
100
AcDbSpline
210
0.0
220
0.0
230
1.0
 70
    11
 71
     3
 72
    44
 73
    40
 74
     0
 42
0.0000000001
 43
0.0000000001
 12
1.0
 22
0.0
 32
0.0
 13
1.0
 23
0.0
 33
0.0
 40
0.0
 40
0.0
 40
0.0
 40
0.0
 40
1.0
 40
1.0
 40
1.0
 40
2.0
 40
2.0
 40
2.0
 40
3.0
 40
3.0
 40
3.0
 40
4.0
 40
4.0
 40
4.0
 40
5.0
 40
5.0
 40
5.0
 40
6.0
 40
6.0
 40
6.0
 40
7.0
 40
7.0
 40
7.0
 40
8.0
 40
8.0
 40
8.0
 40
9.0
 40
9.0
 40
9.0
 40
10.0
 40
10.0
 40
10.0
 40
11.0
 40
11.0
 40
11.0
 40
12.0
 40
12.0
 40
12.0
 40
13.0
 40
13.0
 40
13.0
 40
13.0
 10
61.26706134536032
 20
-79.69832219144695
 30
0.0
 10
61.04967582024106
 20
-79.85696883854271
 30
0.0
 10
60.95683049691358
 20
-79.93103839147558
 30
0.0
 10
60.90825465057155
 20
-80.07487112798476
 30
0.0
 10
60.90825465057155
 20
-80.07487112798476
 30
0.0
 10
61.6846069181726
 20
-80.07487112798476
 30
0.0
 10
61.6846069181726
 20
-80.07487112798476
 30
0.0
 10
61.6846069181726
 20
-80.07487112798476
 30
0.0
 10
61.6846069181726
 20
-80.28002656413139
 30
0.0
 10
61.6846069181726
 20
-80.28002656413139
 30
0.0
 10
61.6846069181726
 20
-80.28002656413139
 30
0.0
 10
60.65934650176225
 20
-80.28002656413139
 30
0.0
 10
60.65934650176225
 20
-80.28002656413139
 30
0.0
 10
60.69086912545229
 20
-79.92242565276246
 30
0.0
 10
60.75632593967203
 20
-79.84422198524729
 30
0.0
 10
61.14028183150312
 20
-79.54587671622464
 30
0.0
 10
61.39556340696014
 20
-79.34709470672573
 30
0.0
 10
61.46102022117989
 20
-79.27939858044057
 30
0.0
 10
61.46102022117989
 20
-79.1419392705791
 30
0.0
 10
61.46102022117989
 20
-79.02342798588651
 30
0.0
 10
61.38936223508669
 20
-78.89234210267276
 30
0.0
 10
61.19316404720171
 20
-78.89234210267276
 30
0.0
 10
60.93357610238814
 20
-78.89234210267276
 30
0.0
 10
60.92513561844927
 20
-79.12281899063596
 30
0.0
 10
60.92082924909271
 20
-79.23926321803741
 30
0.0
 10
60.92082924909271
 20
-79.23926321803741
 30
0.0
 10
60.6972425521
 20
-79.23926321803741
 30
0.0
 10
60.6972425521
 20
-79.23926321803741
 30
0.0
 10
60.70568303603886
 20
-79.11231144940595
 30
0.0
 10
60.71619057726887
 20
-79.00017359136108
 30
0.0
 10
60.79646130207519
 20
-78.88166230666847
 30
0.0
 10
60.9061875932804
 20
-78.72094860228157
 30
0.0
 10
61.09187823993537
 20
-78.68701441175186
 30
0.0
 10
61.20780570301402
 20
-78.68701441175186
 30
0.0
 10
61.48444687047959
 20
-78.68701441175186
 30
0.0
 10
61.69115259959457
 20
-78.87115476543846
 30
0.0
 10
61.69115259959457
 20
-79.14400632787026
 30
0.0
 10
61.69115259959457
 20
-79.37241615854232
 30
0.0
 10
61.57505288174166
 20
-79.47197941806604
 30
0.0
 10
61.26706134536032
 20
-79.69832219144695
 30
0.0
  0
HATCH
  5
C6
330
C1
100
AcDbEntity
  8
_U+30EC_U+30A4_U+30E4_U+30FC 1
 62
     7
420
 16777215
100
AcDbHatch
 10
0.0
 20
0.0
 30
0.0
210
0.0
220
0.0
230
1.0
  2
SOLID
 70
     1
 71
     0
 91
        1
 92
        1
 93
        1
 72
     4
 94
        3
 73
     0
 74
     1
 95
       44
 96
       40
 40
0.0
 40
0.0
 40
0.0
 40
0.0
 40
1.0
 40
1.0
 40
1.0
 40
2.0
 40
2.0
 40
2.0
 40
3.0
 40
3.0
 40
3.0
 40
4.0
 40
4.0
 40
4.0
 40
5.0
 40
5.0
 40
5.0
 40
6.0
 40
6.0
 40
6.0
 40
7.0
 40
7.0
 40
7.0
 40
8.0
 40
8.0
 40
8.0
 40
9.0
 40
9.0
 40
9.0
 40
10.0
 40
10.0
 40
10.0
 40
11.0
 40
11.0
 40
11.0
 40
12.0
 40
12.0
 40
12.0
 40
13.0
 40
13.0
 40
13.0
 40
13.0
 10
61.26706134536032
 20
-79.69832219144695
 10
61.04967582024106
 20
-79.85696883854271
 10
60.95683049691358
 20
-79.93103839147558
 10
60.90825465057155
 20
-80.07487112798476
 10
60.90825465057155
 20
-80.07487112798476
 10
61.6846069181726
 20
-80.07487112798476
 10
61.6846069181726
 20
-80.07487112798476
 10
61.6846069181726
 20
-80.07487112798476
 10
61.6846069181726
 20
-80.28002656413139
 10
61.6846069181726
 20
-80.28002656413139
 10
61.6846069181726
 20
-80.28002656413139
 10
60.65934650176225
 20
-80.28002656413139
 10
60.65934650176225
 20
-80.28002656413139
 10
60.69086912545229
 20
-79.92242565276246
 10
60.75632593967203
 20
-79.84422198524729
 10
61.14028183150312
 20
-79.54587671622464
 10
61.39556340696014
 20
-79.34709470672573
 10
61.46102022117989
 20
-79.27939858044057
 10
61.46102022117989
 20
-79.1419392705791
 10
61.46102022117989
 20
-79.02342798588651
 10
61.38936223508669
 20
-78.89234210267276
 10
61.19316404720171
 20
-78.89234210267276
 10
60.93357610238814
 20
-78.89234210267276
 10
60.92513561844927
 20
-79.12281899063596
 10
60.92082924909271
 20
-79.23926321803741
 10
60.92082924909271
 20
-79.23926321803741
 10
60.6972425521
 20
-79.23926321803741
 10
60.6972425521
 20
-79.23926321803741
 10
60.70568303603886
 20
-79.11231144940595
 10
60.71619057726887
 20
-79.00017359136108
 10
60.79646130207519
 20
-78.88166230666847
 10
60.9061875932804
 20
-78.72094860228157
 10
61.09187823993537
 20
-78.68701441175186
 10
61.20780570301402
 20
-78.68701441175186
 10
61.48444687047959
 20
-78.68701441175186
 10
61.69115259959457
 20
-78.87115476543846
 10
61.69115259959457
 20
-79.14400632787026
 10
61.69115259959457
 20
-79.37241615854232
 10
61.57505288174166
 20
-79.47197941806604
 10
61.26706134536032
 20
-79.69832219144695
 97
        0
 97
        0
 75
     2
 76
     1
 98
        0
  0
SPLINE
  5
C7
330
C1
100
AcDbEntity
  8
_U+30EC_U+30A4_U+30E4_U+30FC 1
370
     0
100
AcDbSpline
210
0.0
220
0.0
230
1.0
 70
    11
 71
     3
 72
    53
 73
    49
 74
     0
 42
0.0000000001
 43
0.0000000001
 12
1.0
 22
0.0
 32
0.0
 13
1.0
 23
0.0
 33
0.0
 40
0.0
 40
0.0
 40
0.0
 40
0.0
 40
1.0
 40
1.0
 40
1.0
 40
2.0
 40
2.0
 40
2.0
 40
3.0
 40
3.0
 40
3.0
 40
4.0
 40
4.0
 40
4.0
 40
5.0
 40
5.0
 40
5.0
 40
6.0
 40
6.0
 40
6.0
 40
7.0
 40
7.0
 40
7.0
 40
8.0
 40
8.0
 40
8.0
 40
9.0
 40
9.0
 40
9.0
 40
10.0
 40
10.0
 40
10.0
 40
11.0
 40
11.0
 40
11.0
 40
12.0
 40
12.0
 40
12.0
 40
13.0
 40
13.0
 40
13.0
 40
14.0
 40
14.0
 40
14.0
 40
15.0
 40
15.0
 40
15.0
 40
16.0
 40
16.0
 40
16.0
 40
16.0
 10
62.32746173572022
 20
-80.33084172253882
 30
0.0
 10
62.24925806820505
 20
-80.33084172253882
 30
0.0
 10
62.1479722609387
 20
-80.31378849988684
 30
0.0
 10
62.04668645367236
 20
-80.25039874295824
 30
0.0
 10
61.87374266031281
 20
-80.14032794220451
 30
0.0
 10
61.8527275778528
 20
-80.00924205899075
 30
0.0
 10
61.8334350431354
 20
-79.90141057030243
 30
0.0
 10
61.8334350431354
 20
-79.90141057030243
 30
0.0
 10
62.05529919238548
 20
-79.90141057030243
 30
0.0
 10
62.05529919238548
 20
-79.90141057030243
 30
0.0
 10
62.11007621060096
 20
-80.10019257980134
 30
0.0
 10
62.23651121490963
 20
-80.1298204009745
 30
0.0
 10
62.32952879301137
 20
-80.1298204009745
 30
0.0
 10
62.46871065061546
 20
-80.1298204009745
 30
0.0
 10
62.62063936151498
 20
-80.03042939622503
 30
0.0
 10
62.62063936151498
 20
-79.79771319619641
 30
0.0
 10
62.62063936151498
 20
-79.54174260164234
 30
0.0
 10
62.44114988673346
 20
-79.47197941806604
 30
0.0
 10
62.32091605429824
 20
-79.47197941806604
 30
0.0
 10
62.28922117583394
 20
-79.47197941806604
 30
0.0
 10
62.1479722609387
 20
-79.47197941806604
 30
0.0
 10
62.05943330696778
 20
-79.60099824398864
 30
0.0
 10
62.05943330696778
 20
-79.60099824398864
 30
0.0
 10
61.88407794676856
 20
-79.5818779640455
 30
0.0
 10
61.88407794676856
 20
-79.5818779640455
 30
0.0
 10
61.88407794676856
 20
-79.5818779640455
 30
0.0
 10
62.00431177920379
 20
-78.73576251286815
 30
0.0
 10
62.00431177920379
 20
-78.73576251286815
 30
0.0
 10
62.00431177920379
 20
-78.73576251286815
 30
0.0
 10
62.7808363015791
 20
-78.73576251286815
 30
0.0
 10
62.7808363015791
 20
-78.73576251286815
 30
0.0
 10
62.7808363015791
 20
-78.73576251286815
 30
0.0
 10
62.7808363015791
 20
-78.93041040778476
 30
0.0
 10
62.7808363015791
 20
-78.93041040778476
 30
0.0
 10
62.7808363015791
 20
-78.93041040778476
 30
0.0
 10
62.16692028610758
 20
-78.93041040778476
 30
0.0
 10
62.16692028610758
 20
-78.93041040778476
 30
0.0
 10
62.16692028610758
 20
-78.93041040778476
 30
0.0
 10
62.10146347188783
 20
-79.35346813337344
 30
0.0
 10
62.10146347188783
 20
-79.35346813337344
 30
0.0
 10
62.16278617152528
 20
-79.31953394284373
 30
0.0
 10
62.24512395362275
 20
-79.27939858044057
 30
0.0
 10
62.36329072876682
 20
-79.27939858044057
 30
0.0
 10
62.61650524693268
 20
-79.27939858044057
 30
0.0
 10
62.85283879722082
 20
-79.46560599141833
 30
0.0
 10
62.85283879722082
 20
-79.77859291625327
 30
0.0
 10
62.85283879722082
 20
-80.09605846521904
 30
0.0
 10
62.62925210022811
 20
-80.33084172253882
 30
0.0
 10
62.32746173572022
 20
-80.33084172253882
 30
0.0
  0
HATCH
  5
C8
330
C1
100
AcDbEntity
  8
_U+30EC_U+30A4_U+30E4_U+30FC 1
 62
     7
420
 16777215
100
AcDbHatch
 10
0.0
 20
0.0
 30
0.0
210
0.0
220
0.0
230
1.0
  2
SOLID
 70
     1
 71
     0
 91
        1
 92
        1
 93
        1
 72
     4
 94
        3
 73
     0
 74
     1
 95
       53
 96
       49
 40
0.0
 40
0.0
 40
0.0
 40
0.0
 40
1.0
 40
1.0
 40
1.0
 40
2.0
 40
2.0
 40
2.0
 40
3.0
 40
3.0
 40
3.0
 40
4.0
 40
4.0
 40
4.0
 40
5.0
 40
5.0
 40
5.0
 40
6.0
 40
6.0
 40
6.0
 40
7.0
 40
7.0
 40
7.0
 40
8.0
 40
8.0
 40
8.0
 40
9.0
 40
9.0
 40
9.0
 40
10.0
 40
10.0
 40
10.0
 40
11.0
 40
11.0
 40
11.0
 40
12.0
 40
12.0
 40
12.0
 40
13.0
 40
13.0
 40
13.0
 40
14.0
 40
14.0
 40
14.0
 40
15.0
 40
15.0
 40
15.0
 40
16.0
 40
16.0
 40
16.0
 40
16.0
 10
62.32746173572022
 20
-80.33084172253882
 10
62.24925806820505
 20
-80.33084172253882
 10
62.1479722609387
 20
-80.31378849988684
 10
62.04668645367236
 20
-80.25039874295824
 10
61.87374266031281
 20
-80.14032794220451
 10
61.8527275778528
 20
-80.00924205899075
 10
61.8334350431354
 20
-79.90141057030243
 10
61.8334350431354
 20
-79.90141057030243
 10
62.05529919238548
 20
-79.90141057030243
 10
62.05529919238548
 20
-79.90141057030243
 10
62.11007621060096
 20
-80.10019257980134
 10
62.23651121490963
 20
-80.1298204009745
 10
62.32952879301137
 20
-80.1298204009745
 10
62.46871065061546
 20
-80.1298204009745
 10
62.62063936151498
 20
-80.03042939622503
 10
62.62063936151498
 20
-79.79771319619641
 10
62.62063936151498
 20
-79.54174260164234
 10
62.44114988673346
 20
-79.47197941806604
 10
62.32091605429824
 20
-79.47197941806604
 10
62.28922117583394
 20
-79.47197941806604
 10
62.1479722609387
 20
-79.47197941806604
 10
62.05943330696778
 20
-79.60099824398864
 10
62.05943330696778
 20
-79.60099824398864
 10
61.88407794676856
 20
-79.5818779640455
 10
61.88407794676856
 20
-79.5818779640455
 10
61.88407794676856
 20
-79.5818779640455
 10
62.00431177920379
 20
-78.73576251286815
 10
62.00431177920379
 20
-78.73576251286815
 10
62.00431177920379
 20
-78.73576251286815
 10
62.7808363015791
 20
-78.73576251286815
 10
62.7808363015791
 20
-78.73576251286815
 10
62.7808363015791
 20
-78.73576251286815
 10
62.7808363015791
 20
-78.93041040778476
 10
62.7808363015791
 20
-78.93041040778476
 10
62.7808363015791
 20
-78.93041040778476
 10
62.16692028610758
 20
-78.93041040778476
 10
62.16692028610758
 20
-78.93041040778476
 10
62.16692028610758
 20
-78.93041040778476
 10
62.10146347188783
 20
-79.35346813337344
 10
62.10146347188783
 20
-79.35346813337344
 10
62.16278617152528
 20
-79.31953394284373
 10
62.24512395362275
 20
-79.27939858044057
 10
62.36329072876682
 20
-79.27939858044057
 10
62.61650524693268
 20
-79.27939858044057
 10
62.85283879722082
 20
-79.46560599141833
 10
62.85283879722082
 20
-79.77859291625327
 10
62.85283879722082
 20
-80.09605846521904
 10
62.62925210022811
 20
-80.33084172253882
 10
62.32746173572022
 20
-80.33084172253882
 97
        0
 97
        0
 75
     2
 76
     1
 98
        0
  0
ENDBLK
  5
C4
330
C1
100
AcDbEntity
  8
0
100
AcDbBlockEnd
  0
BLOCK
  5
D3
330
D1
100
AcDbEntity
  8
0
100
AcDbBlockBegin
  2
block 6
 70
     0
 10
0.0
 20
0.0
 30
0.0
  3
block 6
  1

  0
SPLINE
  5
D5
330
D1
100
AcDbEntity
  8
_U+30EC_U+30A4_U+30E4_U+30FC 1
370
     0
100
AcDbSpline
210
0.0
220
0.0
230
1.0
 70
    11
 71
     3
 72
    32
 73
    28
 74
     0
 42
0.0000000001
 43
0.0000000001
 12
1.0
 22
0.0
 32
0.0
 13
1.0
 23
0.0
 33
0.0
 40
0.0
 40
0.0
 40
0.0
 40
0.0
 40
1.0
 40
1.0
 40
1.0
 40
2.0
 40
2.0
 40
2.0
 40
3.0
 40
3.0
 40
3.0
 40
4.0
 40
4.0
 40
4.0
 40
5.0
 40
5.0
 40
5.0
 40
6.0
 40
6.0
 40
6.0
 40
7.0
 40
7.0
 40
7.0
 40
8.0
 40
8.0
 40
8.0
 40
9.0
 40
9.0
 40
9.0
 40
9.0
 10
76.93036022382297
 20
-90.03136933513105
 30
0.0
 10
76.93036022382297
 20
-90.54606660062737
 30
0.0
 10
76.3763888697948
 20
-90.5546793393405
 30
0.0
 10
76.16244844016079
 20
-90.5546793393405
 30
0.0
 10
75.93197155219757
 20
-90.5546793393405
 30
0.0
 10
75.28463811051913
 20
-90.53573131417163
 30
0.0
 10
75.28463811051913
 20
-89.9934732847933
 30
0.0
 10
75.28463811051913
 20
-89.82052949143376
 30
0.0
 10
75.3545735488697
 20
-89.5755832024325
 30
0.0
 10
75.68668075364778
 20
-89.53768715209475
 30
0.0
 10
75.68668075364778
 20
-89.53768715209475
 30
0.0
 10
75.68668075364778
 20
-89.75059405308319
 30
0.0
 10
75.68668075364778
 20
-89.75059405308319
 30
0.0
 10
75.62949216859263
 20
-89.76127384908746
 30
0.0
 10
75.48135306272688
 20
-89.79296872755177
 30
0.0
 10
75.48135306272688
 20
-89.99554034208445
 30
0.0
 10
75.48135306272688
 20
-90.28665091058807
 30
0.0
 10
75.80932615292267
 20
-90.32695852776548
 30
0.0
 10
76.01430933429504
 20
-90.33936087151238
 30
0.0
 10
75.93610566677987
 20
-90.24668780295917
 30
0.0
 10
75.87685002443357
 20
-90.17916393144827
 30
0.0
 10
75.87685002443357
 20
-89.9976073993756
 30
0.0
 10
75.87685002443357
 20
-89.81811792459409
 30
0.0
 10
75.98502602267041
 20
-89.51667206963472
 30
0.0
 10
76.39120278038136
 20
-89.51667206963472
 30
0.0
 10
76.71056313186403
 20
-89.51667206963472
 30
0.0
 10
76.93036022382297
 20
-89.71476506003658
 30
0.0
 10
76.93036022382297
 20
-90.03136933513105
 30
0.0
  0
SPLINE
  5
D6
330
D1
100
AcDbEntity
  8
_U+30EC_U+30A4_U+30E4_U+30FC 1
370
     0
100
AcDbSpline
210
0.0
220
0.0
230
1.0
 70
    11
 71
     3
 72
    17
 73
    13
 74
     0
 42
0.0000000001
 43
0.0000000001
 12
1.0
 22
0.0
 32
0.0
 13
1.0
 23
0.0
 33
0.0
 40
0.0
 40
0.0
 40
0.0
 40
0.0
 40
1.0
 40
1.0
 40
1.0
 40
2.0
 40
2.0
 40
2.0
 40
3.0
 40
3.0
 40
3.0
 40
4.0
 40
4.0
 40
4.0
 40
4.0
 10
76.07149791935018
 20
-90.01448836725332
 30
0.0
 10
76.07149791935018
 20
-90.27597111458378
 30
0.0
 10
76.28302678214452
 20
-90.31421167447006
 30
0.0
 10
76.39947100954596
 20
-90.31421167447006
 30
0.0
 10
76.57517087929371
 20
-90.31421167447006
 30
0.0
 10
76.73812389574603
 20
-90.21912703907716
 30
0.0
 10
76.73812389574603
 20
-90.03550344971335
 30
0.0
 10
76.73812389574603
 20
-89.91526961727813
 30
0.0
 10
76.67886825339973
 20
-89.74025876662743
 30
0.0
 10
76.39326983767252
 20
-89.74025876662743
 30
0.0
 10
76.16899412158276
 20
-89.74025876662743
 30
0.0
 10
76.07149791935018
 20
-89.87944062423153
 30
0.0
 10
76.07149791935018
 20
-90.01448836725332
 30
0.0
  0
HATCH
  5
D7
330
D1
100
AcDbEntity
  8
_U+30EC_U+30A4_U+30E4_U+30FC 1
 62
     7
420
 16777215
100
AcDbHatch
 10
0.0
 20
0.0
 30
0.0
210
0.0
220
0.0
230
1.0
  2
SOLID
 70
     1
 71
     0
 91
        2
 92
        1
 93
        1
 72
     4
 94
        3
 73
     0
 74
     1
 95
       32
 96
       28
 40
0.0
 40
0.0
 40
0.0
 40
0.0
 40
1.0
 40
1.0
 40
1.0
 40
2.0
 40
2.0
 40
2.0
 40
3.0
 40
3.0
 40
3.0
 40
4.0
 40
4.0
 40
4.0
 40
5.0
 40
5.0
 40
5.0
 40
6.0
 40
6.0
 40
6.0
 40
7.0
 40
7.0
 40
7.0
 40
8.0
 40
8.0
 40
8.0
 40
9.0
 40
9.0
 40
9.0
 40
9.0
 10
76.93036022382297
 20
-90.03136933513105
 10
76.93036022382297
 20
-90.54606660062737
 10
76.3763888697948
 20
-90.5546793393405
 10
76.16244844016079
 20
-90.5546793393405
 10
75.93197155219757
 20
-90.5546793393405
 10
75.28463811051913
 20
-90.53573131417163
 10
75.28463811051913
 20
-89.9934732847933
 10
75.28463811051913
 20
-89.82052949143376
 10
75.3545735488697
 20
-89.5755832024325
 10
75.68668075364778
 20
-89.53768715209475
 10
75.68668075364778
 20
-89.53768715209475
 10
75.68668075364778
 20
-89.75059405308319
 10
75.68668075364778
 20
-89.75059405308319
 10
75.62949216859263
 20
-89.76127384908746
 10
75.48135306272688
 20
-89.79296872755177
 10
75.48135306272688
 20
-89.99554034208445
 10
75.48135306272688
 20
-90.28665091058807
 10
75.80932615292267
 20
-90.32695852776548
 10
76.01430933429504
 20
-90.33936087151238
 10
75.93610566677987
 20
-90.24668780295917
 10
75.87685002443357
 20
-90.17916393144827
 10
75.87685002443357
 20
-89.9976073993756
 10
75.87685002443357
 20
-89.81811792459409
 10
75.98502602267041
 20
-89.51667206963472
 10
76.39120278038136
 20
-89.51667206963472
 10
76.71056313186403
 20
-89.51667206963472
 10
76.93036022382297
 20
-89.71476506003658
 10
76.93036022382297
 20
-90.03136933513105
 97
        0
 97
        0
 92
        1
 93
        1
 72
     4
 94
        3
 73
     0
 74
     1
 95
       17
 96
       13
 40
0.0
 40
0.0
 40
0.0
 40
0.0
 40
1.0
 40
1.0
 40
1.0
 40
2.0
 40
2.0
 40
2.0
 40
3.0
 40
3.0
 40
3.0
 40
4.0
 40
4.0
 40
4.0
 40
4.0
 10
76.07149791935018
 20
-90.01448836725332
 10
76.07149791935018
 20
-90.27597111458378
 10
76.28302678214452
 20
-90.31421167447006
 10
76.39947100954596
 20
-90.31421167447006
 10
76.57517087929371
 20
-90.31421167447006
 10
76.73812389574603
 20
-90.21912703907716
 10
76.73812389574603
 20
-90.03550344971335
 10
76.73812389574603
 20
-89.91526961727813
 10
76.67886825339973
 20
-89.74025876662743
 10
76.39326983767252
 20
-89.74025876662743
 10
76.16899412158276
 20
-89.74025876662743
 10
76.07149791935018
 20
-89.87944062423153
 10
76.07149791935018
 20
-90.01448836725332
 97
        0
 97
        0
 75
     2
 76
     1
 98
        0
  0
POLYLINE
  5
D8
330
D1
100
AcDbEntity
  8
_U+30EC_U+30A4_U+30E4_U+30FC 1
370
     0
100
AcDb2dPolyline
 66
     1
 10
0.0
 20
0.0
 30
0.0
  0
VERTEX
  5
D9
330
D8
100
AcDbEntity
  8
_U+30EC_U+30A4_U+30E4_U+30FC 1
370
     0
100
AcDbVertex
100
AcDb2dVertex
 10
76.8797173201898
 20
-89.30204262090366
 30
0.0
  0
VERTEX
  5
DA
330
D8
100
AcDbEntity
  8
_U+30EC_U+30A4_U+30E4_U+30FC 1
370
     0
100
AcDbVertex
100
AcDb2dVertex
 10
76.62788084021804
 20
-89.30204262090366
 30
0.0
  0
VERTEX
  5
DB
330
D8
100
AcDbEntity
  8
_U+30EC_U+30A4_U+30E4_U+30FC 1
370
     0
100
AcDbVertex
100
AcDb2dVertex
 10
76.62788084021804
 20
-89.05089516002894
 30
0.0
  0
VERTEX
  5
DC
330
D8
100
AcDbEntity
  8
_U+30EC_U+30A4_U+30E4_U+30FC 1
370
     0
100
AcDbVertex
100
AcDb2dVertex
 10
76.8797173201898
 20
-89.05089516002894
 30
0.0
  0
VERTEX
  5
DD
330
D8
100
AcDbEntity
  8
_U+30EC_U+30A4_U+30E4_U+30FC 1
370
     0
100
AcDbVertex
100
AcDb2dVertex
 10
76.8797173201898
 20
-89.30204262090366
 30
0.0
  0
SEQEND
  5
DE
330
D8
100
AcDbEntity
  8
_U+30EC_U+30A4_U+30E4_U+30FC 1
370
     0
  0
HATCH
  5
DF
330
D1
100
AcDbEntity
  8
_U+30EC_U+30A4_U+30E4_U+30FC 1
 62
     7
420
 16777215
100
AcDbHatch
 10
0.0
 20
0.0
 30
0.0
210
0.0
220
0.0
230
1.0
  2
SOLID
 70
     1
 71
     0
 91
        1
 92
        1
 93
        4
 72
     1
 10
76.8797173201898
 20
-89.30204262090366
 11
76.62788084021804
 21
-89.30204262090366
 72
     1
 10
76.62788084021804
 20
-89.30204262090366
 11
76.62788084021804
 21
-89.05089516002894
 72
     1
 10
76.62788084021804
 20
-89.05089516002894
 11
76.8797173201898
 21
-89.05089516002894
 72
     1
 10
76.8797173201898
 20
-89.05089516002894
 11
76.8797173201898
 21
-89.30204262090366
 97
        0
 75
     2
 76
     1
 98
        0
  0
SPLINE
  5
E0
330
D1
100
AcDbEntity
  8
_U+30EC_U+30A4_U+30E4_U+30FC 1
370
     0
100
AcDbSpline
210
0.0
220
0.0
230
1.0
 70
    11
 71
     3
 72
    53
 73
    49
 74
     0
 42
0.0000000001
 43
0.0000000001
 12
1.0
 22
0.0
 32
0.0
 13
1.0
 23
0.0
 33
0.0
 40
0.0
 40
0.0
 40
0.0
 40
0.0
 40
1.0
 40
1.0
 40
1.0
 40
2.0
 40
2.0
 40
2.0
 40
3.0
 40
3.0
 40
3.0
 40
4.0
 40
4.0
 40
4.0
 40
5.0
 40
5.0
 40
5.0
 40
6.0
 40
6.0
 40
6.0
 40
7.0
 40
7.0
 40
7.0
 40
8.0
 40
8.0
 40
8.0
 40
9.0
 40
9.0
 40
9.0
 40
10.0
 40
10.0
 40
10.0
 40
11.0
 40
11.0
 40
11.0
 40
12.0
 40
12.0
 40
12.0
 40
13.0
 40
13.0
 40
13.0
 40
14.0
 40
14.0
 40
14.0
 40
15.0
 40
15.0
 40
15.0
 40
16.0
 40
16.0
 40
16.0
 40
16.0
 10
76.93036022382297
 20
-88.3360378468396
 30
0.0
 10
76.93036022382297
 20
-88.41424151435477
 30
0.0
 10
76.91347925594525
 20
-88.51552732162112
 30
0.0
 10
76.85008949901665
 20
-88.61681312888747
 30
0.0
 10
76.74019095303717
 20
-88.78975692224701
 30
0.0
 10
76.60893281504916
 20
-88.81111651425556
 30
0.0
 10
76.50110132636084
 20
-88.83006453942443
 30
0.0
 10
76.50110132636084
 20
-88.83006453942443
 30
0.0
 10
76.50110132636084
 20
-88.60854489972287
 30
0.0
 10
76.50110132636084
 20
-88.60854489972287
 30
0.0
 10
76.69988333585975
 20
-88.55342337195887
 30
0.0
 10
76.7295111570329
 20
-88.4269883676502
 30
0.0
 10
76.7295111570329
 20
-88.33397078954846
 30
0.0
 10
76.7295111570329
 20
-88.19478893194436
 30
0.0
 10
76.62994789750918
 20
-88.04286022104485
 30
0.0
 10
76.39740395225482
 20
-88.04286022104485
 30
0.0
 10
76.14143335770076
 20
-88.04286022104485
 30
0.0
 10
76.07149791935018
 20
-88.22234969582637
 30
0.0
 10
76.07149791935018
 20
-88.34258352826159
 30
0.0
 10
76.07149791935018
 20
-88.37427840672588
 30
0.0
 10
76.07149791935018
 20
-88.51552732162112
 30
0.0
 10
76.20068900004705
 20
-88.60406627559205
 30
0.0
 10
76.20068900004705
 20
-88.60406627559205
 30
0.0
 10
76.18174097487818
 20
-88.77942163579127
 30
0.0
 10
76.18174097487818
 20
-88.77942163579127
 30
0.0
 10
76.18174097487818
 20
-88.77942163579127
 30
0.0
 10
75.3352810141523
 20
-88.65884329380752
 30
0.0
 10
75.3352810141523
 20
-88.65884329380752
 30
0.0
 10
75.3352810141523
 20
-88.65884329380752
 30
0.0
 10
75.3352810141523
 20
-87.8823187714322
 30
0.0
 10
75.3352810141523
 20
-87.8823187714322
 30
0.0
 10
75.3352810141523
 20
-87.8823187714322
 30
0.0
 10
75.52992890906891
 20
-87.8823187714322
 30
0.0
 10
75.52992890906891
 20
-87.8823187714322
 30
0.0
 10
75.52992890906891
 20
-87.8823187714322
 30
0.0
 10
75.52992890906891
 20
-88.49657929645225
 30
0.0
 10
75.52992890906891
 20
-88.49657929645225
 30
0.0
 10
75.52992890906891
 20
-88.49657929645225
 30
0.0
 10
75.95298663465759
 20
-88.562036110672
 30
0.0
 10
75.95298663465759
 20
-88.562036110672
 30
0.0
 10
75.91922469890214
 20
-88.50071341103455
 30
0.0
 10
75.87891708172472
 20
-88.41837562893707
 30
0.0
 10
75.87891708172472
 20
-88.30020885379301
 30
0.0
 10
75.87891708172472
 20
-88.04699433562715
 30
0.0
 10
76.06529674747674
 20
-87.81066078533901
 30
0.0
 10
76.37845592708595
 20
-87.81066078533901
 30
0.0
 10
76.69574922127745
 20
-87.81066078533901
 30
0.0
 10
76.93036022382297
 20
-88.03459199188025
 30
0.0
 10
76.93036022382297
 20
-88.3360378468396
 30
0.0
  0
HATCH
  5
E1
330
D1
100
AcDbEntity
  8
_U+30EC_U+30A4_U+30E4_U+30FC 1
 62
     7
420
 16777215
100
AcDbHatch
 10
0.0
 20
0.0
 30
0.0
210
0.0
220
0.0
230
1.0
  2
SOLID
 70
     1
 71
     0
 91
        1
 92
        1
 93
        1
 72
     4
 94
        3
 73
     0
 74
     1
 95
       53
 96
       49
 40
0.0
 40
0.0
 40
0.0
 40
0.0
 40
1.0
 40
1.0
 40
1.0
 40
2.0
 40
2.0
 40
2.0
 40
3.0
 40
3.0
 40
3.0
 40
4.0
 40
4.0
 40
4.0
 40
5.0
 40
5.0
 40
5.0
 40
6.0
 40
6.0
 40
6.0
 40
7.0
 40
7.0
 40
7.0
 40
8.0
 40
8.0
 40
8.0
 40
9.0
 40
9.0
 40
9.0
 40
10.0
 40
10.0
 40
10.0
 40
11.0
 40
11.0
 40
11.0
 40
12.0
 40
12.0
 40
12.0
 40
13.0
 40
13.0
 40
13.0
 40
14.0
 40
14.0
 40
14.0
 40
15.0
 40
15.0
 40
15.0
 40
16.0
 40
16.0
 40
16.0
 40
16.0
 10
76.93036022382297
 20
-88.3360378468396
 10
76.93036022382297
 20
-88.41424151435477
 10
76.91347925594525
 20
-88.51552732162112
 10
76.85008949901665
 20
-88.61681312888747
 10
76.74019095303717
 20
-88.78975692224701
 10
76.60893281504916
 20
-88.81111651425556
 10
76.50110132636084
 20
-88.83006453942443
 10
76.50110132636084
 20
-88.83006453942443
 10
76.50110132636084
 20
-88.60854489972287
 10
76.50110132636084
 20
-88.60854489972287
 10
76.69988333585975
 20
-88.55342337195887
 10
76.7295111570329
 20
-88.4269883676502
 10
76.7295111570329
 20
-88.33397078954846
 10
76.7295111570329
 20
-88.19478893194436
 10
76.62994789750918
 20
-88.04286022104485
 10
76.39740395225482
 20
-88.04286022104485
 10
76.14143335770076
 20
-88.04286022104485
 10
76.07149791935018
 20
-88.22234969582637
 10
76.07149791935018
 20
-88.34258352826159
 10
76.07149791935018
 20
-88.37427840672588
 10
76.07149791935018
 20
-88.51552732162112
 10
76.20068900004705
 20
-88.60406627559205
 10
76.20068900004705
 20
-88.60406627559205
 10
76.18174097487818
 20
-88.77942163579127
 10
76.18174097487818
 20
-88.77942163579127
 10
76.18174097487818
 20
-88.77942163579127
 10
75.3352810141523
 20
-88.65884329380752
 10
75.3352810141523
 20
-88.65884329380752
 10
75.3352810141523
 20
-88.65884329380752
 10
75.3352810141523
 20
-87.8823187714322
 10
75.3352810141523
 20
-87.8823187714322
 10
75.3352810141523
 20
-87.8823187714322
 10
75.52992890906891
 20
-87.8823187714322
 10
75.52992890906891
 20
-87.8823187714322
 10
75.52992890906891
 20
-87.8823187714322
 10
75.52992890906891
 20
-88.49657929645225
 10
75.52992890906891
 20
-88.49657929645225
 10
75.52992890906891
 20
-88.49657929645225
 10
75.95298663465759
 20
-88.562036110672
 10
75.95298663465759
 20
-88.562036110672
 10
75.91922469890214
 20
-88.50071341103455
 10
75.87891708172472
 20
-88.41837562893707
 10
75.87891708172472
 20
-88.30020885379301
 10
75.87891708172472
 20
-88.04699433562715
 10
76.06529674747674
 20
-87.81066078533901
 10
76.37845592708595
 20
-87.81066078533901
 10
76.69574922127745
 20
-87.81066078533901
 10
76.93036022382297
 20
-88.03459199188025
 10
76.93036022382297
 20
-88.3360378468396
 97
        0
 97
        0
 75
     2
 76
     1
 98
        0
  0
ENDBLK
  5
D4
330
D1
100
AcDbEntity
  8
0
100
AcDbBlockEnd
  0
ENDSEC
  0
SECTION
  2
ENTITIES
  0
POLYLINE
  5
41
330
1F
100
AcDbEntity
  8
_U+30EC_U+30A4_U+30E4_U+30FC 1
 62
     7
420
 16777215
370
    25
100
AcDb2dPolyline
 66
     1
 10
0.0
 20
0.0
 30
0.0
  0
VERTEX
  5
42
330
41
100
AcDbEntity
  8
_U+30EC_U+30A4_U+30E4_U+30FC 1
 62
     7
420
 16777215
370
    25
100
AcDbVertex
100
AcDb2dVertex
 10
59.26010348814881
 20
-92.62621525462123
 30
0.0
  0
VERTEX
  5
43
330
41
100
AcDbEntity
  8
_U+30EC_U+30A4_U+30E4_U+30FC 1
 62
     7
420
 16777215
370
    25
100
AcDbVertex
100
AcDb2dVertex
 10
62.26012563383409
 20
-92.62621525462123
 30
0.0
  0
SEQEND
  5
44
330
41
100
AcDbEntity
  8
_U+30EC_U+30A4_U+30E4_U+30FC 1
 62
     7
420
 16777215
370
    25
  0
POLYLINE
  5
45
330
1F
100
AcDbEntity
  8
_U+30EC_U+30A4_U+30E4_U+30FC 1
 62
     7
420
 16777215
370
    25
100
AcDb2dPolyline
 66
     1
 10
0.0
 20
0.0
 30
0.0
  0
VERTEX
  5
46
330
45
100
AcDbEntity
  8
_U+30EC_U+30A4_U+30E4_U+30FC 1
 62
     7
420
 16777215
370
    25
100
AcDbVertex
100
AcDb2dVertex
 10
47.2601560165152
 20
-95.62620219831557
 30
0.0
  0
VERTEX
  5
47
330
45
100
AcDbEntity
  8
_U+30EC_U+30A4_U+30E4_U+30FC 1
 62
     7
420
 16777215
370
    25
100
AcDbVertex
100
AcDb2dVertex
 10
62.26012563383409
 20
-95.62620219831557
 30
0.0
  0
SEQEND
  5
48
330
45
100
AcDbEntity
  8
_U+30EC_U+30A4_U+30E4_U+30FC 1
 62
     7
420
 16777215
370
    25
  0
POLYLINE
  5
49
330
1F
100
AcDbEntity
  8
_U+30EC_U+30A4_U+30E4_U+30FC 1
 62
     7
420
 16777215
370
    25
100
AcDb2dPolyline
 66
     1
 10
0.0
 20
0.0
 30
0.0
  0
VERTEX
  5
4A
330
49
100
AcDbEntity
  8
_U+30EC_U+30A4_U+30E4_U+30FC 1
 62
     7
420
 16777215
370
    25
100
AcDbVertex
100
AcDb2dVertex
 10
62.26012563383409
 20
-92.62621525462123
 30
0.0
  0
VERTEX
  5
4B
330
49
100
AcDbEntity
  8
_U+30EC_U+30A4_U+30E4_U+30FC 1
 62
     7
420
 16777215
370
    25
100
AcDbVertex
100
AcDb2dVertex
 10
62.26012563383409
 20
-95.62620219831557
 30
0.0
  0
SEQEND
  5
4C
330
49
100
AcDbEntity
  8
_U+30EC_U+30A4_U+30E4_U+30FC 1
 62
     7
420
 16777215
370
    25
  0
POLYLINE
  5
4D
330
1F
100
AcDbEntity
  8
_U+30EC_U+30A4_U+30E4_U+30FC 1
 62
     7
420
 16777215
370
    25
100
AcDb2dPolyline
 66
     1
 10
0.0
 20
0.0
 30
0.0
  0
VERTEX
  5
4E
330
4D
100
AcDbEntity
  8
_U+30EC_U+30A4_U+30E4_U+30FC 1
 62
     7
420
 16777215
370
    25
100
AcDbVertex
100
AcDb2dVertex
 10
59.26010348814881
 20
-93.62634025437089
 30
0.0
  0
VERTEX
  5
4F
330
4D
100
AcDbEntity
  8
_U+30EC_U+30A4_U+30E4_U+30FC 1
 62
     7
420
 16777215
370
    25
100
AcDbVertex
100
AcDb2dVertex
 10
61.26035343711818
 20
-93.62634025437089
 30
0.0
  0
SEQEND
  5
50
330
4D
100
AcDbEntity
  8
_U+30EC_U+30A4_U+30E4_U+30FC 1
 62
     7
420
 16777215
370
    25
  0
POLYLINE
  5
51
330
1F
100
AcDbEntity
  8
_U+30EC_U+30A4_U+30E4_U+30FC 1
 62
     7
420
 16777215
370
    25
100
AcDb2dPolyline
 66
     1
 10
0.0
 20
0.0
 30
0.0
  0
VERTEX
  5
52
330
51
100
AcDbEntity
  8
_U+30EC_U+30A4_U+30E4_U+30FC 1
 62
     7
420
 16777215
370
    25
100
AcDbVertex
100
AcDb2dVertex
 10
59.26010348814881
 20
-92.62621525462123
 30
0.0
  0
VERTEX
  5
53
330
51
100
AcDbEntity
  8
_U+30EC_U+30A4_U+30E4_U+30FC 1
 62
     7
420
 16777215
370
    25
100
AcDbVertex
100
AcDb2dVertex
 10
59.26010348814881
 20
-93.62634025437089
 30
0.0
  0
SEQEND
  5
54
330
51
100
AcDbEntity
  8
_U+30EC_U+30A4_U+30E4_U+30FC 1
 62
     7
420
 16777215
370
    25
  0
POLYLINE
  5
55
330
1F
100
AcDbEntity
  8
_U+30EC_U+30A4_U+30E4_U+30FC 1
 62
     7
420
 16777215
370
    25
100
AcDb2dPolyline
 66
     1
 10
0.0
 20
0.0
 30
0.0
  0
VERTEX
  5
56
330
55
100
AcDbEntity
  8
_U+30EC_U+30A4_U+30E4_U+30FC 1
 62
     7
420
 16777215
370
    25
100
AcDbVertex
100
AcDb2dVertex
 10
47.2601560165152
 20
-94.62642997634367
 30
0.0
  0
VERTEX
  5
57
330
55
100
AcDbEntity
  8
_U+30EC_U+30A4_U+30E4_U+30FC 1
 62
     7
420
 16777215
370
    25
100
AcDbVertex
100
AcDb2dVertex
 10
47.2601560165152
 20
-95.62620219831557
 30
0.0
  0
SEQEND
  5
58
330
55
100
AcDbEntity
  8
_U+30EC_U+30A4_U+30E4_U+30FC 1
 62
     7
420
 16777215
370
    25
  0
POLYLINE
  5
59
330
1F
100
AcDbEntity
  8
_U+30EC_U+30A4_U+30E4_U+30FC 1
 62
     7
420
 16777215
370
    25
100
AcDb2dPolyline
 66
     1
 10
0.0
 20
0.0
 30
0.0
  0
VERTEX
  5
5A
330
59
100
AcDbEntity
  8
_U+30EC_U+30A4_U+30E4_U+30FC 1
 62
     7
420
 16777215
370
    25
100
AcDbVertex
100
AcDb2dVertex
 10
47.2601560165152
 20
-94.62642997634367
 30
0.0
  0
VERTEX
  5
5B
330
59
100
AcDbEntity
  8
_U+30EC_U+30A4_U+30E4_U+30FC 1
 62
     7
420
 16777215
370
    25
100
AcDbVertex
100
AcDb2dVertex
 10
47.75968933710437
 20
-94.62642997634367
 30
0.0
  0
SEQEND
  5
5C
330
59
100
AcDbEntity
  8
_U+30EC_U+30A4_U+30E4_U+30FC 1
 62
     7
420
 16777215
370
    25
  0
POLYLINE
  5
5D
330
1F
100
AcDbEntity
  8
_U+30EC_U+30A4_U+30E4_U+30FC 1
 62
     7
420
 16777215
370
    25
100
AcDb2dPolyline
 66
     1
 10
0.0
 20
0.0
 30
0.0
  0
VERTEX
  5
5E
330
5D
100
AcDbEntity
  8
_U+30EC_U+30A4_U+30E4_U+30FC 1
 62
     7
420
 16777215
370
    25
100
AcDbVertex
100
AcDb2dVertex
 10
48.77188054336266
 20
-94.62642997634367
 30
0.0
  0
VERTEX
  5
5F
330
5D
100
AcDbEntity
  8
_U+30EC_U+30A4_U+30E4_U+30FC 1
 62
     7
420
 16777215
370
    25
100
AcDbVertex
100
AcDb2dVertex
 10
61.2600006593494
 20
-94.62642997634367
 30
0.0
  0
SEQEND
  5
60
330
5D
100
AcDbEntity
  8
_U+30EC_U+30A4_U+30E4_U+30FC 1
 62
     7
420
 16777215
370
    25
  0
POLYLINE
  5
61
330
1F
100
AcDbEntity
  8
_U+30EC_U+30A4_U+30E4_U+30FC 1
 62
     7
420
 16777215
370
    25
100
AcDb2dPolyline
 66
     1
 10
0.0
 20
0.0
 30
0.0
  0
VERTEX
  5
62
330
61
100
AcDbEntity
  8
_U+30EC_U+30A4_U+30E4_U+30FC 1
 62
     7
420
 16777215
370
    25
100
AcDbVertex
100
AcDb2dVertex
 10
61.26035343711818
 20
-93.62634025437089
 30
0.0
  0
VERTEX
  5
63
330
61
100
AcDbEntity
  8
_U+30EC_U+30A4_U+30E4_U+30FC 1
 62
     7
420
 16777215
370
    25
100
AcDbVertex
100
AcDb2dVertex
 10
61.26035343711818
 20
-94.62642997634367
 30
0.0
  0
SEQEND
  5
64
330
61
100
AcDbEntity
  8
_U+30EC_U+30A4_U+30E4_U+30FC 1
 62
     7
420
 16777215
370
    25
  0
POLYLINE
  5
65
330
1F
100
AcDbEntity
  8
_U+30EC_U+30A4_U+30E4_U+30FC 1
 62
     7
420
 16777215
370
    25
100
AcDb2dPolyline
 66
     1
 10
0.0
 20
0.0
 30
0.0
  0
VERTEX
  5
66
330
65
100
AcDbEntity
  8
_U+30EC_U+30A4_U+30E4_U+30FC 1
 62
     7
420
 16777215
370
    25
100
AcDbVertex
100
AcDb2dVertex
 10
50.11751483250679
 20
-85.92601275629636
 30
0.0
  0
VERTEX
  5
67
330
65
100
AcDbEntity
  8
_U+30EC_U+30A4_U+30E4_U+30FC 1
 62
     7
420
 16777215
370
    25
100
AcDbVertex
100
AcDb2dVertex
 10
74.26007498143505
 20
-85.92601275629636
 30
0.0
  0
SEQEND
  5
68
330
65
100
AcDbEntity
  8
_U+30EC_U+30A4_U+30E4_U+30FC 1
 62
     7
420
 16777215
370
    25
  0
POLYLINE
  5
69
330
1F
100
AcDbEntity
  8
_U+30EC_U+30A4_U+30E4_U+30FC 1
 62
     7
420
 16777215
370
    25
100
AcDb2dPolyline
 66
     1
 10
0.0
 20
0.0
 30
0.0
  0
VERTEX
  5
6A
330
69
100
AcDbEntity
  8
_U+30EC_U+30A4_U+30E4_U+30FC 1
 62
     7
420
 16777215
370
    25
100
AcDbVertex
100
AcDb2dVertex
 10
74.26007498143505
 20
-84.92624053432414
 30
0.0
  0
VERTEX
  5
6B
330
69
100
AcDbEntity
  8
_U+30EC_U+30A4_U+30E4_U+30FC 1
 62
     7
420
 16777215
370
    25
100
AcDbVertex
100
AcDb2dVertex
 10
74.26007498143505
 20
-85.92601275629636
 30
0.0
  0
SEQEND
  5
6C
330
69
100
AcDbEntity
  8
_U+30EC_U+30A4_U+30E4_U+30FC 1
 62
     7
420
 16777215
370
    25
  0
POLYLINE
  5
6D
330
1F
100
AcDbEntity
  8
_U+30EC_U+30A4_U+30E4_U+30FC 1
 62
     7
420
 16777215
370
    25
100
AcDb2dPolyline
 66
     1
 10
0.0
 20
0.0
 30
0.0
  0
VERTEX
  5
6E
330
6D
100
AcDbEntity
  8
_U+30EC_U+30A4_U+30E4_U+30FC 1
 62
     7
420
 16777215
370
    25
100
AcDbVertex
100
AcDb2dVertex
 10
49.25970040994701
 20
-84.92624053432414
 30
0.0
  0
VERTEX
  5
6F
330
6D
100
AcDbEntity
  8
_U+30EC_U+30A4_U+30E4_U+30FC 1
 62
     7
420
 16777215
370
    25
100
AcDbVertex
100
AcDb2dVertex
 10
74.26007498143505
 20
-84.92624053432414
 30
0.0
  0
SEQEND
  5
70
330
6D
100
AcDbEntity
  8
_U+30EC_U+30A4_U+30E4_U+30FC 1
 62
     7
420
 16777215
370
    25
  0
POLYLINE
  5
71
330
1F
100
AcDbEntity
  8
_U+30EC_U+30A4_U+30E4_U+30FC 1
 62
     7
420
 16777215
370
    25
100
AcDb2dPolyline
 66
     1
 10
0.0
 20
0.0
 30
0.0
  0
VERTEX
  5
72
330
71
100
AcDbEntity
  8
_U+30EC_U+30A4_U+30E4_U+30FC 1
 62
     7
420
 16777215
370
    25
100
AcDbVertex
100
AcDb2dVertex
 10
49.25970040994701
 20
-84.92624053432414
 30
0.0
  0
VERTEX
  5
73
330
71
100
AcDbEntity
  8
_U+30EC_U+30A4_U+30E4_U+30FC 1
 62
     7
420
 16777215
370
    25
100
AcDbVertex
100
AcDb2dVertex
 10
47.75968933710437
 20
-94.62642997634367
 30
0.0
  0
SEQEND
  5
74
330
71
100
AcDbEntity
  8
_U+30EC_U+30A4_U+30E4_U+30FC 1
 62
     7
420
 16777215
370
    25
  0
POLYLINE
  5
75
330
1F
100
AcDbEntity
  8
_U+30EC_U+30A4_U+30E4_U+30FC 1
 62
     7
420
 16777215
370
    25
100
AcDb2dPolyline
 66
     1
 10
0.0
 20
0.0
 30
0.0
  0
VERTEX
  5
76
330
75
100
AcDbEntity
  8
_U+30EC_U+30A4_U+30E4_U+30FC 1
 62
     7
420
 16777215
370
    25
100
AcDbVertex
100
AcDb2dVertex
 10
50.11751483250679
 20
-85.92601275629636
 30
0.0
  0
VERTEX
  5
77
330
75
100
AcDbEntity
  8
_U+30EC_U+30A4_U+30E4_U+30FC 1
 62
     7
420
 16777215
370
    25
100
AcDbVertex
100
AcDb2dVertex
 10
48.77188054336266
 20
-94.62642997634367
 30
0.0
  0
SEQEND
  5
78
330
75
100
AcDbEntity
  8
_U+30EC_U+30A4_U+30E4_U+30FC 1
 62
     7
420
 16777215
370
    25
  0
SPLINE
  5
79
330
1F
100
AcDbEntity
  8
_U+30EC_U+30A4_U+30E4_U+30FC 1
 62
     7
420
 16777215
370
     9
100
AcDbSpline
210
0.0
220
0.0
230
1.0
 70
    11
 71
     3
 72
    17
 73
    13
 74
     0
 42
0.0000000001
 43
0.0000000001
 12
1.0
 22
0.0
 32
0.0
 13
1.0
 23
0.0
 33
0.0
 40
0.0
 40
0.0
 40
0.0
 40
0.0
 40
1.0
 40
1.0
 40
1.0
 40
2.0
 40
2.0
 40
2.0
 40
3.0
 40
3.0
 40
3.0
 40
4.0
 40
4.0
 40
4.0
 40
4.0
 10
62.26012563383409
 20
-99.62596136398246
 30
0.0
 10
62.26012563383409
 20
-99.57082219732938
 30
0.0
 10
62.21532285719933
 20
-99.52605469734081
 30
0.0
 10
62.16018369193937
 20
-99.52605469734081
 30
0.0
 10
62.1050798044563
 20
-99.52605469734081
 30
0.0
 10
62.06027702782154
 20
-99.57082219732938
 30
0.0
 10
62.06027702782154
 20
-99.62596136398246
 30
0.0
 10
62.06027702782154
 20
-99.68106525285737
 30
0.0
 10
62.1050798044563
 20
-99.7258680306241
 30
0.0
 10
62.16018369193937
 20
-99.7258680306241
 30
0.0
 10
62.21532285719933
 20
-99.7258680306241
 30
0.0
 10
62.26012563383409
 20
-99.68106525285737
 30
0.0
 10
62.26012563383409
 20
-99.62596136398246
 30
0.0
  0
SPLINE
  5
7A
330
1F
100
AcDbEntity
  8
_U+30EC_U+30A4_U+30E4_U+30FC 1
 62
     7
420
 16777215
370
     9
100
AcDbSpline
210
0.0
220
0.0
230
1.0
 70
    11
 71
     3
 72
    17
 73
    13
 74
     0
 42
0.0000000001
 43
0.0000000001
 12
1.0
 22
0.0
 32
0.0
 13
1.0
 23
0.0
 33
0.0
 40
0.0
 40
0.0
 40
0.0
 40
0.0
 40
1.0
 40
1.0
 40
1.0
 40
2.0
 40
2.0
 40
2.0
 40
3.0
 40
3.0
 40
3.0
 40
4.0
 40
4.0
 40
4.0
 40
4.0
 10
47.3600638770488
 20
-99.62596136398246
 30
0.0
 10
47.3600638770488
 20
-99.57082219732938
 30
0.0
 10
47.31529518177514
 20
-99.52605469734081
 30
0.0
 10
47.2601560165152
 20
-99.52605469734081
 30
0.0
 10
47.20505212903213
 20
-99.52605469734081
 30
0.0
 10
47.16024935239736
 20
-99.57082219732938
 30
0.0
 10
47.16024935239736
 20
-99.62596136398246
 30
0.0
 10
47.16024935239736
 20
-99.68106525285737
 30
0.0
 10
47.20505212903213
 20
-99.7258680306241
 30
0.0
 10
47.2601560165152
 20
-99.7258680306241
 30
0.0
 10
47.31529518177514
 20
-99.7258680306241
 30
0.0
 10
47.3600638770488
 20
-99.68106525285737
 30
0.0
 10
47.3600638770488
 20
-99.62596136398246
 30
0.0
  0
SPLINE
  5
7B
330
1F
100
AcDbEntity
  8
_U+30EC_U+30A4_U+30E4_U+30FC 1
 62
     7
420
 16777215
370
     9
100
AcDbSpline
210
0.0
220
0.0
230
1.0
 70
    11
 71
     3
 72
    17
 73
    13
 74
     0
 42
0.0000000001
 43
0.0000000001
 12
1.0
 22
0.0
 32
0.0
 13
1.0
 23
0.0
 33
0.0
 40
0.0
 40
0.0
 40
0.0
 40
0.0
 40
1.0
 40
1.0
 40
1.0
 40
2.0
 40
2.0
 40
2.0
 40
3.0
 40
3.0
 40
3.0
 40
4.0
 40
4.0
 40
4.0
 40
4.0
 10
78.35973883420985
 20
-85.12605386760741
 30
0.0
 10
78.35973883420985
 20
-85.07094997873217
 30
0.0
 10
78.31493605757508
 20
-85.02614720096577
 30
0.0
 10
78.25983217009201
 20
-85.02614720096577
 30
0.0
 10
78.20469300483207
 20
-85.02614720096577
 30
0.0
 10
78.15992550597417
 20
-85.07094997873217
 30
0.0
 10
78.15992550597417
 20
-85.12605386760741
 30
0.0
 10
78.15992550597417
 20
-85.18119303426016
 30
0.0
 10
78.20469300483207
 20
-85.22596053424904
 30
0.0
 10
78.25983217009201
 20
-85.22596053424904
 30
0.0
 10
78.31493605757508
 20
-85.22596053424904
 30
0.0
 10
78.35973883420985
 20
-85.18119303426016
 30
0.0
 10
78.35973883420985
 20
-85.12605386760741
 30
0.0
  0
SPLINE
  5
7C
330
1F
100
AcDbEntity
  8
_U+30EC_U+30A4_U+30E4_U+30FC 1
 62
     7
420
 16777215
370
     9
100
AcDbSpline
210
0.0
220
0.0
230
1.0
 70
    11
 71
     3
 72
    17
 73
    13
 74
     0
 42
0.0000000001
 43
0.0000000001
 12
1.0
 22
0.0
 32
0.0
 13
1.0
 23
0.0
 33
0.0
 40
0.0
 40
0.0
 40
0.0
 40
0.0
 40
1.0
 40
1.0
 40
1.0
 40
2.0
 40
2.0
 40
2.0
 40
3.0
 40
3.0
 40
3.0
 40
4.0
 40
4.0
 40
4.0
 40
4.0
 10
78.35973883420985
 20
-86.12582608957963
 30
0.0
 10
78.35973883420985
 20
-86.0707222007044
 30
0.0
 10
78.31493605757508
 20
-86.02591942293799
 30
0.0
 10
78.25983217009201
 20
-86.02591942293799
 30
0.0
 10
78.20469300483207
 20
-86.02591942293799
 30
0.0
 10
78.15992550597417
 20
-86.0707222007044
 30
0.0
 10
78.15992550597417
 20
-86.12582608957963
 30
0.0
 10
78.15992550597417
 20
-86.18131803401015
 30
0.0
 10
78.20469300483207
 20
-86.22608553399903
 30
0.0
 10
78.25983217009201
 20
-86.22608553399903
 30
0.0
 10
78.31493605757508
 20
-86.22608553399903
 30
0.0
 10
78.35973883420985
 20
-86.18131803401015
 30
0.0
 10
78.35973883420985
 20
-86.12582608957963
 30
0.0
  0
SPLINE
  5
7D
330
1F
100
AcDbEntity
  8
_U+30EC_U+30A4_U+30E4_U+30FC 1
 62
     7
420
 16777215
370
     9
100
AcDbSpline
210
0.0
220
0.0
230
1.0
 70
    11
 71
     3
 72
    17
 73
    13
 74
     0
 42
0.0000000001
 43
0.0000000001
 12
1.0
 22
0.0
 32
0.0
 13
1.0
 23
0.0
 33
0.0
 40
0.0
 40
0.0
 40
0.0
 40
0.0
 40
1.0
 40
1.0
 40
1.0
 40
2.0
 40
2.0
 40
2.0
 40
3.0
 40
3.0
 40
3.0
 40
4.0
 40
4.0
 40
4.0
 40
4.0
 10
78.35973883420985
 20
-92.42640192133796
 30
0.0
 10
78.35973883420985
 20
-92.37126275468488
 30
0.0
 10
78.31493605757508
 20
-92.32649525469631
 30
0.0
 10
78.25983217009201
 20
-92.32649525469631
 30
0.0
 10
78.20469300483207
 20
-92.32649525469631
 30
0.0
 10
78.15992550597417
 20
-92.37126275468488
 30
0.0
 10
78.15992550597417
 20
-92.42640192133796
 30
0.0
 10
78.15992550597417
 20
-92.48150581021287
 30
0.0
 10
78.20469300483207
 20
-92.52630858797959
 30
0.0
 10
78.25983217009201
 20
-92.52630858797959
 30
0.0
 10
78.31493605757508
 20
-92.52630858797959
 30
0.0
 10
78.35973883420985
 20
-92.48150581021287
 30
0.0
 10
78.35973883420985
 20
-92.42640192133796
 30
0.0
  0
SPLINE
  5
7E
330
1F
100
AcDbEntity
  8
_U+30EC_U+30A4_U+30E4_U+30FC 1
 62
     7
420
 16777215
370
     9
100
AcDbSpline
210
0.0
220
0.0
230
1.0
 70
    11
 71
     3
 72
    17
 73
    13
 74
     0
 42
0.0000000001
 43
0.0000000001
 12
1.0
 22
0.0
 32
0.0
 13
1.0
 23
0.0
 33
0.0
 40
0.0
 40
0.0
 40
0.0
 40
0.0
 40
1.0
 40
1.0
 40
1.0
 40
2.0
 40
2.0
 40
2.0
 40
3.0
 40
3.0
 40
3.0
 40
4.0
 40
4.0
 40
4.0
 40
4.0
 10
78.35973883420985
 20
-95.62620219831557
 30
0.0
 10
78.35973883420985
 20
-95.57109830944066
 30
0.0
 10
78.31493605757508
 20
-95.52629553167394
 30
0.0
 10
78.25983217009201
 20
-95.52629553167394
 30
0.0
 10
78.20469300483207
 20
-95.52629553167394
 30
0.0
 10
78.15992550597417
 20
-95.57109830944066
 30
0.0
 10
78.15992550597417
 20
-95.62620219831557
 30
0.0
 10
78.15992550597417
 20
-95.68134136496865
 30
0.0
 10
78.20469300483207
 20
-95.72610886495721
 30
0.0
 10
78.25983217009201
 20
-95.72610886495721
 30
0.0
 10
78.31493605757508
 20
-95.72610886495721
 30
0.0
 10
78.35973883420985
 20
-95.68134136496865
 30
0.0
 10
78.35973883420985
 20
-95.62620219831557
 30
0.0
  0
SPLINE
  5
7F
330
1F
100
AcDbEntity
  8
_U+30EC_U+30A4_U+30E4_U+30FC 1
 62
     7
420
 16777215
370
     9
100
AcDbSpline
210
0.0
220
0.0
230
1.0
 70
    11
 71
     3
 72
    17
 73
    13
 74
     0
 42
0.0000000001
 43
0.0000000001
 12
1.0
 22
0.0
 32
0.0
 13
1.0
 23
0.0
 33
0.0
 40
0.0
 40
0.0
 40
0.0
 40
0.0
 40
1.0
 40
1.0
 40
1.0
 40
2.0
 40
2.0
 40
2.0
 40
3.0
 40
3.0
 40
3.0
 40
4.0
 40
4.0
 40
4.0
 40
4.0
 10
74.35997976958554
 20
-80.92616386865733
 30
0.0
 10
74.35997976958554
 20
-80.87102470200458
 30
0.0
 10
74.31517699295077
 20
-80.8262572020157
 30
0.0
 10
74.26007498143505
 20
-80.8262572020157
 30
0.0
 10
74.20493394020775
 20
-80.8262572020157
 30
0.0
 10
74.16016644134986
 20
-80.87102470200458
 30
0.0
 10
74.16016644134986
 20
-80.92616386865733
 30
0.0
 10
74.16016644134986
 20
-80.98162053531
 30
0.0
 10
74.20493394020775
 20
-81.02642331307673
 30
0.0
 10
74.26007498143505
 20
-81.02642331307673
 30
0.0
 10
74.31517699295077
 20
-81.02642331307673
 30
0.0
 10
74.35997976958554
 20
-80.98162053531
 30
0.0
 10
74.35997976958554
 20
-80.92616386865733
 30
0.0
  0
SPLINE
  5
80
330
1F
100
AcDbEntity
  8
_U+30EC_U+30A4_U+30E4_U+30FC 1
 62
     7
420
 16777215
370
     9
100
AcDbSpline
210
0.0
220
0.0
230
1.0
 70
    11
 71
     3
 72
    17
 73
    13
 74
     0
 42
0.0000000001
 43
0.0000000001
 12
1.0
 22
0.0
 32
0.0
 13
1.0
 23
0.0
 33
0.0
 40
0.0
 40
0.0
 40
0.0
 40
0.0
 40
1.0
 40
1.0
 40
1.0
 40
2.0
 40
2.0
 40
2.0
 40
3.0
 40
3.0
 40
3.0
 40
4.0
 40
4.0
 40
4.0
 40
4.0
 10
49.35960832099357
 20
-80.92616386865733
 30
0.0
 10
49.35960832099357
 20
-80.87102470200458
 30
0.0
 10
49.31551109878237
 20
-80.8262572020157
 30
0.0
 10
49.25970040994701
 20
-80.8262572020157
 30
0.0
 10
49.20456124468706
 20
-80.8262572020157
 30
0.0
 10
49.15979374582918
 20
-80.87102470200458
 30
0.0
 10
49.15979374582918
 20
-80.92616386865733
 30
0.0
 10
49.15979374582918
 20
-80.98162053531
 30
0.0
 10
49.20456124468706
 20
-81.02642331307673
 30
0.0
 10
49.25970040994701
 20
-81.02642331307673
 30
0.0
 10
49.31551109878237
 20
-81.02642331307673
 30
0.0
 10
49.35960832099357
 20
-80.98162053531
 30
0.0
 10
49.35960832099357
 20
-80.92616386865733
 30
0.0
  0
POLYLINE
  5
81
330
1F
100
AcDbEntity
  8
_U+30EC_U+30A4_U+30E4_U+30FC 1
 62
     7
420
 16777215
370
     9
100
AcDb2dPolyline
 66
     1
 10
0.0
 20
0.0
 30
0.0
  0
VERTEX
  5
82
330
81
100
AcDbEntity
  8
_U+30EC_U+30A4_U+30E4_U+30FC 1
 62
     7
420
 16777215
370
     9
100
AcDbVertex
100
AcDb2dVertex
 10
47.2601560165152
 20
-99.62596136398246
 30
0.0
  0
VERTEX
  5
83
330
81
100
AcDbEntity
  8
_U+30EC_U+30A4_U+30E4_U+30FC 1
 62
     7
420
 16777215
370
     9
100
AcDbVertex
100
AcDb2dVertex
 10
62.26012563383409
 20
-99.62596136398246
 30
0.0
  0
SEQEND
  5
84
330
81
100
AcDbEntity
  8
_U+30EC_U+30A4_U+30E4_U+30FC 1
 62
     7
420
 16777215
370
     9
  0
POLYLINE
  5
85
330
1F
100
AcDbEntity
  8
_U+30EC_U+30A4_U+30E4_U+30FC 1
 62
     7
420
 16777215
370
     9
100
AcDb2dPolyline
 66
     1
 10
0.0
 20
0.0
 30
0.0
  0
VERTEX
  5
86
330
85
100
AcDbEntity
  8
_U+30EC_U+30A4_U+30E4_U+30FC 1
 62
     7
420
 16777215
370
     9
100
AcDbVertex
100
AcDb2dVertex
 10
47.2601560165152
 20
-98.16591997545875
 30
0.0
  0
VERTEX
  5
87
330
85
100
AcDbEntity
  8
_U+30EC_U+30A4_U+30E4_U+30FC 1
 62
     7
420
 16777215
370
     9
100
AcDbVertex
100
AcDb2dVertex
 10
47.2601560165152
 20
-100.6264038637324
 30
0.0
  0
SEQEND
  5
88
330
85
100
AcDbEntity
  8
_U+30EC_U+30A4_U+30E4_U+30FC 1
 62
     7
420
 16777215
370
     9
  0
POLYLINE
  5
89
330
1F
100
AcDbEntity
  8
_U+30EC_U+30A4_U+30E4_U+30FC 1
 62
     7
420
 16777215
370
     9
100
AcDb2dPolyline
 66
     1
 10
0.0
 20
0.0
 30
0.0
  0
VERTEX
  5
8A
330
89
100
AcDbEntity
  8
_U+30EC_U+30A4_U+30E4_U+30FC 1
 62
     7
420
 16777215
370
     9
100
AcDbVertex
100
AcDb2dVertex
 10
62.16018369193937
 20
-98.16591997545875
 30
0.0
  0
VERTEX
  5
8B
330
89
100
AcDbEntity
  8
_U+30EC_U+30A4_U+30E4_U+30FC 1
 62
     7
420
 16777215
370
     9
100
AcDbVertex
100
AcDb2dVertex
 10
62.16018369193937
 20
-100.6264038637324
 30
0.0
  0
SEQEND
  5
8C
330
89
100
AcDbEntity
  8
_U+30EC_U+30A4_U+30E4_U+30FC 1
 62
     7
420
 16777215
370
     9
  0
INSERT
  5
8E
330
1F
100
AcDbEntity
  8
_U+30EC_U+30A4_U+30E4_U+30FC 1
100
AcDbBlockReference
  2
block 2
 10
0.0
 20
0.0
 30
0.0
  0
POLYLINE
  5
95
330
1F
100
AcDbEntity
  8
_U+30EC_U+30A4_U+30E4_U+30FC 1
 62
     7
420
 16777215
370
     9
100
AcDb2dPolyline
 66
     1
 10
0.0
 20
0.0
 30
0.0
  0
VERTEX
  5
96
330
95
100
AcDbEntity
  8
_U+30EC_U+30A4_U+30E4_U+30FC 1
 62
     7
420
 16777215
370
     9
100
AcDbVertex
100
AcDb2dVertex
 10
78.25983217009201
 20
-92.62621525462123
 30
0.0
  0
VERTEX
  5
97
330
95
100
AcDbEntity
  8
_U+30EC_U+30A4_U+30E4_U+30FC 1
 62
     7
420
 16777215
370
     9
100
AcDbVertex
100
AcDb2dVertex
 10
78.25983217009201
 20
-95.62620219831557
 30
0.0
  0
SEQEND
  5
98
330
95
100
AcDbEntity
  8
_U+30EC_U+30A4_U+30E4_U+30FC 1
 62
     7
420
 16777215
370
     9
  0
POLYLINE
  5
99
330
1F
100
AcDbEntity
  8
_U+30EC_U+30A4_U+30E4_U+30FC 1
 62
     7
420
 16777215
370
     9
100
AcDb2dPolyline
 66
     1
 10
0.0
 20
0.0
 30
0.0
  0
VERTEX
  5
9A
330
99
100
AcDbEntity
  8
_U+30EC_U+30A4_U+30E4_U+30FC 1
 62
     7
420
 16777215
370
     9
100
AcDbVertex
100
AcDb2dVertex
 10
64.76022640338454
 20
-92.42640192133796
 30
0.0
  0
VERTEX
  5
9B
330
99
100
AcDbEntity
  8
_U+30EC_U+30A4_U+30E4_U+30FC 1
 62
     7
420
 16777215
370
     9
100
AcDbVertex
100
AcDb2dVertex
 10
79.25960436680792
 20
-92.42640192133796
 30
0.0
  0
SEQEND
  5
9C
330
99
100
AcDbEntity
  8
_U+30EC_U+30A4_U+30E4_U+30FC 1
 62
     7
420
 16777215
370
     9
  0
POLYLINE
  5
9D
330
1F
100
AcDbEntity
  8
_U+30EC_U+30A4_U+30E4_U+30FC 1
 62
     7
420
 16777215
370
     9
100
AcDb2dPolyline
 66
     1
 10
0.0
 20
0.0
 30
0.0
  0
VERTEX
  5
9E
330
9D
100
AcDbEntity
  8
_U+30EC_U+30A4_U+30E4_U+30FC 1
 62
     7
420
 16777215
370
     9
100
AcDbVertex
100
AcDb2dVertex
 10
64.76022640338454
 20
-95.62620219831557
 30
0.0
  0
VERTEX
  5
9F
330
9D
100
AcDbEntity
  8
_U+30EC_U+30A4_U+30E4_U+30FC 1
 62
     7
420
 16777215
370
     9
100
AcDbVertex
100
AcDb2dVertex
 10
79.25960436680792
 20
-95.62620219831557
 30
0.0
  0
SEQEND
  5
A0
330
9D
100
AcDbEntity
  8
_U+30EC_U+30A4_U+30E4_U+30FC 1
 62
     7
420
 16777215
370
     9
  0
INSERT
  5
A2
330
1F
100
AcDbEntity
  8
_U+30EC_U+30A4_U+30E4_U+30FC 1
100
AcDbBlockReference
  2
block 3
 10
0.0
 20
0.0
 30
0.0
  0
POLYLINE
  5
A7
330
1F
100
AcDbEntity
  8
_U+30EC_U+30A4_U+30E4_U+30FC 1
 62
     7
420
 16777215
370
     9
100
AcDb2dPolyline
 66
     1
 10
0.0
 20
0.0
 30
0.0
  0
VERTEX
  5
A8
330
A7
100
AcDbEntity
  8
_U+30EC_U+30A4_U+30E4_U+30FC 1
 62
     7
420
 16777215
370
     9
100
AcDbVertex
100
AcDb2dVertex
 10
78.25983217009201
 20
-86.12582608957963
 30
0.0
  0
VERTEX
  5
A9
330
A7
100
AcDbEntity
  8
_U+30EC_U+30A4_U+30E4_U+30FC 1
 62
     7
420
 16777215
370
     9
100
AcDbVertex
100
AcDb2dVertex
 10
78.25983217009201
 20
-80.92616386865733
 30
0.0
  0
SEQEND
  5
AA
330
A7
100
AcDbEntity
  8
_U+30EC_U+30A4_U+30E4_U+30FC 1
 62
     7
420
 16777215
370
     9
  0
POLYLINE
  5
AB
330
1F
100
AcDbEntity
  8
_U+30EC_U+30A4_U+30E4_U+30FC 1
 62
     7
420
 16777215
370
     9
100
AcDb2dPolyline
 66
     1
 10
0.0
 20
0.0
 30
0.0
  0
VERTEX
  5
AC
330
AB
100
AcDbEntity
  8
_U+30EC_U+30A4_U+30E4_U+30FC 1
 62
     7
420
 16777215
370
     9
100
AcDbVertex
100
AcDb2dVertex
 10
76.79979081845188
 20
-85.12605386760741
 30
0.0
  0
VERTEX
  5
AD
330
AB
100
AcDbEntity
  8
_U+30EC_U+30A4_U+30E4_U+30FC 1
 62
     7
420
 16777215
370
     9
100
AcDbVertex
100
AcDb2dVertex
 10
79.25960436680792
 20
-85.12605386760741
 30
0.0
  0
SEQEND
  5
AE
330
AB
100
AcDbEntity
  8
_U+30EC_U+30A4_U+30E4_U+30FC 1
 62
     7
420
 16777215
370
     9
  0
INSERT
  5
B0
330
1F
100
AcDbEntity
  8
_U+30EC_U+30A4_U+30E4_U+30FC 1
100
AcDbBlockReference
  2
block 4
 10
0.0
 20
0.0
 30
0.0
  0
POLYLINE
  5
B5
330
1F
100
AcDbEntity
  8
_U+30EC_U+30A4_U+30E4_U+30FC 1
 62
     7
420
 16777215
370
     9
100
AcDb2dPolyline
 66
     1
 10
0.0
 20
0.0
 30
0.0
  0
VERTEX
  5
B6
330
B5
100
AcDbEntity
  8
_U+30EC_U+30A4_U+30E4_U+30FC 1
 62
     7
420
 16777215
370
     9
100
AcDbVertex
100
AcDb2dVertex
 10
49.25970040994701
 20
-80.92616386865733
 30
0.0
  0
VERTEX
  5
B7
330
B5
100
AcDbEntity
  8
_U+30EC_U+30A4_U+30E4_U+30FC 1
 62
     7
420
 16777215
370
     9
100
AcDbVertex
100
AcDb2dVertex
 10
74.26007498143505
 20
-80.92616386865733
 30
0.0
  0
SEQEND
  5
B8
330
B5
100
AcDbEntity
  8
_U+30EC_U+30A4_U+30E4_U+30FC 1
 62
     7
420
 16777215
370
     9
  0
POLYLINE
  5
B9
330
1F
100
AcDbEntity
  8
_U+30EC_U+30A4_U+30E4_U+30FC 1
 62
     7
420
 16777215
370
     9
100
AcDb2dPolyline
 66
     1
 10
0.0
 20
0.0
 30
0.0
  0
VERTEX
  5
BA
330
B9
100
AcDbEntity
  8
_U+30EC_U+30A4_U+30E4_U+30FC 1
 62
     7
420
 16777215
370
     9
100
AcDbVertex
100
AcDb2dVertex
 10
49.25970040994701
 20
-82.38616997940352
 30
0.0
  0
VERTEX
  5
BB
330
B9
100
AcDbEntity
  8
_U+30EC_U+30A4_U+30E4_U+30FC 1
 62
     7
420
 16777215
370
     9
100
AcDbVertex
100
AcDb2dVertex
 10
49.25970040994701
 20
-79.92603886890734
 30
0.0
  0
SEQEND
  5
BC
330
B9
100
AcDbEntity
  8
_U+30EC_U+30A4_U+30E4_U+30FC 1
 62
     7
420
 16777215
370
     9
  0
POLYLINE
  5
BD
330
1F
100
AcDbEntity
  8
_U+30EC_U+30A4_U+30E4_U+30FC 1
 62
     7
420
 16777215
370
     9
100
AcDb2dPolyline
 66
     1
 10
0.0
 20
0.0
 30
0.0
  0
VERTEX
  5
BE
330
BD
100
AcDbEntity
  8
_U+30EC_U+30A4_U+30E4_U+30FC 1
 62
     7
420
 16777215
370
     9
100
AcDbVertex
100
AcDb2dVertex
 10
74.26007498143505
 20
-82.38616997940352
 30
0.0
  0
VERTEX
  5
BF
330
BD
100
AcDbEntity
  8
_U+30EC_U+30A4_U+30E4_U+30FC 1
 62
     7
420
 16777215
370
     9
100
AcDbVertex
100
AcDb2dVertex
 10
74.26007498143505
 20
-79.92603886890734
 30
0.0
  0
SEQEND
  5
C0
330
BD
100
AcDbEntity
  8
_U+30EC_U+30A4_U+30E4_U+30FC 1
 62
     7
420
 16777215
370
     9
  0
INSERT
  5
C2
330
1F
100
AcDbEntity
  8
_U+30EC_U+30A4_U+30E4_U+30FC 1
100
AcDbBlockReference
  2
block 5
 10
0.0
 20
0.0
 30
0.0
  0
POLYLINE
  5
C9
330
1F
100
AcDbEntity
  8
_U+30EC_U+30A4_U+30E4_U+30FC 1
 62
     7
420
 16777215
370
     9
100
AcDb2dPolyline
 66
     1
 10
0.0
 20
0.0
 30
0.0
  0
VERTEX
  5
CA
330
C9
100
AcDbEntity
  8
_U+30EC_U+30A4_U+30E4_U+30FC 1
 62
     7
420
 16777215
370
     9
100
AcDbVertex
100
AcDb2dVertex
 10
78.25983217009201
 20
-86.12582608957963
 30
0.0
  0
VERTEX
  5
CB
330
C9
100
AcDbEntity
  8
_U+30EC_U+30A4_U+30E4_U+30FC 1
 62
     7
420
 16777215
370
     9
100
AcDbVertex
100
AcDb2dVertex
 10
78.25983217009201
 20
-92.62621525462123
 30
0.0
  0
SEQEND
  5
CC
330
C9
100
AcDbEntity
  8
_U+30EC_U+30A4_U+30E4_U+30FC 1
 62
     7
420
 16777215
370
     9
  0
POLYLINE
  5
CD
330
1F
100
AcDbEntity
  8
_U+30EC_U+30A4_U+30E4_U+30FC 1
 62
     7
420
 16777215
370
     9
100
AcDb2dPolyline
 66
     1
 10
0.0
 20
0.0
 30
0.0
  0
VERTEX
  5
CE
330
CD
100
AcDbEntity
  8
_U+30EC_U+30A4_U+30E4_U+30FC 1
 62
     7
420
 16777215
370
     9
100
AcDbVertex
100
AcDb2dVertex
 10
76.79979081845188
 20
-86.12582608957963
 30
0.0
  0
VERTEX
  5
CF
330
CD
100
AcDbEntity
  8
_U+30EC_U+30A4_U+30E4_U+30FC 1
 62
     7
420
 16777215
370
     9
100
AcDbVertex
100
AcDb2dVertex
 10
79.25960436680792
 20
-86.12582608957963
 30
0.0
  0
SEQEND
  5
D0
330
CD
100
AcDbEntity
  8
_U+30EC_U+30A4_U+30E4_U+30FC 1
 62
     7
420
 16777215
370
     9
  0
INSERT
  5
D2
330
1F
100
AcDbEntity
  8
_U+30EC_U+30A4_U+30E4_U+30FC 1
100
AcDbBlockReference
  2
block 6
 10
0.0
 20
0.0
 30
0.0
  0
ENDSEC
  0
SECTION
  2
OBJECTS
  0
DICTIONARY
  5
C
330
0
100
AcDbDictionary
281
     1
  3
ACAD_GROUP
350
D
  3
ACAD_LAYOUT
350
1A
  3
ACAD_MATERIAL
350
3B
  3
ACAD_MLEADERSTYLE
350
E3
  3
ACAD_MLINESTYLE
350
17
  3
ACAD_PLOTSETTINGS
350
19
  3
ACAD_PLOTSTYLENAME
350
E
  3
ACAD_TABLESTYLE
350
E2
  3
ACAD_VISUALSTYLE
350
2A
  0
SUN
  5
3F
330
29
100
AcDbSun
 90
        1
290
     0
 63
     7
421
 16777215
 40
1.0
291
     1
 91
  2455826
 92
 54000000
292
     0
 70
     2
 71
   256
280
     1
  0
DICTIONARY
  5
D
102
{ACAD_REACTORS
330
C
102
}
330
C
100
AcDbDictionary
281
     1
  0
DICTIONARY
  5
1A
102
{ACAD_REACTORS
330
C
102
}
330
C
100
AcDbDictionary
281
     1
  3
Layout1
350
1E
  3
Layout2
350
26
  3
Model
350
22
  0
DICTIONARY
  5
3B
102
{ACAD_REACTORS
330
C
102
}
330
C
100
AcDbDictionary
281
     1
  3
ByBlock
350
3D
  3
ByLayer
350
3C
  3
Global
350
3E
  0
DICTIONARY
  5
E3
102
{ACAD_REACTORS
330
C
102
}
330
C
100
AcDbDictionary
281
     1
  0
DICTIONARY
  5
17
102
{ACAD_REACTORS
330
C
102
}
330
C
100
AcDbDictionary
281
     1
  3
Standard
350
18
  0
DICTIONARY
  5
19
102
{ACAD_REACTORS
330
C
102
}
330
C
100
AcDbDictionary
281
     1
  0
ACDBDICTIONARYWDFLT
  5
E
102
{ACAD_REACTORS
330
C
102
}
330
C
100
AcDbDictionary
281
     1
  3
Normal
350
F
100
AcDbDictionaryWithDefault
340
F
  0
DICTIONARY
  5
E2
102
{ACAD_REACTORS
330
C
102
}
330
C
100
AcDbDictionary
281
     1
  0
DICTIONARY
  5
2A
102
{ACAD_REACTORS
330
C
102
}
330
C
100
AcDbDictionary
281
     1
  3
2dWireframe
350
2F
  3
3D Hidden
350
31
  3
3dWireframe
350
30
  3
Basic
350
32
  3
Brighten
350
36
  3
ColorChange
350
3A
  3
Conceptual
350
34
  3
Dim
350
35
  3
Facepattern
350
39
  3
Flat
350
2B
  3
FlatWithEdges
350
2C
  3
Gouraud
350
2D
  3
GouraudWithEdges
350
2E
  3
Linepattern
350
38
  3
Realistic
350
33
  3
Thicken
350
37
  0
LAYOUT
  5
1E
102
{ACAD_REACTORS
330
1A
102
}
330
1A
100
AcDbPlotSettings
  1

  2
none_device
  4

  6

 40
0.0
 41
0.0
 42
0.0
 43
0.0
 44
0.0
 45
0.0
 46
0.0
 47
0.0
 48
0.0
 49
0.0
140
0.0
141
0.0
142
1.0
143
1.0
 70
   688
 72
     0
 73
     0
 74
     5
  7

 75
    16
 76
     0
 77
     2
 78
   300
147
1.0
148
0.0
149
0.0
100
AcDbLayout
  1
Layout1
 70
     1
 71
     1
 10
0.0
 20
0.0
 11
12.0
 21
9.0
 12
0.0
 22
0.0
 32
0.0
 14
1.000000000000000E+20
 24
1.000000000000000E+20
 34
1.000000000000000E+20
 15
-1.000000000000000E+20
 25
-1.000000000000000E+20
 35
-1.000000000000000E+20
146
0.0
 13
0.0
 23
0.0
 33
0.0
 16
1.0
 26
0.0
 36
0.0
 17
0.0
 27
1.0
 37
0.0
 76
     0
330
1B
  0
LAYOUT
  5
26
102
{ACAD_REACTORS
330
1A
102
}
330
1A
100
AcDbPlotSettings
  1

  2
none_device
  4

  6

 40
0.0
 41
0.0
 42
0.0
 43
0.0
 44
0.0
 45
0.0
 46
0.0
 47
0.0
 48
0.0
 49
0.0
140
0.0
141
0.0
142
1.0
143
1.0
 70
   688
 72
     0
 73
     0
 74
     5
  7

 75
    16
 76
     0
 77
     2
 78
   300
147
1.0
148
0.0
149
0.0
100
AcDbLayout
  1
Layout2
 70
     1
 71
     2
 10
0.0
 20
0.0
 11
0.0
 21
0.0
 12
0.0
 22
0.0
 32
0.0
 14
0.0
 24
0.0
 34
0.0
 15
0.0
 25
0.0
 35
0.0
146
0.0
 13
0.0
 23
0.0
 33
0.0
 16
1.0
 26
0.0
 36
0.0
 17
0.0
 27
1.0
 37
0.0
 76
     0
330
23
  0
LAYOUT
  5
22
102
{ACAD_REACTORS
330
1A
102
}
330
1A
100
AcDbPlotSettings
  1

  2
none_device
  4

  6

 40
0.0
 41
0.0
 42
0.0
 43
0.0
 44
0.0
 45
0.0
 46
0.0
 47
0.0
 48
0.0
 49
0.0
140
0.0
141
0.0
142
1.0
143
1.0
 70
  1712
 72
     0
 73
     0
 74
     0
  7

 75
     0
 76
     0
 77
     2
 78
   300
147
1.0
148
0.0
149
0.0
100
AcDbLayout
  1
Model
 70
     1
 71
     0
 10
0.0
 20
0.0
 11
12.0
 21
9.0
 12
0.0
 22
0.0
 32
0.0
 14
1.000000000000000E+20
 24
1.000000000000000E+20
 34
1.000000000000000E+20
 15
-1.000000000000000E+20
 25
-1.000000000000000E+20
 35
-1.000000000000000E+20
146
0.0
 13
0.0
 23
0.0
 33
0.0
 16
1.0
 26
0.0
 36
0.0
 17
0.0
 27
1.0
 37
0.0
 76
     0
330
1F
331
29
  0
MATERIAL
  5
3D
102
{ACAD_REACTORS
330
3B
102
}
330
3B
100
AcDbMaterial
  1
ByBlock
 72
     1
 94
      127
  0
MATERIAL
  5
3C
102
{ACAD_REACTORS
330
3B
102
}
330
3B
100
AcDbMaterial
  1
ByLayer
 72
     1
 94
      127
  0
MATERIAL
  5
3E
102
{ACAD_REACTORS
330
3B
102
}
330
3B
100
AcDbMaterial
  1
Global
 72
     1
 94
      127
  0
MLINESTYLE
  5
18
102
{ACAD_REACTORS
330
17
102
}
330
17
100
AcDbMlineStyle
  2
Standard
 70
     0
  3

 62
   256
 51
90.0
 52
90.0
 71
     2
 49
0.5
 62
   256
  6
BYLAYER
 49
-0.5
 62
   256
  6
BYLAYER
  0
ACDBPLACEHOLDER
  5
F
102
{ACAD_REACTORS
330
E
102
}
330
E
  0
VISUALSTYLE
  5
2F
102
{ACAD_REACTORS
330
2A
102
}
330
2A
100
AcDbVisualStyle
  2
2dWireframe
 70
     4
177
     2
291
     0
 71
     0
176
     1
 72
     2
176
     1
 73
     0
176
     1
 90
        0
176
     1
 40
-0.6
176
     1
 41
-30.0
176
     1
 62
     5
 63
     7
421
 16777215
176
     1
 74
     1
176
     1
 91
        4
176
     1
 64
     7
176
     1
 65
   257
176
     1
 75
     1
176
     1
175
     1
176
     1
 42
1.0
176
     1
 92
        0
176
     1
 66
   257
176
     1
 43
1.0
176
     1
 76
     1
176
     1
 77
     6
176
     1
 78
     2
176
     1
 67
     7
176
     1
 79
     5
176
     1
170
     0
176
     1
171
     0
176
     1
290
     0
176
     1
 93
        1
176
     1
 44
0.0
176
     1
173
     0
176
     1
  0
VISUALSTYLE
  5
31
102
{ACAD_REACTORS
330
2A
102
}
330
2A
100
AcDbVisualStyle
  2
3D Hidden
 70
     6
177
     2
291
     0
 71
     1
176
     1
 72
     2
176
     1
 73
     2
176
     1
 90
        0
176
     1
 40
-0.6
176
     1
 41
-30.0
176
     1
 62
     5
 63
     7
421
 16777215
176
     1
 74
     2
176
     1
 91
        2
176
     1
 64
     7
176
     1
 65
   257
176
     1
 75
     2
176
     1
175
     1
176
     1
 42
40.0
176
     1
 92
        0
176
     1
 66
   257
176
     1
 43
1.0
176
     1
 76
     1
176
     1
 77
     6
176
     1
 78
     2
176
     1
 67
     7
176
     1
 79
     3
176
     1
170
     0
176
     1
171
     0
176
     1
290
     0
176
     1
 93
        1
176
     1
 44
0.0
176
     1
173
     0
176
     1
  0
VISUALSTYLE
  5
30
102
{ACAD_REACTORS
330
2A
102
}
330
2A
100
AcDbVisualStyle
  2
3dWireframe
 70
     5
177
     2
291
     0
 71
     0
176
     1
 72
     2
176
     1
 73
     0
176
     1
 90
        0
176
     1
 40
-0.6
176
     1
 41
-30.0
176
     1
 62
     5
 63
     7
421
 16777215
176
     1
 74
     1
176
     1
 91
        4
176
     1
 64
     7
176
     1
 65
   257
176
     1
 75
     1
176
     1
175
     1
176
     1
 42
1.0
176
     1
 92
        0
176
     1
 66
   257
176
     1
 43
1.0
176
     1
 76
     1
176
     1
 77
     6
176
     1
 78
     2
176
     1
 67
     7
176
     1
 79
     5
176
     1
170
     0
176
     1
171
     0
176
     1
290
     0
176
     1
 93
        1
176
     1
 44
0.0
176
     1
173
     0
176
     1
  0
VISUALSTYLE
  5
32
102
{ACAD_REACTORS
330
2A
102
}
330
2A
100
AcDbVisualStyle
  2
Basic
 70
     7
177
     2
291
     1
 71
     1
176
     1
 72
     0
176
     1
 73
     1
176
     1
 90
        0
176
     1
 40
-0.6
176
     1
 41
-30.0
176
     1
 62
     5
 63
     7
421
 16777215
176
     1
 74
     0
176
     1
 91
        4
176
     1
 64
     7
176
     1
 65
   257
176
     1
 75
     1
176
     1
175
     1
176
     1
 42
1.0
176
     1
 92
        8
176
     1
 66
     7
176
     1
 43
1.0
176
     1
 76
     1
176
     1
 77
     6
176
     1
 78
     2
176
     1
 67
     7
176
     1
 79
     5
176
     1
170
     0
176
     1
171
     0
176
     1
290
     0
176
     1
 93
        1
176
     1
 44
0.0
176
     1
173
     0
176
     1
  0
VISUALSTYLE
  5
36
102
{ACAD_REACTORS
330
2A
102
}
330
2A
100
AcDbVisualStyle
  2
Brighten
 70
    12
177
     2
291
     1
 71
     2
176
     1
 72
     2
176
     1
 73
     0
176
     1
 90
        0
176
     1
 40
-0.6
176
     1
 41
-30.0
176
     1
 62
     5
 63
     7
421
 16777215
176
     1
 74
     1
176
     1
 91
        4
176
     1
 64
     7
176
     1
 65
   257
176
     1
 75
     1
176
     1
175
     1
176
     1
 42
1.0
176
     1
 92
        8
176
     1
 66
     7
176
     1
 43
1.0
176
     1
 76
     1
176
     1
 77
     6
176
     1
 78
     2
176
     1
 67
     7
176
     1
 79
     5
176
     1
170
     0
176
     1
171
     0
176
     1
290
     0
176
     1
 93
        1
176
     1
 44
50.0
176
     1
173
     0
176
     1
  0
VISUALSTYLE
  5
3A
102
{ACAD_REACTORS
330
2A
102
}
330
2A
100
AcDbVisualStyle
  2
ColorChange
 70
    16
177
     2
291
     1
 71
     2
176
     1
 72
     2
176
     1
 73
     3
176
     1
 90
        0
176
     1
 40
-0.6
176
     1
 41
-30.0
176
     1
 62
     5
 63
     8
421
  8421504
176
     1
 74
     1
176
     1
 91
        4
176
     1
 64
     7
176
     1
 65
   257
176
     1
 75
     1
176
     1
175
     1
176
     1
 42
1.0
176
     1
 92
        8
176
     1
 66
     8
424
  8421504
176
     1
 43
1.0
176
     1
 76
     1
176
     1
 77
     6
176
     1
 78
     2
176
     1
 67
     7
176
     1
 79
     5
176
     1
170
     0
176
     1
171
     0
176
     1
290
     0
176
     1
 93
        1
176
     1
 44
0.0
176
     1
173
     0
176
     1
  0
VISUALSTYLE
  5
34
102
{ACAD_REACTORS
330
2A
102
}
330
2A
100
AcDbVisualStyle
  2
Conceptual
 70
     9
177
     2
291
     0
 71
     3
176
     1
 72
     2
176
     1
 73
     0
176
     1
 90
        0
176
     1
 40
-0.6
176
     1
 41
-30.0
176
     1
 62
     5
 63
     7
421
 16777215
176
     1
 74
     2
176
     1
 91
        2
176
     1
 64
     7
176
     1
 65
   257
176
     1
 75
     1
176
     1
175
     1
176
     1
 42
40.0
176
     1
 92
        8
176
     1
 66
     7
176
     1
 43
1.0
176
     1
 76
     1
176
     1
 77
     6
176
     1
 78
     2
176
     1
 67
     7
176
     1
 79
     3
176
     1
170
     0
176
     1
171
     0
176
     1
290
     0
176
     1
 93
        1
176
     1
 44
0.0
176
     1
173
     0
176
     1
  0
VISUALSTYLE
  5
35
102
{ACAD_REACTORS
330
2A
102
}
330
2A
100
AcDbVisualStyle
  2
Dim
 70
    11
177
     2
291
     1
 71
     2
176
     1
 72
     2
176
     1
 73
     0
176
     1
 90
        0
176
     1
 40
-0.6
176
     1
 41
-30.0
176
     1
 62
     5
 63
     7
421
 16777215
176
     1
 74
     1
176
     1
 91
        4
176
     1
 64
     7
176
     1
 65
   257
176
     1
 75
     1
176
     1
175
     1
176
     1
 42
1.0
176
     1
 92
        8
176
     1
 66
     7
176
     1
 43
1.0
176
     1
 76
     1
176
     1
 77
     6
176
     1
 78
     2
176
     1
 67
     7
176
     1
 79
     5
176
     1
170
     0
176
     1
171
     0
176
     1
290
     0
176
     1
 93
        1
176
     1
 44
-50.0
176
     1
173
     0
176
     1
  0
VISUALSTYLE
  5
39
102
{ACAD_REACTORS
330
2A
102
}
330
2A
100
AcDbVisualStyle
  2
Facepattern
 70
    15
177
     2
291
     1
 71
     2
176
     1
 72
     2
176
     1
 73
     0
176
     1
 90
        0
176
     1
 40
-0.6
176
     1
 41
-30.0
176
     1
 62
     5
 63
     7
421
 16777215
176
     1
 74
     1
176
     1
 91
        4
176
     1
 64
     7
176
     1
 65
   257
176
     1
 75
     1
176
     1
175
     1
176
     1
 42
1.0
176
     1
 92
        8
176
     1
 66
     7
176
     1
 43
1.0
176
     1
 76
     1
176
     1
 77
     6
176
     1
 78
     2
176
     1
 67
     7
176
     1
 79
     5
176
     1
170
     0
176
     1
171
     0
176
     1
290
     0
176
     1
 93
        1
176
     1
 44
0.0
176
     1
173
     0
176
     1
  0
VISUALSTYLE
  5
2B
102
{ACAD_REACTORS
330
2A
102
}
330
2A
100
AcDbVisualStyle
  2
Flat
 70
     0
177
     2
291
     1
 71
     2
176
     1
 72
     1
176
     1
 73
     1
176
     1
 90
        2
176
     1
 40
-0.6
176
     1
 41
30.0
176
     1
 62
     5
 63
     7
421
 16777215
176
     1
 74
     0
176
     1
 91
        4
176
     1
 64
     7
176
     1
 65
   257
176
     1
 75
     1
176
     1
175
     1
176
     1
 42
1.0
176
     1
 92
        8
176
     1
 66
     7
176
     1
 43
1.0
176
     1
 76
     1
176
     1
 77
     6
176
     1
 78
     2
176
     1
 67
     7
176
     1
 79
     5
176
     1
170
     0
176
     1
171
     0
176
     1
290
     0
176
     1
 93
       13
176
     1
 44
0.0
176
     1
173
     0
176
     1
  0
VISUALSTYLE
  5
2C
102
{ACAD_REACTORS
330
2A
102
}
330
2A
100
AcDbVisualStyle
  2
FlatWithEdges
 70
     1
177
     2
291
     1
 71
     2
176
     1
 72
     1
176
     1
 73
     1
176
     1
 90
        2
176
     1
 40
-0.6
176
     1
 41
30.0
176
     1
 62
     5
 63
     7
421
 16777215
176
     1
 74
     1
176
     1
 91
        4
176
     1
 64
     7
176
     1
 65
   257
176
     1
 75
     1
176
     1
175
     1
176
     1
 42
1.0
176
     1
 92
        0
176
     1
 66
   257
176
     1
 43
1.0
176
     1
 76
     1
176
     1
 77
     6
176
     1
 78
     2
176
     1
 67
     7
176
     1
 79
     5
176
     1
170
     0
176
     1
171
     0
176
     1
290
     0
176
     1
 93
       13
176
     1
 44
0.0
176
     1
173
     0
176
     1
  0
VISUALSTYLE
  5
2D
102
{ACAD_REACTORS
330
2A
102
}
330
2A
100
AcDbVisualStyle
  2
Gouraud
 70
     2
177
     2
291
     1
 71
     2
176
     1
 72
     2
176
     1
 73
     1
176
     1
 90
        2
176
     1
 40
-0.6
176
     1
 41
30.0
176
     1
 62
     5
 63
     7
421
 16777215
176
     1
 74
     0
176
     1
 91
        4
176
     1
 64
     7
176
     1
 65
   257
176
     1
 75
     1
176
     1
175
     1
176
     1
 42
1.0
176
     1
 92
        0
176
     1
 66
     7
176
     1
 43
1.0
176
     1
 76
     1
176
     1
 77
     6
176
     1
 78
     2
176
     1
 67
     7
176
     1
 79
     5
176
     1
170
     0
176
     1
171
     0
176
     1
290
     0
176
     1
 93
       13
176
     1
 44
0.0
176
     1
173
     0
176
     1
  0
VISUALSTYLE
  5
2E
102
{ACAD_REACTORS
330
2A
102
}
330
2A
100
AcDbVisualStyle
  2
GouraudWithEdges
 70
     3
177
     2
291
     1
 71
     2
176
     1
 72
     2
176
     1
 73
     1
176
     1
 90
        2
176
     1
 40
-0.6
176
     1
 41
30.0
176
     1
 62
     5
 63
     7
421
 16777215
176
     1
 74
     1
176
     1
 91
        4
176
     1
 64
     7
176
     1
 65
   257
176
     1
 75
     1
176
     1
175
     1
176
     1
 42
1.0
176
     1
 92
        0
176
     1
 66
   257
176
     1
 43
1.0
176
     1
 76
     1
176
     1
 77
     6
176
     1
 78
     2
176
     1
 67
     7
176
     1
 79
     5
176
     1
170
     0
176
     1
171
     0
176
     1
290
     0
176
     1
 93
       13
176
     1
 44
0.0
176
     1
173
     0
176
     1
  0
VISUALSTYLE
  5
38
102
{ACAD_REACTORS
330
2A
102
}
330
2A
100
AcDbVisualStyle
  2
Linepattern
 70
    14
177
     2
291
     1
 71
     2
176
     1
 72
     2
176
     1
 73
     0
176
     1
 90
        0
176
     1
 40
-0.6
176
     1
 41
-30.0
176
     1
 62
     5
 63
     7
421
 16777215
176
     1
 74
     1
176
     1
 91
        4
176
     1
 64
     7
176
     1
 65
   257
176
     1
 75
     7
176
     1
175
     7
176
     1
 42
1.0
176
     1
 92
        8
176
     1
 66
     7
176
     1
 43
1.0
176
     1
 76
     1
176
     1
 77
     6
176
     1
 78
     2
176
     1
 67
     7
176
     1
 79
     5
176
     1
170
     0
176
     1
171
     0
176
     1
290
     0
176
     1
 93
        1
176
     1
 44
0.0
176
     1
173
     0
176
     1
  0
VISUALSTYLE
  5
33
102
{ACAD_REACTORS
330
2A
102
}
330
2A
100
AcDbVisualStyle
  2
Realistic
 70
     8
177
     2
291
     0
 71
     2
176
     1
 72
     2
176
     1
 73
     0
176
     1
 90
        0
176
     1
 40
-0.6
176
     1
 41
-30.0
176
     1
 62
     5
 63
     7
421
 16777215
176
     1
 74
     1
176
     1
 91
        0
176
     1
 64
     7
176
     1
 65
   257
176
     1
 75
     1
176
     1
175
     1
176
     1
 42
1.0
176
     1
 92
        8
176
     1
 66
     8
424
  7895160
176
     1
 43
1.0
176
     1
 76
     1
176
     1
 77
     6
176
     1
 78
     2
176
     1
 67
     7
176
     1
 79
     5
176
     1
170
     0
176
     1
171
     0
176
     1
290
     0
176
     1
 93
       13
176
     1
 44
0.0
176
     1
173
     0
176
     1
  0
VISUALSTYLE
  5
37
102
{ACAD_REACTORS
330
2A
102
}
330
2A
100
AcDbVisualStyle
  2
Thicken
 70
    13
177
     2
291
     1
 71
     2
176
     1
 72
     2
176
     1
 73
     0
176
     1
 90
        0
176
     1
 40
-0.6
176
     1
 41
-30.0
176
     1
 62
     5
 63
     7
421
 16777215
176
     1
 74
     1
176
     1
 91
        4
176
     1
 64
     7
176
     1
 65
   257
176
     1
 75
     1
176
     1
175
     1
176
     1
 42
1.0
176
     1
 92
       12
176
     1
 66
     7
176
     1
 43
1.0
176
     1
 76
     1
176
     1
 77
     6
176
     1
 78
     2
176
     1
 67
     7
176
     1
 79
     5
176
     1
170
     0
176
     1
171
     0
176
     1
290
     0
176
     1
 93
        1
176
     1
 44
0.0
176
     1
173
     0
176
     1
  0
ENDSEC
  0
EOF
