  0
SECTION
  2
HEADER
  9
$ACADVER
  1
AC1024
  9
$ACADMAINTVER
 70
   226
  9
$DWGCODEPAGE
  3
ANSI_932
  9
$INSBASE
 10
0.0
 20
0.0
 30
0.0
  9
$EXTMIN
 10
1.000000000000000E+20
 20
1.000000000000000E+20
 30
1.000000000000000E+20
  9
$EXTMAX
 10
-1.000000000000000E+20
 20
-1.000000000000000E+20
 30
-1.000000000000000E+20
  9
$LIMMIN
 10
0.0
 20
0.0
  9
$LIMMAX
 10
12.0
 20
9.0
  9
$ORTHOMODE
 70
     0
  9
$REGENMODE
 70
     1
  9
$FILLMODE
 70
     1
  9
$QTEXTMODE
 70
     0
  9
$MIRRTEXT
 70
     0
  9
$LTSCALE
 40
1.0
  9
$ATTMODE
 70
     1
  9
$TEXTSIZE
 40
0.2
  9
$TRACEWID
 40
0.05
  9
$TEXTSTYLE
  7
Standard
  9
$CLAYER
  8
0
  9
$CELTYPE
  6
ByLayer
  9
$CECOLOR
 62
   256
  9
$CELTSCALE
 40
1.0
  9
$DISPSILH
 70
     0
  9
$DIMSCALE
 40
1.0
  9
$DIMASZ
 40
0.18
  9
$DIMEXO
 40
0.0625
  9
$DIMDLI
 40
0.38
  9
$DIMRND
 40
0.0
  9
$DIMDLE
 40
0.0
  9
$DIMEXE
 40
0.18
  9
$DIMTP
 40
0.0
  9
$DIMTM
 40
0.0
  9
$DIMTXT
 40
0.18
  9
$DIMCEN
 40
0.09
  9
$DIMTSZ
 40
0.0
  9
$DIMTOL
 70
     0
  9
$DIMLIM
 70
     0
  9
$DIMTIH
 70
     1
  9
$DIMTOH
 70
     1
  9
$DIMSE1
 70
     0
  9
$DIMSE2
 70
     0
  9
$DIMTAD
 70
     0
  9
$DIMZIN
 70
     0
  9
$DIMBLK
  1

  9
$DIMASO
 70
     1
  9
$DIMSHO
 70
     1
  9
$DIMPOST
  1

  9
$DIMAPOST
  1

  9
$DIMALT
 70
     0
  9
$DIMALTD
 70
     2
  9
$DIMALTF
 40
25.4
  9
$DIMLFAC
 40
1.0
  9
$DIMTOFL
 70
     0
  9
$DIMTVP
 40
0.0
  9
$DIMTIX
 70
     0
  9
$DIMSOXD
 70
     0
  9
$DIMSAH
 70
     0
  9
$DIMBLK1
  1

  9
$DIMBLK2
  1

  9
$DIMSTYLE
  2
Standard
  9
$DIMCLRD
 70
     0
  9
$DIMCLRE
 70
     0
  9
$DIMCLRT
 70
     0
  9
$DIMTFAC
 40
1.0
  9
$DIMGAP
 40
0.09
  9
$DIMJUST
 70
     0
  9
$DIMSD1
 70
     0
  9
$DIMSD2
 70
     0
  9
$DIMTOLJ
 70
     1
  9
$DIMTZIN
 70
     0
  9
$DIMALTZ
 70
     0
  9
$DIMALTTZ
 70
     0
  9
$DIMUPT
 70
     0
  9
$DIMDEC
 70
     4
  9
$DIMTDEC
 70
     4
  9
$DIMALTU
 70
     2
  9
$DIMALTTD
 70
     2
  9
$DIMTXSTY
  7
Standard
  9
$DIMAUNIT
 70
     0
  9
$DIMADEC
 70
     0
  9
$DIMALTRND
 40
0.0
  9
$DIMAZIN
 70
     0
  9
$DIMDSEP
 70
    46
  9
$DIMATFIT
 70
     3
  9
$DIMFRAC
 70
     0
  9
$DIMLDRBLK
  1

  9
$DIMLUNIT
 70
     2
  9
$DIMLWD
 70
    -2
  9
$DIMLWE
 70
    -2
  9
$DIMTMOVE
 70
     0
  9
$DIMFXL
 40
1.0
  9
$DIMFXLON
 70
     0
  9
$DIMJOGANG
 40
0.7853981633974483
  9
$DIMTFILL
 70
     0
  9
$DIMTFILLCLR
 70
     0
  9
$DIMARCSYM
 70
     0
  9
$DIMLTYPE
  6

  9
$DIMLTEX1
  6

  9
$DIMLTEX2
  6

  9
$DIMTXTDIRECTION
 70
     0
  9
$LUNITS
 70
     2
  9
$LUPREC
 70
     4
  9
$SKETCHINC
 40
0.1
  9
$FILLETRAD
 40
0.0
  9
$AUNITS
 70
     0
  9
$AUPREC
 70
     0
  9
$MENU
  1
.
  9
$ELEVATION
 40
0.0
  9
$PELEVATION
 40
0.0
  9
$THICKNESS
 40
0.0
  9
$LIMCHECK
 70
     0
  9
$CHAMFERA
 40
0.0
  9
$CHAMFERB
 40
0.0
  9
$CHAMFERC
 40
0.0
  9
$CHAMFERD
 40
0.0
  9
$SKPOLY
 70
     0
  9
$TDCREATE
 40
2459569.488784722
  9
$TDUCREATE
 40
2459569.113784722
  9
$TDUPDATE
 40
2459569.488784722
  9
$TDUUPDATE
 40
2459569.113784722
  9
$TDINDWG
 40
0.0000000000
  9
$TDUSRTIMER
 40
0.0000000000
  9
$USRTIMER
 70
     1
  9
$ANGBASE
 50
0.0
  9
$ANGDIR
 70
     0
  9
$PDMODE
 70
     0
  9
$PDSIZE
 40
0.0
  9
$PLINEWID
 40
0.0
  9
$SPLFRAME
 70
     0
  9
$SPLINETYPE
 70
     6
  9
$SPLINESEGS
 70
     8
  9
$HANDSEED
  5
135
  9
$SURFTAB1
 70
     6
  9
$SURFTAB2
 70
     6
  9
$SURFTYPE
 70
     6
  9
$SURFU
 70
     6
  9
$SURFV
 70
     6
  9
$UCSBASE
  2

  9
$UCSNAME
  2

  9
$UCSORG
 10
0.0
 20
0.0
 30
0.0
  9
$UCSXDIR
 10
1.0
 20
0.0
 30
0.0
  9
$UCSYDIR
 10
0.0
 20
1.0
 30
0.0
  9
$UCSORTHOREF
  2

  9
$UCSORTHOVIEW
 70
     0
  9
$UCSORGTOP
 10
0.0
 20
0.0
 30
0.0
  9
$UCSORGBOTTOM
 10
0.0
 20
0.0
 30
0.0
  9
$UCSORGLEFT
 10
0.0
 20
0.0
 30
0.0
  9
$UCSORGRIGHT
 10
0.0
 20
0.0
 30
0.0
  9
$UCSORGFRONT
 10
0.0
 20
0.0
 30
0.0
  9
$UCSORGBACK
 10
0.0
 20
0.0
 30
0.0
  9
$PUCSBASE
  2

  9
$PUCSNAME
  2

  9
$PUCSORG
 10
0.0
 20
0.0
 30
0.0
  9
$PUCSXDIR
 10
1.0
 20
0.0
 30
0.0
  9
$PUCSYDIR
 10
0.0
 20
1.0
 30
0.0
  9
$PUCSORTHOREF
  2

  9
$PUCSORTHOVIEW
 70
     0
  9
$PUCSORGTOP
 10
0.0
 20
0.0
 30
0.0
  9
$PUCSORGBOTTOM
 10
0.0
 20
0.0
 30
0.0
  9
$PUCSORGLEFT
 10
0.0
 20
0.0
 30
0.0
  9
$PUCSORGRIGHT
 10
0.0
 20
0.0
 30
0.0
  9
$PUCSORGFRONT
 10
0.0
 20
0.0
 30
0.0
  9
$PUCSORGBACK
 10
0.0
 20
0.0
 30
0.0
  9
$USERI1
 70
     0
  9
$USERI2
 70
     0
  9
$USERI3
 70
     0
  9
$USERI4
 70
     0
  9
$USERI5
 70
     0
  9
$USERR1
 40
0.0
  9
$USERR2
 40
0.0
  9
$USERR3
 40
0.0
  9
$USERR4
 40
0.0
  9
$USERR5
 40
0.0
  9
$WORLDVIEW
 70
     1
  9
$SHADEDGE
 70
     3
  9
$SHADEDIF
 70
    70
  9
$TILEMODE
 70
     1
  9
$MAXACTVP
 70
    64
  9
$PINSBASE
 10
0.0
 20
0.0
 30
0.0
  9
$PLIMCHECK
 70
     0
  9
$PEXTMIN
 10
1.000000000000000E+20
 20
1.000000000000000E+20
 30
1.000000000000000E+20
  9
$PEXTMAX
 10
-1.000000000000000E+20
 20
-1.000000000000000E+20
 30
-1.000000000000000E+20
  9
$PLIMMIN
 10
0.0
 20
0.0
  9
$PLIMMAX
 10
12.0
 20
9.0
  9
$UNITMODE
 70
     0
  9
$VISRETAIN
 70
     1
  9
$PLINEGEN
 70
     0
  9
$PSLTSCALE
 70
     1
  9
$TREEDEPTH
 70
  3020
  9
$CMLSTYLE
  2
Standard
  9
$CMLJUST
 70
     0
  9
$CMLSCALE
 40
1.0
  9
$PROXYGRAPHICS
 70
     1
  9
$MEASUREMENT
 70
     0
  9
$CELWEIGHT
370
    -1
  9
$ENDCAPS
280
     0
  9
$JOINSTYLE
280
     0
  9
$LWDISPLAY
290
     1
  9
$INSUNITS
 70
     4
  9
$HYPERLINKBASE
  1

  9
$STYLESHEET
  1

  9
$XEDIT
290
     1
  9
$CEPSNTYPE
380
     0
  9
$PSTYLEMODE
290
     1
  9
$FINGERPRINTGUID
  2
{2C883711-0C73-BA4F-9D89-575A28B23526}
  9
$VERSIONGUID
  2
{1E5F3B6E-7C1D-9645-8D6F-F11A8B1C3EF5}
  9
$EXTNAMES
290
     1
  9
$PSVPSCALE
 40
0.0
  9
$OLESTARTUP
290
     0
  9
$SORTENTS
280
   127
  9
$INDEXCTL
280
     0
  9
$HIDETEXT
280
     1
  9
$XCLIPFRAME
280
     2
  9
$HALOGAP
280
     0
  9
$OBSCOLOR
 70
   257
  9
$OBSLTYPE
280
     0
  9
$INTERSECTIONDISPLAY
280
     0
  9
$INTERSECTIONCOLOR
 70
   257
  9
$DIMASSOC
280
     2
  9
$PROJECTNAME
  1

  9
$CAMERADISPLAY
290
     0
  9
$LENSLENGTH
 40
50.0
  9
$CAMERAHEIGHT
 40
0.0
  9
$STEPSPERSEC
 40
2.0
  9
$STEPSIZE
 40
6.0
  9
$3DDWFPREC
 40
2.0
  9
$PSOLWIDTH
 40
0.25
  9
$PSOLHEIGHT
 40
4.0
  9
$LOFTANG1
 40
1.570796326794896
  9
$LOFTANG2
 40
1.570796326794896
  9
$LOFTMAG1
 40
0.0
  9
$LOFTMAG2
 40
0.0
  9
$LOFTPARAM
 70
     7
  9
$LOFTNORMALS
280
     1
  9
$LATITUDE
 40
37.795
  9
$LONGITUDE
 40
-122.394
  9
$NORTHDIRECTION
 40
0.0
  9
$TIMEZONE
 70
 -8000
  9
$LIGHTGLYPHDISPLAY
280
     1
  9
$TILEMODELIGHTSYNCH
280
     1
  9
$CMATERIAL
347
11
  9
$SOLIDHIST
280
     0
  9
$SHOWHIST
280
     1
  9
$DWFFRAME
280
     2
  9
$DGNFRAME
280
     0
  9
$REALWORLDSCALE
290
     1
  9
$INTERFERECOLOR
 62
     1
  9
$INTERFEREOBJVS
345
33
  9
$INTERFEREVPVS
346
30
  9
$CSHADOW
280
     0
  9
$SHADOWPLANELOCATION
 40
0.0
  0
ENDSEC
  0
SECTION
  2
CLASSES
  0
CLASS
  1
ACDBDICTIONARYWDFLT
  2
AcDbDictionaryWithDefault
  3
ObjectDBX Classes
 90
        0
 91
        1
280
     0
281
     0
  0
CLASS
  1
MATERIAL
  2
AcDbMaterial
  3
ObjectDBX Classes
 90
     1153
 91
        3
280
     0
281
     0
  0
CLASS
  1
VISUALSTYLE
  2
AcDbVisualStyle
  3
ObjectDBX Classes
 90
     4095
 91
       24
280
     0
281
     0
  0
CLASS
  1
SCALE
  2
AcDbScale
  3
ObjectDBX Classes
 90
     1153
 91
       17
280
     0
281
     0
  0
CLASS
  1
TABLESTYLE
  2
AcDbTableStyle
  3
ObjectDBX Classes
 90
     4095
 91
        1
280
     0
281
     0
  0
CLASS
  1
MLEADERSTYLE
  2
AcDbMLeaderStyle
  3
ACDB_MLEADERSTYLE_CLASS
 90
     4095
 91
        1
280
     0
281
     0
  0
CLASS
  1
ACDBSECTIONVIEWSTYLE
  2
AcDbSectionViewStyle
  3
ObjectDBX Classes
 90
     1025
 91
        1
280
     0
281
     0
  0
CLASS
  1
ACDBDETAILVIEWSTYLE
  2
AcDbDetailViewStyle
  3
ObjectDBX Classes
 90
     1025
 91
        1
280
     0
281
     0
  0
CLASS
  1
DICTIONARYVAR
  2
AcDbDictionaryVar
  3
ObjectDBX Classes
 90
        0
 91
        5
280
     0
281
     0
  0
CLASS
  1
CELLSTYLEMAP
  2
AcDbCellStyleMap
  3
ObjectDBX Classes
 90
     1152
 91
        1
280
     0
281
     0
  0
ENDSEC
  0
SECTION
  2
TABLES
  0
TABLE
  2
VPORT
  5
8
330
0
100
AcDbSymbolTable
 70
     1
  0
VPORT
  5
57
330
8
100
AcDbSymbolTableRecord
100
AcDbViewportTableRecord
  2
*Active
 70
     0
 10
0.0
 20
0.0
 11
1.0
 21
1.0
 12
0.0
 22
0.0
 13
0.0
 23
0.0
 14
1.0
 24
1.0
 15
0.0
 25
0.0
 16
0.0
 26
0.0
 36
1.0
 17
104.9999999737534
 27
-148.4999999628701
 37
0.0
 40
302.939999924255
 41
0.7070707070707534
 42
50.0
 43
0.0
 44
0.0
 50
0.0
 51
0.0
 71
     0
 72
   100
 73
     1
 74
     0
 75
     1
 76
     0
 77
     0
 78
     0
281
     0
 65
     1
110
0.0
120
0.0
130
0.0
111
1.0
121
0.0
131
0.0
112
0.0
122
1.0
132
0.0
 79
     0
146
0.0
 60
     3
 61
     5
292
     1
282
     1
141
0.0
142
0.0
 63
   250
421
  3355443
  0
ENDTAB
  0
TABLE
  2
LTYPE
  5
5
330
0
100
AcDbSymbolTable
 70
     2
  0
LTYPE
  5
5B
330
5
100
AcDbSymbolTableRecord
100
AcDbLinetypeTableRecord
  2
ByBlock
 70
     0
  3

 72
    65
 73
     0
 40
0.0
  0
LTYPE
  5
5C
330
5
100
AcDbSymbolTableRecord
100
AcDbLinetypeTableRecord
  2
ByLayer
 70
     0
  3

 72
    65
 73
     0
 40
0.0
  0
LTYPE
  5
5D
330
5
100
AcDbSymbolTableRecord
100
AcDbLinetypeTableRecord
  2
Continuous
 70
     0
  3
Solid line
 72
    65
 73
     0
 40
0.0
  0
LTYPE
  5
D5
330
5
100
AcDbSymbolTableRecord
100
AcDbLinetypeTableRecord
  2
AI-Linetype-0
 70
     0
  3
Adobe Illustrator Linetype No. 0
 72
    65
 73
     2
 40
1.411111110758333
 49
0.7055555553791667
 74
     0
 49
-0.7055555553791667
 74
     0
  0
ENDTAB
  0
TABLE
  2
LAYER
  5
2
330
0
100
AcDbSymbolTable
 70
     2
  0
LAYER
  5
54
330
2
100
AcDbSymbolTableRecord
100
AcDbLayerTableRecord
  2
0
 70
     0
 62
     7
  6
Continuous
370
    -3
390
F
347
21
  0
LAYER
  5
78
330
2
100
AcDbSymbolTableRecord
100
AcDbLayerTableRecord
  2
レイヤー 1
 70
     0
 62
     7
  6
Continuous
370
     0
390
F
347
21
  0
ENDTAB
  0
TABLE
  2
STYLE
  5
3
330
0
100
AcDbSymbolTable
 70
     2
  0
STYLE
  5
55
330
3
100
AcDbSymbolTableRecord
100
AcDbTextStyleTableRecord
  2
Standard
 70
     0
 40
0.0
 41
1.0
 50
0.0
 71
     0
 42
0.2
  3
txt
  4

  0
STYLE
  5
5A
330
3
100
AcDbSymbolTableRecord
100
AcDbTextStyleTableRecord
  2
Annotative
 70
     0
 40
0.0
 41
1.0
 50
0.0
 71
     0
 42
0.2
  3
txt
  4

1001
AcadAnnotative
1000
AnnotativeData
1002
{
1070
     1
1070
     1
1002
}
  0
ENDTAB
  0
TABLE
  2
VIEW
  5
6
330
0
100
AcDbSymbolTable
 70
     0
  0
ENDTAB
  0
TABLE
  2
UCS
  5
7
330
0
100
AcDbSymbolTable
 70
     0
  0
ENDTAB
  0
TABLE
  2
APPID
  5
9
330
0
100
AcDbSymbolTable
 70
     2
  0
APPID
  5
56
330
9
100
AcDbSymbolTableRecord
100
AcDbRegAppTableRecord
  2
ACAD
 70
     0
  0
APPID
  5
5E
330
9
100
AcDbSymbolTableRecord
100
AcDbRegAppTableRecord
  2
AcadAnnotative
 70
     0
  0
ENDTAB
  0
TABLE
  2
DIMSTYLE
  5
A
330
0
100
AcDbSymbolTable
 70
     2
100
AcDbDimStyleTable
 71
     0
  0
DIMSTYLE
105
58
330
A
100
AcDbSymbolTableRecord
100
AcDbDimStyleTableRecord
  2
Standard
 70
     0
340
55
  0
DIMSTYLE
105
59
330
A
100
AcDbSymbolTableRecord
100
AcDbDimStyleTableRecord
  2
Annotative
 70
     0
340
55
1001
AcadAnnotative
1000
AnnotativeData
1002
{
1070
     1
1070
     1
1002
}
  0
ENDTAB
  0
TABLE
  2
BLOCK_RECORD
  5
1
330
0
100
AcDbSymbolTable
 70
    14
  0
BLOCK_RECORD
  5
70
330
1
100
AcDbSymbolTableRecord
100
AcDbBlockTableRecord
  2
*Model_Space
340
73
 70
     0
280
     1
281
     0
  0
BLOCK_RECORD
  5
6C
330
1
100
AcDbSymbolTableRecord
100
AcDbBlockTableRecord
  2
*Paper_Space
340
6F
 70
     0
280
     1
281
     0
  0
BLOCK_RECORD
  5
74
330
1
100
AcDbSymbolTableRecord
100
AcDbBlockTableRecord
  2
*Paper_Space0
340
77
 70
     0
280
     1
281
     0
  0
BLOCK_RECORD
  5
79
330
1
100
AcDbSymbolTableRecord
100
AcDbBlockTableRecord
  2
Block_0
340
0
102
{BLKREFS
331
7A
102
}
 70
     0
280
     1
281
     0
  0
BLOCK_RECORD
  5
7D
330
1
100
AcDbSymbolTableRecord
100
AcDbBlockTableRecord
  2
Block_1
340
0
102
{BLKREFS
331
7E
102
}
 70
     0
280
     1
281
     0
  0
BLOCK_RECORD
  5
97
330
1
100
AcDbSymbolTableRecord
100
AcDbBlockTableRecord
  2
Block_2
340
0
102
{BLKREFS
331
98
102
}
 70
     0
280
     1
281
     0
  0
BLOCK_RECORD
  5
A0
330
1
100
AcDbSymbolTableRecord
100
AcDbBlockTableRecord
  2
Block_3
340
0
102
{BLKREFS
331
A1
102
}
 70
     0
280
     1
281
     0
  0
BLOCK_RECORD
  5
A4
330
1
100
AcDbSymbolTableRecord
100
AcDbBlockTableRecord
  2
Block_4
340
0
102
{BLKREFS
331
A5
102
}
 70
     0
280
     1
281
     0
  0
BLOCK_RECORD
  5
AF
330
1
100
AcDbSymbolTableRecord
100
AcDbBlockTableRecord
  2
Block_5
340
0
102
{BLKREFS
331
B0
102
}
 70
     0
280
     1
281
     0
  0
BLOCK_RECORD
  5
B3
330
1
100
AcDbSymbolTableRecord
100
AcDbBlockTableRecord
  2
Block_6
340
0
102
{BLKREFS
331
B4
102
}
 70
     0
280
     1
281
     0
  0
BLOCK_RECORD
  5
C0
330
1
100
AcDbSymbolTableRecord
100
AcDbBlockTableRecord
  2
Block_7
340
0
102
{BLKREFS
331
C1
102
}
 70
     0
280
     1
281
     0
  0
BLOCK_RECORD
  5
C7
330
1
100
AcDbSymbolTableRecord
100
AcDbBlockTableRecord
  2
Block_8
340
0
102
{BLKREFS
331
C8
102
}
 70
     0
280
     1
281
     0
  0
BLOCK_RECORD
  5
CB
330
1
100
AcDbSymbolTableRecord
100
AcDbBlockTableRecord
  2
Block_9
340
0
102
{BLKREFS
331
CC
102
}
 70
     0
280
     1
281
     0
  0
BLOCK_RECORD
  5
D6
330
1
100
AcDbSymbolTableRecord
100
AcDbBlockTableRecord
  2
Block_10
340
0
102
{BLKREFS
331
D7
102
}
 70
     0
280
     1
281
     0
  0
BLOCK_RECORD
  5
DC
330
1
100
AcDbSymbolTableRecord
100
AcDbBlockTableRecord
  2
Block_11
340
0
102
{BLKREFS
331
DD
102
}
 70
     0
280
     1
281
     0
  0
BLOCK_RECORD
  5
E0
330
1
100
AcDbSymbolTableRecord
100
AcDbBlockTableRecord
  2
Block_12
340
0
102
{BLKREFS
331
E1
102
}
 70
     0
280
     1
281
     0
  0
ENDTAB
  0
ENDSEC
  0
SECTION
  2
BLOCKS
  0
BLOCK
  5
71
330
70
100
AcDbEntity
  8
0
100
AcDbBlockBegin
  2
*Model_Space
 70
     0
 10
0.0
 20
0.0
 30
0.0
  3
*Model_Space
  1

  0
ENDBLK
  5
72
330
70
100
AcDbEntity
  8
0
100
AcDbBlockEnd
  0
BLOCK
  5
6D
330
6C
100
AcDbEntity
 67
     1
  8
0
100
AcDbBlockBegin
  2
*Paper_Space
 70
     0
 10
0.0
 20
0.0
 30
0.0
  3
*Paper_Space
  1

  0
ENDBLK
  5
6E
330
6C
100
AcDbEntity
 67
     1
  8
0
100
AcDbBlockEnd
  0
BLOCK
  5
75
330
74
100
AcDbEntity
 67
     1
  8
0
100
AcDbBlockBegin
  2
*Paper_Space0
 70
     0
 10
0.0
 20
0.0
 30
0.0
  3
*Paper_Space0
  1

  0
ENDBLK
  5
76
330
74
100
AcDbEntity
 67
     1
  8
0
100
AcDbBlockEnd
  0
BLOCK
  5
7B
330
79
100
AcDbEntity
  8
0
100
AcDbBlockBegin
  2
Block_0
 70
     0
 10
0.0
 20
0.0
 30
0.0
  3
Block_0
  1

  0
INSERT
  5
7E
330
79
100
AcDbEntity
  8
レイヤー 1
100
AcDbBlockReference
  2
Block_1
 10
0.0
 20
0.0
 30
0.0
  0
ENDBLK
  5
7C
330
79
100
AcDbEntity
  8
0
100
AcDbBlockEnd
  0
BLOCK
  5
7F
330
7D
100
AcDbEntity
  8
0
100
AcDbBlockBegin
  2
Block_1
 70
     0
 10
0.0
 20
0.0
 30
0.0
  3
Block_1
  1

  0
LINE
  5
81
330
7D
100
AcDbEntity
  8
レイヤー 1
 62
   250
420
  2299925
370
    25
100
AcDbLine
 10
118.8787335540035
 20
-135.8402289389109
 30
0.0
 11
118.8787335540035
 21
-138.8402158068193
 31
0.0
  0
LINE
  5
82
330
7D
100
AcDbEntity
  8
レイヤー 1
 62
   250
420
  2299925
370
    25
100
AcDbLine
 10
91.8784995678539
 20
-135.8402289389109
 30
0.0
 11
91.8784995678539
 21
-160.839896078894
 31
0.0
  0
LINE
  5
83
330
7D
100
AcDbEntity
  8
レイヤー 1
 62
   250
420
  2299925
370
    25
100
AcDbLine
 10
91.8784995678539
 20
-135.8402289389109
 30
0.0
 11
118.8787335540035
 21
-135.8402289389109
 31
0.0
  0
LINE
  5
84
330
7D
100
AcDbEntity
  8
レイヤー 1
 62
   250
420
  2299925
370
    25
100
AcDbLine
 10
91.8784995678539
 20
-160.839896078894
 30
0.0
 11
92.87858928982606
 21
-160.839896078894
 31
0.0
  0
LINE
  5
85
330
7D
100
AcDbEntity
  8
レイヤー 1
 62
   250
420
  2299925
370
    25
100
AcDbLine
 10
92.87858928982606
 20
-136.8399658578499
 30
0.0
 11
92.87858928982606
 21
-160.839896078894
 31
0.0
  0
LINE
  5
86
330
7D
100
AcDbEntity
  8
レイヤー 1
 62
   250
420
  2299925
370
    25
100
AcDbLine
 10
92.87858928982606
 20
-136.8399658578499
 30
0.0
 11
117.8786085795189
 21
-136.8399658578499
 31
0.0
  0
LINE
  5
87
330
7D
100
AcDbEntity
  8
レイヤー 1
 62
   250
420
  2299925
370
    25
100
AcDbLine
 10
108.8786479757936
 20
-138.8402158068193
 30
0.0
 11
118.8787335540035
 21
-138.8402158068193
 31
0.0
  0
LINE
  5
88
330
7D
100
AcDbEntity
  8
レイヤー 1
 62
   250
420
  2299925
370
    25
100
AcDbLine
 10
117.8786085795189
 20
-136.8399658578499
 30
0.0
 11
117.8786085795189
 21
-137.8397380545658
 31
0.0
  0
LINE
  5
89
330
7D
100
AcDbEntity
  8
レイヤー 1
 62
   250
420
  2299925
370
    25
100
AcDbLine
 10
108.8786479757936
 20
-137.8397380545658
 30
0.0
 11
117.8786085795189
 21
-137.8397380545658
 31
0.0
  0
LINE
  5
8A
330
7D
100
AcDbEntity
  8
レイヤー 1
 62
   250
420
  2299925
370
    25
100
AcDbLine
 10
108.8786479757936
 20
-137.8397380545658
 30
0.0
 11
108.8786479757936
 21
-138.8402158068193
 31
0.0
  0
SPLINE
  5
8B
330
7D
100
AcDbEntity
  8
レイヤー 1
 62
   250
420
  2299925
370
     9
100
AcDbSpline
210
0.0
220
0.0
230
1.0
 70
     9
 71
     3
 72
    17
 73
    13
 74
     0
 42
0.0000000001
 43
0.0000000001
 40
0.0
 40
0.0
 40
0.0
 40
0.0
 40
1.0
 40
1.0
 40
1.0
 40
2.0
 40
2.0
 40
2.0
 40
3.0
 40
3.0
 40
3.0
 40
4.0
 40
4.0
 40
4.0
 40
4.0
 10
87.97864706882931
 20
-135.8402289389109
 30
0.0
 10
87.97864706882931
 20
-135.7843842181134
 30
0.0
 10
87.93384429106259
 20
-135.7396167192555
 30
0.0
 10
87.87874040218735
 20
-135.7396167192555
 30
0.0
 10
87.82324845775683
 20
-135.7396167192555
 30
0.0
 10
87.77883373554603
 20
-135.7843842181134
 30
0.0
 10
87.77883373554603
 20
-135.8402289389109
 30
0.0
 10
87.77883373554603
 20
-135.8953328263942
 30
0.0
 10
87.82324845775683
 20
-135.9401356030287
 30
0.0
 10
87.87874040218735
 20
-135.9401356030287
 30
0.0
 10
87.93384429106259
 20
-135.9401356030287
 30
0.0
 10
87.97864706882931
 20
-135.8953328263942
 30
0.0
 10
87.97864706882931
 20
-135.8402289389109
 30
0.0
  0
CIRCLE
  5
8C
330
7D
100
AcDbEntity
  8
レイヤー 1
 62
   250
420
  2299925
370
     9
100
AcDbCircle
 10
87.87874040218751
 20
-160.839896078894
 30
0.0
 40
0.0999066653796563
  0
SPLINE
  5
8D
330
7D
100
AcDbEntity
  8
レイヤー 1
 62
   250
420
  2299925
370
     9
100
AcDbSpline
210
0.0
220
0.0
230
1.0
 70
     9
 71
     3
 72
    17
 73
    13
 74
     0
 42
0.0000000001
 43
0.0000000001
 40
0.0
 40
0.0
 40
0.0
 40
0.0
 40
1.0
 40
1.0
 40
1.0
 40
2.0
 40
2.0
 40
2.0
 40
3.0
 40
3.0
 40
3.0
 40
4.0
 40
4.0
 40
4.0
 40
4.0
 10
91.97840623449556
 20
-164.840325421279
 30
0.0
 10
91.97840623449556
 20
-164.7845159782584
 30
0.0
 10
91.93360345672882
 20
-164.7397484794005
 30
0.0
 10
91.8784995678539
 20
-164.7397484794005
 30
0.0
 10
91.82336040120082
 20
-164.7397484794005
 30
0.0
 10
91.77859290121226
 20
-164.7845159782584
 30
0.0
 10
91.77859290121226
 20
-164.840325421279
 30
0.0
 10
91.77859290121226
 20
-164.8954645865389
 30
0.0
 10
91.82336040120082
 20
-164.9402320853968
 30
0.0
 10
91.8784995678539
 20
-164.9402320853968
 30
0.0
 10
91.93360345672882
 20
-164.9402320853968
 30
0.0
 10
91.97840623449556
 20
-164.8954645865389
 30
0.0
 10
91.97840623449556
 20
-164.840325421279
 30
0.0
  0
SPLINE
  5
8E
330
7D
100
AcDbEntity
  8
レイヤー 1
 62
   250
420
  2299925
370
     9
100
AcDbSpline
210
0.0
220
0.0
230
1.0
 70
     9
 71
     3
 72
    17
 73
    13
 74
     0
 42
0.0000000001
 43
0.0000000001
 40
0.0
 40
0.0
 40
0.0
 40
0.0
 40
1.0
 40
1.0
 40
1.0
 40
2.0
 40
2.0
 40
2.0
 40
3.0
 40
3.0
 40
3.0
 40
4.0
 40
4.0
 40
4.0
 40
4.0
 10
92.97849595646832
 20
-164.840325421279
 30
0.0
 10
92.97849595646832
 20
-164.7845159782584
 30
0.0
 10
92.93372845647914
 20
-164.7397484794005
 30
0.0
 10
92.87858928982606
 20
-164.7397484794005
 30
0.0
 10
92.82348540095112
 20
-164.7397484794005
 30
0.0
 10
92.7786826231844
 20
-164.7845159782584
 30
0.0
 10
92.7786826231844
 20
-164.840325421279
 30
0.0
 10
92.7786826231844
 20
-164.8954645865389
 30
0.0
 10
92.82348540095112
 20
-164.9402320853968
 30
0.0
 10
92.87858928982606
 20
-164.9402320853968
 30
0.0
 10
92.93372845647914
 20
-164.9402320853968
 30
0.0
 10
92.97849595646832
 20
-164.8954645865389
 30
0.0
 10
92.97849595646832
 20
-164.840325421279
 30
0.0
  0
SPLINE
  5
8F
330
7D
100
AcDbEntity
  8
レイヤー 1
 62
   250
420
  2299925
370
     9
100
AcDbSpline
210
0.0
220
0.0
230
1.0
 70
     9
 71
     3
 72
    17
 73
    13
 74
     0
 42
0.0000000001
 43
0.0000000001
 40
0.0
 40
0.0
 40
0.0
 40
0.0
 40
1.0
 40
1.0
 40
1.0
 40
2.0
 40
2.0
 40
2.0
 40
3.0
 40
3.0
 40
3.0
 40
4.0
 40
4.0
 40
4.0
 40
4.0
 10
118.9786402181214
 20
-142.8399395936667
 30
0.0
 10
118.9786402181214
 20
-142.7848357061836
 30
0.0
 10
118.9338374414866
 20
-142.7400329295489
 30
0.0
 10
118.8787335540035
 20
-142.7400329295489
 30
0.0
 10
118.8235956722289
 20
-142.7400329295489
 30
0.0
 10
118.7788268898857
 20
-142.7848357061836
 30
0.0
 10
118.7788268898857
 20
-142.8399395936667
 30
0.0
 10
118.7788268898857
 20
-142.895078758927
 30
0.0
 10
118.8235956722289
 20
-142.9398815355614
 30
0.0
 10
118.8787335540035
 20
-142.9398815355614
 30
0.0
 10
118.9338374414866
 20
-142.9398815355614
 30
0.0
 10
118.9786402181214
 20
-142.895078758927
 30
0.0
 10
118.9786402181214
 20
-142.8399395936667
 30
0.0
  0
SPLINE
  5
90
330
7D
100
AcDbEntity
  8
レイヤー 1
 62
   250
420
  2299925
370
     9
100
AcDbSpline
210
0.0
220
0.0
230
1.0
 70
     9
 71
     3
 72
    17
 73
    13
 74
     0
 42
0.0000000001
 43
0.0000000001
 40
0.0
 40
0.0
 40
0.0
 40
0.0
 40
1.0
 40
1.0
 40
1.0
 40
2.0
 40
2.0
 40
2.0
 40
3.0
 40
3.0
 40
3.0
 40
4.0
 40
4.0
 40
4.0
 40
4.0
 10
108.9785546399115
 20
-142.8399395936667
 30
0.0
 10
108.9785546399115
 20
-142.7848357061836
 30
0.0
 10
108.9337871410536
 20
-142.7400329295489
 30
0.0
 10
108.8786479757936
 20
-142.7400329295489
 30
0.0
 10
108.8235440883106
 20
-142.7400329295489
 30
0.0
 10
108.7787413116758
 20
-142.7848357061836
 30
0.0
 10
108.7787413116758
 20
-142.8399395936667
 30
0.0
 10
108.7787413116758
 20
-142.895078758927
 30
0.0
 10
108.8235440883106
 20
-142.9398815355614
 30
0.0
 10
108.8786479757936
 20
-142.9398815355614
 30
0.0
 10
108.9337871410536
 20
-142.9398815355614
 30
0.0
 10
108.9785546399115
 20
-142.895078758927
 30
0.0
 10
108.9785546399115
 20
-142.8399395936667
 30
0.0
  0
SPLINE
  5
91
330
7D
100
AcDbEntity
  8
レイヤー 1
 62
   250
420
  2299925
370
     9
100
AcDbSpline
210
0.0
220
0.0
230
1.0
 70
     9
 71
     3
 72
    17
 73
    13
 74
     0
 42
0.0000000001
 43
0.0000000001
 40
0.0
 40
0.0
 40
0.0
 40
0.0
 40
1.0
 40
1.0
 40
1.0
 40
2.0
 40
2.0
 40
2.0
 40
3.0
 40
3.0
 40
3.0
 40
4.0
 40
4.0
 40
4.0
 40
4.0
 10
122.9790695605064
 20
-138.8402158068193
 30
0.0
 10
122.9790695605064
 20
-138.7844063637986
 30
0.0
 10
122.9343020616485
 20
-138.7403091427015
 30
0.0
 10
122.8791628963885
 20
-138.7403091427015
 30
0.0
 10
122.8233534533679
 20
-138.7403091427015
 30
0.0
 10
122.7785873379066
 20
-138.7844063637986
 30
0.0
 10
122.7785873379066
 20
-138.8402158068193
 30
0.0
 10
122.7785873379066
 20
-138.8953196943023
 30
0.0
 10
122.8233534533679
 20
-138.9401224709371
 30
0.0
 10
122.8791628963885
 20
-138.9401224709371
 30
0.0
 10
122.9343020616485
 20
-138.9401224709371
 30
0.0
 10
122.9790695605064
 20
-138.8953196943023
 30
0.0
 10
122.9790695605064
 20
-138.8402158068193
 30
0.0
  0
SPLINE
  5
92
330
7D
100
AcDbEntity
  8
レイヤー 1
 62
   250
420
  2299925
370
     9
100
AcDbSpline
210
0.0
220
0.0
230
1.0
 70
     9
 71
     3
 72
    17
 73
    13
 74
     0
 42
0.0000000001
 43
0.0000000001
 40
0.0
 40
0.0
 40
0.0
 40
0.0
 40
1.0
 40
1.0
 40
1.0
 40
2.0
 40
2.0
 40
2.0
 40
3.0
 40
3.0
 40
3.0
 40
4.0
 40
4.0
 40
4.0
 40
4.0
 10
122.9790695605064
 20
-135.8402289389109
 30
0.0
 10
122.9790695605064
 20
-135.7843842181134
 30
0.0
 10
122.9343020616485
 20
-135.7396167192555
 30
0.0
 10
122.8791628963885
 20
-135.7396167192555
 30
0.0
 10
122.8233534533679
 20
-135.7396167192555
 30
0.0
 10
122.7785873379066
 20
-135.7843842181134
 30
0.0
 10
122.7785873379066
 20
-135.8402289389109
 30
0.0
 10
122.7785873379066
 20
-135.8953328263942
 30
0.0
 10
122.8233534533679
 20
-135.9401356030287
 30
0.0
 10
122.8791628963885
 20
-135.9401356030287
 30
0.0
 10
122.9343020616485
 20
-135.9401356030287
 30
0.0
 10
122.9790695605064
 20
-135.8953328263942
 30
0.0
 10
122.9790695605064
 20
-135.8402289389109
 30
0.0
  0
SPLINE
  5
93
330
7D
100
AcDbEntity
  8
レイヤー 1
 62
   250
420
  2299925
370
     9
100
AcDbSpline
210
0.0
220
0.0
230
1.0
 70
     9
 71
     3
 72
    17
 73
    13
 74
     0
 42
0.0000000001
 43
0.0000000001
 40
0.0
 40
0.0
 40
0.0
 40
0.0
 40
1.0
 40
1.0
 40
1.0
 40
2.0
 40
2.0
 40
2.0
 40
3.0
 40
3.0
 40
3.0
 40
4.0
 40
4.0
 40
4.0
 40
4.0
 10
92.97849595646832
 20
-142.8399395936667
 30
0.0
 10
92.97849595646832
 20
-142.7848357061836
 30
0.0
 10
92.93372845647914
 20
-142.7400329295489
 30
0.0
 10
92.87858928982606
 20
-142.7400329295489
 30
0.0
 10
92.82348540095112
 20
-142.7400329295489
 30
0.0
 10
92.7786826231844
 20
-142.7848357061836
 30
0.0
 10
92.7786826231844
 20
-142.8399395936667
 30
0.0
 10
92.7786826231844
 20
-142.895078758927
 30
0.0
 10
92.82348540095112
 20
-142.9398815355614
 30
0.0
 10
92.87858928982606
 20
-142.9398815355614
 30
0.0
 10
92.93372845647914
 20
-142.9398815355614
 30
0.0
 10
92.97849595646832
 20
-142.895078758927
 30
0.0
 10
92.97849595646832
 20
-142.8399395936667
 30
0.0
  0
LINE
  5
94
330
7D
100
AcDbEntity
  8
レイヤー 1
 62
   250
420
  2299925
370
     9
100
AcDbLine
 10
122.8791628963885
 20
-135.8402289389109
 30
0.0
 11
122.8791628963885
 21
-138.8402158068193
 31
0.0
  0
LINE
  5
95
330
7D
100
AcDbEntity
  8
レイヤー 1
 62
   250
420
  2299925
370
     9
100
AcDbLine
 10
121.4191568225253
 20
-135.8402289389109
 30
0.0
 11
123.8789350931044
 21
-135.8402289389109
 31
0.0
  0
LINE
  5
96
330
7D
100
AcDbEntity
  8
レイヤー 1
 62
   250
420
  2299925
370
     9
100
AcDbLine
 10
121.4191568225253
 20
-138.8402158068193
 30
0.0
 11
123.8789350931044
 21
-138.8402158068193
 31
0.0
  0
INSERT
  5
98
330
7D
100
AcDbEntity
  8
レイヤー 1
100
AcDbBlockReference
  2
Block_2
 10
0.0
 20
0.0
 30
0.0
  0
LINE
  5
9D
330
7D
100
AcDbEntity
  8
レイヤー 1
 62
   250
420
  2299925
370
     9
100
AcDbLine
 10
87.87874040218735
 20
-135.8402289389109
 30
0.0
 11
87.87874040218735
 21
-160.839896078894
 31
0.0
  0
LINE
  5
9E
330
7D
100
AcDbEntity
  8
レイヤー 1
 62
   250
420
  2299925
370
     9
100
AcDbLine
 10
89.33874651293384
 20
-135.8402289389109
 30
0.0
 11
86.87861540243735
 21
-135.8402289389109
 31
0.0
  0
LINE
  5
9F
330
7D
100
AcDbEntity
  8
レイヤー 1
 62
   250
420
  2299925
370
     9
100
AcDbLine
 10
89.33874651293384
 20
-160.839896078894
 30
0.0
 11
86.87861540243735
 21
-160.839896078894
 31
0.0
  0
INSERT
  5
A1
330
7D
100
AcDbEntity
  8
レイヤー 1
100
AcDbBlockReference
  2
Block_3
 10
0.0
 20
0.0
 30
0.0
  0
LINE
  5
AC
330
7D
100
AcDbEntity
  8
レイヤー 1
 62
   250
420
  2299925
370
     9
100
AcDbLine
 10
108.8786479757936
 20
-142.8399395936667
 30
0.0
 11
118.8787335540035
 21
-142.8399395936667
 31
0.0
  0
LINE
  5
AD
330
7D
100
AcDbEntity
  8
レイヤー 1
 62
   250
420
  2299925
370
     9
100
AcDbLine
 10
108.8786479757936
 20
-141.3799335198034
 30
0.0
 11
108.8786479757936
 21
-143.8404173459202
 31
0.0
  0
LINE
  5
AE
330
7D
100
AcDbEntity
  8
レイヤー 1
 62
   250
420
  2299925
370
     9
100
AcDbLine
 10
118.8787335540035
 20
-141.3799335198034
 30
0.0
 11
118.8787335540035
 21
-143.8404173459202
 31
0.0
  0
INSERT
  5
B0
330
7D
100
AcDbEntity
  8
レイヤー 1
100
AcDbBlockReference
  2
Block_5
 10
0.0
 20
0.0
 30
0.0
  0
LINE
  5
BC
330
7D
100
AcDbEntity
  8
レイヤー 1
 62
   250
420
  2299925
370
     9
100
AcDbLine
 10
92.87858928982606
 20
-164.840325421279
 30
0.0
 11
96.64890178888349
 21
-164.840325421279
 31
0.0
  0
LINE
  5
BD
330
7D
100
AcDbEntity
  8
レイヤー 1
 62
   250
420
  2299925
370
     9
100
AcDbLine
 10
92.87858928982606
 20
-164.840325421279
 30
0.0
 11
90.87872734588136
 21
-164.840325421279
 31
0.0
  0
LINE
  5
BE
330
7D
100
AcDbEntity
  8
レイヤー 1
 62
   250
420
  2299925
370
     9
100
AcDbLine
 10
92.87858928982606
 20
-163.3803193474157
 30
0.0
 11
92.87858928982606
 21
-165.8400976179949
 31
0.0
  0
LINE
  5
BF
330
7D
100
AcDbEntity
  8
レイヤー 1
 62
   250
420
  2299925
370
     9
100
AcDbLine
 10
91.8784995678539
 20
-163.3803193474157
 30
0.0
 11
91.8784995678539
 21
-165.8400976179949
 31
0.0
  0
INSERT
  5
C1
330
7D
100
AcDbEntity
  8
レイヤー 1
100
AcDbBlockReference
  2
Block_7
 10
0.0
 20
0.0
 30
0.0
  0
LINE
  5
C6
330
7D
100
AcDbEntity
  8
レイヤー 1
 62
   250
420
  2299925
370
     9
100
AcDbLine
 10
108.8786479757936
 20
-142.8399395936667
 30
0.0
 11
92.87858928982606
 21
-142.8399395936667
 31
0.0
  0
INSERT
  5
C8
330
7D
100
AcDbEntity
  8
レイヤー 1
100
AcDbBlockReference
  2
Block_8
 10
0.0
 20
0.0
 30
0.0
  0
ENDBLK
  5
80
330
7D
100
AcDbEntity
  8
0
100
AcDbBlockEnd
  0
BLOCK
  5
99
330
97
100
AcDbEntity
  8
0
100
AcDbBlockBegin
  2
Block_2
 70
     0
 10
0.0
 20
0.0
 30
0.0
  3
Block_2
  1

  0
SPLINE
  5
9B
330
97
100
AcDbEntity
  8
レイヤー 1
100
AcDbSpline
210
0.0
220
0.0
230
1.0
 70
     9
 71
     3
 72
    62
 73
    58
 74
     0
 42
0.0000000001
 43
0.0000000001
 40
0.0
 40
0.0
 40
0.0
 40
0.0
 40
1.0
 40
1.0
 40
1.0
 40
2.0
 40
2.0
 40
2.0
 40
3.0
 40
3.0
 40
3.0
 40
4.0
 40
4.0
 40
4.0
 40
5.0
 40
5.0
 40
5.0
 40
6.0
 40
6.0
 40
6.0
 40
7.0
 40
7.0
 40
7.0
 40
8.0
 40
8.0
 40
8.0
 40
9.0
 40
9.0
 40
9.0
 40
10.0
 40
10.0
 40
10.0
 40
11.0
 40
11.0
 40
11.0
 40
12.0
 40
12.0
 40
12.0
 40
13.0
 40
13.0
 40
13.0
 40
14.0
 40
14.0
 40
14.0
 40
15.0
 40
15.0
 40
15.0
 40
16.0
 40
16.0
 40
16.0
 40
17.0
 40
17.0
 40
17.0
 40
18.0
 40
18.0
 40
18.0
 40
19.0
 40
19.0
 40
19.0
 40
19.0
 10
121.6277180685514
 20
-137.3068643862462
 30
0.0
 10
121.6277180685514
 20
-137.4084947030611
 30
0.0
 10
121.6067029860914
 20
-137.641383157864
 30
0.0
 10
121.4206678298879
 20
-137.7748806079174
 30
0.0
 10
121.3083577170687
 20
-137.8539455493039
 30
0.0
 10
121.2091389670935
 20
-137.8584241734347
 30
0.0
 10
121.1243896181564
 20
-137.8630750523398
 30
0.0
 10
121.1243896181564
 20
-137.8630750523398
 30
0.0
 10
121.1243896181564
 20
-137.6277750306972
 30
0.0
 10
121.1243896181564
 20
-137.6277750306972
 30
0.0
 10
121.1984591710893
 20
-137.6255357186318
 30
0.0
 10
121.4330701736348
 20
-137.6143391583047
 30
0.0
 10
121.4330701736348
 20
-137.311343010377
 30
0.0
 10
121.4330701736348
 20
-137.1644096879311
 30
0.0
 10
121.3634792448327
 20
-137.001628926253
 30
0.0
 10
121.1350694141607
 20
-137.001628926253
 30
0.0
 10
121.0186251867592
 20
-137.001628926253
 30
0.0
 10
120.9700493404172
 20
-137.042281052979
 30
0.0
 10
120.9383544619529
 20
-137.0762152435087
 30
0.0
 10
120.86428490902
 20
-137.1552801848952
 30
0.0
 10
120.8515380557246
 20
-137.2796481319127
 30
0.0
 10
120.8515380557246
 20
-137.3383870099362
 30
0.0
 10
120.8515380557246
 20
-137.3588853280734
 30
0.0
 10
120.8536051130157
 20
-137.397298142734
 30
0.0
 10
120.8577392275981
 20
-137.4265814543586
 30
0.0
 10
120.8577392275981
 20
-137.4265814543586
 30
0.0
 10
120.6630913326814
 20
-137.4265814543586
 30
0.0
 10
120.6630913326814
 20
-137.4265814543586
 30
0.0
 10
120.6696370141034
 20
-137.3859293276327
 30
0.0
 10
120.6717040713946
 20
-137.3407985767759
 30
0.0
 10
120.6717040713946
 20
-137.3339083858054
 30
0.0
 10
120.6717040713946
 20
-137.2638006926806
 30
0.0
 10
120.650344479386
 20
-137.0514105560149
 30
0.0
 10
120.4136664195494
 20
-137.0514105560149
 30
0.0
 10
120.2358994925105
 20
-137.0514105560149
 30
0.0
 10
120.1807779647465
 20
-137.1914536874903
 30
0.0
 10
120.1807779647465
 20
-137.3091036983116
 30
0.0
 10
120.1807779647465
 20
-137.5916015281021
 30
0.0
 10
120.4136664195494
 20
-137.600731031138
 30
0.0
 10
120.4853244056425
 20
-137.6052096552688
 30
0.0
 10
120.4853244056425
 20
-137.6052096552688
 30
0.0
 10
120.4853244056425
 20
-137.8222506708396
 30
0.0
 10
120.4853244056425
 20
-137.8222506708396
 30
0.0
 10
120.3606119490765
 20
-137.8132934225779
 30
0.0
 10
119.9840630125387
 20
-137.783837856179
 30
0.0
 10
119.9840630125387
 20
-137.2954955711448
 30
0.0
 10
119.9840630125387
 20
-137.0558891801457
 30
0.0
 10
120.1111870359444
 20
-136.798196037849
 30
0.0
 10
120.4071207381274
 20
-136.798196037849
 30
0.0
 10
120.5935004038794
 20
-136.798196037849
 30
0.0
 10
120.6758381859769
 20
-136.8998263546639
 30
0.0
 10
120.7371608856143
 20
-137.0061075503839
 30
0.0
 10
120.7647216494963
 20
-136.9404784813899
 30
0.0
 10
120.8449923743026
 20
-136.7461750960218
 30
0.0
 10
121.1223225608652
 20
-136.7461750960218
 30
0.0
 10
121.4606309375168
 20
-136.7461750960218
 30
0.0
 10
121.6277180685514
 20
-137.0105861745147
 30
0.0
 10
121.6277180685514
 20
-137.3068643862462
 30
0.0
  0
HATCH
  5
9C
330
97
100
AcDbEntity
  8
レイヤー 1
 62
   250
420
  2299925
440
 33554687
100
AcDbHatch
 10
0.0
 20
0.0
 30
0.0
210
0.0
220
0.0
230
1.0
  2
SOLID
 70
     1
 71
     1
 91
        1
 92
        1
 93
        1
 72
     4
 94
        3
 73
     0
 74
     0
 95
       62
 96
       58
 40
0.0
 40
0.0
 40
0.0
 40
0.0
 40
1.0
 40
1.0
 40
1.0
 40
2.0
 40
2.0
 40
2.0
 40
3.0
 40
3.0
 40
3.0
 40
4.0
 40
4.0
 40
4.0
 40
5.0
 40
5.0
 40
5.0
 40
6.0
 40
6.0
 40
6.0
 40
7.0
 40
7.0
 40
7.0
 40
8.0
 40
8.0
 40
8.0
 40
9.0
 40
9.0
 40
9.0
 40
10.0
 40
10.0
 40
10.0
 40
11.0
 40
11.0
 40
11.0
 40
12.0
 40
12.0
 40
12.0
 40
13.0
 40
13.0
 40
13.0
 40
14.0
 40
14.0
 40
14.0
 40
15.0
 40
15.0
 40
15.0
 40
16.0
 40
16.0
 40
16.0
 40
17.0
 40
17.0
 40
17.0
 40
18.0
 40
18.0
 40
18.0
 40
19.0
 40
19.0
 40
19.0
 40
19.0
 10
121.6277180685514
 20
-137.3068643862462
 10
121.6277180685514
 20
-137.4084947030611
 10
121.6067029860914
 20
-137.641383157864
 10
121.4206678298879
 20
-137.7748806079174
 10
121.3083577170687
 20
-137.8539455493039
 10
121.2091389670935
 20
-137.8584241734347
 10
121.1243896181564
 20
-137.8630750523398
 10
121.1243896181564
 20
-137.8630750523398
 10
121.1243896181564
 20
-137.6277750306972
 10
121.1243896181564
 20
-137.6277750306972
 10
121.1984591710893
 20
-137.6255357186318
 10
121.4330701736348
 20
-137.6143391583047
 10
121.4330701736348
 20
-137.311343010377
 10
121.4330701736348
 20
-137.1644096879311
 10
121.3634792448327
 20
-137.001628926253
 10
121.1350694141607
 20
-137.001628926253
 10
121.0186251867592
 20
-137.001628926253
 10
120.9700493404172
 20
-137.042281052979
 10
120.9383544619529
 20
-137.0762152435087
 10
120.86428490902
 20
-137.1552801848952
 10
120.8515380557246
 20
-137.2796481319127
 10
120.8515380557246
 20
-137.3383870099362
 10
120.8515380557246
 20
-137.3588853280734
 10
120.8536051130157
 20
-137.397298142734
 10
120.8577392275981
 20
-137.4265814543586
 10
120.8577392275981
 20
-137.4265814543586
 10
120.6630913326814
 20
-137.4265814543586
 10
120.6630913326814
 20
-137.4265814543586
 10
120.6696370141034
 20
-137.3859293276327
 10
120.6717040713946
 20
-137.3407985767759
 10
120.6717040713946
 20
-137.3339083858054
 10
120.6717040713946
 20
-137.2638006926806
 10
120.650344479386
 20
-137.0514105560149
 10
120.4136664195494
 20
-137.0514105560149
 10
120.2358994925105
 20
-137.0514105560149
 10
120.1807779647465
 20
-137.1914536874903
 10
120.1807779647465
 20
-137.3091036983116
 10
120.1807779647465
 20
-137.5916015281021
 10
120.4136664195494
 20
-137.600731031138
 10
120.4853244056425
 20
-137.6052096552688
 10
120.4853244056425
 20
-137.6052096552688
 10
120.4853244056425
 20
-137.8222506708396
 10
120.4853244056425
 20
-137.8222506708396
 10
120.3606119490765
 20
-137.8132934225779
 10
119.9840630125387
 20
-137.783837856179
 10
119.9840630125387
 20
-137.2954955711448
 10
119.9840630125387
 20
-137.0558891801457
 10
120.1111870359444
 20
-136.798196037849
 10
120.4071207381274
 20
-136.798196037849
 10
120.5935004038794
 20
-136.798196037849
 10
120.6758381859769
 20
-136.8998263546639
 10
120.7371608856143
 20
-137.0061075503839
 10
120.7647216494963
 20
-136.9404784813899
 10
120.8449923743026
 20
-136.7461750960218
 10
121.1223225608652
 20
-136.7461750960218
 10
121.4606309375168
 20
-136.7461750960218
 10
121.6277180685514
 20
-137.0105861745147
 10
121.6277180685514
 20
-137.3068643862462
 97
        0
 97
        1
330
9B
 75
     2
 76
     1
 98
        1
 10
0.0
 20
0.0
450
        0
451
        0
460
0.0
461
0.0
452
        0
462
0.0
453
        0
470

  0
ENDBLK
  5
9A
330
97
100
AcDbEntity
  8
0
100
AcDbBlockEnd
  0
BLOCK
  5
A2
330
A0
100
AcDbEntity
  8
0
100
AcDbBlockBegin
  2
Block_3
 70
     0
 10
0.0
 20
0.0
 30
0.0
  3
Block_3
  1

  0
INSERT
  5
A5
330
A0
100
AcDbEntity
  8
レイヤー 1
100
AcDbBlockReference
  2
Block_4
 10
0.0
 20
0.0
 30
0.0
  0
ENDBLK
  5
A3
330
A0
100
AcDbEntity
  8
0
100
AcDbBlockEnd
  0
BLOCK
  5
A6
330
A4
100
AcDbEntity
  8
0
100
AcDbBlockBegin
  2
Block_4
 70
     0
 10
0.0
 20
0.0
 30
0.0
  3
Block_4
  1

  0
SPLINE
  5
A8
330
A4
100
AcDbEntity
  8
レイヤー 1
100
AcDbSpline
210
0.0
220
0.0
230
1.0
 70
     9
 71
     3
 72
    44
 73
    40
 74
     0
 42
0.0000000001
 43
0.0000000001
 40
0.0
 40
0.0
 40
0.0
 40
0.0
 40
1.0
 40
1.0
 40
1.0
 40
2.0
 40
2.0
 40
2.0
 40
3.0
 40
3.0
 40
3.0
 40
4.0
 40
4.0
 40
4.0
 40
5.0
 40
5.0
 40
5.0
 40
6.0
 40
6.0
 40
6.0
 40
7.0
 40
7.0
 40
7.0
 40
8.0
 40
8.0
 40
8.0
 40
9.0
 40
9.0
 40
9.0
 40
10.0
 40
10.0
 40
10.0
 40
11.0
 40
11.0
 40
11.0
 40
12.0
 40
12.0
 40
12.0
 40
13.0
 40
13.0
 40
13.0
 40
13.0
 10
85.99440644551529
 20
-148.8663655226792
 30
0.0
 10
86.15305309261104
 20
-149.0992539774821
 30
0.0
 10
86.22712264554392
 20
-149.1988172370058
 30
0.0
 10
86.3709553820531
 20
-149.2508381788331
 30
0.0
 10
86.3709553820531
 20
-149.2508381788331
 30
0.0
 10
86.3709553820531
 20
-148.4185031095967
 30
0.0
 10
86.3709553820531
 20
-148.4185031095967
 30
0.0
 10
86.3709553820531
 20
-148.4185031095967
 30
0.0
 10
86.57611081819972
 20
-148.4185031095967
 30
0.0
 10
86.57611081819972
 20
-148.4185031095967
 30
0.0
 10
86.57611081819972
 20
-148.4185031095967
 30
0.0
 10
86.57611081819972
 20
-149.5174885693915
 30
0.0
 10
86.57611081819972
 20
-149.5174885693915
 30
0.0
 10
86.21850990683078
 20
-149.4833821240875
 30
0.0
 10
86.14030623931562
 20
-149.4134466857369
 30
0.0
 10
85.84196097029298
 20
-149.0021022847981
 30
0.0
 10
85.64317896079407
 20
-148.7285617032692
 30
0.0
 10
85.57548283450891
 20
-148.6582817553701
 30
0.0
 10
85.43802352464744
 20
-148.6582817553701
 30
0.0
 10
85.31951223995484
 20
-148.6582817553701
 30
0.0
 10
85.1884263567411
 20
-148.7351073846912
 30
0.0
 10
85.1884263567411
 20
-148.94560271884
 30
0.0
 10
85.1884263567411
 20
-149.2236219244996
 30
0.0
 10
85.41890324470431
 20
-149.2325791727613
 30
0.0
 10
85.53534747210575
 20
-149.2370577968921
 30
0.0
 10
85.53534747210575
 20
-149.2370577968921
 30
0.0
 10
85.53534747210575
 20
-149.4768364426655
 30
0.0
 10
85.53534747210575
 20
-149.4768364426655
 30
0.0
 10
85.40839570347429
 20
-149.4678791944038
 30
0.0
 10
85.29625784542941
 20
-149.4565103793025
 30
0.0
 10
85.17774656073681
 20
-149.3703829921713
 30
0.0
 10
85.01703285634992
 20
-149.2529052361243
 30
0.0
 10
84.98309866582021
 20
-149.0541232266253
 30
0.0
 10
84.98309866582021
 20
-148.9297552796078
 30
0.0
 10
84.98309866582021
 20
-148.6334770678763
 30
0.0
 10
85.16723901950681
 20
-148.4119574281748
 30
0.0
 10
85.44009058193859
 20
-148.4119574281748
 30
0.0
 10
85.66850041261066
 20
-148.4119574281748
 30
0.0
 10
85.76806367213437
 20
-148.5363253751923
 30
0.0
 10
85.99440644551529
 20
-148.8663655226792
 30
0.0
  0
HATCH
  5
A9
330
A4
100
AcDbEntity
  8
レイヤー 1
 62
   250
420
  2299925
440
 33554687
100
AcDbHatch
 10
0.0
 20
0.0
 30
0.0
210
0.0
220
0.0
230
1.0
  2
SOLID
 70
     1
 71
     1
 91
        1
 92
        1
 93
        1
 72
     4
 94
        3
 73
     0
 74
     0
 95
       44
 96
       40
 40
0.0
 40
0.0
 40
0.0
 40
0.0
 40
1.0
 40
1.0
 40
1.0
 40
2.0
 40
2.0
 40
2.0
 40
3.0
 40
3.0
 40
3.0
 40
4.0
 40
4.0
 40
4.0
 40
5.0
 40
5.0
 40
5.0
 40
6.0
 40
6.0
 40
6.0
 40
7.0
 40
7.0
 40
7.0
 40
8.0
 40
8.0
 40
8.0
 40
9.0
 40
9.0
 40
9.0
 40
10.0
 40
10.0
 40
10.0
 40
11.0
 40
11.0
 40
11.0
 40
12.0
 40
12.0
 40
12.0
 40
13.0
 40
13.0
 40
13.0
 40
13.0
 10
85.99440644551529
 20
-148.8663655226792
 10
86.15305309261104
 20
-149.0992539774821
 10
86.22712264554392
 20
-149.1988172370058
 10
86.3709553820531
 20
-149.2508381788331
 10
86.3709553820531
 20
-149.2508381788331
 10
86.3709553820531
 20
-148.4185031095967
 10
86.3709553820531
 20
-148.4185031095967
 10
86.3709553820531
 20
-148.4185031095967
 10
86.57611081819972
 20
-148.4185031095967
 10
86.57611081819972
 20
-148.4185031095967
 10
86.57611081819972
 20
-148.4185031095967
 10
86.57611081819972
 20
-149.5174885693915
 10
86.57611081819972
 20
-149.5174885693915
 10
86.21850990683078
 20
-149.4833821240875
 10
86.14030623931562
 20
-149.4134466857369
 10
85.84196097029298
 20
-149.0021022847981
 10
85.64317896079407
 20
-148.7285617032692
 10
85.57548283450891
 20
-148.6582817553701
 10
85.43802352464744
 20
-148.6582817553701
 10
85.31951223995484
 20
-148.6582817553701
 10
85.1884263567411
 20
-148.7351073846912
 10
85.1884263567411
 20
-148.94560271884
 10
85.1884263567411
 20
-149.2236219244996
 10
85.41890324470431
 20
-149.2325791727613
 10
85.53534747210575
 20
-149.2370577968921
 10
85.53534747210575
 20
-149.2370577968921
 10
85.53534747210575
 20
-149.4768364426655
 10
85.53534747210575
 20
-149.4768364426655
 10
85.40839570347429
 20
-149.4678791944038
 10
85.29625784542941
 20
-149.4565103793025
 10
85.17774656073681
 20
-149.3703829921713
 10
85.01703285634992
 20
-149.2529052361243
 10
84.98309866582021
 20
-149.0541232266253
 10
84.98309866582021
 20
-148.9297552796078
 10
84.98309866582021
 20
-148.6334770678763
 10
85.16723901950681
 20
-148.4119574281748
 10
85.44009058193859
 20
-148.4119574281748
 10
85.66850041261066
 20
-148.4119574281748
 10
85.76806367213437
 20
-148.5363253751923
 10
85.99440644551529
 20
-148.8663655226792
 97
        0
 97
        1
330
A8
 75
     2
 76
     1
 98
        1
 10
0.0
 20
0.0
450
        0
451
        0
460
0.0
461
0.0
452
        0
462
0.0
453
        0
470

  0
SPLINE
  5
AA
330
A4
100
AcDbEntity
  8
レイヤー 1
100
AcDbSpline
210
0.0
220
0.0
230
1.0
 70
     9
 71
     3
 72
    53
 73
    49
 74
     0
 42
0.0000000001
 43
0.0000000001
 40
0.0
 40
0.0
 40
0.0
 40
0.0
 40
1.0
 40
1.0
 40
1.0
 40
2.0
 40
2.0
 40
2.0
 40
3.0
 40
3.0
 40
3.0
 40
4.0
 40
4.0
 40
4.0
 40
5.0
 40
5.0
 40
5.0
 40
6.0
 40
6.0
 40
6.0
 40
7.0
 40
7.0
 40
7.0
 40
8.0
 40
8.0
 40
8.0
 40
9.0
 40
9.0
 40
9.0
 40
10.0
 40
10.0
 40
10.0
 40
11.0
 40
11.0
 40
11.0
 40
12.0
 40
12.0
 40
12.0
 40
13.0
 40
13.0
 40
13.0
 40
14.0
 40
14.0
 40
14.0
 40
15.0
 40
15.0
 40
15.0
 40
16.0
 40
16.0
 40
16.0
 40
16.0
 10
86.62692597660717
 20
-147.7284504839012
 30
0.0
 10
86.62692597660717
 20
-147.8121663041928
 30
0.0
 10
86.60987275395518
 20
-147.9203423024296
 30
0.0
 10
86.54648299702657
 20
-148.0292073197635
 30
0.0
 10
86.43641219627284
 20
-148.21455345687
 30
0.0
 10
86.30532631305909
 20
-148.2369465775241
 30
0.0
 10
86.19749482437077
 20
-148.257272640887
 30
0.0
 10
86.19749482437077
 20
-148.257272640887
 30
0.0
 10
86.19749482437077
 20
-148.0199055619533
 30
0.0
 10
86.19749482437077
 20
-148.0199055619533
 30
0.0
 10
86.39627683386969
 20
-147.9613389387041
 30
0.0
 10
86.42590465504282
 20
-147.8256021765853
 30
0.0
 10
86.42590465504282
 20
-147.7260389170615
 30
0.0
 10
86.42590465504282
 20
-147.5768662825502
 30
0.0
 10
86.32651365029337
 20
-147.4139132660979
 30
0.0
 10
86.09379745026474
 20
-147.4139132660979
 30
0.0
 10
85.83782685571069
 20
-147.4139132660979
 30
0.0
 10
85.76806367213437
 20
-147.6061495941748
 30
0.0
 10
85.76806367213437
 20
-147.7349961653232
 30
0.0
 10
85.76806367213437
 20
-147.7691026106272
 30
0.0
 10
85.76806367213437
 20
-147.9203423024296
 30
0.0
 10
85.89708249805699
 20
-148.0154269378225
 30
0.0
 10
85.89708249805699
 20
-148.0154269378225
 30
0.0
 10
85.87796221811386
 20
-148.2031846417686
 30
0.0
 10
85.87796221811386
 20
-148.2031846417686
 30
0.0
 10
85.87796221811386
 20
-148.2031846417686
 30
0.0
 10
85.03184676693647
 20
-148.0743380706203
 30
0.0
 10
85.03184676693647
 20
-148.0743380706203
 30
0.0
 10
85.03184676693647
 20
-148.0743380706203
 30
0.0
 10
85.03184676693647
 20
-147.2423475109324
 30
0.0
 10
85.03184676693647
 20
-147.2423475109324
 30
0.0
 10
85.03184676693647
 20
-147.2423475109324
 30
0.0
 10
85.2264946618531
 20
-147.2423475109324
 30
0.0
 10
85.2264946618531
 20
-147.2423475109324
 30
0.0
 10
85.2264946618531
 20
-147.2423475109324
 30
0.0
 10
85.2264946618531
 20
-147.9000162390667
 30
0.0
 10
85.2264946618531
 20
-147.9000162390667
 30
0.0
 10
85.2264946618531
 20
-147.9000162390667
 30
0.0
 10
85.64955238744179
 20
-147.9702961869657
 30
0.0
 10
85.64955238744179
 20
-147.9702961869657
 30
0.0
 10
85.61561819691206
 20
-147.904839372746
 30
0.0
 10
85.57548283450891
 20
-147.8166449283236
 30
0.0
 10
85.57548283450891
 20
-147.6898654144664
 30
0.0
 10
85.57548283450891
 20
-147.4187363997772
 30
0.0
 10
85.76169024548667
 20
-147.1655218816114
 30
0.0
 10
86.07467717032161
 20
-147.1655218816114
 30
0.0
 10
86.39214271928738
 20
-147.1655218816114
 30
0.0
 10
86.62692597660717
 20
-147.4049560178363
 30
0.0
 10
86.62692597660717
 20
-147.7284504839012
 30
0.0
  0
HATCH
  5
AB
330
A4
100
AcDbEntity
  8
レイヤー 1
 62
   250
420
  2299925
440
 33554687
100
AcDbHatch
 10
0.0
 20
0.0
 30
0.0
210
0.0
220
0.0
230
1.0
  2
SOLID
 70
     1
 71
     1
 91
        1
 92
        1
 93
        1
 72
     4
 94
        3
 73
     0
 74
     0
 95
       53
 96
       49
 40
0.0
 40
0.0
 40
0.0
 40
0.0
 40
1.0
 40
1.0
 40
1.0
 40
2.0
 40
2.0
 40
2.0
 40
3.0
 40
3.0
 40
3.0
 40
4.0
 40
4.0
 40
4.0
 40
5.0
 40
5.0
 40
5.0
 40
6.0
 40
6.0
 40
6.0
 40
7.0
 40
7.0
 40
7.0
 40
8.0
 40
8.0
 40
8.0
 40
9.0
 40
9.0
 40
9.0
 40
10.0
 40
10.0
 40
10.0
 40
11.0
 40
11.0
 40
11.0
 40
12.0
 40
12.0
 40
12.0
 40
13.0
 40
13.0
 40
13.0
 40
14.0
 40
14.0
 40
14.0
 40
15.0
 40
15.0
 40
15.0
 40
16.0
 40
16.0
 40
16.0
 40
16.0
 10
86.62692597660717
 20
-147.7284504839012
 10
86.62692597660717
 20
-147.8121663041928
 10
86.60987275395518
 20
-147.9203423024296
 10
86.54648299702657
 20
-148.0292073197635
 10
86.43641219627284
 20
-148.21455345687
 10
86.30532631305909
 20
-148.2369465775241
 10
86.19749482437077
 20
-148.257272640887
 10
86.19749482437077
 20
-148.257272640887
 10
86.19749482437077
 20
-148.0199055619533
 10
86.19749482437077
 20
-148.0199055619533
 10
86.39627683386969
 20
-147.9613389387041
 10
86.42590465504282
 20
-147.8256021765853
 10
86.42590465504282
 20
-147.7260389170615
 10
86.42590465504282
 20
-147.5768662825502
 10
86.32651365029337
 20
-147.4139132660979
 10
86.09379745026474
 20
-147.4139132660979
 10
85.83782685571069
 20
-147.4139132660979
 10
85.76806367213437
 20
-147.6061495941748
 10
85.76806367213437
 20
-147.7349961653232
 10
85.76806367213437
 20
-147.7691026106272
 10
85.76806367213437
 20
-147.9203423024296
 10
85.89708249805699
 20
-148.0154269378225
 10
85.89708249805699
 20
-148.0154269378225
 10
85.87796221811386
 20
-148.2031846417686
 10
85.87796221811386
 20
-148.2031846417686
 10
85.87796221811386
 20
-148.2031846417686
 10
85.03184676693647
 20
-148.0743380706203
 10
85.03184676693647
 20
-148.0743380706203
 10
85.03184676693647
 20
-148.0743380706203
 10
85.03184676693647
 20
-147.2423475109324
 10
85.03184676693647
 20
-147.2423475109324
 10
85.03184676693647
 20
-147.2423475109324
 10
85.2264946618531
 20
-147.2423475109324
 10
85.2264946618531
 20
-147.2423475109324
 10
85.2264946618531
 20
-147.2423475109324
 10
85.2264946618531
 20
-147.9000162390667
 10
85.2264946618531
 20
-147.9000162390667
 10
85.2264946618531
 20
-147.9000162390667
 10
85.64955238744179
 20
-147.9702961869657
 10
85.64955238744179
 20
-147.9702961869657
 10
85.61561819691206
 20
-147.904839372746
 10
85.57548283450891
 20
-147.8166449283236
 10
85.57548283450891
 20
-147.6898654144664
 10
85.57548283450891
 20
-147.4187363997772
 10
85.76169024548667
 20
-147.1655218816114
 10
86.07467717032161
 20
-147.1655218816114
 10
86.39214271928738
 20
-147.1655218816114
 10
86.62692597660717
 20
-147.4049560178363
 10
86.62692597660717
 20
-147.7284504839012
 97
        0
 97
        1
330
AA
 75
     2
 76
     1
 98
        1
 10
0.0
 20
0.0
450
        0
451
        0
460
0.0
461
0.0
452
        0
462
0.0
453
        0
470

  0
ENDBLK
  5
A7
330
A4
100
AcDbEntity
  8
0
100
AcDbBlockEnd
  0
BLOCK
  5
B1
330
AF
100
AcDbEntity
  8
0
100
AcDbBlockBegin
  2
Block_5
 70
     0
 10
0.0
 20
0.0
 30
0.0
  3
Block_5
  1

  0
INSERT
  5
B4
330
AF
100
AcDbEntity
  8
レイヤー 1
100
AcDbBlockReference
  2
Block_6
 10
0.0
 20
0.0
 30
0.0
  0
ENDBLK
  5
B2
330
AF
100
AcDbEntity
  8
0
100
AcDbBlockEnd
  0
BLOCK
  5
B5
330
B3
100
AcDbEntity
  8
0
100
AcDbBlockBegin
  2
Block_6
 70
     0
 10
0.0
 20
0.0
 30
0.0
  3
Block_6
  1

  0
SPLINE
  5
B7
330
B3
100
AcDbEntity
  8
レイヤー 1
100
AcDbSpline
210
0.0
220
0.0
230
1.0
 70
    11
 71
     3
 72
    26
 73
    22
 74
     0
 42
0.0000000001
 43
0.0000000001
 40
0.0
 40
0.0
 40
0.0
 40
0.0
 40
1.0
 40
1.0
 40
1.0
 40
2.0
 40
2.0
 40
2.0
 40
3.0
 40
3.0
 40
3.0
 40
4.0
 40
4.0
 40
4.0
 40
5.0
 40
5.0
 40
5.0
 40
6.0
 40
6.0
 40
6.0
 40
7.0
 40
7.0
 40
7.0
 40
7.0
 10
113.2020480402759
 20
-141.5400254637469
 30
0.0
 10
113.2020480402759
 20
-141.5400254637469
 30
0.0
 10
113.2020480402759
 20
-140.4357001059501
 30
0.0
 10
113.2020480402759
 20
-140.4357001059501
 30
0.0
 10
113.2020480402759
 20
-140.4357001059501
 30
0.0
 10
112.8496147721348
 20
-140.4357001059501
 30
0.0
 10
112.8496147721348
 20
-140.4357001059501
 30
0.0
 10
112.8496147721348
 20
-140.4357001059501
 30
0.0
 10
112.8496147721348
 20
-140.2877332548586
 30
0.0
 10
112.8496147721348
 20
-140.2877332548586
 30
0.0
 10
113.2044596071155
 20
-140.272919344272
 30
0.0
 10
113.2540689821031
 20
-140.1099663278197
 30
0.0
 10
113.2857638605674
 20
-139.9957614124837
 30
0.0
 10
113.2857638605674
 20
-139.9957614124837
 30
0.0
 10
113.4418266860492
 20
-139.9957614124837
 30
0.0
 10
113.4418266860492
 20
-139.9957614124837
 30
0.0
 10
113.4418266860492
 20
-139.9957614124837
 30
0.0
 10
113.4418266860492
 20
-141.5400254637469
 30
0.0
 10
113.4418266860492
 20
-141.5400254637469
 30
0.0
 10
113.4418266860492
 20
-141.5400254637469
 30
0.0
 10
113.2020480402759
 20
-141.5400254637469
 30
0.0
 10
113.2020480402759
 20
-141.5400254637469
 30
0.0
  0
HATCH
  5
B8
330
B3
100
AcDbEntity
  8
レイヤー 1
 62
   250
420
  2299925
440
 33554687
100
AcDbHatch
 10
0.0
 20
0.0
 30
0.0
210
0.0
220
0.0
230
1.0
  2
SOLID
 70
     1
 71
     1
 91
        1
 92
        1
 93
        1
 72
     4
 94
        3
 73
     0
 74
     0
 95
       26
 96
       22
 40
0.0
 40
0.0
 40
0.0
 40
0.0
 40
1.0
 40
1.0
 40
1.0
 40
2.0
 40
2.0
 40
2.0
 40
3.0
 40
3.0
 40
3.0
 40
4.0
 40
4.0
 40
4.0
 40
5.0
 40
5.0
 40
5.0
 40
6.0
 40
6.0
 40
6.0
 40
7.0
 40
7.0
 40
7.0
 40
7.0
 10
113.2020480402759
 20
-141.5400254637469
 10
113.2020480402759
 20
-141.5400254637469
 10
113.2020480402759
 20
-140.4357001059501
 10
113.2020480402759
 20
-140.4357001059501
 10
113.2020480402759
 20
-140.4357001059501
 10
112.8496147721348
 20
-140.4357001059501
 10
112.8496147721348
 20
-140.4357001059501
 10
112.8496147721348
 20
-140.4357001059501
 10
112.8496147721348
 20
-140.2877332548586
 10
112.8496147721348
 20
-140.2877332548586
 10
113.2044596071155
 20
-140.272919344272
 10
113.2540689821031
 20
-140.1099663278197
 10
113.2857638605674
 20
-139.9957614124837
 10
113.2857638605674
 20
-139.9957614124837
 10
113.4418266860492
 20
-139.9957614124837
 10
113.4418266860492
 20
-139.9957614124837
 10
113.4418266860492
 20
-139.9957614124837
 10
113.4418266860492
 20
-141.5400254637469
 10
113.4418266860492
 20
-141.5400254637469
 10
113.4418266860492
 20
-141.5400254637469
 10
113.2020480402759
 20
-141.5400254637469
 10
113.2020480402759
 20
-141.5400254637469
 97
        0
 97
        1
330
B7
 75
     2
 76
     1
 98
        1
 10
0.0
 20
0.0
450
        0
451
        0
460
0.0
461
0.0
452
        0
462
0.0
453
        0
470

  0
SPLINE
  5
B9
330
B3
100
AcDbEntity
  8
レイヤー 1
100
AcDbSpline
210
0.0
220
0.0
230
1.0
 70
     9
 71
     3
 72
    17
 73
    13
 74
     0
 42
0.0000000001
 43
0.0000000001
 40
0.0
 40
0.0
 40
0.0
 40
0.0
 40
1.0
 40
1.0
 40
1.0
 40
2.0
 40
2.0
 40
2.0
 40
3.0
 40
3.0
 40
3.0
 40
4.0
 40
4.0
 40
4.0
 40
4.0
 10
114.5118733437678
 20
-140.1395941489929
 30
0.0
 10
114.2452229532095
 20
-140.1395941489929
 30
0.0
 10
114.1956135782219
 20
-140.4231255074289
 30
0.0
 10
114.1956135782219
 20
-140.7679795655024
 30
0.0
 10
114.1956135782219
 20
-141.0873399169851
 30
0.0
 10
114.2338541381082
 20
-141.3960204724635
 30
0.0
 10
114.5118733437678
 20
-141.3960204724635
 30
0.0
 10
114.776456677035
 20
-141.3960204724635
 30
0.0
 10
114.8284776188623
 20
-141.1149006808671
 30
0.0
 10
114.8284776188623
 20
-140.7679795655024
 30
0.0
 10
114.8284776188623
 20
-140.4484469592455
 30
0.0
 10
114.7878254921363
 20
-140.1395941489929
 30
0.0
 10
114.5118733437678
 20
-140.1395941489929
 30
0.0
  0
SPLINE
  5
BA
330
B3
100
AcDbEntity
  8
レイヤー 1
100
AcDbSpline
210
0.0
220
0.0
230
1.0
 70
     9
 71
     3
 72
    29
 73
    25
 74
     0
 42
0.0000000001
 43
0.0000000001
 40
0.0
 40
0.0
 40
0.0
 40
0.0
 40
1.0
 40
1.0
 40
1.0
 40
2.0
 40
2.0
 40
2.0
 40
3.0
 40
3.0
 40
3.0
 40
4.0
 40
4.0
 40
4.0
 40
5.0
 40
5.0
 40
5.0
 40
6.0
 40
6.0
 40
6.0
 40
7.0
 40
7.0
 40
7.0
 40
8.0
 40
8.0
 40
8.0
 40
8.0
 10
114.9369981266477
 20
-141.362258536708
 30
0.0
 10
114.8215874278918
 20
-141.5717203422112
 30
0.0
 10
114.6362412907854
 20
-141.5906683673801
 30
0.0
 10
114.5118733437678
 20
-141.5906683673801
 30
0.0
 10
114.3403075886024
 20
-141.5906683673801
 30
0.0
 10
114.1887233872514
 20
-141.5441595783292
 30
0.0
 10
114.0870930704365
 20
-141.362258536708
 30
0.0
 10
113.9761609958115
 20
-141.1676106417914
 30
0.0
 10
113.9558349324485
 20
-140.9309325819547
 30
0.0
 10
113.9558349324485
 20
-140.7679795655024
 30
0.0
 10
113.9558349324485
 20
-140.623974574219
 30
0.0
 10
113.9737494289718
 20
-140.3723103490215
 30
0.0
 10
114.0870930704365
 20
-140.1733560847483
 30
0.0
 10
114.2021592596439
 20
-139.9702677058928
 30
0.0
 10
114.3740695243579
 20
-139.9470133113674
 30
0.0
 10
114.5118733437678
 20
-139.9470133113674
 30
0.0
 10
114.6817165511907
 20
-139.9470133113674
 30
0.0
 10
114.8353678098328
 20
-139.9914550431271
 30
0.0
 10
114.9369981266477
 20
-140.1733560847483
 30
0.0
 10
115.0434515771419
 20
-140.3659369223738
 30
0.0
 10
115.0682562646357
 20
-140.5943467530458
 30
0.0
 10
115.0682562646357
 20
-140.7679795655024
 30
0.0
 10
115.0682562646357
 20
-140.9392008111193
 30
0.0
 10
115.045518634433
 20
-141.1696776990826
 30
0.0
 10
114.9369981266477
 20
-141.362258536708
 30
0.0
  0
HATCH
  5
BB
330
B3
100
AcDbEntity
  8
レイヤー 1
 62
   250
420
  2299925
440
 33554687
100
AcDbHatch
 10
0.0
 20
0.0
 30
0.0
210
0.0
220
0.0
230
1.0
  2
SOLID
 70
     1
 71
     1
 91
        2
 92
        1
 93
        1
 72
     4
 94
        3
 73
     0
 74
     0
 95
       17
 96
       13
 40
0.0
 40
0.0
 40
0.0
 40
0.0
 40
1.0
 40
1.0
 40
1.0
 40
2.0
 40
2.0
 40
2.0
 40
3.0
 40
3.0
 40
3.0
 40
4.0
 40
4.0
 40
4.0
 40
4.0
 10
114.5118733437678
 20
-140.1395941489929
 10
114.2452229532095
 20
-140.1395941489929
 10
114.1956135782219
 20
-140.4231255074289
 10
114.1956135782219
 20
-140.7679795655024
 10
114.1956135782219
 20
-141.0873399169851
 10
114.2338541381082
 20
-141.3960204724635
 10
114.5118733437678
 20
-141.3960204724635
 10
114.776456677035
 20
-141.3960204724635
 10
114.8284776188623
 20
-141.1149006808671
 10
114.8284776188623
 20
-140.7679795655024
 10
114.8284776188623
 20
-140.4484469592455
 10
114.7878254921363
 20
-140.1395941489929
 10
114.5118733437678
 20
-140.1395941489929
 97
        0
 97
        1
330
B9
 92
        1
 93
        1
 72
     4
 94
        3
 73
     0
 74
     0
 95
       29
 96
       25
 40
0.0
 40
0.0
 40
0.0
 40
0.0
 40
1.0
 40
1.0
 40
1.0
 40
2.0
 40
2.0
 40
2.0
 40
3.0
 40
3.0
 40
3.0
 40
4.0
 40
4.0
 40
4.0
 40
5.0
 40
5.0
 40
5.0
 40
6.0
 40
6.0
 40
6.0
 40
7.0
 40
7.0
 40
7.0
 40
8.0
 40
8.0
 40
8.0
 40
8.0
 10
114.9369981266477
 20
-141.362258536708
 10
114.8215874278918
 20
-141.5717203422112
 10
114.6362412907854
 20
-141.5906683673801
 10
114.5118733437678
 20
-141.5906683673801
 10
114.3403075886024
 20
-141.5906683673801
 10
114.1887233872514
 20
-141.5441595783292
 10
114.0870930704365
 20
-141.362258536708
 10
113.9761609958115
 20
-141.1676106417914
 10
113.9558349324485
 20
-140.9309325819547
 10
113.9558349324485
 20
-140.7679795655024
 10
113.9558349324485
 20
-140.623974574219
 10
113.9737494289718
 20
-140.3723103490215
 10
114.0870930704365
 20
-140.1733560847483
 10
114.2021592596439
 20
-139.9702677058928
 10
114.3740695243579
 20
-139.9470133113674
 10
114.5118733437678
 20
-139.9470133113674
 10
114.6817165511907
 20
-139.9470133113674
 10
114.8353678098328
 20
-139.9914550431271
 10
114.9369981266477
 20
-140.1733560847483
 10
115.0434515771419
 20
-140.3659369223738
 10
115.0682562646357
 20
-140.5943467530458
 10
115.0682562646357
 20
-140.7679795655024
 10
115.0682562646357
 20
-140.9392008111193
 10
115.045518634433
 20
-141.1696776990826
 10
114.9369981266477
 20
-141.362258536708
 97
        0
 97
        1
330
BA
 75
     2
 76
     1
 98
        1
 10
0.0
 20
0.0
450
        0
451
        0
460
0.0
461
0.0
452
        0
462
0.0
453
        0
470

  0
ENDBLK
  5
B6
330
B3
100
AcDbEntity
  8
0
100
AcDbBlockEnd
  0
BLOCK
  5
C2
330
C0
100
AcDbEntity
  8
0
100
AcDbBlockBegin
  2
Block_7
 70
     0
 10
0.0
 20
0.0
 30
0.0
  3
Block_7
  1

  0
SPLINE
  5
C4
330
C0
100
AcDbEntity
  8
レイヤー 1
100
AcDbSpline
210
0.0
220
0.0
230
1.0
 70
    11
 71
     3
 72
    26
 73
    22
 74
     0
 42
0.0000000001
 43
0.0000000001
 40
0.0
 40
0.0
 40
0.0
 40
0.0
 40
1.0
 40
1.0
 40
1.0
 40
2.0
 40
2.0
 40
2.0
 40
3.0
 40
3.0
 40
3.0
 40
4.0
 40
4.0
 40
4.0
 40
5.0
 40
5.0
 40
5.0
 40
6.0
 40
6.0
 40
6.0
 40
7.0
 40
7.0
 40
7.0
 40
7.0
 10
95.86891138011264
 20
-163.5383381752612
 30
0.0
 10
95.86891138011264
 20
-163.5383381752612
 30
0.0
 10
95.86891138011264
 20
-162.4341850722387
 30
0.0
 10
95.86891138011264
 20
-162.4341850722387
 30
0.0
 10
95.86891138011264
 20
-162.4341850722387
 30
0.0
 10
95.51613360242305
 20
-162.4341850722387
 30
0.0
 10
95.51613360242305
 20
-162.4341850722387
 30
0.0
 10
95.51613360242305
 20
-162.4341850722387
 30
0.0
 10
95.51613360242305
 20
-162.2860459663729
 30
0.0
 10
95.51613360242305
 20
-162.2860459663729
 30
0.0
 10
95.87115069217805
 20
-162.2712320557863
 30
0.0
 10
95.92093232193992
 20
-162.108279039334
 30
0.0
 10
95.95245494562995
 20
-161.9939018692237
 30
0.0
 10
95.95245494562995
 20
-161.9939018692237
 30
0.0
 10
96.10851777111177
 20
-161.9939018692237
 30
0.0
 10
96.10851777111177
 20
-161.9939018692237
 30
0.0
 10
96.10851777111177
 20
-161.9939018692237
 30
0.0
 10
96.10851777111177
 20
-163.5383381752612
 30
0.0
 10
96.10851777111177
 20
-163.5383381752612
 30
0.0
 10
96.10851777111177
 20
-163.5383381752612
 30
0.0
 10
95.86891138011264
 20
-163.5383381752612
 30
0.0
 10
95.86891138011264
 20
-163.5383381752612
 30
0.0
  0
HATCH
  5
C5
330
C0
100
AcDbEntity
  8
レイヤー 1
 62
   250
420
  2299925
440
 33554687
100
AcDbHatch
 10
0.0
 20
0.0
 30
0.0
210
0.0
220
0.0
230
1.0
  2
SOLID
 70
     1
 71
     1
 91
        1
 92
        1
 93
        1
 72
     4
 94
        3
 73
     0
 74
     0
 95
       26
 96
       22
 40
0.0
 40
0.0
 40
0.0
 40
0.0
 40
1.0
 40
1.0
 40
1.0
 40
2.0
 40
2.0
 40
2.0
 40
3.0
 40
3.0
 40
3.0
 40
4.0
 40
4.0
 40
4.0
 40
5.0
 40
5.0
 40
5.0
 40
6.0
 40
6.0
 40
6.0
 40
7.0
 40
7.0
 40
7.0
 40
7.0
 10
95.86891138011264
 20
-163.5383381752612
 10
95.86891138011264
 20
-163.5383381752612
 10
95.86891138011264
 20
-162.4341850722387
 10
95.86891138011264
 20
-162.4341850722387
 10
95.86891138011264
 20
-162.4341850722387
 10
95.51613360242305
 20
-162.4341850722387
 10
95.51613360242305
 20
-162.4341850722387
 10
95.51613360242305
 20
-162.4341850722387
 10
95.51613360242305
 20
-162.2860459663729
 10
95.51613360242305
 20
-162.2860459663729
 10
95.87115069217805
 20
-162.2712320557863
 10
95.92093232193992
 20
-162.108279039334
 10
95.95245494562995
 20
-161.9939018692237
 10
95.95245494562995
 20
-161.9939018692237
 10
96.10851777111177
 20
-161.9939018692237
 10
96.10851777111177
 20
-161.9939018692237
 10
96.10851777111177
 20
-161.9939018692237
 10
96.10851777111177
 20
-163.5383381752612
 10
96.10851777111177
 20
-163.5383381752612
 10
96.10851777111177
 20
-163.5383381752612
 10
95.86891138011264
 20
-163.5383381752612
 10
95.86891138011264
 20
-163.5383381752612
 97
        0
 97
        1
330
C4
 75
     2
 76
     1
 98
        1
 10
0.0
 20
0.0
450
        0
451
        0
460
0.0
461
0.0
452
        0
462
0.0
453
        0
470

  0
ENDBLK
  5
C3
330
C0
100
AcDbEntity
  8
0
100
AcDbBlockEnd
  0
BLOCK
  5
C9
330
C7
100
AcDbEntity
  8
0
100
AcDbBlockBegin
  2
Block_8
 70
     0
 10
0.0
 20
0.0
 30
0.0
  3
Block_8
  1

  0
INSERT
  5
CC
330
C7
100
AcDbEntity
  8
レイヤー 1
100
AcDbBlockReference
  2
Block_9
 10
0.0
 20
0.0
 30
0.0
  0
ENDBLK
  5
CA
330
C7
100
AcDbEntity
  8
0
100
AcDbBlockEnd
  0
BLOCK
  5
CD
330
CB
100
AcDbEntity
  8
0
100
AcDbBlockBegin
  2
Block_9
 70
     0
 10
0.0
 20
0.0
 30
0.0
  3
Block_9
  1

  0
SPLINE
  5
CF
330
CB
100
AcDbEntity
  8
レイヤー 1
100
AcDbSpline
210
0.0
220
0.0
230
1.0
 70
    11
 71
     3
 72
    26
 73
    22
 74
     0
 42
0.0000000001
 43
0.0000000001
 40
0.0
 40
0.0
 40
0.0
 40
0.0
 40
1.0
 40
1.0
 40
1.0
 40
2.0
 40
2.0
 40
2.0
 40
3.0
 40
3.0
 40
3.0
 40
4.0
 40
4.0
 40
4.0
 40
5.0
 40
5.0
 40
5.0
 40
6.0
 40
6.0
 40
6.0
 40
7.0
 40
7.0
 40
7.0
 40
7.0
 10
100.1971570930062
 20
-141.5400254637469
 30
0.0
 10
100.1971570930062
 20
-141.5400254637469
 30
0.0
 10
100.1971570930062
 20
-140.4357001059501
 30
0.0
 10
100.1971570930062
 20
-140.4357001059501
 30
0.0
 10
100.1971570930062
 20
-140.4357001059501
 30
0.0
 10
99.84472382486522
 20
-140.4357001059501
 30
0.0
 10
99.84472382486522
 20
-140.4357001059501
 30
0.0
 10
99.84472382486522
 20
-140.4357001059501
 30
0.0
 10
99.84472382486522
 20
-140.2877332548586
 30
0.0
 10
99.84472382486522
 20
-140.2877332548586
 30
0.0
 10
100.1995686598459
 20
-140.272919344272
 30
0.0
 10
100.2491780348335
 20
-140.1099663278197
 30
0.0
 10
100.2808729132978
 20
-139.9957614124837
 30
0.0
 10
100.2808729132978
 20
-139.9957614124837
 30
0.0
 10
100.4369357387796
 20
-139.9957614124837
 30
0.0
 10
100.4369357387796
 20
-139.9957614124837
 30
0.0
 10
100.4369357387796
 20
-139.9957614124837
 30
0.0
 10
100.4369357387796
 20
-141.5400254637469
 30
0.0
 10
100.4369357387796
 20
-141.5400254637469
 30
0.0
 10
100.4369357387796
 20
-141.5400254637469
 30
0.0
 10
100.1971570930062
 20
-141.5400254637469
 30
0.0
 10
100.1971570930062
 20
-141.5400254637469
 30
0.0
  0
HATCH
  5
D0
330
CB
100
AcDbEntity
  8
レイヤー 1
 62
   250
420
  2299925
440
 33554687
100
AcDbHatch
 10
0.0
 20
0.0
 30
0.0
210
0.0
220
0.0
230
1.0
  2
SOLID
 70
     1
 71
     1
 91
        1
 92
        1
 93
        1
 72
     4
 94
        3
 73
     0
 74
     0
 95
       26
 96
       22
 40
0.0
 40
0.0
 40
0.0
 40
0.0
 40
1.0
 40
1.0
 40
1.0
 40
2.0
 40
2.0
 40
2.0
 40
3.0
 40
3.0
 40
3.0
 40
4.0
 40
4.0
 40
4.0
 40
5.0
 40
5.0
 40
5.0
 40
6.0
 40
6.0
 40
6.0
 40
7.0
 40
7.0
 40
7.0
 40
7.0
 10
100.1971570930062
 20
-141.5400254637469
 10
100.1971570930062
 20
-141.5400254637469
 10
100.1971570930062
 20
-140.4357001059501
 10
100.1971570930062
 20
-140.4357001059501
 10
100.1971570930062
 20
-140.4357001059501
 10
99.84472382486522
 20
-140.4357001059501
 10
99.84472382486522
 20
-140.4357001059501
 10
99.84472382486522
 20
-140.4357001059501
 10
99.84472382486522
 20
-140.2877332548586
 10
99.84472382486522
 20
-140.2877332548586
 10
100.1995686598459
 20
-140.272919344272
 10
100.2491780348335
 20
-140.1099663278197
 10
100.2808729132978
 20
-139.9957614124837
 10
100.2808729132978
 20
-139.9957614124837
 10
100.4369357387796
 20
-139.9957614124837
 10
100.4369357387796
 20
-139.9957614124837
 10
100.4369357387796
 20
-139.9957614124837
 10
100.4369357387796
 20
-141.5400254637469
 10
100.4369357387796
 20
-141.5400254637469
 10
100.4369357387796
 20
-141.5400254637469
 10
100.1971570930062
 20
-141.5400254637469
 10
100.1971570930062
 20
-141.5400254637469
 97
        0
 97
        1
330
CF
 75
     2
 76
     1
 98
        1
 10
0.0
 20
0.0
450
        0
451
        0
460
0.0
461
0.0
452
        0
462
0.0
453
        0
470

  0
SPLINE
  5
D1
330
CB
100
AcDbEntity
  8
レイヤー 1
100
AcDbSpline
210
0.0
220
0.0
230
1.0
 70
     9
 71
     3
 72
    17
 73
    13
 74
     0
 42
0.0000000001
 43
0.0000000001
 40
0.0
 40
0.0
 40
0.0
 40
0.0
 40
1.0
 40
1.0
 40
1.0
 40
2.0
 40
2.0
 40
2.0
 40
3.0
 40
3.0
 40
3.0
 40
4.0
 40
4.0
 40
4.0
 40
4.0
 10
101.5297200267009
 20
-140.7318060629073
 30
0.0
 10
101.2492892542016
 20
-140.7318060629073
 30
0.0
 10
101.2086371274756
 20
-140.9433349257016
 30
0.0
 10
101.2086371274756
 20
-141.0597791531031
 30
0.0
 10
101.2086371274756
 20
-141.2354790228508
 30
0.0
 10
101.3102674442905
 20
-141.3984320393032
 30
0.0
 10
101.5069823964982
 20
-141.3984320393032
 30
0.0
 10
101.6358289676466
 20
-141.3984320393032
 30
0.0
 10
101.8235866715927
 20
-141.3391763969569
 30
0.0
 10
101.8235866715927
 20
-141.0535779812296
 30
0.0
 10
101.8235866715927
 20
-140.8293022651399
 30
0.0
 10
101.6744140370814
 20
-140.7318060629073
 30
0.0
 10
101.5297200267009
 20
-140.7318060629073
 30
0.0
  0
SPLINE
  5
D2
330
CB
100
AcDbEntity
  8
レイヤー 1
100
AcDbSpline
210
0.0
220
0.0
230
1.0
 70
     9
 71
     3
 72
    32
 73
    28
 74
     0
 42
0.0000000001
 43
0.0000000001
 40
0.0
 40
0.0
 40
0.0
 40
0.0
 40
1.0
 40
1.0
 40
1.0
 40
2.0
 40
2.0
 40
2.0
 40
3.0
 40
3.0
 40
3.0
 40
4.0
 40
4.0
 40
4.0
 40
5.0
 40
5.0
 40
5.0
 40
6.0
 40
6.0
 40
6.0
 40
7.0
 40
7.0
 40
7.0
 40
8.0
 40
8.0
 40
8.0
 40
9.0
 40
9.0
 40
9.0
 40
9.0
 10
101.5114610206291
 20
-141.5906683673801
 30
0.0
 10
100.9599012334406
 20
-141.5906683673801
 30
0.0
 10
100.9509439851789
 20
-141.0366970133519
 30
0.0
 10
100.9509439851789
 20
-140.8227565837179
 30
0.0
 10
100.9509439851789
 20
-140.5922796957547
 30
0.0
 10
100.9712700485419
 20
-139.9449462540762
 30
0.0
 10
101.5524576569035
 20
-139.9449462540762
 30
0.0
 10
101.73780379401
 20
-139.9449462540762
 30
0.0
 10
101.9999755604375
 20
-140.0147094376526
 30
0.0
 10
102.0406276871634
 20
-140.3468166424306
 30
0.0
 10
102.0406276871634
 20
-140.3468166424306
 30
0.0
 10
101.8122178564914
 20
-140.3468166424306
 30
0.0
 10
101.8122178564914
 20
-140.3468166424306
 30
0.0
 10
101.80084904139
 20
-140.2898003121497
 30
0.0
 10
101.7670871056346
 20
-140.141661206284
 30
0.0
 10
101.5500460900639
 20
-140.141661206284
 30
0.0
 10
101.2379204391002
 20
-140.141661206284
 30
0.0
 10
101.1952012550831
 20
-140.4696342964798
 30
0.0
 10
101.1814208731421
 20
-140.6747897326264
 30
0.0
 10
101.2809841326658
 20
-140.5965860651112
 30
0.0
 10
101.3533311378561
 20
-140.5373304227649
 30
0.0
 10
101.5479790327727
 20
-140.5373304227649
 30
0.0
 10
101.7398708513011
 20
-140.5373304227649
 30
0.0
 10
102.0633653173661
 20
-140.6451619114533
 30
0.0
 10
102.0633653173661
 20
-141.0515109239385
 30
0.0
 10
102.0633653173661
 20
-141.3708712754211
 30
0.0
 10
101.8508029259262
 20
-141.5906683673801
 30
0.0
 10
101.5114610206291
 20
-141.5906683673801
 30
0.0
  0
HATCH
  5
D3
330
CB
100
AcDbEntity
  8
レイヤー 1
 62
   250
420
  2299925
440
 33554687
100
AcDbHatch
 10
0.0
 20
0.0
 30
0.0
210
0.0
220
0.0
230
1.0
  2
SOLID
 70
     1
 71
     1
 91
        2
 92
        1
 93
        1
 72
     4
 94
        3
 73
     0
 74
     0
 95
       17
 96
       13
 40
0.0
 40
0.0
 40
0.0
 40
0.0
 40
1.0
 40
1.0
 40
1.0
 40
2.0
 40
2.0
 40
2.0
 40
3.0
 40
3.0
 40
3.0
 40
4.0
 40
4.0
 40
4.0
 40
4.0
 10
101.5297200267009
 20
-140.7318060629073
 10
101.2492892542016
 20
-140.7318060629073
 10
101.2086371274756
 20
-140.9433349257016
 10
101.2086371274756
 20
-141.0597791531031
 10
101.2086371274756
 20
-141.2354790228508
 10
101.3102674442905
 20
-141.3984320393032
 10
101.5069823964982
 20
-141.3984320393032
 10
101.6358289676466
 20
-141.3984320393032
 10
101.8235866715927
 20
-141.3391763969569
 10
101.8235866715927
 20
-141.0535779812296
 10
101.8235866715927
 20
-140.8293022651399
 10
101.6744140370814
 20
-140.7318060629073
 10
101.5297200267009
 20
-140.7318060629073
 97
        0
 97
        1
330
D1
 92
        1
 93
        1
 72
     4
 94
        3
 73
     0
 74
     0
 95
       32
 96
       28
 40
0.0
 40
0.0
 40
0.0
 40
0.0
 40
1.0
 40
1.0
 40
1.0
 40
2.0
 40
2.0
 40
2.0
 40
3.0
 40
3.0
 40
3.0
 40
4.0
 40
4.0
 40
4.0
 40
5.0
 40
5.0
 40
5.0
 40
6.0
 40
6.0
 40
6.0
 40
7.0
 40
7.0
 40
7.0
 40
8.0
 40
8.0
 40
8.0
 40
9.0
 40
9.0
 40
9.0
 40
9.0
 10
101.5114610206291
 20
-141.5906683673801
 10
100.9599012334406
 20
-141.5906683673801
 10
100.9509439851789
 20
-141.0366970133519
 10
100.9509439851789
 20
-140.8227565837179
 10
100.9509439851789
 20
-140.5922796957547
 10
100.9712700485419
 20
-139.9449462540762
 10
101.5524576569035
 20
-139.9449462540762
 10
101.73780379401
 20
-139.9449462540762
 10
101.9999755604375
 20
-140.0147094376526
 10
102.0406276871634
 20
-140.3468166424306
 10
102.0406276871634
 20
-140.3468166424306
 10
101.8122178564914
 20
-140.3468166424306
 10
101.8122178564914
 20
-140.3468166424306
 10
101.80084904139
 20
-140.2898003121497
 10
101.7670871056346
 20
-140.141661206284
 10
101.5500460900639
 20
-140.141661206284
 10
101.2379204391002
 20
-140.141661206284
 10
101.1952012550831
 20
-140.4696342964798
 10
101.1814208731421
 20
-140.6747897326264
 10
101.2809841326658
 20
-140.5965860651112
 10
101.3533311378561
 20
-140.5373304227649
 10
101.5479790327727
 20
-140.5373304227649
 10
101.7398708513011
 20
-140.5373304227649
 10
102.0633653173661
 20
-140.6451619114533
 10
102.0633653173661
 20
-141.0515109239385
 10
102.0633653173661
 20
-141.3708712754211
 10
101.8508029259262
 20
-141.5906683673801
 10
101.5114610206291
 20
-141.5906683673801
 97
        0
 97
        1
330
D2
 75
     2
 76
     1
 98
        1
 10
0.0
 20
0.0
450
        0
451
        0
460
0.0
461
0.0
452
        0
462
0.0
453
        0
470

  0
ENDBLK
  5
CE
330
CB
100
AcDbEntity
  8
0
100
AcDbBlockEnd
  0
BLOCK
  5
D8
330
D6
100
AcDbEntity
  8
0
100
AcDbBlockBegin
  2
Block_10
 70
     0
 10
0.0
 20
0.0
 30
0.0
  3
Block_10
  1

  0
LINE
  5
DA
330
D6
100
AcDbEntity
  8
レイヤー 1
 62
   250
420
  2299925
370
     9
100
AcDbLine
 10
111.0970219211404
 20
-135.0500001653746
 30
0.0
 11
113.9328513465832
 21
-132.8163191451702
 31
0.0
  0
LWPOLYLINE
  5
DB
330
D6
100
AcDbEntity
  8
レイヤー 1
 62
   250
420
  2299925
370
     9
100
AcDbPolyline
 90
        3
 70
     0
 43
0.0
 10
111.6893548147538
 20
-134.2440733523746
 10
111.0970219211404
 20
-135.0500001653746
 10
112.0128281097082
 20
-134.6479074682167
  0
ENDBLK
  5
D9
330
D6
100
AcDbEntity
  8
0
100
AcDbBlockEnd
  0
BLOCK
  5
DE
330
DC
100
AcDbEntity
  8
0
100
AcDbBlockBegin
  2
Block_11
 70
     0
 10
0.0
 20
0.0
 30
0.0
  3
Block_11
  1

  0
INSERT
  5
E1
330
DC
100
AcDbEntity
  8
レイヤー 1
100
AcDbBlockReference
  2
Block_12
 10
0.0
 20
0.0
 30
0.0
  0
ENDBLK
  5
DF
330
DC
100
AcDbEntity
  8
0
100
AcDbBlockEnd
  0
BLOCK
  5
E2
330
E0
100
AcDbEntity
  8
0
100
AcDbBlockBegin
  2
Block_12
 70
     0
 10
0.0
 20
0.0
 30
0.0
  3
Block_12
  1

  0
SPLINE
  5
E4
330
E0
100
AcDbEntity
  8
レイヤー 1
100
AcDbSpline
210
0.0
220
0.0
230
1.0
 70
     9
 71
     3
 72
    17
 73
    13
 74
     0
 42
0.0000000001
 43
0.0000000001
 40
0.0
 40
0.0
 40
0.0
 40
0.0
 40
1.0
 40
1.0
 40
1.0
 40
2.0
 40
2.0
 40
2.0
 40
3.0
 40
3.0
 40
3.0
 40
4.0
 40
4.0
 40
4.0
 40
4.0
 10
115.5054388817139
 20
-133.0757703660366
 30
0.0
 10
115.4885579138362
 20
-133.1052259324355
 30
0.0
 10
115.437915010203
 20
-133.1984157653115
 30
0.0
 10
115.4272352141987
 20
-133.2173637904804
 30
0.0
 10
115.617748994533
 20
-133.2766194328267
 30
0.0
 10
115.6387640769931
 20
-133.2829928594744
 30
0.0
 10
115.7107665726348
 20
-133.3105536233563
 30
0.0
 10
115.7658881003988
 20
-133.2237372171281
 30
0.0
 10
115.78897024015
 20
-133.1496676641952
 30
0.0
 10
115.8037841507365
 20
-133.0757703660366
 30
0.0
 10
115.8037841507365
 20
-133.0757703660366
 30
0.0
 10
115.5054388817139
 20
-133.0757703660366
 30
0.0
 10
115.5054388817139
 20
-133.0757703660366
 30
0.0
  0
SPLINE
  5
E5
330
E0
100
AcDbEntity
  8
レイヤー 1
100
AcDbSpline
210
0.0
220
0.0
230
1.0
 70
    11
 71
     3
 72
    20
 73
    16
 74
     0
 42
0.0000000001
 43
0.0000000001
 40
0.0
 40
0.0
 40
0.0
 40
0.0
 40
1.0
 40
1.0
 40
1.0
 40
2.0
 40
2.0
 40
2.0
 40
3.0
 40
3.0
 40
3.0
 40
4.0
 40
4.0
 40
4.0
 40
5.0
 40
5.0
 40
5.0
 40
5.0
 10
115.4420491247853
 20
-132.2253485455027
 30
0.0
 10
115.4420491247853
 20
-132.2253485455027
 30
0.0
 10
115.410354246321
 20
-132.2253485455027
 30
0.0
 10
115.410354246321
 20
-132.2253485455027
 30
0.0
 10
115.4568630353719
 20
-132.3247395502521
 30
0.0
 10
115.4885579138362
 20
-132.4050102750585
 30
0.0
 10
115.5223198495916
 20
-132.5319620436899
 30
0.0
 10
115.5223198495916
 20
-132.5319620436899
 30
0.0
 10
115.7297145978037
 20
-132.5319620436899
 30
0.0
 10
115.7297145978037
 20
-132.5319620436899
 30
0.0
 10
115.761409476268
 20
-132.4389444655881
 30
0.0
 10
115.7848361255677
 20
-132.3543673714253
 30
0.0
 10
115.8079182653188
 20
-132.2253485455027
 30
0.0
 10
115.8079182653188
 20
-132.2253485455027
 30
0.0
 10
115.4420491247853
 20
-132.2253485455027
 30
0.0
 10
115.4420491247853
 20
-132.2253485455027
 30
0.0
  0
SPLINE
  5
E6
330
E0
100
AcDbEntity
  8
レイヤー 1
100
AcDbSpline
210
0.0
220
0.0
230
1.0
 70
     9
 71
     3
 72
   242
 73
   238
 74
     0
 42
0.0000000001
 43
0.0000000001
 40
0.0
 40
0.0
 40
0.0
 40
0.0
 40
1.0
 40
1.0
 40
1.0
 40
2.0
 40
2.0
 40
2.0
 40
3.0
 40
3.0
 40
3.0
 40
4.0
 40
4.0
 40
4.0
 40
5.0
 40
5.0
 40
5.0
 40
6.0
 40
6.0
 40
6.0
 40
7.0
 40
7.0
 40
7.0
 40
8.0
 40
8.0
 40
8.0
 40
9.0
 40
9.0
 40
9.0
 40
10.0
 40
10.0
 40
10.0
 40
11.0
 40
11.0
 40
11.0
 40
12.0
 40
12.0
 40
12.0
 40
13.0
 40
13.0
 40
13.0
 40
14.0
 40
14.0
 40
14.0
 40
15.0
 40
15.0
 40
15.0
 40
16.0
 40
16.0
 40
16.0
 40
17.0
 40
17.0
 40
17.0
 40
18.0
 40
18.0
 40
18.0
 40
19.0
 40
19.0
 40
19.0
 40
20.0
 40
20.0
 40
20.0
 40
21.0
 40
21.0
 40
21.0
 40
22.0
 40
22.0
 40
22.0
 40
23.0
 40
23.0
 40
23.0
 40
24.0
 40
24.0
 40
24.0
 40
25.0
 40
25.0
 40
25.0
 40
26.0
 40
26.0
 40
26.0
 40
27.0
 40
27.0
 40
27.0
 40
28.0
 40
28.0
 40
28.0
 40
29.0
 40
29.0
 40
29.0
 40
30.0
 40
30.0
 40
30.0
 40
31.0
 40
31.0
 40
31.0
 40
32.0
 40
32.0
 40
32.0
 40
33.0
 40
33.0
 40
33.0
 40
34.0
 40
34.0
 40
34.0
 40
35.0
 40
35.0
 40
35.0
 40
36.0
 40
36.0
 40
36.0
 40
37.0
 40
37.0
 40
37.0
 40
38.0
 40
38.0
 40
38.0
 40
39.0
 40
39.0
 40
39.0
 40
40.0
 40
40.0
 40
40.0
 40
41.0
 40
41.0
 40
41.0
 40
42.0
 40
42.0
 40
42.0
 40
43.0
 40
43.0
 40
43.0
 40
44.0
 40
44.0
 40
44.0
 40
45.0
 40
45.0
 40
45.0
 40
46.0
 40
46.0
 40
46.0
 40
47.0
 40
47.0
 40
47.0
 40
48.0
 40
48.0
 40
48.0
 40
49.0
 40
49.0
 40
49.0
 40
50.0
 40
50.0
 40
50.0
 40
51.0
 40
51.0
 40
51.0
 40
52.0
 40
52.0
 40
52.0
 40
53.0
 40
53.0
 40
53.0
 40
54.0
 40
54.0
 40
54.0
 40
55.0
 40
55.0
 40
55.0
 40
56.0
 40
56.0
 40
56.0
 40
57.0
 40
57.0
 40
57.0
 40
58.0
 40
58.0
 40
58.0
 40
59.0
 40
59.0
 40
59.0
 40
60.0
 40
60.0
 40
60.0
 40
61.0
 40
61.0
 40
61.0
 40
62.0
 40
62.0
 40
62.0
 40
63.0
 40
63.0
 40
63.0
 40
64.0
 40
64.0
 40
64.0
 40
65.0
 40
65.0
 40
65.0
 40
66.0
 40
66.0
 40
66.0
 40
67.0
 40
67.0
 40
67.0
 40
68.0
 40
68.0
 40
68.0
 40
69.0
 40
69.0
 40
69.0
 40
70.0
 40
70.0
 40
70.0
 40
71.0
 40
71.0
 40
71.0
 40
72.0
 40
72.0
 40
72.0
 40
73.0
 40
73.0
 40
73.0
 40
74.0
 40
74.0
 40
74.0
 40
75.0
 40
75.0
 40
75.0
 40
76.0
 40
76.0
 40
76.0
 40
77.0
 40
77.0
 40
77.0
 40
78.0
 40
78.0
 40
78.0
 40
79.0
 40
79.0
 40
79.0
 40
79.0
 10
116.0704345412949
 20
-132.6906086907857
 30
0.0
 10
116.0704345412949
 20
-132.6906086907857
 30
0.0
 10
115.816531004032
 20
-132.6906086907857
 30
0.0
 10
115.816531004032
 20
-132.6906086907857
 30
0.0
 10
115.816531004032
 20
-132.6906086907857
 30
0.0
 10
115.5395453270179
 20
-132.6906086907857
 30
0.0
 10
115.5395453270179
 20
-132.6906086907857
 30
0.0
 10
115.5395453270179
 20
-132.6906086907857
 30
0.0
 10
115.6663248408751
 20
-132.7329833652542
 30
0.0
 10
115.6663248408751
 20
-132.7329833652542
 30
0.0
 10
115.6770046368793
 20
-132.7372897346108
 30
0.0
 10
115.6897514901748
 20
-132.7434909064843
 30
0.0
 10
115.6897514901748
 20
-132.7562377597797
 30
0.0
 10
115.6897514901748
 20
-132.777425097014
 30
0.0
 10
115.6577121021619
 20
-132.7837985236617
 30
0.0
 10
115.6366970197019
 20
-132.787932638244
 30
0.0
 10
115.6260172236976
 20
-132.8111870327694
 30
0.0
 10
115.5963894025245
 20
-132.8768161017634
 30
0.0
 10
115.5774413773556
 20
-132.9212578335231
 30
0.0
 10
115.5774413773556
 20
-132.9212578335231
 30
0.0
 10
115.8482258824963
 20
-132.9212578335231
 30
0.0
 10
115.8482258824963
 20
-132.9212578335231
 30
0.0
 10
115.9391764033069
 20
-132.9212578335231
 30
0.0
 10
116.1358913555146
 20
-132.9169514641666
 30
0.0
 10
116.2778292895069
 20
-132.9085109802277
 30
0.0
 10
116.2778292895069
 20
-132.9085109802277
 30
0.0
 10
116.2778292895069
 20
-133.0862779072666
 30
0.0
 10
116.2778292895069
 20
-133.0862779072666
 30
0.0
 10
116.1951469978609
 20
-133.0819715379101
 30
0.0
 10
116.1741319154009
 20
-133.0819715379101
 30
0.0
 10
115.9942979310708
 20
-133.0778374233277
 30
0.0
 10
115.9626030526066
 20
-133.2321777010669
 30
0.0
 10
115.9181613208468
 20
-133.3126206806475
 30
0.0
 10
115.8737195890871
 20
-133.3823838642238
 30
0.0
 10
115.9942979310708
 20
-133.4416395065701
 30
0.0
 10
116.100062362468
 20
-133.5093356328553
 30
0.0
 10
116.203759736574
 20
-133.591845669727
 30
0.0
 10
116.203759736574
 20
-133.591845669727
 30
0.0
 10
116.0852484518814
 20
-133.7589328007616
 30
0.0
 10
116.0852484518814
 20
-133.7589328007616
 30
0.0
 10
116.0618218025817
 20
-133.7399847755927
 30
0.0
 10
116.0490749492863
 20
-133.7315442916539
 30
0.0
 10
115.9371093460157
 20
-133.6467949427168
 30
0.0
 10
115.8885334996737
 20
-133.6087266376047
 30
0.0
 10
115.8292778573274
 20
-133.5728976445581
 30
0.0
 10
115.7486626229725
 20
-133.5284559127984
 30
0.0
 10
115.5371337601782
 20
-133.7146633237762
 30
0.0
 10
115.3321505788058
 20
-133.7379177183016
 30
0.0
 10
115.0420735389478
 20
-133.7675455394748
 30
0.0
 10
115.0420735389478
 20
-133.7675455394748
 30
0.0
 10
114.9387206743903
 20
-133.5877115551447
 30
0.0
 10
114.9387206743903
 20
-133.5877115551447
 30
0.0
 10
115.2560139685818
 20
-133.5834051857882
 30
0.0
 10
115.431369328781
 20
-133.5580837339715
 30
0.0
 10
115.5836425492291
 20
-133.4480129332178
 30
0.0
 10
115.465475774085
 20
-133.3971977748104
 30
0.0
 10
115.3765923105656
 20
-133.3698092657026
 30
0.0
 10
115.3404188079704
 20
-133.3570624124072
 30
0.0
 10
115.3214707828016
 20
-133.3846231762892
 30
0.0
 10
115.306656872215
 20
-133.4035712014581
 30
0.0
 10
115.279096108333
 20
-133.4375053919878
 30
0.0
 10
115.279096108333
 20
-133.4375053919878
 30
0.0
 10
115.0823811561252
 20
-133.3549953551161
 30
0.0
 10
115.0823811561252
 20
-133.3549953551161
 30
0.0
 10
115.1650634477712
 20
-133.2745523755355
 30
0.0
 10
115.2263861474087
 20
-133.1792954853684
 30
0.0
 10
115.2832302229153
 20
-133.0778374233277
 30
0.0
 10
115.0930609521295
 20
-133.0819715379101
 30
0.0
 10
115.0717013601209
 20
-133.0819715379101
 30
0.0
 10
114.9893635780235
 20
-133.0862779072666
 30
0.0
 10
114.9893635780235
 20
-133.0862779072666
 30
0.0
 10
114.9893635780235
 20
-132.9085109802277
 30
0.0
 10
114.9893635780235
 20
-132.9085109802277
 30
0.0
 10
115.1288899451761
 20
-132.9148844068754
 30
0.0
 10
115.3383517506793
 20
-132.919190776232
 30
0.0
 10
115.3638454572701
 20
-132.919190776232
 30
0.0
 10
115.3807264251479
 20
-132.8852565857023
 30
0.0
 10
115.4358479529118
 20
-132.7646782437185
 30
0.0
 10
115.4547959780807
 20
-132.6906086907857
 30
0.0
 10
115.4358479529118
 20
-132.6906086907857
 30
0.0
 10
115.258081025873
 20
-132.6969821174334
 30
0.0
 10
115.0634331309563
 20
-132.7097289707288
 30
0.0
 10
115.0634331309563
 20
-132.7097289707288
 30
0.0
 10
115.0634331309563
 20
-132.843054166008
 30
0.0
 10
115.0634331309563
 20
-132.843054166008
 30
0.0
 10
115.0148572846143
 20
-132.8683756178245
 30
0.0
 10
114.955601642268
 20
-132.9000704962889
 30
0.0
 10
114.8222764469889
 20
-132.9656995652829
 30
0.0
 10
114.8222764469889
 20
-132.9656995652829
 30
0.0
 10
114.8222764469889
 20
-133.1115993590832
 30
0.0
 10
114.8222764469889
 20
-133.1115993590832
 30
0.0
 10
114.8222764469889
 20
-133.1115993590832
 30
0.0
 10
114.8222764469889
 20
-133.5792710712059
 30
0.0
 10
114.8222764469889
 20
-133.5792710712059
 30
0.0
 10
114.8222764469889
 20
-133.7060505850631
 30
0.0
 10
114.7861029443937
 20
-133.7653062274094
 30
0.0
 10
114.5029160955062
 20
-133.7568657434705
 30
0.0
 10
114.5029160955062
 20
-133.7568657434705
 30
0.0
 10
114.3992187214002
 20
-133.5496432500327
 30
0.0
 10
114.3992187214002
 20
-133.5496432500327
 30
0.0
 10
114.4626084783288
 20
-133.5622178485539
 30
0.0
 10
114.5111843246708
 20
-133.5665242179104
 30
0.0
 10
114.5514919418482
 20
-133.5665242179104
 30
0.0
 10
114.6276285520722
 20
-133.5665242179104
 30
0.0
 10
114.6383083480765
 20
-133.543269823385
 30
0.0
 10
114.6383083480765
 20
-133.477640754391
 30
0.0
 10
114.6383083480765
 20
-133.477640754391
 30
0.0
 10
114.6383083480765
 20
-133.0482096021546
 30
0.0
 10
114.6383083480765
 20
-133.0482096021546
 30
0.0
 10
114.5408121458439
 20
-133.0883449645578
 30
0.0
 10
114.5239311779662
 20
-133.0947183912055
 30
0.0
 10
114.4774223889154
 20
-133.1138386711486
 30
0.0
 10
114.473288274333
 20
-133.1348537536086
 30
0.0
 10
114.4688096502022
 20
-133.1644815747818
 30
0.0
 10
114.4498616250334
 20
-133.1644815747818
 30
0.0
 10
114.4415933958688
 20
-133.1644815747818
 30
0.0
 10
114.4309135998645
 20
-133.1603474601995
 30
0.0
 10
114.4243679184425
 20
-133.137093065674
 30
0.0
 10
114.4243679184425
 20
-133.137093065674
 30
0.0
 10
114.3716579575182
 20
-132.9445122280486
 30
0.0
 10
114.3716579575182
 20
-132.9445122280486
 30
0.0
 10
114.5177300060928
 20
-132.8980034389977
 30
0.0
 10
114.5831868203125
 20
-132.8747490444722
 30
0.0
 10
114.6383083480765
 20
-132.853561707238
 30
0.0
 10
114.6383083480765
 20
-132.853561707238
 30
0.0
 10
114.6383083480765
 20
-132.4410115228793
 30
0.0
 10
114.6383083480765
 20
-132.4410115228793
 30
0.0
 10
114.6383083480765
 20
-132.4410115228793
 30
0.0
 10
114.5852538776037
 20
-132.4410115228793
 30
0.0
 10
114.5852538776037
 20
-132.4410115228793
 30
0.0
 10
114.5852538776037
 20
-132.4410115228793
 30
0.0
 10
114.5070502100885
 20
-132.4410115228793
 30
0.0
 10
114.5070502100885
 20
-132.4410115228793
 30
0.0
 10
114.4391818290291
 20
-132.4410115228793
 30
0.0
 10
114.4309135998645
 20
-132.4410115228793
 30
0.0
 10
114.3947400972693
 20
-132.447384949527
 30
0.0
 10
114.3947400972693
 20
-132.447384949527
 30
0.0
 10
114.3947400972693
 20
-132.2527370546104
 30
0.0
 10
114.3947400972693
 20
-132.2527370546104
 30
0.0
 10
114.4223008611513
 20
-132.2591104812581
 30
0.0
 10
114.4309135998645
 20
-132.2591104812581
 30
0.0
 10
114.5005045286665
 20
-132.2591104812581
 30
0.0
 10
114.5005045286665
 20
-132.2591104812581
 30
0.0
 10
114.6338297239457
 20
-132.2591104812581
 30
0.0
 10
114.6338297239457
 20
-132.2591104812581
 30
0.0
 10
114.6338297239457
 20
-132.1893472976818
 30
0.0
 10
114.6338297239457
 20
-132.1068372608101
 30
0.0
 10
114.6317626666546
 20
-132.1025308914535
 30
0.0
 10
114.6234944374899
 20
-131.9226969071235
 30
0.0
 10
114.6234944374899
 20
-131.9037488819546
 30
0.0
 10
114.6210828706503
 20
-131.8572400929037
 30
0.0
 10
114.6210828706503
 20
-131.8572400929037
 30
0.0
 10
114.8370903575754
 20
-131.8656805768426
 30
0.0
 10
114.8370903575754
 20
-131.8656805768426
 30
0.0
 10
114.8477701535797
 20
-131.8656805768426
 30
0.0
 10
114.8687852360397
 20
-131.8677476341337
 30
0.0
 10
114.8687852360397
 20
-131.8846286020114
 30
0.0
 10
114.8687852360397
 20
-131.9037488819546
 30
0.0
 10
114.8539713254532
 20
-131.9142564231846
 30
0.0
 10
114.8284776188623
 20
-131.9333767031277
 30
0.0
 10
114.8284776188623
 20
-131.9840196067609
 30
0.0
 10
114.8222764469889
 20
-132.2126016922072
 30
0.0
 10
114.82434350428
 20
-132.2591104812581
 30
0.0
 10
114.9535345849769
 20
-132.2591104812581
 30
0.0
 10
114.9659369287238
 20
-132.2591104812581
 30
0.0
 10
115.0634331309563
 20
-132.2506699973192
 30
0.0
 10
115.0634331309563
 20
-132.2506699973192
 30
0.0
 10
115.0634331309563
 20
-132.4453178922359
 30
0.0
 10
115.0634331309563
 20
-132.4453178922359
 30
0.0
 10
115.0251925710701
 20
-132.4430785801705
 30
0.0
 10
114.9576686995592
 20
-132.4389444655881
 30
0.0
 10
114.8222764469889
 20
-132.4410115228793
 30
0.0
 10
114.8222764469889
 20
-132.4410115228793
 30
0.0
 10
114.8222764469889
 20
-132.7794921543051
 30
0.0
 10
114.8222764469889
 20
-132.7794921543051
 30
0.0
 10
114.8773979747529
 20
-132.7562377597797
 30
0.0
 10
114.9428547889726
 20
-132.7286769958977
 30
0.0
 10
114.9914306353146
 20
-132.7054226013722
 30
0.0
 10
114.9914306353146
 20
-132.7054226013722
 30
0.0
 10
114.9914306353146
 20
-132.5278279291076
 30
0.0
 10
114.9914306353146
 20
-132.5278279291076
 30
0.0
 10
115.1058078054249
 20
-132.5404025276288
 30
0.0
 10
115.2243190901175
 20
-132.5404025276288
 30
0.0
 10
115.3404188079704
 20
-132.5404025276288
 30
0.0
 10
115.3173366682193
 20
-132.4453178922359
 30
0.0
 10
115.2897759043373
 20
-132.3628078553641
 30
0.0
 10
115.2263861474087
 20
-132.229482660085
 30
0.0
 10
115.1819444156489
 20
-132.2315497173761
 30
0.0
 10
115.0992621240029
 20
-132.2358560867327
 30
0.0
 10
115.0613660736652
 20
-132.2379231440238
 30
0.0
 10
115.0613660736652
 20
-132.2379231440238
 30
0.0
 10
115.0613660736652
 20
-132.0580891596938
 30
0.0
 10
115.0613660736652
 20
-132.0580891596938
 30
0.0
 10
115.1860785302312
 20
-132.0665296436327
 30
0.0
 10
115.3597113426878
 20
-132.0708360129892
 30
0.0
 10
115.4420491247853
 20
-132.0708360129892
 30
0.0
 10
115.4420491247853
 20
-132.0708360129892
 30
0.0
 10
115.5247314164313
 20
-132.0708360129892
 30
0.0
 10
115.5247314164313
 20
-132.0708360129892
 30
0.0
 10
115.5247314164313
 20
-131.9078829965369
 30
0.0
 10
115.5247314164313
 20
-131.8973754553069
 30
0.0
 10
115.5223198495916
 20
-131.8424261823172
 30
0.0
 10
115.5223198495916
 20
-131.8424261823172
 30
0.0
 10
115.7465955656814
 20
-131.8677476341337
 30
0.0
 10
115.7465955656814
 20
-131.8677476341337
 30
0.0
 10
115.7510741898122
 20
-131.8677476341337
 30
0.0
 10
115.7720892722722
 20
-131.8698146914249
 30
0.0
 10
115.7720892722722
 20
-131.8866956593026
 30
0.0
 10
115.7720892722722
 20
-131.9015095698892
 30
0.0
 10
115.761409476268
 20
-131.9101223086023
 30
0.0
 10
115.733848712386
 20
-131.9249362191889
 30
0.0
 10
115.7276475405125
 20
-131.9903930334086
 30
0.0
 10
115.7255804832214
 20
-132.0115803706429
 30
0.0
 10
115.7255804832214
 20
-132.0708360129892
 30
0.0
 10
115.7255804832214
 20
-132.0708360129892
 30
0.0
 10
115.8206651186143
 20
-132.0708360129892
 30
0.0
 10
115.8206651186143
 20
-132.0708360129892
 30
0.0
 10
115.9033474102603
 20
-132.0708360129892
 30
0.0
 10
116.0766357131683
 20
-132.0665296436327
 30
0.0
 10
116.2016926792829
 20
-132.0580891596938
 30
0.0
 10
116.2016926792829
 20
-132.0580891596938
 30
0.0
 10
116.2016926792829
 20
-132.2379231440238
 30
0.0
 10
116.2016926792829
 20
-132.2379231440238
 30
0.0
 10
116.1720648581097
 20
-132.2358560867327
 30
0.0
 10
116.0535535734172
 20
-132.2315497173761
 30
0.0
 10
116.0132459562397
 20
-132.229482660085
 30
0.0
 10
115.9984320456532
 20
-132.2802978184924
 30
0.0
 10
115.9646701098977
 20
-132.3924356765373
 30
0.0
 10
115.8988687861294
 20
-132.5319620436899
 30
0.0
 10
115.941243460598
 20
-132.5319620436899
 30
0.0
 10
116.2185736471606
 20
-132.513014018521
 30
0.0
 10
116.2798963467981
 20
-132.5107747064556
 30
0.0
 10
116.2798963467981
 20
-132.5107747064556
 30
0.0
 10
116.2798963467981
 20
-132.6949150601422
 30
0.0
 10
116.2798963467981
 20
-132.6949150601422
 30
0.0
 10
116.2502685256249
 20
-132.6949150601422
 30
0.0
 10
116.2333875577472
 20
-132.6906086907857
 30
0.0
 10
116.0704345412949
 20
-132.6906086907857
 30
0.0
  0
HATCH
  5
E7
330
E0
100
AcDbEntity
  8
レイヤー 1
 62
   250
420
  2299925
440
 33554687
100
AcDbHatch
 10
0.0
 20
0.0
 30
0.0
210
0.0
220
0.0
230
1.0
  2
SOLID
 70
     1
 71
     1
 91
        3
 92
        1
 93
        1
 72
     4
 94
        3
 73
     0
 74
     0
 95
       17
 96
       13
 40
0.0
 40
0.0
 40
0.0
 40
0.0
 40
1.0
 40
1.0
 40
1.0
 40
2.0
 40
2.0
 40
2.0
 40
3.0
 40
3.0
 40
3.0
 40
4.0
 40
4.0
 40
4.0
 40
4.0
 10
115.5054388817139
 20
-133.0757703660366
 10
115.4885579138362
 20
-133.1052259324355
 10
115.437915010203
 20
-133.1984157653115
 10
115.4272352141987
 20
-133.2173637904804
 10
115.617748994533
 20
-133.2766194328267
 10
115.6387640769931
 20
-133.2829928594744
 10
115.7107665726348
 20
-133.3105536233563
 10
115.7658881003988
 20
-133.2237372171281
 10
115.78897024015
 20
-133.1496676641952
 10
115.8037841507365
 20
-133.0757703660366
 10
115.8037841507365
 20
-133.0757703660366
 10
115.5054388817139
 20
-133.0757703660366
 10
115.5054388817139
 20
-133.0757703660366
 97
        0
 97
        1
330
E4
 92
        1
 93
        1
 72
     4
 94
        3
 73
     0
 74
     0
 95
       20
 96
       16
 40
0.0
 40
0.0
 40
0.0
 40
0.0
 40
1.0
 40
1.0
 40
1.0
 40
2.0
 40
2.0
 40
2.0
 40
3.0
 40
3.0
 40
3.0
 40
4.0
 40
4.0
 40
4.0
 40
5.0
 40
5.0
 40
5.0
 40
5.0
 10
115.4420491247853
 20
-132.2253485455027
 10
115.4420491247853
 20
-132.2253485455027
 10
115.410354246321
 20
-132.2253485455027
 10
115.410354246321
 20
-132.2253485455027
 10
115.4568630353719
 20
-132.3247395502521
 10
115.4885579138362
 20
-132.4050102750585
 10
115.5223198495916
 20
-132.5319620436899
 10
115.5223198495916
 20
-132.5319620436899
 10
115.7297145978037
 20
-132.5319620436899
 10
115.7297145978037
 20
-132.5319620436899
 10
115.761409476268
 20
-132.4389444655881
 10
115.7848361255677
 20
-132.3543673714253
 10
115.8079182653188
 20
-132.2253485455027
 10
115.8079182653188
 20
-132.2253485455027
 10
115.4420491247853
 20
-132.2253485455027
 10
115.4420491247853
 20
-132.2253485455027
 97
        0
 97
        1
330
E5
 92
        1
 93
        1
 72
     4
 94
        3
 73
     0
 74
     0
 95
      242
 96
      238
 40
0.0
 40
0.0
 40
0.0
 40
0.0
 40
1.0
 40
1.0
 40
1.0
 40
2.0
 40
2.0
 40
2.0
 40
3.0
 40
3.0
 40
3.0
 40
4.0
 40
4.0
 40
4.0
 40
5.0
 40
5.0
 40
5.0
 40
6.0
 40
6.0
 40
6.0
 40
7.0
 40
7.0
 40
7.0
 40
8.0
 40
8.0
 40
8.0
 40
9.0
 40
9.0
 40
9.0
 40
10.0
 40
10.0
 40
10.0
 40
11.0
 40
11.0
 40
11.0
 40
12.0
 40
12.0
 40
12.0
 40
13.0
 40
13.0
 40
13.0
 40
14.0
 40
14.0
 40
14.0
 40
15.0
 40
15.0
 40
15.0
 40
16.0
 40
16.0
 40
16.0
 40
17.0
 40
17.0
 40
17.0
 40
18.0
 40
18.0
 40
18.0
 40
19.0
 40
19.0
 40
19.0
 40
20.0
 40
20.0
 40
20.0
 40
21.0
 40
21.0
 40
21.0
 40
22.0
 40
22.0
 40
22.0
 40
23.0
 40
23.0
 40
23.0
 40
24.0
 40
24.0
 40
24.0
 40
25.0
 40
25.0
 40
25.0
 40
26.0
 40
26.0
 40
26.0
 40
27.0
 40
27.0
 40
27.0
 40
28.0
 40
28.0
 40
28.0
 40
29.0
 40
29.0
 40
29.0
 40
30.0
 40
30.0
 40
30.0
 40
31.0
 40
31.0
 40
31.0
 40
32.0
 40
32.0
 40
32.0
 40
33.0
 40
33.0
 40
33.0
 40
34.0
 40
34.0
 40
34.0
 40
35.0
 40
35.0
 40
35.0
 40
36.0
 40
36.0
 40
36.0
 40
37.0
 40
37.0
 40
37.0
 40
38.0
 40
38.0
 40
38.0
 40
39.0
 40
39.0
 40
39.0
 40
40.0
 40
40.0
 40
40.0
 40
41.0
 40
41.0
 40
41.0
 40
42.0
 40
42.0
 40
42.0
 40
43.0
 40
43.0
 40
43.0
 40
44.0
 40
44.0
 40
44.0
 40
45.0
 40
45.0
 40
45.0
 40
46.0
 40
46.0
 40
46.0
 40
47.0
 40
47.0
 40
47.0
 40
48.0
 40
48.0
 40
48.0
 40
49.0
 40
49.0
 40
49.0
 40
50.0
 40
50.0
 40
50.0
 40
51.0
 40
51.0
 40
51.0
 40
52.0
 40
52.0
 40
52.0
 40
53.0
 40
53.0
 40
53.0
 40
54.0
 40
54.0
 40
54.0
 40
55.0
 40
55.0
 40
55.0
 40
56.0
 40
56.0
 40
56.0
 40
57.0
 40
57.0
 40
57.0
 40
58.0
 40
58.0
 40
58.0
 40
59.0
 40
59.0
 40
59.0
 40
60.0
 40
60.0
 40
60.0
 40
61.0
 40
61.0
 40
61.0
 40
62.0
 40
62.0
 40
62.0
 40
63.0
 40
63.0
 40
63.0
 40
64.0
 40
64.0
 40
64.0
 40
65.0
 40
65.0
 40
65.0
 40
66.0
 40
66.0
 40
66.0
 40
67.0
 40
67.0
 40
67.0
 40
68.0
 40
68.0
 40
68.0
 40
69.0
 40
69.0
 40
69.0
 40
70.0
 40
70.0
 40
70.0
 40
71.0
 40
71.0
 40
71.0
 40
72.0
 40
72.0
 40
72.0
 40
73.0
 40
73.0
 40
73.0
 40
74.0
 40
74.0
 40
74.0
 40
75.0
 40
75.0
 40
75.0
 40
76.0
 40
76.0
 40
76.0
 40
77.0
 40
77.0
 40
77.0
 40
78.0
 40
78.0
 40
78.0
 40
79.0
 40
79.0
 40
79.0
 40
79.0
 10
116.0704345412949
 20
-132.6906086907857
 10
116.0704345412949
 20
-132.6906086907857
 10
115.816531004032
 20
-132.6906086907857
 10
115.816531004032
 20
-132.6906086907857
 10
115.816531004032
 20
-132.6906086907857
 10
115.5395453270179
 20
-132.6906086907857
 10
115.5395453270179
 20
-132.6906086907857
 10
115.5395453270179
 20
-132.6906086907857
 10
115.6663248408751
 20
-132.7329833652542
 10
115.6663248408751
 20
-132.7329833652542
 10
115.6770046368793
 20
-132.7372897346108
 10
115.6897514901748
 20
-132.7434909064843
 10
115.6897514901748
 20
-132.7562377597797
 10
115.6897514901748
 20
-132.777425097014
 10
115.6577121021619
 20
-132.7837985236617
 10
115.6366970197019
 20
-132.787932638244
 10
115.6260172236976
 20
-132.8111870327694
 10
115.5963894025245
 20
-132.8768161017634
 10
115.5774413773556
 20
-132.9212578335231
 10
115.5774413773556
 20
-132.9212578335231
 10
115.8482258824963
 20
-132.9212578335231
 10
115.8482258824963
 20
-132.9212578335231
 10
115.9391764033069
 20
-132.9212578335231
 10
116.1358913555146
 20
-132.9169514641666
 10
116.2778292895069
 20
-132.9085109802277
 10
116.2778292895069
 20
-132.9085109802277
 10
116.2778292895069
 20
-133.0862779072666
 10
116.2778292895069
 20
-133.0862779072666
 10
116.1951469978609
 20
-133.0819715379101
 10
116.1741319154009
 20
-133.0819715379101
 10
115.9942979310708
 20
-133.0778374233277
 10
115.9626030526066
 20
-133.2321777010669
 10
115.9181613208468
 20
-133.3126206806475
 10
115.8737195890871
 20
-133.3823838642238
 10
115.9942979310708
 20
-133.4416395065701
 10
116.100062362468
 20
-133.5093356328553
 10
116.203759736574
 20
-133.591845669727
 10
116.203759736574
 20
-133.591845669727
 10
116.0852484518814
 20
-133.7589328007616
 10
116.0852484518814
 20
-133.7589328007616
 10
116.0618218025817
 20
-133.7399847755927
 10
116.0490749492863
 20
-133.7315442916539
 10
115.9371093460157
 20
-133.6467949427168
 10
115.8885334996737
 20
-133.6087266376047
 10
115.8292778573274
 20
-133.5728976445581
 10
115.7486626229725
 20
-133.5284559127984
 10
115.5371337601782
 20
-133.7146633237762
 10
115.3321505788058
 20
-133.7379177183016
 10
115.0420735389478
 20
-133.7675455394748
 10
115.0420735389478
 20
-133.7675455394748
 10
114.9387206743903
 20
-133.5877115551447
 10
114.9387206743903
 20
-133.5877115551447
 10
115.2560139685818
 20
-133.5834051857882
 10
115.431369328781
 20
-133.5580837339715
 10
115.5836425492291
 20
-133.4480129332178
 10
115.465475774085
 20
-133.3971977748104
 10
115.3765923105656
 20
-133.3698092657026
 10
115.3404188079704
 20
-133.3570624124072
 10
115.3214707828016
 20
-133.3846231762892
 10
115.306656872215
 20
-133.4035712014581
 10
115.279096108333
 20
-133.4375053919878
 10
115.279096108333
 20
-133.4375053919878
 10
115.0823811561252
 20
-133.3549953551161
 10
115.0823811561252
 20
-133.3549953551161
 10
115.1650634477712
 20
-133.2745523755355
 10
115.2263861474087
 20
-133.1792954853684
 10
115.2832302229153
 20
-133.0778374233277
 10
115.0930609521295
 20
-133.0819715379101
 10
115.0717013601209
 20
-133.0819715379101
 10
114.9893635780235
 20
-133.0862779072666
 10
114.9893635780235
 20
-133.0862779072666
 10
114.9893635780235
 20
-132.9085109802277
 10
114.9893635780235
 20
-132.9085109802277
 10
115.1288899451761
 20
-132.9148844068754
 10
115.3383517506793
 20
-132.919190776232
 10
115.3638454572701
 20
-132.919190776232
 10
115.3807264251479
 20
-132.8852565857023
 10
115.4358479529118
 20
-132.7646782437185
 10
115.4547959780807
 20
-132.6906086907857
 10
115.4358479529118
 20
-132.6906086907857
 10
115.258081025873
 20
-132.6969821174334
 10
115.0634331309563
 20
-132.7097289707288
 10
115.0634331309563
 20
-132.7097289707288
 10
115.0634331309563
 20
-132.843054166008
 10
115.0634331309563
 20
-132.843054166008
 10
115.0148572846143
 20
-132.8683756178245
 10
114.955601642268
 20
-132.9000704962889
 10
114.8222764469889
 20
-132.9656995652829
 10
114.8222764469889
 20
-132.9656995652829
 10
114.8222764469889
 20
-133.1115993590832
 10
114.8222764469889
 20
-133.1115993590832
 10
114.8222764469889
 20
-133.1115993590832
 10
114.8222764469889
 20
-133.5792710712059
 10
114.8222764469889
 20
-133.5792710712059
 10
114.8222764469889
 20
-133.7060505850631
 10
114.7861029443937
 20
-133.7653062274094
 10
114.5029160955062
 20
-133.7568657434705
 10
114.5029160955062
 20
-133.7568657434705
 10
114.3992187214002
 20
-133.5496432500327
 10
114.3992187214002
 20
-133.5496432500327
 10
114.4626084783288
 20
-133.5622178485539
 10
114.5111843246708
 20
-133.5665242179104
 10
114.5514919418482
 20
-133.5665242179104
 10
114.6276285520722
 20
-133.5665242179104
 10
114.6383083480765
 20
-133.543269823385
 10
114.6383083480765
 20
-133.477640754391
 10
114.6383083480765
 20
-133.477640754391
 10
114.6383083480765
 20
-133.0482096021546
 10
114.6383083480765
 20
-133.0482096021546
 10
114.5408121458439
 20
-133.0883449645578
 10
114.5239311779662
 20
-133.0947183912055
 10
114.4774223889154
 20
-133.1138386711486
 10
114.473288274333
 20
-133.1348537536086
 10
114.4688096502022
 20
-133.1644815747818
 10
114.4498616250334
 20
-133.1644815747818
 10
114.4415933958688
 20
-133.1644815747818
 10
114.4309135998645
 20
-133.1603474601995
 10
114.4243679184425
 20
-133.137093065674
 10
114.4243679184425
 20
-133.137093065674
 10
114.3716579575182
 20
-132.9445122280486
 10
114.3716579575182
 20
-132.9445122280486
 10
114.5177300060928
 20
-132.8980034389977
 10
114.5831868203125
 20
-132.8747490444722
 10
114.6383083480765
 20
-132.853561707238
 10
114.6383083480765
 20
-132.853561707238
 10
114.6383083480765
 20
-132.4410115228793
 10
114.6383083480765
 20
-132.4410115228793
 10
114.6383083480765
 20
-132.4410115228793
 10
114.5852538776037
 20
-132.4410115228793
 10
114.5852538776037
 20
-132.4410115228793
 10
114.5852538776037
 20
-132.4410115228793
 10
114.5070502100885
 20
-132.4410115228793
 10
114.5070502100885
 20
-132.4410115228793
 10
114.4391818290291
 20
-132.4410115228793
 10
114.4309135998645
 20
-132.4410115228793
 10
114.3947400972693
 20
-132.447384949527
 10
114.3947400972693
 20
-132.447384949527
 10
114.3947400972693
 20
-132.2527370546104
 10
114.3947400972693
 20
-132.2527370546104
 10
114.4223008611513
 20
-132.2591104812581
 10
114.4309135998645
 20
-132.2591104812581
 10
114.5005045286665
 20
-132.2591104812581
 10
114.5005045286665
 20
-132.2591104812581
 10
114.6338297239457
 20
-132.2591104812581
 10
114.6338297239457
 20
-132.2591104812581
 10
114.6338297239457
 20
-132.1893472976818
 10
114.6338297239457
 20
-132.1068372608101
 10
114.6317626666546
 20
-132.1025308914535
 10
114.6234944374899
 20
-131.9226969071235
 10
114.6234944374899
 20
-131.9037488819546
 10
114.6210828706503
 20
-131.8572400929037
 10
114.6210828706503
 20
-131.8572400929037
 10
114.8370903575754
 20
-131.8656805768426
 10
114.8370903575754
 20
-131.8656805768426
 10
114.8477701535797
 20
-131.8656805768426
 10
114.8687852360397
 20
-131.8677476341337
 10
114.8687852360397
 20
-131.8846286020114
 10
114.8687852360397
 20
-131.9037488819546
 10
114.8539713254532
 20
-131.9142564231846
 10
114.8284776188623
 20
-131.9333767031277
 10
114.8284776188623
 20
-131.9840196067609
 10
114.8222764469889
 20
-132.2126016922072
 10
114.82434350428
 20
-132.2591104812581
 10
114.9535345849769
 20
-132.2591104812581
 10
114.9659369287238
 20
-132.2591104812581
 10
115.0634331309563
 20
-132.2506699973192
 10
115.0634331309563
 20
-132.2506699973192
 10
115.0634331309563
 20
-132.4453178922359
 10
115.0634331309563
 20
-132.4453178922359
 10
115.0251925710701
 20
-132.4430785801705
 10
114.9576686995592
 20
-132.4389444655881
 10
114.8222764469889
 20
-132.4410115228793
 10
114.8222764469889
 20
-132.4410115228793
 10
114.8222764469889
 20
-132.7794921543051
 10
114.8222764469889
 20
-132.7794921543051
 10
114.8773979747529
 20
-132.7562377597797
 10
114.9428547889726
 20
-132.7286769958977
 10
114.9914306353146
 20
-132.7054226013722
 10
114.9914306353146
 20
-132.7054226013722
 10
114.9914306353146
 20
-132.5278279291076
 10
114.9914306353146
 20
-132.5278279291076
 10
115.1058078054249
 20
-132.5404025276288
 10
115.2243190901175
 20
-132.5404025276288
 10
115.3404188079704
 20
-132.5404025276288
 10
115.3173366682193
 20
-132.4453178922359
 10
115.2897759043373
 20
-132.3628078553641
 10
115.2263861474087
 20
-132.229482660085
 10
115.1819444156489
 20
-132.2315497173761
 10
115.0992621240029
 20
-132.2358560867327
 10
115.0613660736652
 20
-132.2379231440238
 10
115.0613660736652
 20
-132.2379231440238
 10
115.0613660736652
 20
-132.0580891596938
 10
115.0613660736652
 20
-132.0580891596938
 10
115.1860785302312
 20
-132.0665296436327
 10
115.3597113426878
 20
-132.0708360129892
 10
115.4420491247853
 20
-132.0708360129892
 10
115.4420491247853
 20
-132.0708360129892
 10
115.5247314164313
 20
-132.0708360129892
 10
115.5247314164313
 20
-132.0708360129892
 10
115.5247314164313
 20
-131.9078829965369
 10
115.5247314164313
 20
-131.8973754553069
 10
115.5223198495916
 20
-131.8424261823172
 10
115.5223198495916
 20
-131.8424261823172
 10
115.7465955656814
 20
-131.8677476341337
 10
115.7465955656814
 20
-131.8677476341337
 10
115.7510741898122
 20
-131.8677476341337
 10
115.7720892722722
 20
-131.8698146914249
 10
115.7720892722722
 20
-131.8866956593026
 10
115.7720892722722
 20
-131.9015095698892
 10
115.761409476268
 20
-131.9101223086023
 10
115.733848712386
 20
-131.9249362191889
 10
115.7276475405125
 20
-131.9903930334086
 10
115.7255804832214
 20
-132.0115803706429
 10
115.7255804832214
 20
-132.0708360129892
 10
115.7255804832214
 20
-132.0708360129892
 10
115.8206651186143
 20
-132.0708360129892
 10
115.8206651186143
 20
-132.0708360129892
 10
115.9033474102603
 20
-132.0708360129892
 10
116.0766357131683
 20
-132.0665296436327
 10
116.2016926792829
 20
-132.0580891596938
 10
116.2016926792829
 20
-132.0580891596938
 10
116.2016926792829
 20
-132.2379231440238
 10
116.2016926792829
 20
-132.2379231440238
 10
116.1720648581097
 20
-132.2358560867327
 10
116.0535535734172
 20
-132.2315497173761
 10
116.0132459562397
 20
-132.229482660085
 10
115.9984320456532
 20
-132.2802978184924
 10
115.9646701098977
 20
-132.3924356765373
 10
115.8988687861294
 20
-132.5319620436899
 10
115.941243460598
 20
-132.5319620436899
 10
116.2185736471606
 20
-132.513014018521
 10
116.2798963467981
 20
-132.5107747064556
 10
116.2798963467981
 20
-132.5107747064556
 10
116.2798963467981
 20
-132.6949150601422
 10
116.2798963467981
 20
-132.6949150601422
 10
116.2502685256249
 20
-132.6949150601422
 10
116.2333875577472
 20
-132.6906086907857
 10
116.0704345412949
 20
-132.6906086907857
 97
        0
 97
        1
330
E6
 75
     2
 76
     1
 98
        1
 10
0.0
 20
0.0
450
        0
451
        0
460
0.0
461
0.0
452
        0
462
0.0
453
        0
470

  0
SPLINE
  5
E8
330
E0
100
AcDbEntity
  8
レイヤー 1
100
AcDbSpline
210
0.0
220
0.0
230
1.0
 70
    11
 71
     3
 72
    17
 73
    13
 74
     0
 42
0.0000000001
 43
0.0000000001
 40
0.0
 40
0.0
 40
0.0
 40
0.0
 40
1.0
 40
1.0
 40
1.0
 40
2.0
 40
2.0
 40
2.0
 40
3.0
 40
3.0
 40
3.0
 40
4.0
 40
4.0
 40
4.0
 40
4.0
 10
117.926996498296
 20
-133.4903876076864
 30
0.0
 10
117.926996498296
 20
-133.4903876076864
 30
0.0
 10
117.2204074142713
 20
-133.4903876076864
 30
0.0
 10
117.2204074142713
 20
-133.4903876076864
 30
0.0
 10
117.2204074142713
 20
-133.4903876076864
 30
0.0
 10
117.2204074142713
 20
-133.6045925230224
 30
0.0
 10
117.2204074142713
 20
-133.6045925230224
 30
0.0
 10
117.2204074142713
 20
-133.6045925230224
 30
0.0
 10
117.926996498296
 20
-133.6045925230224
 30
0.0
 10
117.926996498296
 20
-133.6045925230224
 30
0.0
 10
117.926996498296
 20
-133.6045925230224
 30
0.0
 10
117.926996498296
 20
-133.4903876076864
 30
0.0
 10
117.926996498296
 20
-133.4903876076864
 30
0.0
  0
SPLINE
  5
E9
330
E0
100
AcDbEntity
  8
レイヤー 1
100
AcDbSpline
210
0.0
220
0.0
230
1.0
 70
    11
 71
     3
 72
    17
 73
    13
 74
     0
 42
0.0000000001
 43
0.0000000001
 40
0.0
 40
0.0
 40
0.0
 40
0.0
 40
1.0
 40
1.0
 40
1.0
 40
2.0
 40
2.0
 40
2.0
 40
3.0
 40
3.0
 40
3.0
 40
4.0
 40
4.0
 40
4.0
 40
4.0
 10
117.926996498296
 20
-133.2469916116535
 30
0.0
 10
117.926996498296
 20
-133.2469916116535
 30
0.0
 10
117.2204074142713
 20
-133.2469916116535
 30
0.0
 10
117.2204074142713
 20
-133.2469916116535
 30
0.0
 10
117.2204074142713
 20
-133.2469916116535
 30
0.0
 10
117.2204074142713
 20
-133.3613687817638
 30
0.0
 10
117.2204074142713
 20
-133.3613687817638
 30
0.0
 10
117.2204074142713
 20
-133.3613687817638
 30
0.0
 10
117.926996498296
 20
-133.3613687817638
 30
0.0
 10
117.926996498296
 20
-133.3613687817638
 30
0.0
 10
117.926996498296
 20
-133.3613687817638
 30
0.0
 10
117.926996498296
 20
-133.2469916116535
 30
0.0
 10
117.926996498296
 20
-133.2469916116535
 30
0.0
  0
SPLINE
  5
EA
330
E0
100
AcDbEntity
  8
レイヤー 1
100
AcDbSpline
210
0.0
220
0.0
230
1.0
 70
    11
 71
     3
 72
    17
 73
    13
 74
     0
 42
0.0000000001
 43
0.0000000001
 40
0.0
 40
0.0
 40
0.0
 40
0.0
 40
1.0
 40
1.0
 40
1.0
 40
2.0
 40
2.0
 40
2.0
 40
3.0
 40
3.0
 40
3.0
 40
4.0
 40
4.0
 40
4.0
 40
4.0
 10
117.926996498296
 20
-133.0142754116249
 30
0.0
 10
117.926996498296
 20
-133.0142754116249
 30
0.0
 10
117.2204074142713
 20
-133.0142754116249
 30
0.0
 10
117.2204074142713
 20
-133.0142754116249
 30
0.0
 10
117.2204074142713
 20
-133.0142754116249
 30
0.0
 10
117.2204074142713
 20
-133.1222791550874
 30
0.0
 10
117.2204074142713
 20
-133.1222791550874
 30
0.0
 10
117.2204074142713
 20
-133.1222791550874
 30
0.0
 10
117.926996498296
 20
-133.1222791550874
 30
0.0
 10
117.926996498296
 20
-133.1222791550874
 30
0.0
 10
117.926996498296
 20
-133.1222791550874
 30
0.0
 10
117.926996498296
 20
-133.0142754116249
 30
0.0
 10
117.926996498296
 20
-133.0142754116249
 30
0.0
  0
SPLINE
  5
EB
330
E0
100
AcDbEntity
  8
レイヤー 1
100
AcDbSpline
210
0.0
220
0.0
230
1.0
 70
     9
 71
     3
 72
   203
 73
   199
 74
     0
 42
0.0000000001
 43
0.0000000001
 40
0.0
 40
0.0
 40
0.0
 40
0.0
 40
1.0
 40
1.0
 40
1.0
 40
2.0
 40
2.0
 40
2.0
 40
3.0
 40
3.0
 40
3.0
 40
4.0
 40
4.0
 40
4.0
 40
5.0
 40
5.0
 40
5.0
 40
6.0
 40
6.0
 40
6.0
 40
7.0
 40
7.0
 40
7.0
 40
8.0
 40
8.0
 40
8.0
 40
9.0
 40
9.0
 40
9.0
 40
10.0
 40
10.0
 40
10.0
 40
11.0
 40
11.0
 40
11.0
 40
12.0
 40
12.0
 40
12.0
 40
13.0
 40
13.0
 40
13.0
 40
14.0
 40
14.0
 40
14.0
 40
15.0
 40
15.0
 40
15.0
 40
16.0
 40
16.0
 40
16.0
 40
17.0
 40
17.0
 40
17.0
 40
18.0
 40
18.0
 40
18.0
 40
19.0
 40
19.0
 40
19.0
 40
20.0
 40
20.0
 40
20.0
 40
21.0
 40
21.0
 40
21.0
 40
22.0
 40
22.0
 40
22.0
 40
23.0
 40
23.0
 40
23.0
 40
24.0
 40
24.0
 40
24.0
 40
25.0
 40
25.0
 40
25.0
 40
26.0
 40
26.0
 40
26.0
 40
27.0
 40
27.0
 40
27.0
 40
28.0
 40
28.0
 40
28.0
 40
29.0
 40
29.0
 40
29.0
 40
30.0
 40
30.0
 40
30.0
 40
31.0
 40
31.0
 40
31.0
 40
32.0
 40
32.0
 40
32.0
 40
33.0
 40
33.0
 40
33.0
 40
34.0
 40
34.0
 40
34.0
 40
35.0
 40
35.0
 40
35.0
 40
36.0
 40
36.0
 40
36.0
 40
37.0
 40
37.0
 40
37.0
 40
38.0
 40
38.0
 40
38.0
 40
39.0
 40
39.0
 40
39.0
 40
40.0
 40
40.0
 40
40.0
 40
41.0
 40
41.0
 40
41.0
 40
42.0
 40
42.0
 40
42.0
 40
43.0
 40
43.0
 40
43.0
 40
44.0
 40
44.0
 40
44.0
 40
45.0
 40
45.0
 40
45.0
 40
46.0
 40
46.0
 40
46.0
 40
47.0
 40
47.0
 40
47.0
 40
48.0
 40
48.0
 40
48.0
 40
49.0
 40
49.0
 40
49.0
 40
50.0
 40
50.0
 40
50.0
 40
51.0
 40
51.0
 40
51.0
 40
52.0
 40
52.0
 40
52.0
 40
53.0
 40
53.0
 40
53.0
 40
54.0
 40
54.0
 40
54.0
 40
55.0
 40
55.0
 40
55.0
 40
56.0
 40
56.0
 40
56.0
 40
57.0
 40
57.0
 40
57.0
 40
58.0
 40
58.0
 40
58.0
 40
59.0
 40
59.0
 40
59.0
 40
60.0
 40
60.0
 40
60.0
 40
61.0
 40
61.0
 40
61.0
 40
62.0
 40
62.0
 40
62.0
 40
63.0
 40
63.0
 40
63.0
 40
64.0
 40
64.0
 40
64.0
 40
65.0
 40
65.0
 40
65.0
 40
66.0
 40
66.0
 40
66.0
 40
66.0
 10
117.7619764245525
 20
-132.7583048170708
 30
0.0
 10
117.7619764245525
 20
-132.7583048170708
 30
0.0
 10
117.203181936845
 20
-132.7583048170708
 30
0.0
 10
117.203181936845
 20
-132.7583048170708
 30
0.0
 10
117.1928466503893
 20
-132.8027465488306
 30
0.0
 10
117.1842339116762
 20
-132.8344414272949
 30
0.0
 10
117.1714870583807
 20
-132.8726819871811
 30
0.0
 10
117.1969807649716
 20
-132.8726819871811
 30
0.0
 10
117.2117946755582
 20
-132.8747490444722
 30
0.0
 10
117.2179958474316
 20
-132.8747490444722
 30
0.0
 10
117.2179958474316
 20
-132.8747490444722
 30
0.0
 10
117.4064425704748
 20
-132.8747490444722
 30
0.0
 10
117.4064425704748
 20
-132.8747490444722
 30
0.0
 10
117.4064425704748
 20
-132.8747490444722
 30
0.0
 10
117.7809244497214
 20
-132.8747490444722
 30
0.0
 10
117.7809244497214
 20
-132.8747490444722
 30
0.0
 10
117.8315673533546
 20
-132.8747490444722
 30
0.0
 10
118.1150987117907
 20
-132.8620021911768
 30
0.0
 10
118.1467935902549
 20
-132.8620021911768
 30
0.0
 10
118.1447265329638
 20
-132.8895629550588
 30
0.0
 10
118.1426594756727
 20
-132.9085109802277
 30
0.0
 10
118.1426594756727
 20
-132.9381388014009
 30
0.0
 10
118.1405924183815
 20
-132.9698336798652
 30
0.0
 10
118.1405924183815
 20
-133.1052259324355
 30
0.0
 10
118.1405924183815
 20
-133.1327866963175
 30
0.0
 10
118.1405924183815
 20
-133.1327866963175
 30
0.0
 10
118.1405924183815
 20
-133.3782497496415
 30
0.0
 10
118.1405924183815
 20
-133.3782497496415
 30
0.0
 10
118.1405924183815
 20
-133.4226914814012
 30
0.0
 10
118.1447265329638
 20
-133.619406433609
 30
0.0
 10
118.1488606475461
 20
-133.7716796540571
 30
0.0
 10
118.1488606475461
 20
-133.7716796540571
 30
0.0
 10
117.9225178741652
 20
-133.7716796540571
 30
0.0
 10
117.9225178741652
 20
-133.7716796540571
 30
0.0
 10
117.9225178741652
 20
-133.7716796540571
 30
0.0
 10
117.9245849314563
 20
-133.7379177183016
 30
0.0
 10
117.9245849314563
 20
-133.7379177183016
 30
0.0
 10
117.9245849314563
 20
-133.7379177183016
 30
0.0
 10
117.2224744715624
 20
-133.7379177183016
 30
0.0
 10
117.2224744715624
 20
-133.7379177183016
 30
0.0
 10
117.2224744715624
 20
-133.7379177183016
 30
0.0
 10
117.2245415288536
 20
-133.7716796540571
 30
0.0
 10
117.2245415288536
 20
-133.7716796540571
 30
0.0
 10
117.2245415288536
 20
-133.7716796540571
 30
0.0
 10
117.0064669846373
 20
-133.7716796540571
 30
0.0
 10
117.0064669846373
 20
-133.7716796540571
 30
0.0
 10
117.0109456087681
 20
-133.7167303810673
 30
0.0
 10
117.0109456087681
 20
-133.7039835277719
 30
0.0
 10
117.0171467806415
 20
-133.5897786124359
 30
0.0
 10
117.0192138379327
 20
-133.5622178485539
 30
0.0
 10
117.0212808952238
 20
-133.4290649080489
 30
0.0
 10
117.0212808952238
 20
-133.4099446281058
 30
0.0
 10
117.0212808952238
 20
-133.4099446281058
 30
0.0
 10
117.0212808952238
 20
-133.2068562492503
 30
0.0
 10
117.0212808952238
 20
-133.2068562492503
 30
0.0
 10
116.8817545280712
 20
-133.4564534171567
 30
0.0
 10
116.7126003397454
 20
-133.5877115551447
 30
0.0
 10
116.6068359083483
 20
-133.6531683693645
 30
0.0
 10
116.6068359083483
 20
-133.6531683693645
 30
0.0
 10
116.4332030958917
 20
-133.5136420022118
 30
0.0
 10
116.4332030958917
 20
-133.5136420022118
 30
0.0
 10
116.5220865594111
 20
-133.4628268438044
 30
0.0
 10
116.6660915506946
 20
-133.3760104375761
 30
0.0
 10
116.803550860556
 20
-133.1815347974337
 30
0.0
 10
116.8945013813666
 20
-133.0545830288023
 30
0.0
 10
116.9599581955864
 20
-132.9107502922931
 30
0.0
 10
116.9940646408903
 20
-132.7583048170708
 30
0.0
 10
116.7653103006698
 20
-132.7605441291362
 30
0.0
 10
116.5854763163397
 20
-132.766917555784
 30
0.0
 10
116.4903916809468
 20
-132.7689846130751
 30
0.0
 10
116.4903916809468
 20
-132.7689846130751
 30
0.0
 10
116.4903916809468
 20
-132.5912176860362
 30
0.0
 10
116.4903916809468
 20
-132.5912176860362
 30
0.0
 10
116.6871066331546
 20
-132.5975911126839
 30
0.0
 10
116.9706379915907
 20
-132.6018974820405
 30
0.0
 10
117.1208441547475
 20
-132.6018974820405
 30
0.0
 10
117.1208441547475
 20
-132.6018974820405
 30
0.0
 10
117.334440074833
 20
-132.6018974820405
 30
0.0
 10
117.334440074833
 20
-132.6018974820405
 30
0.0
 10
117.334440074833
 20
-132.6018974820405
 30
0.0
 10
117.334440074833
 20
-132.4938937385779
 30
0.0
 10
117.334440074833
 20
-132.4938937385779
 30
0.0
 10
117.334440074833
 20
-132.4938937385779
 30
0.0
 10
117.1883680262584
 20
-132.4938937385779
 30
0.0
 10
117.1883680262584
 20
-132.4938937385779
 30
0.0
 10
117.0192138379327
 20
-132.4938937385779
 30
0.0
 10
116.8500596496069
 20
-132.4982001079344
 30
0.0
 10
116.6829725185723
 20
-132.5045735345822
 30
0.0
 10
116.6829725185723
 20
-132.5045735345822
 30
0.0
 10
116.6829725185723
 20
-132.333180034191
 30
0.0
 10
116.6829725185723
 20
-132.333180034191
 30
0.0
 10
116.8373127963115
 20
-132.343687575421
 30
0.0
 10
117.023347952515
 20
-132.343687575421
 30
0.0
 10
117.1883680262584
 20
-132.343687575421
 30
0.0
 10
117.1883680262584
 20
-132.343687575421
 30
0.0
 10
117.334440074833
 20
-132.343687575421
 30
0.0
 10
117.334440074833
 20
-132.343687575421
 30
0.0
 10
117.334440074833
 20
-132.343687575421
 30
0.0
 10
117.334440074833
 20
-132.2253485455027
 30
0.0
 10
117.334440074833
 20
-132.2253485455027
 30
0.0
 10
117.334440074833
 20
-132.2253485455027
 30
0.0
 10
117.203181936845
 20
-132.2253485455027
 30
0.0
 10
117.203181936845
 20
-132.2253485455027
 30
0.0
 10
117.1566731477941
 20
-132.2253485455027
 30
0.0
 10
116.9537570237129
 20
-132.2337890294415
 30
0.0
 10
116.9113823492444
 20
-132.2337890294415
 30
0.0
 10
116.7084662251631
 20
-132.2379231440238
 30
0.0
 10
116.6319851053906
 20
-132.239990201315
 30
0.0
 10
116.5537814378754
 20
-132.2422295133804
 30
0.0
 10
116.5537814378754
 20
-132.2422295133804
 30
0.0
 10
116.5537814378754
 20
-132.0580891596938
 30
0.0
 10
116.5537814378754
 20
-132.0580891596938
 30
0.0
 10
116.6681586079857
 20
-132.0665296436327
 30
0.0
 10
116.7126003397454
 20
-132.0665296436327
 30
0.0
 10
117.0953504481567
 20
-132.0751423823458
 30
0.0
 10
117.0319606912281
 20
-131.9798854921786
 30
0.0
 10
117.0043999273461
 20
-131.9523247282966
 30
0.0
 10
116.9685709342995
 20
-131.9163234804758
 30
0.0
 10
116.9685709342995
 20
-131.9163234804758
 30
0.0
 10
117.1439262944987
 20
-131.833813443604
 30
0.0
 10
117.1439262944987
 20
-131.833813443604
 30
0.0
 10
117.1842339116762
 20
-131.8698146914249
 30
0.0
 10
117.2286756434359
 20
-131.9121893658935
 30
0.0
 10
117.3027451963687
 20
-132.0220879118729
 30
0.0
 10
117.3027451963687
 20
-132.0220879118729
 30
0.0
 10
117.1883680262584
 20
-132.0772094396369
 30
0.0
 10
117.1883680262584
 20
-132.0772094396369
 30
0.0
 10
117.1883680262584
 20
-132.0772094396369
 30
0.0
 10
117.1990478222627
 20
-132.0772094396369
 30
0.0
 10
117.1990478222627
 20
-132.0772094396369
 30
0.0
 10
117.1990478222627
 20
-132.0772094396369
 30
0.0
 10
117.7216688073751
 20
-132.0772094396369
 30
0.0
 10
117.7216688073751
 20
-132.0772094396369
 30
0.0
 10
117.7216688073751
 20
-132.0772094396369
 30
0.0
 10
117.6265841719822
 20
-132.0327677078772
 30
0.0
 10
117.6265841719822
 20
-132.0327677078772
 30
0.0
 10
117.6538004263157
 20
-131.9946994027652
 30
0.0
 10
117.7109890113708
 20
-131.9142564231846
 30
0.0
 10
117.7258029219574
 20
-131.8401868702517
 30
0.0
 10
117.7258029219574
 20
-131.8401868702517
 30
0.0
 10
117.9393988420429
 20
-131.9037488819546
 30
0.0
 10
117.9393988420429
 20
-131.9037488819546
 30
0.0
 10
117.948011580756
 20
-131.9058159392457
 30
0.0
 10
117.9690266632161
 20
-131.9163234804758
 30
0.0
 10
117.9690266632161
 20
-131.93751081771
 30
0.0
 10
117.9690266632161
 20
-131.9755791228221
 30
0.0
 10
117.9035698489963
 20
-131.9755791228221
 30
0.0
 10
117.8846218238274
 20
-131.9755791228221
 30
0.0
 10
117.8739420278232
 20
-131.9946994027652
 30
0.0
 10
117.8505153785235
 20
-132.0348347651683
 30
0.0
 10
117.8208875573503
 20
-132.0751423823458
 30
0.0
 10
118.2208631431878
 20
-132.0687689556981
 30
0.0
 10
118.250490964361
 20
-132.0665296436327
 30
0.0
 10
118.326627574585
 20
-132.0603284717592
 30
0.0
 10
118.326627574585
 20
-132.0603284717592
 30
0.0
 10
118.326627574585
 20
-132.2422295133804
 30
0.0
 10
118.326627574585
 20
-132.2422295133804
 30
0.0
 10
118.3076795494161
 20
-132.2422295133804
 30
0.0
 10
118.2821858428253
 20
-132.239990201315
 30
0.0
 10
118.0623887508663
 20
-132.2315497173761
 30
0.0
 10
118.0114013376846
 20
-132.229482660085
 30
0.0
 10
117.7916042457257
 20
-132.2253485455027
 30
0.0
 10
117.747162513966
 20
-132.2253485455027
 30
0.0
 10
117.747162513966
 20
-132.2253485455027
 30
0.0
 10
117.5311550270408
 20
-132.2253485455027
 30
0.0
 10
117.5311550270408
 20
-132.2253485455027
 30
0.0
 10
117.5311550270408
 20
-132.2253485455027
 30
0.0
 10
117.5311550270408
 20
-132.343687575421
 30
0.0
 10
117.5311550270408
 20
-132.343687575421
 30
0.0
 10
117.5311550270408
 20
-132.343687575421
 30
0.0
 10
117.7047878394974
 20
-132.343687575421
 30
0.0
 10
117.7047878394974
 20
-132.343687575421
 30
0.0
 10
117.8677408559497
 20
-132.343687575421
 30
0.0
 10
118.0579101267355
 20
-132.343687575421
 30
0.0
 10
118.2146619713144
 20
-132.333180034191
 30
0.0
 10
118.2146619713144
 20
-132.333180034191
 30
0.0
 10
118.2146619713144
 20
-132.5045735345822
 30
0.0
 10
118.2146619713144
 20
-132.5045735345822
 30
0.0
 10
118.0052001658112
 20
-132.4961330506433
 30
0.0
 10
117.8084852136034
 20
-132.4938937385779
 30
0.0
 10
117.7047878394974
 20
-132.4938937385779
 30
0.0
 10
117.7047878394974
 20
-132.4938937385779
 30
0.0
 10
117.5311550270408
 20
-132.4938937385779
 30
0.0
 10
117.5311550270408
 20
-132.4938937385779
 30
0.0
 10
117.5311550270408
 20
-132.4938937385779
 30
0.0
 10
117.5311550270408
 20
-132.6018974820405
 30
0.0
 10
117.5311550270408
 20
-132.6018974820405
 30
0.0
 10
117.5311550270408
 20
-132.6018974820405
 30
0.0
 10
117.7619764245525
 20
-132.6018974820405
 30
0.0
 10
117.7619764245525
 20
-132.6018974820405
 30
0.0
 10
117.8949571102832
 20
-132.6018974820405
 30
0.0
 10
118.1829670928501
 20
-132.5975911126839
 30
0.0
 10
118.3920843888047
 20
-132.5912176860362
 30
0.0
 10
118.3920843888047
 20
-132.5912176860362
 30
0.0
 10
118.3920843888047
 20
-132.7689846130751
 30
0.0
 10
118.3920843888047
 20
-132.7689846130751
 30
0.0
 10
118.1998480607278
 20
-132.7626111864274
 30
0.0
 10
117.8866888811186
 20
-132.7583048170708
 30
0.0
 10
117.7619764245525
 20
-132.7583048170708
 30
0.0
  0
HATCH
  5
EC
330
E0
100
AcDbEntity
  8
レイヤー 1
 62
   250
420
  2299925
440
 33554687
100
AcDbHatch
 10
0.0
 20
0.0
 30
0.0
210
0.0
220
0.0
230
1.0
  2
SOLID
 70
     1
 71
     1
 91
        4
 92
        1
 93
        1
 72
     4
 94
        3
 73
     0
 74
     0
 95
       17
 96
       13
 40
0.0
 40
0.0
 40
0.0
 40
0.0
 40
1.0
 40
1.0
 40
1.0
 40
2.0
 40
2.0
 40
2.0
 40
3.0
 40
3.0
 40
3.0
 40
4.0
 40
4.0
 40
4.0
 40
4.0
 10
117.926996498296
 20
-133.4903876076864
 10
117.926996498296
 20
-133.4903876076864
 10
117.2204074142713
 20
-133.4903876076864
 10
117.2204074142713
 20
-133.4903876076864
 10
117.2204074142713
 20
-133.4903876076864
 10
117.2204074142713
 20
-133.6045925230224
 10
117.2204074142713
 20
-133.6045925230224
 10
117.2204074142713
 20
-133.6045925230224
 10
117.926996498296
 20
-133.6045925230224
 10
117.926996498296
 20
-133.6045925230224
 10
117.926996498296
 20
-133.6045925230224
 10
117.926996498296
 20
-133.4903876076864
 10
117.926996498296
 20
-133.4903876076864
 97
        0
 97
        1
330
E8
 92
        1
 93
        1
 72
     4
 94
        3
 73
     0
 74
     0
 95
       17
 96
       13
 40
0.0
 40
0.0
 40
0.0
 40
0.0
 40
1.0
 40
1.0
 40
1.0
 40
2.0
 40
2.0
 40
2.0
 40
3.0
 40
3.0
 40
3.0
 40
4.0
 40
4.0
 40
4.0
 40
4.0
 10
117.926996498296
 20
-133.2469916116535
 10
117.926996498296
 20
-133.2469916116535
 10
117.2204074142713
 20
-133.2469916116535
 10
117.2204074142713
 20
-133.2469916116535
 10
117.2204074142713
 20
-133.2469916116535
 10
117.2204074142713
 20
-133.3613687817638
 10
117.2204074142713
 20
-133.3613687817638
 10
117.2204074142713
 20
-133.3613687817638
 10
117.926996498296
 20
-133.3613687817638
 10
117.926996498296
 20
-133.3613687817638
 10
117.926996498296
 20
-133.3613687817638
 10
117.926996498296
 20
-133.2469916116535
 10
117.926996498296
 20
-133.2469916116535
 97
        0
 97
        1
330
E9
 92
        1
 93
        1
 72
     4
 94
        3
 73
     0
 74
     0
 95
       17
 96
       13
 40
0.0
 40
0.0
 40
0.0
 40
0.0
 40
1.0
 40
1.0
 40
1.0
 40
2.0
 40
2.0
 40
2.0
 40
3.0
 40
3.0
 40
3.0
 40
4.0
 40
4.0
 40
4.0
 40
4.0
 10
117.926996498296
 20
-133.0142754116249
 10
117.926996498296
 20
-133.0142754116249
 10
117.2204074142713
 20
-133.0142754116249
 10
117.2204074142713
 20
-133.0142754116249
 10
117.2204074142713
 20
-133.0142754116249
 10
117.2204074142713
 20
-133.1222791550874
 10
117.2204074142713
 20
-133.1222791550874
 10
117.2204074142713
 20
-133.1222791550874
 10
117.926996498296
 20
-133.1222791550874
 10
117.926996498296
 20
-133.1222791550874
 10
117.926996498296
 20
-133.1222791550874
 10
117.926996498296
 20
-133.0142754116249
 10
117.926996498296
 20
-133.0142754116249
 97
        0
 97
        1
330
EA
 92
        1
 93
        1
 72
     4
 94
        3
 73
     0
 74
     0
 95
      203
 96
      199
 40
0.0
 40
0.0
 40
0.0
 40
0.0
 40
1.0
 40
1.0
 40
1.0
 40
2.0
 40
2.0
 40
2.0
 40
3.0
 40
3.0
 40
3.0
 40
4.0
 40
4.0
 40
4.0
 40
5.0
 40
5.0
 40
5.0
 40
6.0
 40
6.0
 40
6.0
 40
7.0
 40
7.0
 40
7.0
 40
8.0
 40
8.0
 40
8.0
 40
9.0
 40
9.0
 40
9.0
 40
10.0
 40
10.0
 40
10.0
 40
11.0
 40
11.0
 40
11.0
 40
12.0
 40
12.0
 40
12.0
 40
13.0
 40
13.0
 40
13.0
 40
14.0
 40
14.0
 40
14.0
 40
15.0
 40
15.0
 40
15.0
 40
16.0
 40
16.0
 40
16.0
 40
17.0
 40
17.0
 40
17.0
 40
18.0
 40
18.0
 40
18.0
 40
19.0
 40
19.0
 40
19.0
 40
20.0
 40
20.0
 40
20.0
 40
21.0
 40
21.0
 40
21.0
 40
22.0
 40
22.0
 40
22.0
 40
23.0
 40
23.0
 40
23.0
 40
24.0
 40
24.0
 40
24.0
 40
25.0
 40
25.0
 40
25.0
 40
26.0
 40
26.0
 40
26.0
 40
27.0
 40
27.0
 40
27.0
 40
28.0
 40
28.0
 40
28.0
 40
29.0
 40
29.0
 40
29.0
 40
30.0
 40
30.0
 40
30.0
 40
31.0
 40
31.0
 40
31.0
 40
32.0
 40
32.0
 40
32.0
 40
33.0
 40
33.0
 40
33.0
 40
34.0
 40
34.0
 40
34.0
 40
35.0
 40
35.0
 40
35.0
 40
36.0
 40
36.0
 40
36.0
 40
37.0
 40
37.0
 40
37.0
 40
38.0
 40
38.0
 40
38.0
 40
39.0
 40
39.0
 40
39.0
 40
40.0
 40
40.0
 40
40.0
 40
41.0
 40
41.0
 40
41.0
 40
42.0
 40
42.0
 40
42.0
 40
43.0
 40
43.0
 40
43.0
 40
44.0
 40
44.0
 40
44.0
 40
45.0
 40
45.0
 40
45.0
 40
46.0
 40
46.0
 40
46.0
 40
47.0
 40
47.0
 40
47.0
 40
48.0
 40
48.0
 40
48.0
 40
49.0
 40
49.0
 40
49.0
 40
50.0
 40
50.0
 40
50.0
 40
51.0
 40
51.0
 40
51.0
 40
52.0
 40
52.0
 40
52.0
 40
53.0
 40
53.0
 40
53.0
 40
54.0
 40
54.0
 40
54.0
 40
55.0
 40
55.0
 40
55.0
 40
56.0
 40
56.0
 40
56.0
 40
57.0
 40
57.0
 40
57.0
 40
58.0
 40
58.0
 40
58.0
 40
59.0
 40
59.0
 40
59.0
 40
60.0
 40
60.0
 40
60.0
 40
61.0
 40
61.0
 40
61.0
 40
62.0
 40
62.0
 40
62.0
 40
63.0
 40
63.0
 40
63.0
 40
64.0
 40
64.0
 40
64.0
 40
65.0
 40
65.0
 40
65.0
 40
66.0
 40
66.0
 40
66.0
 40
66.0
 10
117.7619764245525
 20
-132.7583048170708
 10
117.7619764245525
 20
-132.7583048170708
 10
117.203181936845
 20
-132.7583048170708
 10
117.203181936845
 20
-132.7583048170708
 10
117.1928466503893
 20
-132.8027465488306
 10
117.1842339116762
 20
-132.8344414272949
 10
117.1714870583807
 20
-132.8726819871811
 10
117.1969807649716
 20
-132.8726819871811
 10
117.2117946755582
 20
-132.8747490444722
 10
117.2179958474316
 20
-132.8747490444722
 10
117.2179958474316
 20
-132.8747490444722
 10
117.4064425704748
 20
-132.8747490444722
 10
117.4064425704748
 20
-132.8747490444722
 10
117.4064425704748
 20
-132.8747490444722
 10
117.7809244497214
 20
-132.8747490444722
 10
117.7809244497214
 20
-132.8747490444722
 10
117.8315673533546
 20
-132.8747490444722
 10
118.1150987117907
 20
-132.8620021911768
 10
118.1467935902549
 20
-132.8620021911768
 10
118.1447265329638
 20
-132.8895629550588
 10
118.1426594756727
 20
-132.9085109802277
 10
118.1426594756727
 20
-132.9381388014009
 10
118.1405924183815
 20
-132.9698336798652
 10
118.1405924183815
 20
-133.1052259324355
 10
118.1405924183815
 20
-133.1327866963175
 10
118.1405924183815
 20
-133.1327866963175
 10
118.1405924183815
 20
-133.3782497496415
 10
118.1405924183815
 20
-133.3782497496415
 10
118.1405924183815
 20
-133.4226914814012
 10
118.1447265329638
 20
-133.619406433609
 10
118.1488606475461
 20
-133.7716796540571
 10
118.1488606475461
 20
-133.7716796540571
 10
117.9225178741652
 20
-133.7716796540571
 10
117.9225178741652
 20
-133.7716796540571
 10
117.9225178741652
 20
-133.7716796540571
 10
117.9245849314563
 20
-133.7379177183016
 10
117.9245849314563
 20
-133.7379177183016
 10
117.9245849314563
 20
-133.7379177183016
 10
117.2224744715624
 20
-133.7379177183016
 10
117.2224744715624
 20
-133.7379177183016
 10
117.2224744715624
 20
-133.7379177183016
 10
117.2245415288536
 20
-133.7716796540571
 10
117.2245415288536
 20
-133.7716796540571
 10
117.2245415288536
 20
-133.7716796540571
 10
117.0064669846373
 20
-133.7716796540571
 10
117.0064669846373
 20
-133.7716796540571
 10
117.0109456087681
 20
-133.7167303810673
 10
117.0109456087681
 20
-133.7039835277719
 10
117.0171467806415
 20
-133.5897786124359
 10
117.0192138379327
 20
-133.5622178485539
 10
117.0212808952238
 20
-133.4290649080489
 10
117.0212808952238
 20
-133.4099446281058
 10
117.0212808952238
 20
-133.4099446281058
 10
117.0212808952238
 20
-133.2068562492503
 10
117.0212808952238
 20
-133.2068562492503
 10
116.8817545280712
 20
-133.4564534171567
 10
116.7126003397454
 20
-133.5877115551447
 10
116.6068359083483
 20
-133.6531683693645
 10
116.6068359083483
 20
-133.6531683693645
 10
116.4332030958917
 20
-133.5136420022118
 10
116.4332030958917
 20
-133.5136420022118
 10
116.5220865594111
 20
-133.4628268438044
 10
116.6660915506946
 20
-133.3760104375761
 10
116.803550860556
 20
-133.1815347974337
 10
116.8945013813666
 20
-133.0545830288023
 10
116.9599581955864
 20
-132.9107502922931
 10
116.9940646408903
 20
-132.7583048170708
 10
116.7653103006698
 20
-132.7605441291362
 10
116.5854763163397
 20
-132.766917555784
 10
116.4903916809468
 20
-132.7689846130751
 10
116.4903916809468
 20
-132.7689846130751
 10
116.4903916809468
 20
-132.5912176860362
 10
116.4903916809468
 20
-132.5912176860362
 10
116.6871066331546
 20
-132.5975911126839
 10
116.9706379915907
 20
-132.6018974820405
 10
117.1208441547475
 20
-132.6018974820405
 10
117.1208441547475
 20
-132.6018974820405
 10
117.334440074833
 20
-132.6018974820405
 10
117.334440074833
 20
-132.6018974820405
 10
117.334440074833
 20
-132.6018974820405
 10
117.334440074833
 20
-132.4938937385779
 10
117.334440074833
 20
-132.4938937385779
 10
117.334440074833
 20
-132.4938937385779
 10
117.1883680262584
 20
-132.4938937385779
 10
117.1883680262584
 20
-132.4938937385779
 10
117.0192138379327
 20
-132.4938937385779
 10
116.8500596496069
 20
-132.4982001079344
 10
116.6829725185723
 20
-132.5045735345822
 10
116.6829725185723
 20
-132.5045735345822
 10
116.6829725185723
 20
-132.333180034191
 10
116.6829725185723
 20
-132.333180034191
 10
116.8373127963115
 20
-132.343687575421
 10
117.023347952515
 20
-132.343687575421
 10
117.1883680262584
 20
-132.343687575421
 10
117.1883680262584
 20
-132.343687575421
 10
117.334440074833
 20
-132.343687575421
 10
117.334440074833
 20
-132.343687575421
 10
117.334440074833
 20
-132.343687575421
 10
117.334440074833
 20
-132.2253485455027
 10
117.334440074833
 20
-132.2253485455027
 10
117.334440074833
 20
-132.2253485455027
 10
117.203181936845
 20
-132.2253485455027
 10
117.203181936845
 20
-132.2253485455027
 10
117.1566731477941
 20
-132.2253485455027
 10
116.9537570237129
 20
-132.2337890294415
 10
116.9113823492444
 20
-132.2337890294415
 10
116.7084662251631
 20
-132.2379231440238
 10
116.6319851053906
 20
-132.239990201315
 10
116.5537814378754
 20
-132.2422295133804
 10
116.5537814378754
 20
-132.2422295133804
 10
116.5537814378754
 20
-132.0580891596938
 10
116.5537814378754
 20
-132.0580891596938
 10
116.6681586079857
 20
-132.0665296436327
 10
116.7126003397454
 20
-132.0665296436327
 10
117.0953504481567
 20
-132.0751423823458
 10
117.0319606912281
 20
-131.9798854921786
 10
117.0043999273461
 20
-131.9523247282966
 10
116.9685709342995
 20
-131.9163234804758
 10
116.9685709342995
 20
-131.9163234804758
 10
117.1439262944987
 20
-131.833813443604
 10
117.1439262944987
 20
-131.833813443604
 10
117.1842339116762
 20
-131.8698146914249
 10
117.2286756434359
 20
-131.9121893658935
 10
117.3027451963687
 20
-132.0220879118729
 10
117.3027451963687
 20
-132.0220879118729
 10
117.1883680262584
 20
-132.0772094396369
 10
117.1883680262584
 20
-132.0772094396369
 10
117.1883680262584
 20
-132.0772094396369
 10
117.1990478222627
 20
-132.0772094396369
 10
117.1990478222627
 20
-132.0772094396369
 10
117.1990478222627
 20
-132.0772094396369
 10
117.7216688073751
 20
-132.0772094396369
 10
117.7216688073751
 20
-132.0772094396369
 10
117.7216688073751
 20
-132.0772094396369
 10
117.6265841719822
 20
-132.0327677078772
 10
117.6265841719822
 20
-132.0327677078772
 10
117.6538004263157
 20
-131.9946994027652
 10
117.7109890113708
 20
-131.9142564231846
 10
117.7258029219574
 20
-131.8401868702517
 10
117.7258029219574
 20
-131.8401868702517
 10
117.9393988420429
 20
-131.9037488819546
 10
117.9393988420429
 20
-131.9037488819546
 10
117.948011580756
 20
-131.9058159392457
 10
117.9690266632161
 20
-131.9163234804758
 10
117.9690266632161
 20
-131.93751081771
 10
117.9690266632161
 20
-131.9755791228221
 10
117.9035698489963
 20
-131.9755791228221
 10
117.8846218238274
 20
-131.9755791228221
 10
117.8739420278232
 20
-131.9946994027652
 10
117.8505153785235
 20
-132.0348347651683
 10
117.8208875573503
 20
-132.0751423823458
 10
118.2208631431878
 20
-132.0687689556981
 10
118.250490964361
 20
-132.0665296436327
 10
118.326627574585
 20
-132.0603284717592
 10
118.326627574585
 20
-132.0603284717592
 10
118.326627574585
 20
-132.2422295133804
 10
118.326627574585
 20
-132.2422295133804
 10
118.3076795494161
 20
-132.2422295133804
 10
118.2821858428253
 20
-132.239990201315
 10
118.0623887508663
 20
-132.2315497173761
 10
118.0114013376846
 20
-132.229482660085
 10
117.7916042457257
 20
-132.2253485455027
 10
117.747162513966
 20
-132.2253485455027
 10
117.747162513966
 20
-132.2253485455027
 10
117.5311550270408
 20
-132.2253485455027
 10
117.5311550270408
 20
-132.2253485455027
 10
117.5311550270408
 20
-132.2253485455027
 10
117.5311550270408
 20
-132.343687575421
 10
117.5311550270408
 20
-132.343687575421
 10
117.5311550270408
 20
-132.343687575421
 10
117.7047878394974
 20
-132.343687575421
 10
117.7047878394974
 20
-132.343687575421
 10
117.8677408559497
 20
-132.343687575421
 10
118.0579101267355
 20
-132.343687575421
 10
118.2146619713144
 20
-132.333180034191
 10
118.2146619713144
 20
-132.333180034191
 10
118.2146619713144
 20
-132.5045735345822
 10
118.2146619713144
 20
-132.5045735345822
 10
118.0052001658112
 20
-132.4961330506433
 10
117.8084852136034
 20
-132.4938937385779
 10
117.7047878394974
 20
-132.4938937385779
 10
117.7047878394974
 20
-132.4938937385779
 10
117.5311550270408
 20
-132.4938937385779
 10
117.5311550270408
 20
-132.4938937385779
 10
117.5311550270408
 20
-132.4938937385779
 10
117.5311550270408
 20
-132.6018974820405
 10
117.5311550270408
 20
-132.6018974820405
 10
117.5311550270408
 20
-132.6018974820405
 10
117.7619764245525
 20
-132.6018974820405
 10
117.7619764245525
 20
-132.6018974820405
 10
117.8949571102832
 20
-132.6018974820405
 10
118.1829670928501
 20
-132.5975911126839
 10
118.3920843888047
 20
-132.5912176860362
 10
118.3920843888047
 20
-132.5912176860362
 10
118.3920843888047
 20
-132.7689846130751
 10
118.3920843888047
 20
-132.7689846130751
 10
118.1998480607278
 20
-132.7626111864274
 10
117.8866888811186
 20
-132.7583048170708
 10
117.7619764245525
 20
-132.7583048170708
 97
        0
 97
        1
330
EB
 75
     2
 76
     1
 98
        1
 10
0.0
 20
0.0
450
        0
451
        0
460
0.0
461
0.0
452
        0
462
0.0
453
        0
470

  0
SPLINE
  5
ED
330
E0
100
AcDbEntity
  8
レイヤー 1
100
AcDbSpline
210
0.0
220
0.0
230
1.0
 70
     9
 71
     3
 72
    29
 73
    25
 74
     0
 42
0.0000000001
 43
0.0000000001
 40
0.0
 40
0.0
 40
0.0
 40
0.0
 40
1.0
 40
1.0
 40
1.0
 40
2.0
 40
2.0
 40
2.0
 40
3.0
 40
3.0
 40
3.0
 40
4.0
 40
4.0
 40
4.0
 40
5.0
 40
5.0
 40
5.0
 40
6.0
 40
6.0
 40
6.0
 40
7.0
 40
7.0
 40
7.0
 40
8.0
 40
8.0
 40
8.0
 40
8.0
 10
119.637141897174
 20
-132.2062282655595
 30
0.0
 10
119.637141897174
 20
-132.2062282655595
 30
0.0
 10
119.2836751003874
 20
-132.2062282655595
 30
0.0
 10
119.2836751003874
 20
-132.2062282655595
 30
0.0
 10
119.1717094971168
 20
-132.2062282655595
 30
0.0
 10
119.0321831299641
 20
-132.2126016922072
 30
0.0
 10
118.9243516412758
 20
-132.2253485455027
 30
0.0
 10
118.9243516412758
 20
-132.2253485455027
 30
0.0
 10
118.9243516412758
 20
-131.9903930334086
 30
0.0
 10
118.9243516412758
 20
-131.9903930334086
 30
0.0
 10
119.0425184164199
 20
-132.0052069439952
 30
0.0
 10
119.2268310248808
 20
-132.0095133133518
 30
0.0
 10
119.2836751003874
 20
-132.0095133133518
 30
0.0
 10
119.2836751003874
 20
-132.0095133133518
 30
0.0
 10
119.637141897174
 20
-132.0095133133518
 30
0.0
 10
119.637141897174
 20
-132.0095133133518
 30
0.0
 10
119.6560899223429
 20
-132.0095133133518
 30
0.0
 10
119.8593505559726
 20
-132.0095133133518
 30
0.0
 10
120.0009439804164
 20
-131.9903930334086
 30
0.0
 10
120.0009439804164
 20
-131.9903930334086
 30
0.0
 10
120.0009439804164
 20
-132.2253485455027
 30
0.0
 10
120.0009439804164
 20
-132.2253485455027
 30
0.0
 10
119.8445366453861
 20
-132.2062282655595
 30
0.0
 10
119.6540228650518
 20
-132.2062282655595
 30
0.0
 10
119.637141897174
 20
-132.2062282655595
 30
0.0
  0
SPLINE
  5
EE
330
E0
100
AcDbEntity
  8
レイヤー 1
100
AcDbSpline
210
0.0
220
0.0
230
1.0
 70
     9
 71
     3
 72
    47
 73
    43
 74
     0
 42
0.0000000001
 43
0.0000000001
 40
0.0
 40
0.0
 40
0.0
 40
0.0
 40
1.0
 40
1.0
 40
1.0
 40
2.0
 40
2.0
 40
2.0
 40
3.0
 40
3.0
 40
3.0
 40
4.0
 40
4.0
 40
4.0
 40
5.0
 40
5.0
 40
5.0
 40
6.0
 40
6.0
 40
6.0
 40
7.0
 40
7.0
 40
7.0
 40
8.0
 40
8.0
 40
8.0
 40
9.0
 40
9.0
 40
9.0
 40
10.0
 40
10.0
 40
10.0
 40
11.0
 40
11.0
 40
11.0
 40
12.0
 40
12.0
 40
12.0
 40
13.0
 40
13.0
 40
13.0
 40
14.0
 40
14.0
 40
14.0
 40
14.0
 10
119.7387722139889
 20
-132.7350504225454
 30
0.0
 10
119.7387722139889
 20
-132.7350504225454
 30
0.0
 10
119.637141897174
 20
-132.7350504225454
 30
0.0
 10
119.637141897174
 20
-132.7350504225454
 30
0.0
 10
119.637141897174
 20
-132.8218668287737
 30
0.0
 10
119.616126814714
 20
-133.2111626186069
 30
0.0
 10
119.4194118625062
 20
-133.4311319653401
 30
0.0
 10
119.2667941325097
 20
-133.6002861536659
 30
0.0
 10
119.0597438938461
 20
-133.6702215920164
 30
0.0
 10
118.974994544909
 20
-133.6976101011242
 30
0.0
 10
118.974994544909
 20
-133.6976101011242
 30
0.0
 10
118.7803466499924
 20
-133.5305229700896
 30
0.0
 10
118.7803466499924
 20
-133.5305229700896
 30
0.0
 10
118.877842852225
 20
-133.5177761167942
 30
0.0
 10
119.0531982124242
 20
-133.4945217222687
 30
0.0
 10
119.2416449354674
 20
-133.3062472539998
 30
0.0
 10
119.3157144884002
 20
-133.2344170131323
 30
0.0
 10
119.4194118625062
 20
-133.0947183912055
 30
0.0
 10
119.4194118625062
 20
-132.7350504225454
 30
0.0
 10
119.4194118625062
 20
-132.7350504225454
 30
0.0
 10
119.1885904649945
 20
-132.7350504225454
 30
0.0
 10
119.1885904649945
 20
-132.7350504225454
 30
0.0
 10
119.002555308791
 20
-132.7350504225454
 30
0.0
 10
118.816175643039
 20
-132.7393567919019
 30
0.0
 10
118.6301404868355
 20
-132.7541707024885
 30
0.0
 10
118.6301404868355
 20
-132.7541707024885
 30
0.0
 10
118.6301404868355
 20
-132.5342013557553
 30
0.0
 10
118.6301404868355
 20
-132.5342013557553
 30
0.0
 10
118.8185872098787
 20
-132.5490152663419
 30
0.0
 10
119.1041856256059
 20
-132.5531493809242
 30
0.0
 10
119.1885904649945
 20
-132.5531493809242
 30
0.0
 10
119.1885904649945
 20
-132.5531493809242
 30
0.0
 10
119.7387722139889
 20
-132.5531493809242
 30
0.0
 10
119.7387722139889
 20
-132.5531493809242
 30
0.0
 10
119.7577202391578
 20
-132.5531493809242
 30
0.0
 10
120.0750135333493
 20
-132.5531493809242
 30
0.0
 10
120.3034233640214
 20
-132.5342013557553
 30
0.0
 10
120.3034233640214
 20
-132.5342013557553
 30
0.0
 10
120.3034233640214
 20
-132.7541707024885
 30
0.0
 10
120.3034233640214
 20
-132.7541707024885
 30
0.0
 10
120.1153211505267
 20
-132.7393567919019
 30
0.0
 10
119.9268744274835
 20
-132.7350504225454
 30
0.0
 10
119.7387722139889
 20
-132.7350504225454
 30
0.0
  0
HATCH
  5
EF
330
E0
100
AcDbEntity
  8
レイヤー 1
 62
   250
420
  2299925
440
 33554687
100
AcDbHatch
 10
0.0
 20
0.0
 30
0.0
210
0.0
220
0.0
230
1.0
  2
SOLID
 70
     1
 71
     1
 91
        2
 92
        1
 93
        1
 72
     4
 94
        3
 73
     0
 74
     0
 95
       29
 96
       25
 40
0.0
 40
0.0
 40
0.0
 40
0.0
 40
1.0
 40
1.0
 40
1.0
 40
2.0
 40
2.0
 40
2.0
 40
3.0
 40
3.0
 40
3.0
 40
4.0
 40
4.0
 40
4.0
 40
5.0
 40
5.0
 40
5.0
 40
6.0
 40
6.0
 40
6.0
 40
7.0
 40
7.0
 40
7.0
 40
8.0
 40
8.0
 40
8.0
 40
8.0
 10
119.637141897174
 20
-132.2062282655595
 10
119.637141897174
 20
-132.2062282655595
 10
119.2836751003874
 20
-132.2062282655595
 10
119.2836751003874
 20
-132.2062282655595
 10
119.1717094971168
 20
-132.2062282655595
 10
119.0321831299641
 20
-132.2126016922072
 10
118.9243516412758
 20
-132.2253485455027
 10
118.9243516412758
 20
-132.2253485455027
 10
118.9243516412758
 20
-131.9903930334086
 10
118.9243516412758
 20
-131.9903930334086
 10
119.0425184164199
 20
-132.0052069439952
 10
119.2268310248808
 20
-132.0095133133518
 10
119.2836751003874
 20
-132.0095133133518
 10
119.2836751003874
 20
-132.0095133133518
 10
119.637141897174
 20
-132.0095133133518
 10
119.637141897174
 20
-132.0095133133518
 10
119.6560899223429
 20
-132.0095133133518
 10
119.8593505559726
 20
-132.0095133133518
 10
120.0009439804164
 20
-131.9903930334086
 10
120.0009439804164
 20
-131.9903930334086
 10
120.0009439804164
 20
-132.2253485455027
 10
120.0009439804164
 20
-132.2253485455027
 10
119.8445366453861
 20
-132.2062282655595
 10
119.6540228650518
 20
-132.2062282655595
 10
119.637141897174
 20
-132.2062282655595
 97
        0
 97
        1
330
ED
 92
        1
 93
        1
 72
     4
 94
        3
 73
     0
 74
     0
 95
       47
 96
       43
 40
0.0
 40
0.0
 40
0.0
 40
0.0
 40
1.0
 40
1.0
 40
1.0
 40
2.0
 40
2.0
 40
2.0
 40
3.0
 40
3.0
 40
3.0
 40
4.0
 40
4.0
 40
4.0
 40
5.0
 40
5.0
 40
5.0
 40
6.0
 40
6.0
 40
6.0
 40
7.0
 40
7.0
 40
7.0
 40
8.0
 40
8.0
 40
8.0
 40
9.0
 40
9.0
 40
9.0
 40
10.0
 40
10.0
 40
10.0
 40
11.0
 40
11.0
 40
11.0
 40
12.0
 40
12.0
 40
12.0
 40
13.0
 40
13.0
 40
13.0
 40
14.0
 40
14.0
 40
14.0
 40
14.0
 10
119.7387722139889
 20
-132.7350504225454
 10
119.7387722139889
 20
-132.7350504225454
 10
119.637141897174
 20
-132.7350504225454
 10
119.637141897174
 20
-132.7350504225454
 10
119.637141897174
 20
-132.8218668287737
 10
119.616126814714
 20
-133.2111626186069
 10
119.4194118625062
 20
-133.4311319653401
 10
119.2667941325097
 20
-133.6002861536659
 10
119.0597438938461
 20
-133.6702215920164
 10
118.974994544909
 20
-133.6976101011242
 10
118.974994544909
 20
-133.6976101011242
 10
118.7803466499924
 20
-133.5305229700896
 10
118.7803466499924
 20
-133.5305229700896
 10
118.877842852225
 20
-133.5177761167942
 10
119.0531982124242
 20
-133.4945217222687
 10
119.2416449354674
 20
-133.3062472539998
 10
119.3157144884002
 20
-133.2344170131323
 10
119.4194118625062
 20
-133.0947183912055
 10
119.4194118625062
 20
-132.7350504225454
 10
119.4194118625062
 20
-132.7350504225454
 10
119.1885904649945
 20
-132.7350504225454
 10
119.1885904649945
 20
-132.7350504225454
 10
119.002555308791
 20
-132.7350504225454
 10
118.816175643039
 20
-132.7393567919019
 10
118.6301404868355
 20
-132.7541707024885
 10
118.6301404868355
 20
-132.7541707024885
 10
118.6301404868355
 20
-132.5342013557553
 10
118.6301404868355
 20
-132.5342013557553
 10
118.8185872098787
 20
-132.5490152663419
 10
119.1041856256059
 20
-132.5531493809242
 10
119.1885904649945
 20
-132.5531493809242
 10
119.1885904649945
 20
-132.5531493809242
 10
119.7387722139889
 20
-132.5531493809242
 10
119.7387722139889
 20
-132.5531493809242
 10
119.7577202391578
 20
-132.5531493809242
 10
120.0750135333493
 20
-132.5531493809242
 10
120.3034233640214
 20
-132.5342013557553
 10
120.3034233640214
 20
-132.5342013557553
 10
120.3034233640214
 20
-132.7541707024885
 10
120.3034233640214
 20
-132.7541707024885
 10
120.1153211505267
 20
-132.7393567919019
 10
119.9268744274835
 20
-132.7350504225454
 10
119.7387722139889
 20
-132.7350504225454
 97
        0
 97
        1
330
EE
 75
     2
 76
     1
 98
        1
 10
0.0
 20
0.0
450
        0
451
        0
460
0.0
461
0.0
452
        0
462
0.0
453
        0
470

  0
SPLINE
  5
F0
330
E0
100
AcDbEntity
  8
レイヤー 1
100
AcDbSpline
210
0.0
220
0.0
230
1.0
 70
     9
 71
     3
 72
    29
 73
    25
 74
     0
 42
0.0000000001
 43
0.0000000001
 40
0.0
 40
0.0
 40
0.0
 40
0.0
 40
1.0
 40
1.0
 40
1.0
 40
2.0
 40
2.0
 40
2.0
 40
3.0
 40
3.0
 40
3.0
 40
4.0
 40
4.0
 40
4.0
 40
5.0
 40
5.0
 40
5.0
 40
6.0
 40
6.0
 40
6.0
 40
7.0
 40
7.0
 40
7.0
 40
8.0
 40
8.0
 40
8.0
 40
8.0
 10
121.5846543749858
 20
-132.8980034389977
 30
0.0
 10
121.5846543749858
 20
-132.8980034389977
 30
0.0
 10
121.1002739497596
 20
-132.8980034389977
 30
0.0
 10
121.1002739497596
 20
-132.8980034389977
 30
0.0
 10
121.0727131858776
 20
-132.8980034389977
 30
0.0
 10
120.7554198916861
 20
-132.8980034389977
 30
0.0
 10
120.5438910288918
 20
-132.9233248908143
 30
0.0
 10
120.5438910288918
 20
-132.9233248908143
 30
0.0
 10
120.5438910288918
 20
-132.6928480028511
 30
0.0
 10
120.5438910288918
 20
-132.6928480028511
 30
0.0
 10
120.7023654212133
 20
-132.7161023973765
 30
0.0
 10
120.8928792015476
 20
-132.7181694546677
 30
0.0
 10
121.1002739497596
 20
-132.7181694546677
 30
0.0
 10
121.1002739497596
 20
-132.7181694546677
 30
0.0
 10
121.5846543749858
 20
-132.7181694546677
 30
0.0
 10
121.5846543749858
 20
-132.7181694546677
 30
0.0
 10
121.7706895311893
 20
-132.7181694546677
 30
0.0
 10
121.9570691969413
 20
-132.7161023973765
 30
0.0
 10
122.1410372958536
 20
-132.6928480028511
 30
0.0
 10
122.1410372958536
 20
-132.6928480028511
 30
0.0
 10
122.1410372958536
 20
-132.9233248908143
 30
0.0
 10
122.1410372958536
 20
-132.9233248908143
 30
0.0
 10
121.9570691969413
 20
-132.9000704962889
 30
0.0
 10
121.7093668315518
 20
-132.8980034389977
 30
0.0
 10
121.5846543749858
 20
-132.8980034389977
 30
0.0
  0
HATCH
  5
F1
330
E0
100
AcDbEntity
  8
レイヤー 1
 62
   250
420
  2299925
440
 33554687
100
AcDbHatch
 10
0.0
 20
0.0
 30
0.0
210
0.0
220
0.0
230
1.0
  2
SOLID
 70
     1
 71
     1
 91
        1
 92
        1
 93
        1
 72
     4
 94
        3
 73
     0
 74
     0
 95
       29
 96
       25
 40
0.0
 40
0.0
 40
0.0
 40
0.0
 40
1.0
 40
1.0
 40
1.0
 40
2.0
 40
2.0
 40
2.0
 40
3.0
 40
3.0
 40
3.0
 40
4.0
 40
4.0
 40
4.0
 40
5.0
 40
5.0
 40
5.0
 40
6.0
 40
6.0
 40
6.0
 40
7.0
 40
7.0
 40
7.0
 40
8.0
 40
8.0
 40
8.0
 40
8.0
 10
121.5846543749858
 20
-132.8980034389977
 10
121.5846543749858
 20
-132.8980034389977
 10
121.1002739497596
 20
-132.8980034389977
 10
121.1002739497596
 20
-132.8980034389977
 10
121.0727131858776
 20
-132.8980034389977
 10
120.7554198916861
 20
-132.8980034389977
 10
120.5438910288918
 20
-132.9233248908143
 10
120.5438910288918
 20
-132.9233248908143
 10
120.5438910288918
 20
-132.6928480028511
 10
120.5438910288918
 20
-132.6928480028511
 10
120.7023654212133
 20
-132.7161023973765
 10
120.8928792015476
 20
-132.7181694546677
 10
121.1002739497596
 20
-132.7181694546677
 10
121.1002739497596
 20
-132.7181694546677
 10
121.5846543749858
 20
-132.7181694546677
 10
121.5846543749858
 20
-132.7181694546677
 10
121.7706895311893
 20
-132.7181694546677
 10
121.9570691969413
 20
-132.7161023973765
 10
122.1410372958536
 20
-132.6928480028511
 10
122.1410372958536
 20
-132.6928480028511
 10
122.1410372958536
 20
-132.9233248908143
 10
122.1410372958536
 20
-132.9233248908143
 10
121.9570691969413
 20
-132.9000704962889
 10
121.7093668315518
 20
-132.8980034389977
 10
121.5846543749858
 20
-132.8980034389977
 97
        0
 97
        1
330
F0
 75
     2
 76
     1
 98
        1
 10
0.0
 20
0.0
450
        0
451
        0
460
0.0
461
0.0
452
        0
462
0.0
453
        0
470

  0
SPLINE
  5
F2
330
E0
100
AcDbEntity
  8
レイヤー 1
100
AcDbSpline
210
0.0
220
0.0
230
1.0
 70
     9
 71
     3
 72
    17
 73
    13
 74
     0
 42
0.0000000001
 43
0.0000000001
 40
0.0
 40
0.0
 40
0.0
 40
0.0
 40
1.0
 40
1.0
 40
1.0
 40
2.0
 40
2.0
 40
2.0
 40
3.0
 40
3.0
 40
3.0
 40
4.0
 40
4.0
 40
4.0
 40
4.0
 10
124.0034559151797
 20
-131.9311373910623
 30
0.0
 10
123.9486788969642
 20
-131.9311373910623
 30
0.0
 10
123.9042371652045
 20
-131.9755791228221
 30
0.0
 10
123.9042371652045
 20
-132.0307006505861
 30
0.0
 10
123.9042371652045
 20
-132.0877169808669
 30
0.0
 10
123.9486788969642
 20
-132.1364650819832
 30
0.0
 10
124.007590029762
 20
-132.1364650819832
 30
0.0
 10
124.0668456721083
 20
-132.1364650819832
 30
0.0
 10
124.1071532892857
 20
-132.0856499235758
 30
0.0
 10
124.1071532892857
 20
-132.0327677078772
 30
0.0
 10
124.1071532892857
 20
-131.9755791228221
 30
0.0
 10
124.0606445002348
 20
-131.9311373910623
 30
0.0
 10
124.0034559151797
 20
-131.9311373910623
 30
0.0
  0
SPLINE
  5
F3
330
E0
100
AcDbEntity
  8
レイヤー 1
100
AcDbSpline
210
0.0
220
0.0
230
1.0
 70
     9
 71
     3
 72
    17
 73
    13
 74
     0
 42
0.0000000001
 43
0.0000000001
 40
0.0
 40
0.0
 40
0.0
 40
0.0
 40
1.0
 40
1.0
 40
1.0
 40
2.0
 40
2.0
 40
2.0
 40
3.0
 40
3.0
 40
3.0
 40
4.0
 40
4.0
 40
4.0
 40
4.0
 10
124.0055229724708
 20
-132.2611775385493
 30
0.0
 10
123.8787434586136
 20
-132.2611775385493
 30
0.0
 10
123.7771131417988
 20
-132.1597194765087
 30
0.0
 10
123.7771131417988
 20
-132.0327677078772
 30
0.0
 10
123.7771131417988
 20
-131.9058159392457
 30
0.0
 10
123.8787434586136
 20
-131.8021185651397
 30
0.0
 10
124.0055229724708
 20
-131.8021185651397
 30
0.0
 10
124.1326469958766
 20
-131.8021185651397
 30
0.0
 10
124.2363443699826
 20
-131.9058159392457
 30
0.0
 10
124.2363443699826
 20
-132.0327677078772
 30
0.0
 10
124.2363443699826
 20
-132.1597194765087
 30
0.0
 10
124.1326469958766
 20
-132.2611775385493
 30
0.0
 10
124.0055229724708
 20
-132.2611775385493
 30
0.0
  0
SPLINE
  5
F4
330
E0
100
AcDbEntity
  8
レイヤー 1
100
AcDbSpline
210
0.0
220
0.0
230
1.0
 70
     9
 71
     3
 72
    44
 73
    40
 74
     0
 42
0.0000000001
 43
0.0000000001
 40
0.0
 40
0.0
 40
0.0
 40
0.0
 40
1.0
 40
1.0
 40
1.0
 40
2.0
 40
2.0
 40
2.0
 40
3.0
 40
3.0
 40
3.0
 40
4.0
 40
4.0
 40
4.0
 40
5.0
 40
5.0
 40
5.0
 40
6.0
 40
6.0
 40
6.0
 40
7.0
 40
7.0
 40
7.0
 40
8.0
 40
8.0
 40
8.0
 40
9.0
 40
9.0
 40
9.0
 40
10.0
 40
10.0
 40
10.0
 40
11.0
 40
11.0
 40
11.0
 40
12.0
 40
12.0
 40
12.0
 40
13.0
 40
13.0
 40
13.0
 40
13.0
 10
123.7960611669676
 20
-132.4601318028225
 30
0.0
 10
123.684095563697
 20
-132.8282402554214
 30
0.0
 10
123.6334526600638
 20
-132.9868869025171
 30
0.0
 10
123.4367377078561
 20
-133.2364840704235
 30
0.0
 10
123.2524250993952
 20
-133.467133213161
 30
0.0
 10
123.0157470395585
 20
-133.6531683693645
 30
0.0
 10
122.7363497957048
 20
-133.7463582022405
 30
0.0
 10
122.7363497957048
 20
-133.7463582022405
 30
0.0
 10
122.5437689580793
 20
-133.5665242179104
 30
0.0
 10
122.5437689580793
 20
-133.5665242179104
 30
0.0
 10
123.1849012278843
 20
-133.4142509974624
 30
0.0
 10
123.5149413753712
 20
-132.8578680765945
 30
0.0
 10
123.5783311322999
 20
-132.4177571283539
 30
0.0
 10
123.5783311322999
 20
-132.4177571283539
 30
0.0
 10
122.8124864059288
 20
-132.4177571283539
 30
0.0
 10
122.8124864059288
 20
-132.4177571283539
 30
0.0
 10
122.7194688278271
 20
-132.4177571283539
 30
0.0
 10
122.5355007289147
 20
-132.4220634977104
 30
0.0
 10
122.3787488843359
 20
-132.4410115228793
 30
0.0
 10
122.3787488843359
 20
-132.4410115228793
 30
0.0
 10
122.3787488843359
 20
-132.2210421761461
 30
0.0
 10
122.3787488843359
 20
-132.2210421761461
 30
0.0
 10
122.4655652905642
 20
-132.2422295133804
 30
0.0
 10
122.7174017705359
 20
-132.2422295133804
 30
0.0
 10
122.8166205205111
 20
-132.2422295133804
 30
0.0
 10
122.8166205205111
 20
-132.2422295133804
 30
0.0
 10
123.2482909848129
 20
-132.2422295133804
 30
0.0
 10
123.2482909848129
 20
-132.2422295133804
 30
0.0
 10
123.2906656592815
 20
-132.2422295133804
 30
0.0
 10
123.525276661827
 20
-132.239990201315
 30
0.0
 10
123.5635172217133
 20
-132.2337890294415
 30
0.0
 10
123.6058918961818
 20
-132.2274156027938
 30
0.0
 10
123.607958953473
 20
-132.2253485455027
 30
0.0
 10
123.6692816531104
 20
-132.1850409283252
 30
0.0
 10
123.6692816531104
 20
-132.1850409283252
 30
0.0
 10
123.8573838666051
 20
-132.3395534608387
 30
0.0
 10
123.8573838666051
 20
-132.3395534608387
 30
0.0
 10
123.8281005549805
 20
-132.3691812820118
 30
0.0
 10
123.8132866443939
 20
-132.4008761604761
 30
0.0
 10
123.7960611669676
 20
-132.4601318028225
 30
0.0
  0
HATCH
  5
F5
330
E0
100
AcDbEntity
  8
レイヤー 1
 62
   250
420
  2299925
440
 33554687
100
AcDbHatch
 10
0.0
 20
0.0
 30
0.0
210
0.0
220
0.0
230
1.0
  2
SOLID
 70
     1
 71
     1
 91
        3
 92
        1
 93
        1
 72
     4
 94
        3
 73
     0
 74
     0
 95
       17
 96
       13
 40
0.0
 40
0.0
 40
0.0
 40
0.0
 40
1.0
 40
1.0
 40
1.0
 40
2.0
 40
2.0
 40
2.0
 40
3.0
 40
3.0
 40
3.0
 40
4.0
 40
4.0
 40
4.0
 40
4.0
 10
124.0034559151797
 20
-131.9311373910623
 10
123.9486788969642
 20
-131.9311373910623
 10
123.9042371652045
 20
-131.9755791228221
 10
123.9042371652045
 20
-132.0307006505861
 10
123.9042371652045
 20
-132.0877169808669
 10
123.9486788969642
 20
-132.1364650819832
 10
124.007590029762
 20
-132.1364650819832
 10
124.0668456721083
 20
-132.1364650819832
 10
124.1071532892857
 20
-132.0856499235758
 10
124.1071532892857
 20
-132.0327677078772
 10
124.1071532892857
 20
-131.9755791228221
 10
124.0606445002348
 20
-131.9311373910623
 10
124.0034559151797
 20
-131.9311373910623
 97
        0
 97
        1
330
F2
 92
        1
 93
        1
 72
     4
 94
        3
 73
     0
 74
     0
 95
       17
 96
       13
 40
0.0
 40
0.0
 40
0.0
 40
0.0
 40
1.0
 40
1.0
 40
1.0
 40
2.0
 40
2.0
 40
2.0
 40
3.0
 40
3.0
 40
3.0
 40
4.0
 40
4.0
 40
4.0
 40
4.0
 10
124.0055229724708
 20
-132.2611775385493
 10
123.8787434586136
 20
-132.2611775385493
 10
123.7771131417988
 20
-132.1597194765087
 10
123.7771131417988
 20
-132.0327677078772
 10
123.7771131417988
 20
-131.9058159392457
 10
123.8787434586136
 20
-131.8021185651397
 10
124.0055229724708
 20
-131.8021185651397
 10
124.1326469958766
 20
-131.8021185651397
 10
124.2363443699826
 20
-131.9058159392457
 10
124.2363443699826
 20
-132.0327677078772
 10
124.2363443699826
 20
-132.1597194765087
 10
124.1326469958766
 20
-132.2611775385493
 10
124.0055229724708
 20
-132.2611775385493
 97
        0
 97
        1
330
F3
 92
        1
 93
        1
 72
     4
 94
        3
 73
     0
 74
     0
 95
       44
 96
       40
 40
0.0
 40
0.0
 40
0.0
 40
0.0
 40
1.0
 40
1.0
 40
1.0
 40
2.0
 40
2.0
 40
2.0
 40
3.0
 40
3.0
 40
3.0
 40
4.0
 40
4.0
 40
4.0
 40
5.0
 40
5.0
 40
5.0
 40
6.0
 40
6.0
 40
6.0
 40
7.0
 40
7.0
 40
7.0
 40
8.0
 40
8.0
 40
8.0
 40
9.0
 40
9.0
 40
9.0
 40
10.0
 40
10.0
 40
10.0
 40
11.0
 40
11.0
 40
11.0
 40
12.0
 40
12.0
 40
12.0
 40
13.0
 40
13.0
 40
13.0
 40
13.0
 10
123.7960611669676
 20
-132.4601318028225
 10
123.684095563697
 20
-132.8282402554214
 10
123.6334526600638
 20
-132.9868869025171
 10
123.4367377078561
 20
-133.2364840704235
 10
123.2524250993952
 20
-133.467133213161
 10
123.0157470395585
 20
-133.6531683693645
 10
122.7363497957048
 20
-133.7463582022405
 10
122.7363497957048
 20
-133.7463582022405
 10
122.5437689580793
 20
-133.5665242179104
 10
122.5437689580793
 20
-133.5665242179104
 10
123.1849012278843
 20
-133.4142509974624
 10
123.5149413753712
 20
-132.8578680765945
 10
123.5783311322999
 20
-132.4177571283539
 10
123.5783311322999
 20
-132.4177571283539
 10
122.8124864059288
 20
-132.4177571283539
 10
122.8124864059288
 20
-132.4177571283539
 10
122.7194688278271
 20
-132.4177571283539
 10
122.5355007289147
 20
-132.4220634977104
 10
122.3787488843359
 20
-132.4410115228793
 10
122.3787488843359
 20
-132.4410115228793
 10
122.3787488843359
 20
-132.2210421761461
 10
122.3787488843359
 20
-132.2210421761461
 10
122.4655652905642
 20
-132.2422295133804
 10
122.7174017705359
 20
-132.2422295133804
 10
122.8166205205111
 20
-132.2422295133804
 10
122.8166205205111
 20
-132.2422295133804
 10
123.2482909848129
 20
-132.2422295133804
 10
123.2482909848129
 20
-132.2422295133804
 10
123.2906656592815
 20
-132.2422295133804
 10
123.525276661827
 20
-132.239990201315
 10
123.5635172217133
 20
-132.2337890294415
 10
123.6058918961818
 20
-132.2274156027938
 10
123.607958953473
 20
-132.2253485455027
 10
123.6692816531104
 20
-132.1850409283252
 10
123.6692816531104
 20
-132.1850409283252
 10
123.8573838666051
 20
-132.3395534608387
 10
123.8573838666051
 20
-132.3395534608387
 10
123.8281005549805
 20
-132.3691812820118
 10
123.8132866443939
 20
-132.4008761604761
 10
123.7960611669676
 20
-132.4601318028225
 97
        0
 97
        1
330
F4
 75
     2
 76
     1
 98
        1
 10
0.0
 20
0.0
450
        0
451
        0
460
0.0
461
0.0
452
        0
462
0.0
453
        0
470

  0
ENDBLK
  5
E3
330
E0
100
AcDbEntity
  8
0
100
AcDbBlockEnd
  0
ENDSEC
  0
SECTION
  2
ENTITIES
  0
INSERT
  5
7A
330
70
100
AcDbEntity
  8
レイヤー 1
100
AcDbBlockReference
  2
Block_0
 10
0.0
 20
0.0
 30
0.0
  0
LINE
  5
D4
330
70
100
AcDbEntity
  8
レイヤー 1
  6
AI-Linetype-0
 62
   154
420
    23468
370
    25
100
AcDbLine
 10
118.973756979826
 20
-135.3701330328913
 30
0.0
 11
104.2737569835014
 21
-135.3701330328913
 31
0.0
  0
INSERT
  5
D7
330
70
100
AcDbEntity
  8
レイヤー 1
100
AcDbBlockReference
  2
Block_10
 10
0.0
 20
0.0
 30
0.0
  0
INSERT
  5
DD
330
70
100
AcDbEntity
  8
レイヤー 1
100
AcDbBlockReference
  2
Block_11
 10
0.0
 20
0.0
 30
0.0
  0
ENDSEC
  0
SECTION
  2
OBJECTS
  0
DICTIONARY
  5
C
330
0
100
AcDbDictionary
281
     1
  3
ACAD_COLOR
350
63
  3
ACAD_DETAILVIEWSTYLE
350
6A
  3
ACAD_GROUP
350
D
  3
ACAD_LAYOUT
350
62
  3
ACAD_MATERIAL
350
10
  3
ACAD_MLEADERSTYLE
350
66
  3
ACAD_MLINESTYLE
350
5F
  3
ACAD_PLOTSETTINGS
350
61
  3
ACAD_PLOTSTYLENAME
350
E
  3
ACAD_SCALELIST
350
42
  3
ACAD_SECTIONVIEWSTYLE
350
68
  3
ACAD_TABLESTYLE
350
64
  3
ACAD_VISUALSTYLE
350
29
  3
ACDB_RECOMPOSE_DATA
350
FE
  3
AcDbVariableDictionary
350
F6
  0
DICTIONARY
  5
63
102
{ACAD_REACTORS
330
C
102
}
330
C
100
AcDbDictionary
281
     1
  0
DICTIONARY
  5
6A
102
{ACAD_REACTORS
330
C
102
}
330
C
100
AcDbDictionary
281
     1
  3
Imperial24
350
6B
  0
DICTIONARY
  5
D
102
{ACAD_REACTORS
330
C
102
}
330
C
100
AcDbDictionary
281
     1
  0
DICTIONARY
  5
62
102
{ACAD_REACTORS
330
C
102
}
330
C
100
AcDbDictionary
281
     1
  3
Layout1
350
6F
  3
Layout2
350
77
  3
Model
350
73
  0
DICTIONARY
  5
10
102
{ACAD_REACTORS
330
C
102
}
330
C
100
AcDbDictionary
281
     1
  3
ByBlock
350
19
  3
ByLayer
350
11
  3
Global
350
21
  0
DICTIONARY
  5
66
102
{ACAD_REACTORS
330
C
102
}
330
C
100
AcDbDictionary
281
     1
  3
Standard
350
67
  0
DICTIONARY
  5
5F
102
{ACAD_REACTORS
330
C
102
}
330
C
100
AcDbDictionary
281
     1
  3
Standard
350
60
  0
DICTIONARY
  5
61
102
{ACAD_REACTORS
330
C
102
}
330
C
100
AcDbDictionary
281
     1
  0
ACDBDICTIONARYWDFLT
  5
E
102
{ACAD_REACTORS
330
C
102
}
330
C
100
AcDbDictionary
281
     1
  3
Normal
350
F
100
AcDbDictionaryWithDefault
340
F
  0
DICTIONARY
  5
42
102
{ACAD_REACTORS
330
C
102
}
330
C
100
AcDbDictionary
281
     1
  3
A0
350
43
  3
A1
350
44
  3
A2
350
45
  3
A3
350
46
  3
A4
350
47
  3
A5
350
48
  3
A6
350
49
  3
A7
350
4A
  3
A8
350
4B
  3
A9
350
4C
  3
B0
350
4D
  3
B1
350
4E
  3
B2
350
4F
  3
B3
350
50
  3
B4
350
51
  3
B5
350
52
  3
B6
350
53
  0
DICTIONARY
  5
68
102
{ACAD_REACTORS
330
C
102
}
330
C
100
AcDbDictionary
281
     1
  3
Imperial24
350
69
  0
DICTIONARY
  5
64
102
{ACAD_REACTORS
330
C
102
}
330
C
100
AcDbDictionary
281
     1
  3
Standard
350
65
  0
DICTIONARY
  5
29
102
{ACAD_REACTORS
330
C
102
}
330
C
100
AcDbDictionary
281
     1
  3
2dWireframe
350
2F
  3
Basic
350
2E
  3
Brighten
350
35
  3
ColorChange
350
39
  3
Conceptual
350
32
  3
Dim
350
34
  3
EdgeColorOff
350
41
  3
Facepattern
350
38
  3
Flat
350
2A
  3
FlatWithEdges
350
2B
  3
Gouraud
350
2C
  3
GouraudWithEdges
350
2D
  3
Hidden
350
31
  3
JitterOff
350
3F
  3
Linepattern
350
37
  3
OverhangOff
350
40
  3
Realistic
350
33
  3
Shaded
350
3E
  3
Shaded with edges
350
3D
  3
Shades of Gray
350
3A
  3
Sketchy
350
3B
  3
Thicken
350
36
  3
Wireframe
350
30
  3
X-Ray
350
3C
  0
XRECORD
  5
FE
102
{ACAD_REACTORS
330
C
102
}
330
C
100
AcDbXrecord
280
     1
 90
        1
330
65
  0
DICTIONARY
  5
F6
102
{ACAD_REACTORS
330
C
102
}
330
C
100
AcDbDictionary
281
     1
  3
CANNOSCALE
350
FB
  3
CMLEADERSTYLE
350
F8
  3
CTABLESTYLE
350
F7
  3
CVIEWDETAILSTYLE
350
F9
  3
CVIEWSECTIONSTYLE
350
FA
  0
ACDBDETAILVIEWSTYLE
  5
6B
102
{ACAD_XDICTIONARY
360
133
102
}
102
{ACAD_REACTORS
330
6A
102
}
330
6A
100
AcDbModelDocViewStyle
 70
     0
  3
Imperial24
290
     0
100
AcDbDetailViewStyle
 70
     0
 71
     0
 90
        3
 71
     1
340
55
 62
   256
 40
0.24
340
0
 62
   256
 40
0.24
300

 40
0.36
280
     3
 71
     2
340
5D
 90
       25
 62
   256
 71
     3
340
55
 62
   256
 40
0.24
 90
        1
 40
0.75
 90
        1
300
%<\AcVar ViewType \f "%tc1">% %<\AcVar ViewDetailId>%\PSCALE %<\AcVar ViewScale \f "%sn">%
 71
     4
340
5D
 90
       25
 62
   256
340
5D
 90
       25
 62
   256
280
     0
  0
LAYOUT
  5
6F
102
{ACAD_REACTORS
330
62
102
}
330
62
100
AcDbPlotSettings
  1

  2

  4

  6

 40
0.0
 41
0.0
 42
0.0
 43
0.0
 44
0.0
 45
0.0
 46
0.0
 47
0.0
 48
0.0
 49
0.0
140
0.0
141
0.0
142
1.0
143
1.0
 70
   688
 72
     0
 73
     0
 74
     5
  7

 75
    16
147
1.0
 76
     0
 77
     2
 78
   300
148
0.0
149
0.0
100
AcDbLayout
  1
Layout1
 70
     1
 71
     1
 10
0.0
 20
0.0
 11
12.0
 21
9.0
 12
0.0
 22
0.0
 32
0.0
 14
0.0
 24
0.0
 34
0.0
 15
0.0
 25
0.0
 35
0.0
146
0.0
 13
0.0
 23
0.0
 33
0.0
 16
1.0
 26
0.0
 36
0.0
 17
0.0
 27
1.0
 37
0.0
 76
     0
330
6C
  0
LAYOUT
  5
77
102
{ACAD_REACTORS
330
62
102
}
330
62
100
AcDbPlotSettings
  1

  2

  4

  6

 40
0.0
 41
0.0
 42
0.0
 43
0.0
 44
0.0
 45
0.0
 46
0.0
 47
0.0
 48
0.0
 49
0.0
140
0.0
141
0.0
142
1.0
143
1.0
 70
   688
 72
     0
 73
     0
 74
     5
  7

 75
    16
147
1.0
 76
     0
 77
     2
 78
   300
148
0.0
149
0.0
100
AcDbLayout
  1
Layout2
 70
     1
 71
     2
 10
0.0
 20
0.0
 11
12.0
 21
9.0
 12
0.0
 22
0.0
 32
0.0
 14
0.0
 24
0.0
 34
0.0
 15
0.0
 25
0.0
 35
0.0
146
0.0
 13
0.0
 23
0.0
 33
0.0
 16
1.0
 26
0.0
 36
0.0
 17
0.0
 27
1.0
 37
0.0
 76
     0
330
74
  0
LAYOUT
  5
73
102
{ACAD_REACTORS
330
62
102
}
330
62
100
AcDbPlotSettings
  1

  2

  4

  6

 40
0.0
 41
0.0
 42
0.0
 43
0.0
 44
0.0
 45
0.0
 46
0.0
 47
0.0
 48
0.0
 49
0.0
140
0.0
141
0.0
142
1.0
143
1.0
 70
  1712
 72
     0
 73
     0
 74
     0
  7

 75
     0
147
1.0
 76
     0
 77
     2
 78
   300
148
0.0
149
0.0
100
AcDbLayout
  1
Model
 70
     1
 71
     0
 10
0.0
 20
0.0
 11
12.0
 21
9.0
 12
0.0
 22
0.0
 32
0.0
 14
0.0
 24
0.0
 34
0.0
 15
0.0
 25
0.0
 35
0.0
146
0.0
 13
0.0
 23
0.0
 33
0.0
 16
1.0
 26
0.0
 36
0.0
 17
0.0
 27
1.0
 37
0.0
 76
     0
330
70
  0
MATERIAL
  5
19
102
{ACAD_XDICTIONARY
360
1A
102
}
102
{ACAD_REACTORS
330
10
102
}
330
10
100
AcDbMaterial
  1
ByBlock
 72
     0
 43
0.0208333333333333
 43
0.0
 43
0.0
 43
0.0
 43
0.0
 43
0.0208333333333333
 43
0.0
 43
0.0
 43
0.0
 43
0.0
 43
1.0
 43
0.0
 43
0.0
 43
0.0
 43
0.0
 43
1.0
 77
     0
 47
0.0208333333333333
 47
0.0
 47
0.0
 47
0.0
 47
0.0
 47
0.0208333333333333
 47
0.0
 47
0.0
 47
0.0
 47
0.0
 47
1.0
 47
0.0
 47
0.0
 47
0.0
 47
0.0
 47
1.0
171
     0
 49
0.0208333333333333
 49
0.0
 49
0.0
 49
0.0
 49
0.0
 49
0.0208333333333333
 49
0.0
 49
0.0
 49
0.0
 49
0.0
 49
1.0
 49
0.0
 49
0.0
 49
0.0
 49
0.0
 49
1.0
175
     0
142
0.0208333333333333
142
0.0
142
0.0
142
0.0
142
0.0
142
0.0208333333333333
142
0.0
142
0.0
142
0.0
142
0.0
142
1.0
142
0.0
142
0.0
142
0.0
142
0.0
142
1.0
179
     0
144
0.0208333333333333
144
0.0
144
0.0
144
0.0
144
0.0
144
0.0208333333333333
144
0.0
144
0.0
144
0.0
144
0.0
144
1.0
144
0.0
144
0.0
144
0.0
144
0.0
144
1.0
147
0.0208333333333333
147
0.0
147
0.0
147
0.0
147
0.0
147
0.0208333333333333
147
0.0
147
0.0
147
0.0
147
0.0
147
1.0
147
0.0
147
0.0
147
0.0
147
0.0
147
1.0
  0
MATERIAL
  5
11
102
{ACAD_XDICTIONARY
360
12
102
}
102
{ACAD_REACTORS
330
10
102
}
330
10
100
AcDbMaterial
  1
ByLayer
 72
     0
 43
0.0208333333333333
 43
0.0
 43
0.0
 43
0.0
 43
0.0
 43
0.0208333333333333
 43
0.0
 43
0.0
 43
0.0
 43
0.0
 43
1.0
 43
0.0
 43
0.0
 43
0.0
 43
0.0
 43
1.0
 77
     0
 47
0.0208333333333333
 47
0.0
 47
0.0
 47
0.0
 47
0.0
 47
0.0208333333333333
 47
0.0
 47
0.0
 47
0.0
 47
0.0
 47
1.0
 47
0.0
 47
0.0
 47
0.0
 47
0.0
 47
1.0
171
     0
 49
0.0208333333333333
 49
0.0
 49
0.0
 49
0.0
 49
0.0
 49
0.0208333333333333
 49
0.0
 49
0.0
 49
0.0
 49
0.0
 49
1.0
 49
0.0
 49
0.0
 49
0.0
 49
0.0
 49
1.0
175
     0
142
0.0208333333333333
142
0.0
142
0.0
142
0.0
142
0.0
142
0.0208333333333333
142
0.0
142
0.0
142
0.0
142
0.0
142
1.0
142
0.0
142
0.0
142
0.0
142
0.0
142
1.0
179
     0
144
0.0208333333333333
144
0.0
144
0.0
144
0.0
144
0.0
144
0.0208333333333333
144
0.0
144
0.0
144
0.0
144
0.0
144
1.0
144
0.0
144
0.0
144
0.0
144
0.0
144
1.0
147
0.0208333333333333
147
0.0
147
0.0
147
0.0
147
0.0
147
0.0208333333333333
147
0.0
147
0.0
147
0.0
147
0.0
147
1.0
147
0.0
147
0.0
147
0.0
147
0.0
147
1.0
  0
MATERIAL
  5
21
102
{ACAD_XDICTIONARY
360
22
102
}
102
{ACAD_REACTORS
330
10
102
}
330
10
100
AcDbMaterial
  1
Global
 72
     0
 43
0.0208333333333333
 43
0.0
 43
0.0
 43
0.0
 43
0.0
 43
0.0208333333333333
 43
0.0
 43
0.0
 43
0.0
 43
0.0
 43
1.0
 43
0.0
 43
0.0
 43
0.0
 43
0.0
 43
1.0
 77
     0
 47
0.0208333333333333
 47
0.0
 47
0.0
 47
0.0
 47
0.0
 47
0.0208333333333333
 47
0.0
 47
0.0
 47
0.0
 47
0.0
 47
1.0
 47
0.0
 47
0.0
 47
0.0
 47
0.0
 47
1.0
171
     0
 49
0.0208333333333333
 49
0.0
 49
0.0
 49
0.0
 49
0.0
 49
0.0208333333333333
 49
0.0
 49
0.0
 49
0.0
 49
0.0
 49
1.0
 49
0.0
 49
0.0
 49
0.0
 49
0.0
 49
1.0
175
     0
142
0.0208333333333333
142
0.0
142
0.0
142
0.0
142
0.0
142
0.0208333333333333
142
0.0
142
0.0
142
0.0
142
0.0
142
1.0
142
0.0
142
0.0
142
0.0
142
0.0
142
1.0
179
     0
144
0.0208333333333333
144
0.0
144
0.0
144
0.0
144
0.0
144
0.0208333333333333
144
0.0
144
0.0
144
0.0
144
0.0
144
1.0
144
0.0
144
0.0
144
0.0
144
0.0
144
1.0
147
0.0208333333333333
147
0.0
147
0.0
147
0.0
147
0.0
147
0.0208333333333333
147
0.0
147
0.0
147
0.0
147
0.0
147
1.0
147
0.0
147
0.0
147
0.0
147
0.0
147
1.0
  0
MLEADERSTYLE
  5
67
102
{ACAD_XDICTIONARY
360
12F
102
}
102
{ACAD_REACTORS
330
66
102
}
330
66
100
AcDbMLeaderStyle
179
     2
170
     2
171
     1
172
     0
 90
        2
 40
0.0
 41
0.0
173
     1
 91
-1056964608
340
5B
 92
       -2
290
     1
 42
0.09
291
     1
 43
0.36
  3
Standard
 44
0.18
300

342
55
174
     1
178
     6
175
     1
176
     0
 93
-1056964608
 45
0.18
292
     0
297
     0
 46
0.18
 94
-1056964608
 47
1.0
 49
1.0
140
1.0
293
     1
141
0.0
294
     1
177
     0
142
1.0
295
     0
296
     0
143
0.125
271
     0
272
     9
273
     9
  0
MLINESTYLE
  5
60
102
{ACAD_REACTORS
330
5F
102
}
330
5F
100
AcDbMlineStyle
  2
STANDARD
 70
     0
  3

 62
   256
 51
90.0
 52
90.0
 71
     2
 49
0.5
 62
   256
  6
BYLAYER
 49
-0.5
 62
   256
  6
BYLAYER
  0
ACDBPLACEHOLDER
  5
F
102
{ACAD_REACTORS
330
E
102
}
330
E
  0
SCALE
  5
43
102
{ACAD_REACTORS
330
42
102
}
330
42
100
AcDbScale
 70
     0
300
1:1
140
1.0
141
1.0
290
     1
  0
SCALE
  5
44
102
{ACAD_REACTORS
330
42
102
}
330
42
100
AcDbScale
 70
     0
300
1/128" = 1'-0"
140
0.0078125
141
12.0
290
     0
  0
SCALE
  5
45
102
{ACAD_REACTORS
330
42
102
}
330
42
100
AcDbScale
 70
     0
300
1/64" = 1'-0"
140
0.015625
141
12.0
290
     0
  0
SCALE
  5
46
102
{ACAD_REACTORS
330
42
102
}
330
42
100
AcDbScale
 70
     0
300
1/32" = 1'-0"
140
0.03125
141
12.0
290
     0
  0
SCALE
  5
47
102
{ACAD_REACTORS
330
42
102
}
330
42
100
AcDbScale
 70
     0
300
1/16" = 1'-0"
140
0.0625
141
12.0
290
     0
  0
SCALE
  5
48
102
{ACAD_REACTORS
330
42
102
}
330
42
100
AcDbScale
 70
     0
300
3/32" = 1'-0"
140
0.09375
141
12.0
290
     0
  0
SCALE
  5
49
102
{ACAD_REACTORS
330
42
102
}
330
42
100
AcDbScale
 70
     0
300
1/8" = 1'-0"
140
0.125
141
12.0
290
     0
  0
SCALE
  5
4A
102
{ACAD_REACTORS
330
42
102
}
330
42
100
AcDbScale
 70
     0
300
3/16" = 1'-0"
140
0.1875
141
12.0
290
     0
  0
SCALE
  5
4B
102
{ACAD_REACTORS
330
42
102
}
330
42
100
AcDbScale
 70
     0
300
1/4" = 1'-0"
140
0.25
141
12.0
290
     0
  0
SCALE
  5
4C
102
{ACAD_REACTORS
330
42
102
}
330
42
100
AcDbScale
 70
     0
300
3/8" = 1'-0"
140
0.375
141
12.0
290
     0
  0
SCALE
  5
4D
102
{ACAD_REACTORS
330
42
102
}
330
42
100
AcDbScale
 70
     0
300
1/2" = 1'-0"
140
0.5
141
12.0
290
     0
  0
SCALE
  5
4E
102
{ACAD_REACTORS
330
42
102
}
330
42
100
AcDbScale
 70
     0
300
3/4" = 1'-0"
140
0.75
141
12.0
290
     0
  0
SCALE
  5
4F
102
{ACAD_REACTORS
330
42
102
}
330
42
100
AcDbScale
 70
     0
300
1" = 1'-0"
140
1.0
141
12.0
290
     0
  0
SCALE
  5
50
102
{ACAD_REACTORS
330
42
102
}
330
42
100
AcDbScale
 70
     0
300
1-1/2" = 1'-0"
140
1.5
141
12.0
290
     0
  0
SCALE
  5
51
102
{ACAD_REACTORS
330
42
102
}
330
42
100
AcDbScale
 70
     0
300
3" = 1'-0"
140
3.0
141
12.0
290
     0
  0
SCALE
  5
52
102
{ACAD_REACTORS
330
42
102
}
330
42
100
AcDbScale
 70
     0
300
6" = 1'-0"
140
6.0
141
12.0
290
     0
  0
SCALE
  5
53
102
{ACAD_REACTORS
330
42
102
}
330
42
100
AcDbScale
 70
     0
300
1'-0" = 1'-0"
140
12.0
141
12.0
290
     0
  0
ACDBSECTIONVIEWSTYLE
  5
69
102
{ACAD_XDICTIONARY
360
131
102
}
102
{ACAD_REACTORS
330
68
102
}
330
68
100
AcDbModelDocViewStyle
 70
     0
  3
Imperial24
290
     0
100
AcDbSectionViewStyle
 70
     0
 71
     0
 90
       78
 71
     1
340
55
 62
   256
 40
0.24
340
0
340
0
 62
   256
 40
0.24
300
I, O, Q, S, X, Z
 40
0.48
 90
        3
 40
0.18
 90
        1
 71
     2
340
5D
 90
       25
 62
   256
340
5D
 90
       50
 62
   256
 40
0.24
 40
0.0
 40
0.24
 71
     3
340
55
 62
   256
 40
0.24
 90
        1
 40
0.75
 90
        1
300
%<\AcVar ViewType \f "%tc1">% %<\AcVar ViewSectionStartId>%-%<\AcVar ViewSectionEndId>%\PSCALE %<\AcVar ViewScale \f "%sn">%
 71
     4
 62
   256
 62
   257
300
ANSI31
 40
1.0
 90
        0
290
     0
290
     0
 90
        6
 40
0.0
 40
1.570796326794896
 40
0.2617993877991494
 40
1.308996938995747
 40
-0.2617993877991494
 40
1.832595714594046
  0
TABLESTYLE
  5
65
102
{ACAD_XDICTIONARY
360
FC
102
}
102
{ACAD_REACTORS
330
64
102
}
330
64
100
AcDbTableStyle
280
     0
  3
Standard
 70
     0
 71
     0
 40
0.06
 41
0.06
280
     0
281
     0
  7
Standard
140
0.18
170
     2
 62
     0
 63
     7
283
     0
 90
      512
 91
        0
  1

274
    -2
284
     1
 64
     0
275
    -2
285
     1
 65
     0
276
    -2
286
     1
 66
     0
277
    -2
287
     1
 67
     0
278
    -2
288
     1
 68
     0
279
    -2
289
     1
 69
     0
  7
Standard
140
0.25
170
     5
 62
     0
 63
     7
283
     0
 90
      512
 91
        0
  1

274
    -2
284
     1
 64
     0
275
    -2
285
     1
 65
     0
276
    -2
286
     1
 66
     0
277
    -2
287
     1
 67
     0
278
    -2
288
     1
 68
     0
279
    -2
289
     1
 69
     0
  7
Standard
140
0.18
170
     5
 62
     0
 63
     7
283
     0
 90
      512
 91
        0
  1

274
    -2
284
     1
 64
     0
275
    -2
285
     1
 65
     0
276
    -2
286
     1
 66
     0
277
    -2
287
     1
 67
     0
278
    -2
288
     1
 68
     0
279
    -2
289
     1
 69
     0
  0
VISUALSTYLE
  5
2F
102
{ACAD_XDICTIONARY
360
109
102
}
102
{ACAD_REACTORS
330
29
102
}
330
29
100
AcDbVisualStyle
  2
2dWireframe
 70
     4
177
     2
291
     0
 71
     0
176
     1
 72
     2
176
     1
 73
     0
176
     1
 90
        0
176
     1
 40
0.6
176
     1
 41
30.0
176
     1
 63
     7
421
 16777215
176
     1
 74
     1
176
     1
 91
        4
176
     1
 64
     7
176
     1
 65
   257
176
     1
 75
     1
176
     1
175
     1
176
     1
 42
1.0
176
     1
 92
        0
176
     1
 66
   257
176
     1
 43
1.0
176
     1
 76
     1
176
     1
 77
     6
176
     1
 78
     2
176
     1
 67
     7
176
     1
 79
     5
176
     1
170
     0
176
     1
171
     0
176
     1
290
     0
176
     1
 93
        1
176
     1
 44
0.0
176
     1
173
     0
176
     1
1001
ACAD
1000
AcDbSavedByObjectVersion
1070
     0
  0
VISUALSTYLE
  5
2E
102
{ACAD_XDICTIONARY
360
107
102
}
102
{ACAD_REACTORS
330
29
102
}
330
29
100
AcDbVisualStyle
  2
Basic
 70
     7
177
     2
291
     1
 71
     1
176
     1
 72
     0
176
     1
 73
     1
176
     1
 90
        0
176
     1
 40
0.6
176
     1
 41
30.0
176
     1
 63
     7
421
 16777215
176
     1
 74
     0
176
     1
 91
        4
176
     1
 64
     7
176
     1
 65
   257
176
     1
 75
     1
176
     1
175
     1
176
     1
 42
1.0
176
     1
 92
        8
176
     1
 66
     7
176
     1
 43
1.0
176
     1
 76
     1
176
     1
 77
     6
176
     1
 78
     2
176
     1
 67
     7
176
     1
 79
     5
176
     1
170
     0
176
     1
171
     0
176
     1
290
     0
176
     1
 93
        1
176
     1
 44
0.0
176
     1
173
     0
176
     1
1001
ACAD
1000
AcDbSavedByObjectVersion
1070
     0
  0
VISUALSTYLE
  5
35
102
{ACAD_XDICTIONARY
360
115
102
}
102
{ACAD_REACTORS
330
29
102
}
330
29
100
AcDbVisualStyle
  2
Brighten
 70
    12
177
     2
291
     1
 71
     2
176
     1
 72
     2
176
     1
 73
     0
176
     1
 90
        0
176
     1
 40
0.6
176
     1
 41
30.0
176
     1
 63
     7
421
 16777215
176
     1
 74
     1
176
     1
 91
        4
176
     1
 64
     7
176
     1
 65
   257
176
     1
 75
     1
176
     1
175
     1
176
     1
 42
1.0
176
     1
 92
        8
176
     1
 66
     7
176
     1
 43
1.0
176
     1
 76
     1
176
     1
 77
     6
176
     1
 78
     2
176
     1
 67
     7
176
     1
 79
     5
176
     1
170
     0
176
     1
171
     0
176
     1
290
     0
176
     1
 93
        1
176
     1
 44
50.0
176
     1
173
     0
176
     1
1001
ACAD
1000
AcDbSavedByObjectVersion
1070
     0
  0
VISUALSTYLE
  5
39
102
{ACAD_XDICTIONARY
360
11D
102
}
102
{ACAD_REACTORS
330
29
102
}
330
29
100
AcDbVisualStyle
  2
ColorChange
 70
    16
177
     2
291
     1
 71
     2
176
     1
 72
     2
176
     1
 73
     3
176
     1
 90
        0
176
     1
 40
0.6
176
     1
 41
30.0
176
     1
 63
     8
421
  8421504
176
     1
 74
     1
176
     1
 91
        4
176
     1
 64
     7
176
     1
 65
   257
176
     1
 75
     1
176
     1
175
     1
176
     1
 42
1.0
176
     1
 92
        8
176
     1
 66
     8
424
  8421504
176
     1
 43
1.0
176
     1
 76
     1
176
     1
 77
     6
176
     1
 78
     2
176
     1
 67
     7
176
     1
 79
     5
176
     1
170
     0
176
     1
171
     0
176
     1
290
     0
176
     1
 93
        1
176
     1
 44
0.0
176
     1
173
     0
176
     1
1001
ACAD
1000
AcDbSavedByObjectVersion
1070
     0
  0
VISUALSTYLE
  5
32
102
{ACAD_XDICTIONARY
360
10F
102
}
102
{ACAD_REACTORS
330
29
102
}
330
29
100
AcDbVisualStyle
  2
Conceptual
 70
     9
177
     2
291
     0
 71
     3
176
     1
 72
     2
176
     1
 73
     0
176
     1
 90
        0
176
     1
 40
0.6
176
     1
 41
30.0
176
     1
 63
     7
421
 16777215
176
     1
 74
     2
176
     1
 91
        2
176
     1
 64
     7
176
     1
 65
   257
176
     1
 75
     1
176
     1
175
     1
176
     1
 42
179.0
176
     1
 92
        8
176
     1
 66
     7
176
     1
 43
1.0
176
     1
 76
     1
176
     1
 77
     6
176
     1
 78
     2
176
     1
 67
     7
176
     1
 79
     3
176
     1
170
     0
176
     1
171
     0
176
     1
290
     0
176
     1
 93
        1
176
     1
 44
0.0
176
     1
173
     0
176
     1
1001
ACAD
1000
AcDbSavedByObjectVersion
1070
     0
  0
VISUALSTYLE
  5
34
102
{ACAD_XDICTIONARY
360
113
102
}
102
{ACAD_REACTORS
330
29
102
}
330
29
100
AcDbVisualStyle
  2
Dim
 70
    11
177
     2
291
     1
 71
     2
176
     1
 72
     2
176
     1
 73
     0
176
     1
 90
        0
176
     1
 40
0.6
176
     1
 41
30.0
176
     1
 63
     7
421
 16777215
176
     1
 74
     1
176
     1
 91
        4
176
     1
 64
     7
176
     1
 65
   257
176
     1
 75
     1
176
     1
175
     1
176
     1
 42
1.0
176
     1
 92
        8
176
     1
 66
     7
176
     1
 43
1.0
176
     1
 76
     1
176
     1
 77
     6
176
     1
 78
     2
176
     1
 67
     7
176
     1
 79
     5
176
     1
170
     0
176
     1
171
     0
176
     1
290
     0
176
     1
 93
        1
176
     1
 44
-50.0
176
     1
173
     0
176
     1
1001
ACAD
1000
AcDbSavedByObjectVersion
1070
     0
  0
VISUALSTYLE
  5
41
102
{ACAD_XDICTIONARY
360
12D
102
}
102
{ACAD_REACTORS
330
29
102
}
330
29
100
AcDbVisualStyle
  2
EdgeColorOff
 70
    22
177
     2
291
     1
 71
     2
176
     0
 72
     2
176
     0
 73
     0
176
     0
 90
        0
176
     0
 40
0.6
176
     0
 41
30.0
176
     0
 63
     7
421
 16777215
176
     0
 74
     1
176
     0
 91
        4
176
     0
 64
     7
176
     0
 65
   257
176
     0
 75
     1
176
     0
175
     1
176
     0
 42
1.0
176
     0
 92
        8
176
     2
 66
     7
176
     0
 43
1.0
176
     0
 76
     1
176
     0
 77
     6
176
     0
 78
     2
176
     0
 67
     7
176
     0
 79
     5
176
     0
170
     0
176
     0
171
     0
176
     0
290
     0
176
     0
 93
        1
176
     0
 44
0.0
176
     0
173
     0
176
     0
1001
ACAD
1000
AcDbSavedByObjectVersion
1070
     0
  0
VISUALSTYLE
  5
38
102
{ACAD_XDICTIONARY
360
11B
102
}
102
{ACAD_REACTORS
330
29
102
}
330
29
100
AcDbVisualStyle
  2
Facepattern
 70
    15
177
     2
291
     1
 71
     2
176
     1
 72
     2
176
     1
 73
     0
176
     1
 90
        0
176
     1
 40
0.6
176
     1
 41
30.0
176
     1
 63
     7
421
 16777215
176
     1
 74
     1
176
     1
 91
        4
176
     1
 64
     7
176
     1
 65
   257
176
     1
 75
     1
176
     1
175
     1
176
     1
 42
1.0
176
     1
 92
        8
176
     1
 66
     7
176
     1
 43
1.0
176
     1
 76
     1
176
     1
 77
     6
176
     1
 78
     2
176
     1
 67
     7
176
     1
 79
     5
176
     1
170
     0
176
     1
171
     0
176
     1
290
     0
176
     1
 93
        1
176
     1
 44
0.0
176
     1
173
     0
176
     1
1001
ACAD
1000
AcDbSavedByObjectVersion
1070
     0
  0
VISUALSTYLE
  5
2A
102
{ACAD_XDICTIONARY
360
FF
102
}
102
{ACAD_REACTORS
330
29
102
}
330
29
100
AcDbVisualStyle
  2
Flat
 70
     0
177
     2
291
     1
 71
     2
176
     1
 72
     1
176
     1
 73
     1
176
     1
 90
        2
176
     1
 40
0.6
176
     1
 41
30.0
176
     1
 63
     7
421
 16777215
176
     1
 74
     0
176
     1
 91
        0
176
     1
 64
     7
176
     1
 65
   257
176
     1
 75
     1
176
     1
175
     1
176
     1
 42
1.0
176
     1
 92
        8
176
     1
 66
     7
176
     1
 43
1.0
176
     1
 76
     1
176
     1
 77
     6
176
     1
 78
     2
176
     1
 67
     7
176
     1
 79
     5
176
     1
170
     0
176
     1
171
     0
176
     1
290
     0
176
     1
 93
       13
176
     1
 44
0.0
176
     1
173
     0
176
     1
1001
ACAD
1000
AcDbSavedByObjectVersion
1070
     0
  0
VISUALSTYLE
  5
2B
102
{ACAD_XDICTIONARY
360
101
102
}
102
{ACAD_REACTORS
330
29
102
}
330
29
100
AcDbVisualStyle
  2
FlatWithEdges
 70
     1
177
     2
291
     1
 71
     2
176
     1
 72
     1
176
     1
 73
     1
176
     1
 90
        2
176
     1
 40
0.6
176
     1
 41
30.0
176
     1
 63
     7
421
 16777215
176
     1
 74
     1
176
     1
 91
        0
176
     1
 64
     7
176
     1
 65
   257
176
     1
 75
     1
176
     1
175
     1
176
     1
 42
1.0
176
     1
 92
        0
176
     1
 66
   257
176
     1
 43
1.0
176
     1
 76
     1
176
     1
 77
     6
176
     1
 78
     2
176
     1
 67
     7
176
     1
 79
     5
176
     1
170
     0
176
     1
171
     0
176
     1
290
     0
176
     1
 93
       13
176
     1
 44
0.0
176
     1
173
     0
176
     1
1001
ACAD
1000
AcDbSavedByObjectVersion
1070
     0
  0
VISUALSTYLE
  5
2C
102
{ACAD_XDICTIONARY
360
103
102
}
102
{ACAD_REACTORS
330
29
102
}
330
29
100
AcDbVisualStyle
  2
Gouraud
 70
     2
177
     2
291
     1
 71
     2
176
     1
 72
     2
176
     1
 73
     1
176
     1
 90
        2
176
     1
 40
0.6
176
     1
 41
30.0
176
     1
 63
     7
421
 16777215
176
     1
 74
     0
176
     1
 91
        0
176
     1
 64
     7
176
     1
 65
   257
176
     1
 75
     1
176
     1
175
     1
176
     1
 42
1.0
176
     1
 92
        0
176
     1
 66
     7
176
     1
 43
1.0
176
     1
 76
     1
176
     1
 77
     6
176
     1
 78
     2
176
     1
 67
     7
176
     1
 79
     5
176
     1
170
     0
176
     1
171
     0
176
     1
290
     0
176
     1
 93
       13
176
     1
 44
0.0
176
     1
173
     0
176
     1
1001
ACAD
1000
AcDbSavedByObjectVersion
1070
     0
  0
VISUALSTYLE
  5
2D
102
{ACAD_XDICTIONARY
360
105
102
}
102
{ACAD_REACTORS
330
29
102
}
330
29
100
AcDbVisualStyle
  2
GouraudWithEdges
 70
     3
177
     2
291
     1
 71
     2
176
     1
 72
     2
176
     1
 73
     1
176
     1
 90
        2
176
     1
 40
0.6
176
     1
 41
30.0
176
     1
 63
     7
421
 16777215
176
     1
 74
     1
176
     1
 91
        0
176
     1
 64
     7
176
     1
 65
   257
176
     1
 75
     1
176
     1
175
     1
176
     1
 42
1.0
176
     1
 92
        0
176
     1
 66
   257
176
     1
 43
1.0
176
     1
 76
     1
176
     1
 77
     6
176
     1
 78
     2
176
     1
 67
     7
176
     1
 79
     5
176
     1
170
     0
176
     1
171
     0
176
     1
290
     0
176
     1
 93
       13
176
     1
 44
0.0
176
     1
173
     0
176
     1
1001
ACAD
1000
AcDbSavedByObjectVersion
1070
     0
  0
VISUALSTYLE
  5
31
102
{ACAD_XDICTIONARY
360
10D
102
}
102
{ACAD_REACTORS
330
29
102
}
330
29
100
AcDbVisualStyle
  2
Hidden
 70
     6
177
     2
291
     0
 71
     1
176
     1
 72
     2
176
     1
 73
     2
176
     1
 90
        0
176
     1
 40
0.6
176
     1
 41
30.0
176
     1
 63
     7
421
 16777215
176
     1
 74
     2
176
     1
 91
        2
176
     1
 64
     7
176
     1
 65
   257
176
     1
 75
     2
176
     1
175
     1
176
     1
 42
40.0
176
     1
 92
        0
176
     1
 66
   257
176
     1
 43
1.0
176
     1
 76
     1
176
     1
 77
     6
176
     1
 78
     2
176
     1
 67
     7
176
     1
 79
     3
176
     1
170
     0
176
     1
171
     0
176
     1
290
     0
176
     1
 93
        1
176
     1
 44
0.0
176
     1
173
     0
176
     1
1001
ACAD
1000
AcDbSavedByObjectVersion
1070
     0
  0
VISUALSTYLE
  5
3F
102
{ACAD_XDICTIONARY
360
129
102
}
102
{ACAD_REACTORS
330
29
102
}
330
29
100
AcDbVisualStyle
  2
JitterOff
 70
    20
177
     2
291
     1
 71
     2
176
     0
 72
     2
176
     0
 73
     0
176
     0
 90
        0
176
     0
 40
0.6
176
     0
 41
30.0
176
     0
 63
     7
421
 16777215
176
     0
 74
     1
176
     0
 91
        4
176
     0
 64
     7
176
     0
 65
   257
176
     0
 75
     1
176
     0
175
     1
176
     0
 42
1.0
176
     0
 92
       10
176
     2
 66
     7
176
     0
 43
1.0
176
     0
 76
     1
176
     0
 77
     6
176
     0
 78
     2
176
     0
 67
     7
176
     0
 79
     5
176
     0
170
     0
176
     0
171
     0
176
     0
290
     0
176
     0
 93
        1
176
     0
 44
0.0
176
     0
173
     0
176
     0
1001
ACAD
1000
AcDbSavedByObjectVersion
1070
     0
  0
VISUALSTYLE
  5
37
102
{ACAD_XDICTIONARY
360
119
102
}
102
{ACAD_REACTORS
330
29
102
}
330
29
100
AcDbVisualStyle
  2
Linepattern
 70
    14
177
     2
291
     1
 71
     2
176
     1
 72
     2
176
     1
 73
     0
176
     1
 90
        0
176
     1
 40
0.6
176
     1
 41
30.0
176
     1
 63
     7
421
 16777215
176
     1
 74
     1
176
     1
 91
        4
176
     1
 64
     7
176
     1
 65
   257
176
     1
 75
     7
176
     1
175
     7
176
     1
 42
1.0
176
     1
 92
        8
176
     1
 66
     7
176
     1
 43
1.0
176
     1
 76
     1
176
     1
 77
     6
176
     1
 78
     2
176
     1
 67
     7
176
     1
 79
     5
176
     1
170
     0
176
     1
171
     0
176
     1
290
     0
176
     1
 93
        1
176
     1
 44
0.0
176
     1
173
     0
176
     1
1001
ACAD
1000
AcDbSavedByObjectVersion
1070
     0
  0
VISUALSTYLE
  5
40
102
{ACAD_XDICTIONARY
360
12B
102
}
102
{ACAD_REACTORS
330
29
102
}
330
29
100
AcDbVisualStyle
  2
OverhangOff
 70
    21
177
     2
291
     1
 71
     2
176
     0
 72
     2
176
     0
 73
     0
176
     0
 90
        0
176
     0
 40
0.6
176
     0
 41
30.0
176
     0
 63
     7
421
 16777215
176
     0
 74
     1
176
     0
 91
        4
176
     0
 64
     7
176
     0
 65
   257
176
     0
 75
     1
176
     0
175
     1
176
     0
 42
1.0
176
     0
 92
        9
176
     2
 66
     7
176
     0
 43
1.0
176
     0
 76
     1
176
     0
 77
     6
176
     0
 78
     2
176
     0
 67
     7
176
     0
 79
     5
176
     0
170
     0
176
     0
171
     0
176
     0
290
     0
176
     0
 93
        1
176
     0
 44
0.0
176
     0
173
     0
176
     0
1001
ACAD
1000
AcDbSavedByObjectVersion
1070
     0
  0
VISUALSTYLE
  5
33
102
{ACAD_XDICTIONARY
360
111
102
}
102
{ACAD_REACTORS
330
29
102
}
330
29
100
AcDbVisualStyle
  2
Realistic
 70
     8
177
     2
291
     0
 71
     2
176
     1
 72
     3
176
     1
 73
     0
176
     1
 90
        2
176
     1
 40
0.6
176
     1
 41
30.0
176
     1
 63
     7
421
 16777215
176
     1
 74
     0
176
     1
 91
        0
176
     1
 64
     7
176
     1
 65
   257
176
     1
 75
     1
176
     1
175
     1
176
     1
 42
1.0
176
     1
 92
        8
176
     1
 66
   257
176
     1
 43
1.0
176
     1
 76
     1
176
     1
 77
     6
176
     1
 78
     2
176
     1
 67
     7
176
     1
 79
     3
176
     1
170
     0
176
     1
171
     0
176
     1
290
     0
176
     1
 93
       13
176
     1
 44
0.0
176
     1
173
     0
176
     1
1001
ACAD
1000
AcDbSavedByObjectVersion
1070
     0
  0
VISUALSTYLE
  5
3E
102
{ACAD_XDICTIONARY
360
127
102
}
102
{ACAD_REACTORS
330
29
102
}
330
29
100
AcDbVisualStyle
  2
Shaded
 70
    27
177
     2
291
     0
 71
     2
176
     1
 72
     2
176
     1
 73
     1
176
     1
 90
        2
176
     1
 40
0.6
176
     1
 41
30.0
176
     1
 63
     7
421
 16777215
176
     1
 74
     0
176
     1
 91
        4
176
     1
 64
     7
176
     1
 65
   257
176
     1
 75
     1
176
     1
175
     1
176
     1
 42
1.0
176
     1
 92
        8
176
     1
 66
   257
176
     1
 43
1.0
176
     1
 76
     1
176
     1
 77
     6
176
     1
 78
     2
176
     1
 67
     8
425
  7895160
176
     1
 79
     3
176
     1
170
     0
176
     1
171
     0
176
     1
290
     0
176
     1
 93
        5
176
     1
 44
0.0
176
     1
173
     0
176
     1
1001
ACAD
1000
AcDbSavedByObjectVersion
1070
     0
  0
VISUALSTYLE
  5
3D
102
{ACAD_XDICTIONARY
360
125
102
}
102
{ACAD_REACTORS
330
29
102
}
330
29
100
AcDbVisualStyle
  2
Shaded with edges
 70
    26
177
     2
291
     0
 71
     2
176
     1
 72
     2
176
     1
 73
     1
176
     1
 90
        2
176
     1
 40
0.6
176
     1
 41
30.0
176
     1
 63
     7
421
 16777215
176
     1
 74
     1
176
     1
 91
        2
176
     1
 64
     7
176
     1
 65
   257
176
     1
 75
     2
176
     1
175
     1
176
     1
 42
1.0
176
     1
 92
        8
176
     1
 66
   257
176
     1
 43
1.0
176
     1
 76
     1
176
     1
 77
     6
176
     1
 78
     2
176
     1
 67
     7
176
     1
 79
     3
176
     1
170
     0
176
     1
171
     0
176
     1
290
     0
176
     1
 93
        5
176
     1
 44
0.0
176
     1
173
     0
176
     1
1001
ACAD
1000
AcDbSavedByObjectVersion
1070
     0
  0
VISUALSTYLE
  5
3A
102
{ACAD_XDICTIONARY
360
11F
102
}
102
{ACAD_REACTORS
330
29
102
}
330
29
100
AcDbVisualStyle
  2
Shades of Gray
 70
    23
177
     2
291
     0
 71
     2
176
     1
 72
     2
176
     1
 73
     3
176
     1
 90
        0
176
     1
 40
0.6
176
     1
 41
30.0
176
     1
 63
     7
421
 16777215
176
     1
 74
     2
176
     1
 91
        2
176
     1
 64
     7
176
     1
 65
     7
176
     1
 75
     1
176
     1
175
     1
176
     1
 42
40.0
176
     1
 92
        8
176
     1
 66
     7
176
     1
 43
1.0
176
     1
 76
     1
176
     1
 77
     6
176
     1
 78
     2
176
     1
 67
     7
176
     1
 79
     3
176
     1
170
     0
176
     1
171
     0
176
     1
290
     0
176
     1
 93
        1
176
     1
 44
0.0
176
     1
173
     0
176
     1
1001
ACAD
1000
AcDbSavedByObjectVersion
1070
     0
  0
VISUALSTYLE
  5
3B
102
{ACAD_XDICTIONARY
360
121
102
}
102
{ACAD_REACTORS
330
29
102
}
330
29
100
AcDbVisualStyle
  2
Sketchy
 70
    24
177
     2
291
     0
 71
     1
176
     1
 72
     2
176
     1
 73
     2
176
     1
 90
        0
176
     1
 40
0.6
176
     1
 41
30.0
176
     1
 63
     7
421
 16777215
176
     1
 74
     2
176
     1
 91
        2
176
     1
 64
     7
176
     1
 65
     7
176
     1
 75
     1
176
     1
175
     1
176
     1
 42
40.0
176
     1
 92
       11
176
     1
 66
     7
176
     1
 43
1.0
176
     1
 76
     1
176
     1
 77
     6
176
     1
 78
     2
176
     1
 67
     7
176
     1
 79
     6
176
     1
170
     0
176
     1
171
     0
176
     1
290
     0
176
     1
 93
        1
176
     1
 44
0.0
176
     1
173
     0
176
     1
1001
ACAD
1000
AcDbSavedByObjectVersion
1070
     0
  0
VISUALSTYLE
  5
36
102
{ACAD_XDICTIONARY
360
117
102
}
102
{ACAD_REACTORS
330
29
102
}
330
29
100
AcDbVisualStyle
  2
Thicken
 70
    13
177
     2
291
     1
 71
     2
176
     1
 72
     2
176
     1
 73
     0
176
     1
 90
        0
176
     1
 40
0.6
176
     1
 41
30.0
176
     1
 63
     7
421
 16777215
176
     1
 74
     1
176
     1
 91
        4
176
     1
 64
     7
176
     1
 65
   257
176
     1
 75
     1
176
     1
175
     1
176
     1
 42
1.0
176
     1
 92
       12
176
     1
 66
     7
176
     1
 43
1.0
176
     1
 76
     1
176
     1
 77
     6
176
     1
 78
     2
176
     1
 67
     7
176
     1
 79
     5
176
     1
170
     0
176
     1
171
     0
176
     1
290
     0
176
     1
 93
        1
176
     1
 44
0.0
176
     1
173
     0
176
     1
1001
ACAD
1000
AcDbSavedByObjectVersion
1070
     0
  0
VISUALSTYLE
  5
30
102
{ACAD_XDICTIONARY
360
10B
102
}
102
{ACAD_REACTORS
330
29
102
}
330
29
100
AcDbVisualStyle
  2
Wireframe
 70
     5
177
     2
291
     0
 71
     0
176
     1
 72
     2
176
     1
 73
     0
176
     1
 90
        0
176
     1
 40
0.6
176
     1
 41
30.0
176
     1
 63
     7
421
 16777215
176
     1
 74
     1
176
     1
 91
        4
176
     1
 64
     7
176
     1
 65
   257
176
     1
 75
     1
176
     1
175
     1
176
     1
 42
1.0
176
     1
 92
        0
176
     1
 66
   257
176
     1
 43
1.0
176
     1
 76
     1
176
     1
 77
     6
176
     1
 78
     2
176
     1
 67
     7
176
     1
 79
     3
176
     1
170
     0
176
     1
171
     0
176
     1
290
     0
176
     1
 93
        1
176
     1
 44
0.0
176
     1
173
     0
176
     1
1001
ACAD
1000
AcDbSavedByObjectVersion
1070
     0
  0
VISUALSTYLE
  5
3C
102
{ACAD_XDICTIONARY
360
123
102
}
102
{ACAD_REACTORS
330
29
102
}
330
29
100
AcDbVisualStyle
  2
X-Ray
 70
    25
177
     2
291
     0
 71
     2
176
     1
 72
     2
176
     1
 73
     1
176
     1
 90
        1
176
     1
 40
0.5
176
     1
 41
30.0
176
     1
 63
     7
421
 16777215
176
     1
 74
     1
176
     1
 91
        0
176
     1
 64
     7
176
     1
 65
   257
176
     1
 75
     1
176
     1
175
     1
176
     1
 42
1.0
176
     1
 92
        8
176
     1
 66
     7
176
     1
 43
1.0
176
     1
 76
     1
176
     1
 77
     6
176
     1
 78
     2
176
     1
 67
     7
176
     1
 79
     3
176
     1
170
     0
176
     1
171
     0
176
     1
290
     0
176
     1
 93
       13
176
     1
 44
0.0
176
     1
173
     0
176
     1
1001
ACAD
1000
AcDbSavedByObjectVersion
1070
     0
  0
DICTIONARYVAR
  5
FB
102
{ACAD_REACTORS
330
F6
102
}
330
F6
100
DictionaryVariables
280
     0
  1
1:1
  0
DICTIONARYVAR
  5
F8
102
{ACAD_REACTORS
330
F6
102
}
330
F6
100
DictionaryVariables
280
     0
  1
STANDARD
  0
DICTIONARYVAR
  5
F7
102
{ACAD_REACTORS
330
F6
102
}
330
F6
100
DictionaryVariables
280
     0
  1
STANDARD
  0
DICTIONARYVAR
  5
F9
102
{ACAD_REACTORS
330
F6
102
}
330
F6
100
DictionaryVariables
280
     0
  1
Imperial24
  0
DICTIONARYVAR
  5
FA
102
{ACAD_REACTORS
330
F6
102
}
330
F6
100
DictionaryVariables
280
     0
  1
Imperial24
  0
DICTIONARY
  5
133
330
6B
100
AcDbDictionary
280
     1
281
     1
  3
ACAD_XREC_ROUNDTRIP
360
134
  0
DICTIONARY
  5
1A
330
19
100
AcDbDictionary
280
     1
281
     1
  3
BUMPTILE
360
1C
  3
DIFFUSETILE
360
1B
  3
OPACITYTILE
360
1F
  3
REFLECTIONTILE
360
1E
  3
REFRACTIONTILE
360
20
  3
SPECULARTILE
360
1D
  0
DICTIONARY
  5
12
330
11
100
AcDbDictionary
280
     1
281
     1
  3
BUMPTILE
360
14
  3
DIFFUSETILE
360
13
  3
OPACITYTILE
360
17
  3
REFLECTIONTILE
360
16
  3
REFRACTIONTILE
360
18
  3
SPECULARTILE
360
15
  0
DICTIONARY
  5
22
330
21
100
AcDbDictionary
280
     1
281
     1
  3
BUMPTILE
360
24
  3
DIFFUSETILE
360
23
  3
OPACITYTILE
360
27
  3
REFLECTIONTILE
360
26
  3
REFRACTIONTILE
360
28
  3
SPECULARTILE
360
25
  0
DICTIONARY
  5
12F
330
67
100
AcDbDictionary
280
     1
281
     1
  3
ACAD_XREC_ROUNDTRIP
360
130
  0
DICTIONARY
  5
131
330
69
100
AcDbDictionary
280
     1
281
     1
  3
ACAD_XREC_ROUNDTRIP
360
132
  0
DICTIONARY
  5
FC
330
65
100
AcDbDictionary
280
     1
281
     1
  3
ACAD_ROUNDTRIP_2008_TABLESTYLE_CELLSTYLEMAP
360
FD
  0
DICTIONARY
  5
109
330
2F
100
AcDbDictionary
280
     1
281
     1
  3
ACAD_XREC_ROUNDTRIP
360
10A
  0
DICTIONARY
  5
107
330
2E
100
AcDbDictionary
280
     1
281
     1
  3
ACAD_XREC_ROUNDTRIP
360
108
  0
DICTIONARY
  5
115
330
35
100
AcDbDictionary
280
     1
281
     1
  3
ACAD_XREC_ROUNDTRIP
360
116
  0
DICTIONARY
  5
11D
330
39
100
AcDbDictionary
280
     1
281
     1
  3
ACAD_XREC_ROUNDTRIP
360
11E
  0
DICTIONARY
  5
10F
330
32
100
AcDbDictionary
280
     1
281
     1
  3
ACAD_XREC_ROUNDTRIP
360
110
  0
DICTIONARY
  5
113
330
34
100
AcDbDictionary
280
     1
281
     1
  3
ACAD_XREC_ROUNDTRIP
360
114
  0
DICTIONARY
  5
12D
330
41
100
AcDbDictionary
280
     1
281
     1
  3
ACAD_XREC_ROUNDTRIP
360
12E
  0
DICTIONARY
  5
11B
330
38
100
AcDbDictionary
280
     1
281
     1
  3
ACAD_XREC_ROUNDTRIP
360
11C
  0
DICTIONARY
  5
FF
330
2A
100
AcDbDictionary
280
     1
281
     1
  3
ACAD_XREC_ROUNDTRIP
360
100
  0
DICTIONARY
  5
101
330
2B
100
AcDbDictionary
280
     1
281
     1
  3
ACAD_XREC_ROUNDTRIP
360
102
  0
DICTIONARY
  5
103
330
2C
100
AcDbDictionary
280
     1
281
     1
  3
ACAD_XREC_ROUNDTRIP
360
104
  0
DICTIONARY
  5
105
330
2D
100
AcDbDictionary
280
     1
281
     1
  3
ACAD_XREC_ROUNDTRIP
360
106
  0
DICTIONARY
  5
10D
330
31
100
AcDbDictionary
280
     1
281
     1
  3
ACAD_XREC_ROUNDTRIP
360
10E
  0
DICTIONARY
  5
129
330
3F
100
AcDbDictionary
280
     1
281
     1
  3
ACAD_XREC_ROUNDTRIP
360
12A
  0
DICTIONARY
  5
119
330
37
100
AcDbDictionary
280
     1
281
     1
  3
ACAD_XREC_ROUNDTRIP
360
11A
  0
DICTIONARY
  5
12B
330
40
100
AcDbDictionary
280
     1
281
     1
  3
ACAD_XREC_ROUNDTRIP
360
12C
  0
DICTIONARY
  5
111
330
33
100
AcDbDictionary
280
     1
281
     1
  3
ACAD_XREC_ROUNDTRIP
360
112
  0
DICTIONARY
  5
127
330
3E
100
AcDbDictionary
280
     1
281
     1
  3
ACAD_XREC_ROUNDTRIP
360
128
  0
DICTIONARY
  5
125
330
3D
100
AcDbDictionary
280
     1
281
     1
  3
ACAD_XREC_ROUNDTRIP
360
126
  0
DICTIONARY
  5
11F
330
3A
100
AcDbDictionary
280
     1
281
     1
  3
ACAD_XREC_ROUNDTRIP
360
120
  0
DICTIONARY
  5
121
330
3B
100
AcDbDictionary
280
     1
281
     1
  3
ACAD_XREC_ROUNDTRIP
360
122
  0
DICTIONARY
  5
117
330
36
100
AcDbDictionary
280
     1
281
     1
  3
ACAD_XREC_ROUNDTRIP
360
118
  0
DICTIONARY
  5
10B
330
30
100
AcDbDictionary
280
     1
281
     1
  3
ACAD_XREC_ROUNDTRIP
360
10C
  0
DICTIONARY
  5
123
330
3C
100
AcDbDictionary
280
     1
281
     1
  3
ACAD_XREC_ROUNDTRIP
360
124
  0
XRECORD
  5
134
102
{ACAD_REACTORS
330
133
102
}
330
133
100
AcDbXrecord
280
     1
102
DISPLAYNAME
  1
Imperial24
102
FLAGS
 90
        0
  0
XRECORD
  5
1C
102
{ACAD_REACTORS
330
1A
102
}
330
1A
100
AcDbXrecord
280
     1
270
     1
271
     1
  0
XRECORD
  5
1B
102
{ACAD_REACTORS
330
1A
102
}
330
1A
100
AcDbXrecord
280
     1
270
     1
271
     1
  0
XRECORD
  5
1F
102
{ACAD_REACTORS
330
1A
102
}
330
1A
100
AcDbXrecord
280
     1
270
     1
271
     1
  0
XRECORD
  5
1E
102
{ACAD_REACTORS
330
1A
102
}
330
1A
100
AcDbXrecord
280
     1
270
     1
271
     1
  0
XRECORD
  5
20
102
{ACAD_REACTORS
330
1A
102
}
330
1A
100
AcDbXrecord
280
     1
270
     1
271
     1
  0
XRECORD
  5
1D
102
{ACAD_REACTORS
330
1A
102
}
330
1A
100
AcDbXrecord
280
     1
270
     1
271
     1
  0
XRECORD
  5
14
102
{ACAD_REACTORS
330
12
102
}
330
12
100
AcDbXrecord
280
     1
270
     1
271
     1
  0
XRECORD
  5
13
102
{ACAD_REACTORS
330
12
102
}
330
12
100
AcDbXrecord
280
     1
270
     1
271
     1
  0
XRECORD
  5
17
102
{ACAD_REACTORS
330
12
102
}
330
12
100
AcDbXrecord
280
     1
270
     1
271
     1
  0
XRECORD
  5
16
102
{ACAD_REACTORS
330
12
102
}
330
12
100
AcDbXrecord
280
     1
270
     1
271
     1
  0
XRECORD
  5
18
102
{ACAD_REACTORS
330
12
102
}
330
12
100
AcDbXrecord
280
     1
270
     1
271
     1
  0
XRECORD
  5
15
102
{ACAD_REACTORS
330
12
102
}
330
12
100
AcDbXrecord
280
     1
270
     1
271
     1
  0
XRECORD
  5
24
102
{ACAD_REACTORS
330
22
102
}
330
22
100
AcDbXrecord
280
     1
270
     1
271
     1
  0
XRECORD
  5
23
102
{ACAD_REACTORS
330
22
102
}
330
22
100
AcDbXrecord
280
     1
270
     1
271
     1
  0
XRECORD
  5
27
102
{ACAD_REACTORS
330
22
102
}
330
22
100
AcDbXrecord
280
     1
270
     1
271
     1
  0
XRECORD
  5
26
102
{ACAD_REACTORS
330
22
102
}
330
22
100
AcDbXrecord
280
     1
270
     1
271
     1
  0
XRECORD
  5
28
102
{ACAD_REACTORS
330
22
102
}
330
22
100
AcDbXrecord
280
     1
270
     1
271
     1
  0
XRECORD
  5
25
102
{ACAD_REACTORS
330
22
102
}
330
22
100
AcDbXrecord
280
     1
270
     1
271
     1
  0
XRECORD
  5
130
102
{ACAD_REACTORS
330
12F
102
}
330
12F
100
AcDbXrecord
280
     1
102
ACAD_ROUNDTRIP_2012_MLEADER_STYLE
298
     1
  0
XRECORD
  5
132
102
{ACAD_REACTORS
330
131
102
}
330
131
100
AcDbXrecord
280
     1
102
DISPLAYNAME
  1
Imperial24
102
FLAGS
 90
        0
  0
CELLSTYLEMAP
  5
FD
102
{ACAD_REACTORS
330
FC
102
}
330
FC
100
AcDbCellStyleMap
 90
        3
300
CELLSTYLE
  1
TABLEFORMAT_BEGIN
 90
        5
170
     1
 91
        0
 92
    32768
 62
   257
 93
        1
300
CONTENTFORMAT
  1
CONTENTFORMAT_BEGIN
 90
        0
 91
        0
 92
      512
 93
        0
300

 40
0.0
140
1.0
 94
        5
 62
     0
340
55
144
0.25
309
CONTENTFORMAT_END
171
     0
 94
        0
309
TABLEFORMAT_END
  1
CELLSTYLE_BEGIN
 90
        1
 91
        1
300
_TITLE
309
CELLSTYLE_END
300
CELLSTYLE
  1
TABLEFORMAT_BEGIN
 90
        5
170
     1
 91
        0
 92
        0
 62
   257
 93
        1
300
CONTENTFORMAT
  1
CONTENTFORMAT_BEGIN
 90
        0
 91
        0
 92
      512
 93
        0
300

 40
0.0
140
1.0
 94
        5
 62
     0
340
55
144
0.18
309
CONTENTFORMAT_END
171
     0
 94
        0
309
TABLEFORMAT_END
  1
CELLSTYLE_BEGIN
 90
        2
 91
        1
300
_HEADER
309
CELLSTYLE_END
300
CELLSTYLE
  1
TABLEFORMAT_BEGIN
 90
        5
170
     1
 91
        0
 92
        0
 62
   257
 93
        1
300
CONTENTFORMAT
  1
CONTENTFORMAT_BEGIN
 90
        0
 91
        0
 92
      512
 93
        0
300

 40
0.0
140
1.0
 94
        2
 62
     0
340
55
144
0.18
309
CONTENTFORMAT_END
171
     0
 94
        0
309
TABLEFORMAT_END
  1
CELLSTYLE_BEGIN
 90
        3
 91
        2
300
_DATA
309
CELLSTYLE_END
  0
XRECORD
  5
10A
102
{ACAD_REACTORS
330
109
102
}
330
109
100
AcDbXrecord
280
     1
102
RTVSPost2010Prop28
280
     1
102
RTVSPost2010PropOp28
 70
     1
102
RTVSPost2010Prop29
280
     1
102
RTVSPost2010PropOp29
 70
     1
102
RTVSPost2010Prop30
280
     0
102
RTVSPost2010PropOp30
 70
     1
102
RTVSPost2010Prop31
280
     0
102
RTVSPost2010PropOp31
 70
     1
102
RTVSPost2010Prop32
280
     0
102
RTVSPost2010PropOp32
 70
     1
102
RTVSPost2010Prop33
280
     0
102
RTVSPost2010PropOp33
 70
     1
102
RTVSPost2010Prop34
280
     0
102
RTVSPost2010PropOp34
 70
     1
102
RTVSPost2010Prop35
280
     0
102
RTVSPost2010PropOp35
 70
     1
102
RTVSPost2010Prop36
280
     0
102
RTVSPost2010PropOp36
 70
     1
102
RTVSPost2010Prop37
 90
       50
102
RTVSPost2010PropOp37
 70
     1
102
RTVSPost2010Prop38
140
0.0
102
RTVSPost2010PropOp38
 70
     1
102
RTVSPost2010Prop39
140
1.0
102
RTVSPost2010PropOp39
 70
     1
102
RTVSPost2010Prop40
 90
        0
102
RTVSPost2010PropOp40
 70
     1
102
RTVSPost2010Prop41ColorIndex
 90
       18
102
RTVSPost2010Prop41ColorRGB
 90
        0
102
RTVSPost2010PropOp41
 70
     1
102
RTVSPost2010Prop42
 90
       50
102
RTVSPost2010PropOp42
 70
     1
102
RTVSPost2010Prop43
 90
        3
102
RTVSPost2010PropOp43
 70
     1
102
RTVSPost2010Prop44ColorIndex
 90
        5
102
RTVSPost2010Prop44ColorRGB
 90
      255
102
RTVSPost2010PropOp44
 70
     1
102
RTVSPost2010Prop45
280
     0
102
RTVSPost2010PropOp45
 70
     1
102
RTVSPost2010Prop46
 90
       50
102
RTVSPost2010PropOp46
 70
     1
102
RTVSPost2010Prop47
 90
       50
102
RTVSPost2010PropOp47
 70
     1
102
RTVSPost2010Prop48
 90
       50
102
RTVSPost2010PropOp48
 70
     1
102
RTVSPost2010Prop49
280
     0
102
RTVSPost2010PropOp49
 70
     1
102
RTVSPost2010Prop50
 90
       50
102
RTVSPost2010PropOp50
 70
     1
102
RTVSPost2010Prop51ColorIndex
 90
      256
102
RTVSPost2010Prop51ColorRGB
 90
-16777216
102
RTVSPost2010PropOp51
 70
     0
102
RTVSPost2010Prop52
140
1.0
102
RTVSPost2010PropOp52
 70
     0
102
RTVSPost2010Prop53
 90
        2
102
RTVSPost2010PropOp53
 70
     1
102
RTVSPost2010Prop54
  1
strokes_ogs.tif
102
RTVSPost2010PropOp54
 70
     1
102
RTVSPost2010Prop55
280
     0
102
RTVSPost2010PropOp55
 70
     1
102
RTVSPost2010Prop56
140
1.0
102
RTVSPost2010PropOp56
 70
     1
102
RTVSPost2010Prop57
140
1.0
102
RTVSPost2010PropOp57
 70
     1
  0
XRECORD
  5
108
102
{ACAD_REACTORS
330
107
102
}
330
107
100
AcDbXrecord
280
     1
102
RTVSPost2010Prop28
280
     0
102
RTVSPost2010PropOp28
 70
     1
102
RTVSPost2010Prop29
280
     1
102
RTVSPost2010PropOp29
 70
     1
102
RTVSPost2010Prop30
280
     1
102
RTVSPost2010PropOp30
 70
     1
102
RTVSPost2010Prop31
280
     0
102
RTVSPost2010PropOp31
 70
     1
102
RTVSPost2010Prop32
280
     0
102
RTVSPost2010PropOp32
 70
     1
102
RTVSPost2010Prop33
280
     0
102
RTVSPost2010PropOp33
 70
     1
102
RTVSPost2010Prop34
280
     0
102
RTVSPost2010PropOp34
 70
     1
102
RTVSPost2010Prop35
280
     0
102
RTVSPost2010PropOp35
 70
     1
102
RTVSPost2010Prop36
280
     0
102
RTVSPost2010PropOp36
 70
     1
102
RTVSPost2010Prop37
 90
       50
102
RTVSPost2010PropOp37
 70
     1
102
RTVSPost2010Prop38
140
0.0
102
RTVSPost2010PropOp38
 70
     1
102
RTVSPost2010Prop39
140
1.0
102
RTVSPost2010PropOp39
 70
     1
102
RTVSPost2010Prop40
 90
        0
102
RTVSPost2010PropOp40
 70
     1
102
RTVSPost2010Prop41ColorIndex
 90
       18
102
RTVSPost2010Prop41ColorRGB
 90
        0
102
RTVSPost2010PropOp41
 70
     1
102
RTVSPost2010Prop42
 90
       50
102
RTVSPost2010PropOp42
 70
     1
102
RTVSPost2010Prop43
 90
        3
102
RTVSPost2010PropOp43
 70
     1
102
RTVSPost2010Prop44ColorIndex
 90
        5
102
RTVSPost2010Prop44ColorRGB
 90
      255
102
RTVSPost2010PropOp44
 70
     1
102
RTVSPost2010Prop45
280
     0
102
RTVSPost2010PropOp45
 70
     1
102
RTVSPost2010Prop46
 90
       50
102
RTVSPost2010PropOp46
 70
     1
102
RTVSPost2010Prop47
 90
       50
102
RTVSPost2010PropOp47
 70
     1
102
RTVSPost2010Prop48
 90
       50
102
RTVSPost2010PropOp48
 70
     1
102
RTVSPost2010Prop49
280
     0
102
RTVSPost2010PropOp49
 70
     1
102
RTVSPost2010Prop50
 90
       50
102
RTVSPost2010PropOp50
 70
     1
102
RTVSPost2010Prop51ColorIndex
 90
      256
102
RTVSPost2010Prop51ColorRGB
 90
-16777216
102
RTVSPost2010PropOp51
 70
     0
102
RTVSPost2010Prop52
140
1.0
102
RTVSPost2010PropOp52
 70
     0
102
RTVSPost2010Prop53
 90
        2
102
RTVSPost2010PropOp53
 70
     1
102
RTVSPost2010Prop54
  1
strokes_ogs.tif
102
RTVSPost2010PropOp54
 70
     1
102
RTVSPost2010Prop55
280
     0
102
RTVSPost2010PropOp55
 70
     1
102
RTVSPost2010Prop56
140
1.0
102
RTVSPost2010PropOp56
 70
     1
102
RTVSPost2010Prop57
140
1.0
102
RTVSPost2010PropOp57
 70
     1
  0
XRECORD
  5
116
102
{ACAD_REACTORS
330
115
102
}
330
115
100
AcDbXrecord
280
     1
102
RTVSPost2010Prop28
280
     0
102
RTVSPost2010PropOp28
 70
     1
102
RTVSPost2010Prop29
280
     1
102
RTVSPost2010PropOp29
 70
     1
102
RTVSPost2010Prop30
280
     1
102
RTVSPost2010PropOp30
 70
     1
102
RTVSPost2010Prop31
280
     0
102
RTVSPost2010PropOp31
 70
     1
102
RTVSPost2010Prop32
280
     0
102
RTVSPost2010PropOp32
 70
     1
102
RTVSPost2010Prop33
280
     0
102
RTVSPost2010PropOp33
 70
     1
102
RTVSPost2010Prop34
280
     0
102
RTVSPost2010PropOp34
 70
     1
102
RTVSPost2010Prop35
280
     0
102
RTVSPost2010PropOp35
 70
     1
102
RTVSPost2010Prop36
280
     0
102
RTVSPost2010PropOp36
 70
     1
102
RTVSPost2010Prop37
 90
       50
102
RTVSPost2010PropOp37
 70
     1
102
RTVSPost2010Prop38
140
0.0
102
RTVSPost2010PropOp38
 70
     1
102
RTVSPost2010Prop39
140
1.0
102
RTVSPost2010PropOp39
 70
     1
102
RTVSPost2010Prop40
 90
        0
102
RTVSPost2010PropOp40
 70
     1
102
RTVSPost2010Prop41ColorIndex
 90
       18
102
RTVSPost2010Prop41ColorRGB
 90
        0
102
RTVSPost2010PropOp41
 70
     1
102
RTVSPost2010Prop42
 90
       50
102
RTVSPost2010PropOp42
 70
     1
102
RTVSPost2010Prop43
 90
        3
102
RTVSPost2010PropOp43
 70
     1
102
RTVSPost2010Prop44ColorIndex
 90
        5
102
RTVSPost2010Prop44ColorRGB
 90
      255
102
RTVSPost2010PropOp44
 70
     1
102
RTVSPost2010Prop45
280
     0
102
RTVSPost2010PropOp45
 70
     1
102
RTVSPost2010Prop46
 90
       50
102
RTVSPost2010PropOp46
 70
     1
102
RTVSPost2010Prop47
 90
       50
102
RTVSPost2010PropOp47
 70
     1
102
RTVSPost2010Prop48
 90
       50
102
RTVSPost2010PropOp48
 70
     1
102
RTVSPost2010Prop49
280
     0
102
RTVSPost2010PropOp49
 70
     1
102
RTVSPost2010Prop50
 90
       50
102
RTVSPost2010PropOp50
 70
     1
102
RTVSPost2010Prop51ColorIndex
 90
      256
102
RTVSPost2010Prop51ColorRGB
 90
-16777216
102
RTVSPost2010PropOp51
 70
     0
102
RTVSPost2010Prop52
140
1.0
102
RTVSPost2010PropOp52
 70
     0
102
RTVSPost2010Prop53
 90
        2
102
RTVSPost2010PropOp53
 70
     1
102
RTVSPost2010Prop54
  1
strokes_ogs.tif
102
RTVSPost2010PropOp54
 70
     1
102
RTVSPost2010Prop55
280
     0
102
RTVSPost2010PropOp55
 70
     1
102
RTVSPost2010Prop56
140
1.0
102
RTVSPost2010PropOp56
 70
     1
102
RTVSPost2010Prop57
140
1.0
102
RTVSPost2010PropOp57
 70
     1
  0
XRECORD
  5
11E
102
{ACAD_REACTORS
330
11D
102
}
330
11D
100
AcDbXrecord
280
     1
102
RTVSPost2010Prop28
280
     0
102
RTVSPost2010PropOp28
 70
     1
102
RTVSPost2010Prop29
280
     1
102
RTVSPost2010PropOp29
 70
     1
102
RTVSPost2010Prop30
280
     1
102
RTVSPost2010PropOp30
 70
     1
102
RTVSPost2010Prop31
280
     0
102
RTVSPost2010PropOp31
 70
     1
102
RTVSPost2010Prop32
280
     0
102
RTVSPost2010PropOp32
 70
     1
102
RTVSPost2010Prop33
280
     0
102
RTVSPost2010PropOp33
 70
     1
102
RTVSPost2010Prop34
280
     0
102
RTVSPost2010PropOp34
 70
     1
102
RTVSPost2010Prop35
280
     0
102
RTVSPost2010PropOp35
 70
     1
102
RTVSPost2010Prop36
280
     0
102
RTVSPost2010PropOp36
 70
     1
102
RTVSPost2010Prop37
 90
       50
102
RTVSPost2010PropOp37
 70
     1
102
RTVSPost2010Prop38
140
0.0
102
RTVSPost2010PropOp38
 70
     1
102
RTVSPost2010Prop39
140
1.0
102
RTVSPost2010PropOp39
 70
     1
102
RTVSPost2010Prop40
 90
        0
102
RTVSPost2010PropOp40
 70
     1
102
RTVSPost2010Prop41ColorIndex
 90
       18
102
RTVSPost2010Prop41ColorRGB
 90
        0
102
RTVSPost2010PropOp41
 70
     1
102
RTVSPost2010Prop42
 90
       50
102
RTVSPost2010PropOp42
 70
     1
102
RTVSPost2010Prop43
 90
        3
102
RTVSPost2010PropOp43
 70
     1
102
RTVSPost2010Prop44ColorIndex
 90
        5
102
RTVSPost2010Prop44ColorRGB
 90
      255
102
RTVSPost2010PropOp44
 70
     1
102
RTVSPost2010Prop45
280
     0
102
RTVSPost2010PropOp45
 70
     1
102
RTVSPost2010Prop46
 90
       50
102
RTVSPost2010PropOp46
 70
     1
102
RTVSPost2010Prop47
 90
       50
102
RTVSPost2010PropOp47
 70
     1
102
RTVSPost2010Prop48
 90
       50
102
RTVSPost2010PropOp48
 70
     1
102
RTVSPost2010Prop49
280
     0
102
RTVSPost2010PropOp49
 70
     1
102
RTVSPost2010Prop50
 90
       50
102
RTVSPost2010PropOp50
 70
     1
102
RTVSPost2010Prop51ColorIndex
 90
      256
102
RTVSPost2010Prop51ColorRGB
 90
-16777216
102
RTVSPost2010PropOp51
 70
     0
102
RTVSPost2010Prop52
140
1.0
102
RTVSPost2010PropOp52
 70
     0
102
RTVSPost2010Prop53
 90
        2
102
RTVSPost2010PropOp53
 70
     1
102
RTVSPost2010Prop54
  1
strokes_ogs.tif
102
RTVSPost2010PropOp54
 70
     1
102
RTVSPost2010Prop55
280
     0
102
RTVSPost2010PropOp55
 70
     1
102
RTVSPost2010Prop56
140
1.0
102
RTVSPost2010PropOp56
 70
     1
102
RTVSPost2010Prop57
140
1.0
102
RTVSPost2010PropOp57
 70
     1
  0
XRECORD
  5
110
102
{ACAD_REACTORS
330
10F
102
}
330
10F
100
AcDbXrecord
280
     1
102
RTVSPost2010Prop28
280
     0
102
RTVSPost2010PropOp28
 70
     1
102
RTVSPost2010Prop29
280
     1
102
RTVSPost2010PropOp29
 70
     1
102
RTVSPost2010Prop30
280
     1
102
RTVSPost2010PropOp30
 70
     1
102
RTVSPost2010Prop31
280
     0
102
RTVSPost2010PropOp31
 70
     1
102
RTVSPost2010Prop32
280
     0
102
RTVSPost2010PropOp32
 70
     1
102
RTVSPost2010Prop33
280
     0
102
RTVSPost2010PropOp33
 70
     1
102
RTVSPost2010Prop34
280
     0
102
RTVSPost2010PropOp34
 70
     1
102
RTVSPost2010Prop35
280
     0
102
RTVSPost2010PropOp35
 70
     1
102
RTVSPost2010Prop36
280
     0
102
RTVSPost2010PropOp36
 70
     1
102
RTVSPost2010Prop37
 90
       50
102
RTVSPost2010PropOp37
 70
     1
102
RTVSPost2010Prop38
140
0.0
102
RTVSPost2010PropOp38
 70
     1
102
RTVSPost2010Prop39
140
1.0
102
RTVSPost2010PropOp39
 70
     1
102
RTVSPost2010Prop40
 90
        0
102
RTVSPost2010PropOp40
 70
     1
102
RTVSPost2010Prop41ColorIndex
 90
       18
102
RTVSPost2010Prop41ColorRGB
 90
        0
102
RTVSPost2010PropOp41
 70
     1
102
RTVSPost2010Prop42
 90
       50
102
RTVSPost2010PropOp42
 70
     1
102
RTVSPost2010Prop43
 90
        3
102
RTVSPost2010PropOp43
 70
     1
102
RTVSPost2010Prop44ColorIndex
 90
        5
102
RTVSPost2010Prop44ColorRGB
 90
      255
102
RTVSPost2010PropOp44
 70
     1
102
RTVSPost2010Prop45
280
     0
102
RTVSPost2010PropOp45
 70
     1
102
RTVSPost2010Prop46
 90
       50
102
RTVSPost2010PropOp46
 70
     1
102
RTVSPost2010Prop47
 90
       50
102
RTVSPost2010PropOp47
 70
     1
102
RTVSPost2010Prop48
 90
       50
102
RTVSPost2010PropOp48
 70
     1
102
RTVSPost2010Prop49
280
     0
102
RTVSPost2010PropOp49
 70
     1
102
RTVSPost2010Prop50
 90
       50
102
RTVSPost2010PropOp50
 70
     1
102
RTVSPost2010Prop51ColorIndex
 90
      256
102
RTVSPost2010Prop51ColorRGB
 90
-16777216
102
RTVSPost2010PropOp51
 70
     0
102
RTVSPost2010Prop52
140
1.0
102
RTVSPost2010PropOp52
 70
     0
102
RTVSPost2010Prop53
 90
        2
102
RTVSPost2010PropOp53
 70
     1
102
RTVSPost2010Prop54
  1
strokes_ogs.tif
102
RTVSPost2010PropOp54
 70
     1
102
RTVSPost2010Prop55
280
     0
102
RTVSPost2010PropOp55
 70
     1
102
RTVSPost2010Prop56
140
1.0
102
RTVSPost2010PropOp56
 70
     1
102
RTVSPost2010Prop57
140
1.0
102
RTVSPost2010PropOp57
 70
     1
  0
XRECORD
  5
114
102
{ACAD_REACTORS
330
113
102
}
330
113
100
AcDbXrecord
280
     1
102
RTVSPost2010Prop28
280
     0
102
RTVSPost2010PropOp28
 70
     1
102
RTVSPost2010Prop29
280
     1
102
RTVSPost2010PropOp29
 70
     1
102
RTVSPost2010Prop30
280
     1
102
RTVSPost2010PropOp30
 70
     1
102
RTVSPost2010Prop31
280
     0
102
RTVSPost2010PropOp31
 70
     1
102
RTVSPost2010Prop32
280
     0
102
RTVSPost2010PropOp32
 70
     1
102
RTVSPost2010Prop33
280
     0
102
RTVSPost2010PropOp33
 70
     1
102
RTVSPost2010Prop34
280
     0
102
RTVSPost2010PropOp34
 70
     1
102
RTVSPost2010Prop35
280
     0
102
RTVSPost2010PropOp35
 70
     1
102
RTVSPost2010Prop36
280
     0
102
RTVSPost2010PropOp36
 70
     1
102
RTVSPost2010Prop37
 90
       50
102
RTVSPost2010PropOp37
 70
     1
102
RTVSPost2010Prop38
140
0.0
102
RTVSPost2010PropOp38
 70
     1
102
RTVSPost2010Prop39
140
1.0
102
RTVSPost2010PropOp39
 70
     1
102
RTVSPost2010Prop40
 90
        0
102
RTVSPost2010PropOp40
 70
     1
102
RTVSPost2010Prop41ColorIndex
 90
       18
102
RTVSPost2010Prop41ColorRGB
 90
        0
102
RTVSPost2010PropOp41
 70
     1
102
RTVSPost2010Prop42
 90
       50
102
RTVSPost2010PropOp42
 70
     1
102
RTVSPost2010Prop43
 90
        3
102
RTVSPost2010PropOp43
 70
     1
102
RTVSPost2010Prop44ColorIndex
 90
        5
102
RTVSPost2010Prop44ColorRGB
 90
      255
102
RTVSPost2010PropOp44
 70
     1
102
RTVSPost2010Prop45
280
     0
102
RTVSPost2010PropOp45
 70
     1
102
RTVSPost2010Prop46
 90
       50
102
RTVSPost2010PropOp46
 70
     1
102
RTVSPost2010Prop47
 90
       50
102
RTVSPost2010PropOp47
 70
     1
102
RTVSPost2010Prop48
 90
       50
102
RTVSPost2010PropOp48
 70
     1
102
RTVSPost2010Prop49
280
     0
102
RTVSPost2010PropOp49
 70
     1
102
RTVSPost2010Prop50
 90
       50
102
RTVSPost2010PropOp50
 70
     1
102
RTVSPost2010Prop51ColorIndex
 90
      256
102
RTVSPost2010Prop51ColorRGB
 90
-16777216
102
RTVSPost2010PropOp51
 70
     0
102
RTVSPost2010Prop52
140
1.0
102
RTVSPost2010PropOp52
 70
     0
102
RTVSPost2010Prop53
 90
        2
102
RTVSPost2010PropOp53
 70
     1
102
RTVSPost2010Prop54
  1
strokes_ogs.tif
102
RTVSPost2010PropOp54
 70
     1
102
RTVSPost2010Prop55
280
     0
102
RTVSPost2010PropOp55
 70
     1
102
RTVSPost2010Prop56
140
1.0
102
RTVSPost2010PropOp56
 70
     1
102
RTVSPost2010Prop57
140
1.0
102
RTVSPost2010PropOp57
 70
     1
  0
XRECORD
  5
12E
102
{ACAD_REACTORS
330
12D
102
}
330
12D
100
AcDbXrecord
280
     1
102
RTVSPost2010Prop28
280
     0
102
RTVSPost2010PropOp28
 70
     0
102
RTVSPost2010Prop29
280
     1
102
RTVSPost2010PropOp29
 70
     0
102
RTVSPost2010Prop30
280
     1
102
RTVSPost2010PropOp30
 70
     0
102
RTVSPost2010Prop31
280
     0
102
RTVSPost2010PropOp31
 70
     0
102
RTVSPost2010Prop32
280
     0
102
RTVSPost2010PropOp32
 70
     0
102
RTVSPost2010Prop33
280
     0
102
RTVSPost2010PropOp33
 70
     0
102
RTVSPost2010Prop34
280
     0
102
RTVSPost2010PropOp34
 70
     0
102
RTVSPost2010Prop35
280
     0
102
RTVSPost2010PropOp35
 70
     0
102
RTVSPost2010Prop36
280
     0
102
RTVSPost2010PropOp36
 70
     0
102
RTVSPost2010Prop37
 90
       50
102
RTVSPost2010PropOp37
 70
     0
102
RTVSPost2010Prop38
140
0.0
102
RTVSPost2010PropOp38
 70
     0
102
RTVSPost2010Prop39
140
1.0
102
RTVSPost2010PropOp39
 70
     0
102
RTVSPost2010Prop40
 90
        0
102
RTVSPost2010PropOp40
 70
     0
102
RTVSPost2010Prop41ColorIndex
 90
       18
102
RTVSPost2010Prop41ColorRGB
 90
        0
102
RTVSPost2010PropOp41
 70
     0
102
RTVSPost2010Prop42
 90
       50
102
RTVSPost2010PropOp42
 70
     0
102
RTVSPost2010Prop43
 90
        3
102
RTVSPost2010PropOp43
 70
     0
102
RTVSPost2010Prop44ColorIndex
 90
        5
102
RTVSPost2010Prop44ColorRGB
 90
      255
102
RTVSPost2010PropOp44
 70
     0
102
RTVSPost2010Prop45
280
     0
102
RTVSPost2010PropOp45
 70
     0
102
RTVSPost2010Prop46
 90
       50
102
RTVSPost2010PropOp46
 70
     0
102
RTVSPost2010Prop47
 90
       50
102
RTVSPost2010PropOp47
 70
     0
102
RTVSPost2010Prop48
 90
       50
102
RTVSPost2010PropOp48
 70
     0
102
RTVSPost2010Prop49
280
     0
102
RTVSPost2010PropOp49
 70
     0
102
RTVSPost2010Prop50
 90
       50
102
RTVSPost2010PropOp50
 70
     0
102
RTVSPost2010Prop51ColorIndex
 90
      256
102
RTVSPost2010Prop51ColorRGB
 90
-16777216
102
RTVSPost2010PropOp51
 70
     0
102
RTVSPost2010Prop52
140
1.0
102
RTVSPost2010PropOp52
 70
     0
102
RTVSPost2010Prop53
 90
        2
102
RTVSPost2010PropOp53
 70
     0
102
RTVSPost2010Prop54
  1
strokes_ogs.tif
102
RTVSPost2010PropOp54
 70
     0
102
RTVSPost2010Prop55
280
     0
102
RTVSPost2010PropOp55
 70
     0
102
RTVSPost2010Prop56
140
1.0
102
RTVSPost2010PropOp56
 70
     0
102
RTVSPost2010Prop57
140
1.0
102
RTVSPost2010PropOp57
 70
     0
  0
XRECORD
  5
11C
102
{ACAD_REACTORS
330
11B
102
}
330
11B
100
AcDbXrecord
280
     1
102
RTVSPost2010Prop28
280
     0
102
RTVSPost2010PropOp28
 70
     1
102
RTVSPost2010Prop29
280
     1
102
RTVSPost2010PropOp29
 70
     1
102
RTVSPost2010Prop30
280
     1
102
RTVSPost2010PropOp30
 70
     1
102
RTVSPost2010Prop31
280
     0
102
RTVSPost2010PropOp31
 70
     1
102
RTVSPost2010Prop32
280
     0
102
RTVSPost2010PropOp32
 70
     1
102
RTVSPost2010Prop33
280
     0
102
RTVSPost2010PropOp33
 70
     1
102
RTVSPost2010Prop34
280
     0
102
RTVSPost2010PropOp34
 70
     1
102
RTVSPost2010Prop35
280
     0
102
RTVSPost2010PropOp35
 70
     1
102
RTVSPost2010Prop36
280
     0
102
RTVSPost2010PropOp36
 70
     1
102
RTVSPost2010Prop37
 90
       50
102
RTVSPost2010PropOp37
 70
     1
102
RTVSPost2010Prop38
140
0.0
102
RTVSPost2010PropOp38
 70
     1
102
RTVSPost2010Prop39
140
1.0
102
RTVSPost2010PropOp39
 70
     1
102
RTVSPost2010Prop40
 90
        0
102
RTVSPost2010PropOp40
 70
     1
102
RTVSPost2010Prop41ColorIndex
 90
       18
102
RTVSPost2010Prop41ColorRGB
 90
        0
102
RTVSPost2010PropOp41
 70
     1
102
RTVSPost2010Prop42
 90
       50
102
RTVSPost2010PropOp42
 70
     1
102
RTVSPost2010Prop43
 90
        3
102
RTVSPost2010PropOp43
 70
     1
102
RTVSPost2010Prop44ColorIndex
 90
        5
102
RTVSPost2010Prop44ColorRGB
 90
      255
102
RTVSPost2010PropOp44
 70
     1
102
RTVSPost2010Prop45
280
     0
102
RTVSPost2010PropOp45
 70
     1
102
RTVSPost2010Prop46
 90
       50
102
RTVSPost2010PropOp46
 70
     1
102
RTVSPost2010Prop47
 90
       50
102
RTVSPost2010PropOp47
 70
     1
102
RTVSPost2010Prop48
 90
       50
102
RTVSPost2010PropOp48
 70
     1
102
RTVSPost2010Prop49
280
     0
102
RTVSPost2010PropOp49
 70
     1
102
RTVSPost2010Prop50
 90
       50
102
RTVSPost2010PropOp50
 70
     1
102
RTVSPost2010Prop51ColorIndex
 90
      256
102
RTVSPost2010Prop51ColorRGB
 90
-16777216
102
RTVSPost2010PropOp51
 70
     0
102
RTVSPost2010Prop52
140
1.0
102
RTVSPost2010PropOp52
 70
     0
102
RTVSPost2010Prop53
 90
        2
102
RTVSPost2010PropOp53
 70
     1
102
RTVSPost2010Prop54
  1
strokes_ogs.tif
102
RTVSPost2010PropOp54
 70
     1
102
RTVSPost2010Prop55
280
     0
102
RTVSPost2010PropOp55
 70
     1
102
RTVSPost2010Prop56
140
1.0
102
RTVSPost2010PropOp56
 70
     1
102
RTVSPost2010Prop57
140
1.0
102
RTVSPost2010PropOp57
 70
     1
  0
XRECORD
  5
100
102
{ACAD_REACTORS
330
FF
102
}
330
FF
100
AcDbXrecord
280
     1
102
RTVSPost2010Prop28
280
     0
102
RTVSPost2010PropOp28
 70
     1
102
RTVSPost2010Prop29
280
     1
102
RTVSPost2010PropOp29
 70
     1
102
RTVSPost2010Prop30
280
     1
102
RTVSPost2010PropOp30
 70
     1
102
RTVSPost2010Prop31
280
     0
102
RTVSPost2010PropOp31
 70
     1
102
RTVSPost2010Prop32
280
     0
102
RTVSPost2010PropOp32
 70
     1
102
RTVSPost2010Prop33
280
     0
102
RTVSPost2010PropOp33
 70
     1
102
RTVSPost2010Prop34
280
     0
102
RTVSPost2010PropOp34
 70
     1
102
RTVSPost2010Prop35
280
     0
102
RTVSPost2010PropOp35
 70
     1
102
RTVSPost2010Prop36
280
     0
102
RTVSPost2010PropOp36
 70
     1
102
RTVSPost2010Prop37
 90
       50
102
RTVSPost2010PropOp37
 70
     1
102
RTVSPost2010Prop38
140
0.0
102
RTVSPost2010PropOp38
 70
     1
102
RTVSPost2010Prop39
140
1.0
102
RTVSPost2010PropOp39
 70
     1
102
RTVSPost2010Prop40
 90
        0
102
RTVSPost2010PropOp40
 70
     1
102
RTVSPost2010Prop41ColorIndex
 90
       18
102
RTVSPost2010Prop41ColorRGB
 90
        0
102
RTVSPost2010PropOp41
 70
     1
102
RTVSPost2010Prop42
 90
       50
102
RTVSPost2010PropOp42
 70
     1
102
RTVSPost2010Prop43
 90
        3
102
RTVSPost2010PropOp43
 70
     1
102
RTVSPost2010Prop44ColorIndex
 90
        5
102
RTVSPost2010Prop44ColorRGB
 90
      255
102
RTVSPost2010PropOp44
 70
     1
102
RTVSPost2010Prop45
280
     0
102
RTVSPost2010PropOp45
 70
     1
102
RTVSPost2010Prop46
 90
       50
102
RTVSPost2010PropOp46
 70
     1
102
RTVSPost2010Prop47
 90
       50
102
RTVSPost2010PropOp47
 70
     1
102
RTVSPost2010Prop48
 90
       50
102
RTVSPost2010PropOp48
 70
     1
102
RTVSPost2010Prop49
280
     0
102
RTVSPost2010PropOp49
 70
     1
102
RTVSPost2010Prop50
 90
       50
102
RTVSPost2010PropOp50
 70
     1
102
RTVSPost2010Prop51ColorIndex
 90
      256
102
RTVSPost2010Prop51ColorRGB
 90
-16777216
102
RTVSPost2010PropOp51
 70
     0
102
RTVSPost2010Prop52
140
1.0
102
RTVSPost2010PropOp52
 70
     0
102
RTVSPost2010Prop53
 90
        2
102
RTVSPost2010PropOp53
 70
     1
102
RTVSPost2010Prop54
  1
strokes_ogs.tif
102
RTVSPost2010PropOp54
 70
     1
102
RTVSPost2010Prop55
280
     0
102
RTVSPost2010PropOp55
 70
     1
102
RTVSPost2010Prop56
140
1.0
102
RTVSPost2010PropOp56
 70
     1
102
RTVSPost2010Prop57
140
1.0
102
RTVSPost2010PropOp57
 70
     1
  0
XRECORD
  5
102
102
{ACAD_REACTORS
330
101
102
}
330
101
100
AcDbXrecord
280
     1
102
RTVSPost2010Prop28
280
     0
102
RTVSPost2010PropOp28
 70
     1
102
RTVSPost2010Prop29
280
     1
102
RTVSPost2010PropOp29
 70
     1
102
RTVSPost2010Prop30
280
     1
102
RTVSPost2010PropOp30
 70
     1
102
RTVSPost2010Prop31
280
     0
102
RTVSPost2010PropOp31
 70
     1
102
RTVSPost2010Prop32
280
     0
102
RTVSPost2010PropOp32
 70
     1
102
RTVSPost2010Prop33
280
     0
102
RTVSPost2010PropOp33
 70
     1
102
RTVSPost2010Prop34
280
     0
102
RTVSPost2010PropOp34
 70
     1
102
RTVSPost2010Prop35
280
     0
102
RTVSPost2010PropOp35
 70
     1
102
RTVSPost2010Prop36
280
     0
102
RTVSPost2010PropOp36
 70
     1
102
RTVSPost2010Prop37
 90
       50
102
RTVSPost2010PropOp37
 70
     1
102
RTVSPost2010Prop38
140
0.0
102
RTVSPost2010PropOp38
 70
     1
102
RTVSPost2010Prop39
140
1.0
102
RTVSPost2010PropOp39
 70
     1
102
RTVSPost2010Prop40
 90
        0
102
RTVSPost2010PropOp40
 70
     1
102
RTVSPost2010Prop41ColorIndex
 90
       18
102
RTVSPost2010Prop41ColorRGB
 90
        0
102
RTVSPost2010PropOp41
 70
     1
102
RTVSPost2010Prop42
 90
       50
102
RTVSPost2010PropOp42
 70
     1
102
RTVSPost2010Prop43
 90
        3
102
RTVSPost2010PropOp43
 70
     1
102
RTVSPost2010Prop44ColorIndex
 90
        5
102
RTVSPost2010Prop44ColorRGB
 90
      255
102
RTVSPost2010PropOp44
 70
     1
102
RTVSPost2010Prop45
280
     0
102
RTVSPost2010PropOp45
 70
     1
102
RTVSPost2010Prop46
 90
       50
102
RTVSPost2010PropOp46
 70
     1
102
RTVSPost2010Prop47
 90
       50
102
RTVSPost2010PropOp47
 70
     1
102
RTVSPost2010Prop48
 90
       50
102
RTVSPost2010PropOp48
 70
     1
102
RTVSPost2010Prop49
280
     0
102
RTVSPost2010PropOp49
 70
     1
102
RTVSPost2010Prop50
 90
       50
102
RTVSPost2010PropOp50
 70
     1
102
RTVSPost2010Prop51ColorIndex
 90
      256
102
RTVSPost2010Prop51ColorRGB
 90
-16777216
102
RTVSPost2010PropOp51
 70
     0
102
RTVSPost2010Prop52
140
1.0
102
RTVSPost2010PropOp52
 70
     0
102
RTVSPost2010Prop53
 90
        2
102
RTVSPost2010PropOp53
 70
     1
102
RTVSPost2010Prop54
  1
strokes_ogs.tif
102
RTVSPost2010PropOp54
 70
     1
102
RTVSPost2010Prop55
280
     0
102
RTVSPost2010PropOp55
 70
     1
102
RTVSPost2010Prop56
140
1.0
102
RTVSPost2010PropOp56
 70
     1
102
RTVSPost2010Prop57
140
1.0
102
RTVSPost2010PropOp57
 70
     1
  0
XRECORD
  5
104
102
{ACAD_REACTORS
330
103
102
}
330
103
100
AcDbXrecord
280
     1
102
RTVSPost2010Prop28
280
     0
102
RTVSPost2010PropOp28
 70
     1
102
RTVSPost2010Prop29
280
     1
102
RTVSPost2010PropOp29
 70
     1
102
RTVSPost2010Prop30
280
     1
102
RTVSPost2010PropOp30
 70
     1
102
RTVSPost2010Prop31
280
     0
102
RTVSPost2010PropOp31
 70
     1
102
RTVSPost2010Prop32
280
     0
102
RTVSPost2010PropOp32
 70
     1
102
RTVSPost2010Prop33
280
     0
102
RTVSPost2010PropOp33
 70
     1
102
RTVSPost2010Prop34
280
     0
102
RTVSPost2010PropOp34
 70
     1
102
RTVSPost2010Prop35
280
     0
102
RTVSPost2010PropOp35
 70
     1
102
RTVSPost2010Prop36
280
     0
102
RTVSPost2010PropOp36
 70
     1
102
RTVSPost2010Prop37
 90
       50
102
RTVSPost2010PropOp37
 70
     1
102
RTVSPost2010Prop38
140
0.0
102
RTVSPost2010PropOp38
 70
     1
102
RTVSPost2010Prop39
140
1.0
102
RTVSPost2010PropOp39
 70
     1
102
RTVSPost2010Prop40
 90
        0
102
RTVSPost2010PropOp40
 70
     1
102
RTVSPost2010Prop41ColorIndex
 90
       18
102
RTVSPost2010Prop41ColorRGB
 90
        0
102
RTVSPost2010PropOp41
 70
     1
102
RTVSPost2010Prop42
 90
       50
102
RTVSPost2010PropOp42
 70
     1
102
RTVSPost2010Prop43
 90
        3
102
RTVSPost2010PropOp43
 70
     1
102
RTVSPost2010Prop44ColorIndex
 90
        5
102
RTVSPost2010Prop44ColorRGB
 90
      255
102
RTVSPost2010PropOp44
 70
     1
102
RTVSPost2010Prop45
280
     0
102
RTVSPost2010PropOp45
 70
     1
102
RTVSPost2010Prop46
 90
       50
102
RTVSPost2010PropOp46
 70
     1
102
RTVSPost2010Prop47
 90
       50
102
RTVSPost2010PropOp47
 70
     1
102
RTVSPost2010Prop48
 90
       50
102
RTVSPost2010PropOp48
 70
     1
102
RTVSPost2010Prop49
280
     0
102
RTVSPost2010PropOp49
 70
     1
102
RTVSPost2010Prop50
 90
       50
102
RTVSPost2010PropOp50
 70
     1
102
RTVSPost2010Prop51ColorIndex
 90
      256
102
RTVSPost2010Prop51ColorRGB
 90
-16777216
102
RTVSPost2010PropOp51
 70
     0
102
RTVSPost2010Prop52
140
1.0
102
RTVSPost2010PropOp52
 70
     0
102
RTVSPost2010Prop53
 90
        2
102
RTVSPost2010PropOp53
 70
     1
102
RTVSPost2010Prop54
  1
strokes_ogs.tif
102
RTVSPost2010PropOp54
 70
     1
102
RTVSPost2010Prop55
280
     0
102
RTVSPost2010PropOp55
 70
     1
102
RTVSPost2010Prop56
140
1.0
102
RTVSPost2010PropOp56
 70
     1
102
RTVSPost2010Prop57
140
1.0
102
RTVSPost2010PropOp57
 70
     1
  0
XRECORD
  5
106
102
{ACAD_REACTORS
330
105
102
}
330
105
100
AcDbXrecord
280
     1
102
RTVSPost2010Prop28
280
     0
102
RTVSPost2010PropOp28
 70
     1
102
RTVSPost2010Prop29
280
     1
102
RTVSPost2010PropOp29
 70
     1
102
RTVSPost2010Prop30
280
     1
102
RTVSPost2010PropOp30
 70
     1
102
RTVSPost2010Prop31
280
     0
102
RTVSPost2010PropOp31
 70
     1
102
RTVSPost2010Prop32
280
     0
102
RTVSPost2010PropOp32
 70
     1
102
RTVSPost2010Prop33
280
     0
102
RTVSPost2010PropOp33
 70
     1
102
RTVSPost2010Prop34
280
     0
102
RTVSPost2010PropOp34
 70
     1
102
RTVSPost2010Prop35
280
     0
102
RTVSPost2010PropOp35
 70
     1
102
RTVSPost2010Prop36
280
     0
102
RTVSPost2010PropOp36
 70
     1
102
RTVSPost2010Prop37
 90
       50
102
RTVSPost2010PropOp37
 70
     1
102
RTVSPost2010Prop38
140
0.0
102
RTVSPost2010PropOp38
 70
     1
102
RTVSPost2010Prop39
140
1.0
102
RTVSPost2010PropOp39
 70
     1
102
RTVSPost2010Prop40
 90
        0
102
RTVSPost2010PropOp40
 70
     1
102
RTVSPost2010Prop41ColorIndex
 90
       18
102
RTVSPost2010Prop41ColorRGB
 90
        0
102
RTVSPost2010PropOp41
 70
     1
102
RTVSPost2010Prop42
 90
       50
102
RTVSPost2010PropOp42
 70
     1
102
RTVSPost2010Prop43
 90
        3
102
RTVSPost2010PropOp43
 70
     1
102
RTVSPost2010Prop44ColorIndex
 90
        5
102
RTVSPost2010Prop44ColorRGB
 90
      255
102
RTVSPost2010PropOp44
 70
     1
102
RTVSPost2010Prop45
280
     0
102
RTVSPost2010PropOp45
 70
     1
102
RTVSPost2010Prop46
 90
       50
102
RTVSPost2010PropOp46
 70
     1
102
RTVSPost2010Prop47
 90
       50
102
RTVSPost2010PropOp47
 70
     1
102
RTVSPost2010Prop48
 90
       50
102
RTVSPost2010PropOp48
 70
     1
102
RTVSPost2010Prop49
280
     0
102
RTVSPost2010PropOp49
 70
     1
102
RTVSPost2010Prop50
 90
       50
102
RTVSPost2010PropOp50
 70
     1
102
RTVSPost2010Prop51ColorIndex
 90
      256
102
RTVSPost2010Prop51ColorRGB
 90
-16777216
102
RTVSPost2010PropOp51
 70
     0
102
RTVSPost2010Prop52
140
1.0
102
RTVSPost2010PropOp52
 70
     0
102
RTVSPost2010Prop53
 90
        2
102
RTVSPost2010PropOp53
 70
     1
102
RTVSPost2010Prop54
  1
strokes_ogs.tif
102
RTVSPost2010PropOp54
 70
     1
102
RTVSPost2010Prop55
280
     0
102
RTVSPost2010PropOp55
 70
     1
102
RTVSPost2010Prop56
140
1.0
102
RTVSPost2010PropOp56
 70
     1
102
RTVSPost2010Prop57
140
1.0
102
RTVSPost2010PropOp57
 70
     1
  0
XRECORD
  5
10E
102
{ACAD_REACTORS
330
10D
102
}
330
10D
100
AcDbXrecord
280
     1
102
RTVSPost2010Prop28
280
     0
102
RTVSPost2010PropOp28
 70
     1
102
RTVSPost2010Prop29
280
     1
102
RTVSPost2010PropOp29
 70
     1
102
RTVSPost2010Prop30
280
     1
102
RTVSPost2010PropOp30
 70
     1
102
RTVSPost2010Prop31
280
     0
102
RTVSPost2010PropOp31
 70
     1
102
RTVSPost2010Prop32
280
     0
102
RTVSPost2010PropOp32
 70
     1
102
RTVSPost2010Prop33
280
     0
102
RTVSPost2010PropOp33
 70
     1
102
RTVSPost2010Prop34
280
     0
102
RTVSPost2010PropOp34
 70
     1
102
RTVSPost2010Prop35
280
     0
102
RTVSPost2010PropOp35
 70
     1
102
RTVSPost2010Prop36
280
     0
102
RTVSPost2010PropOp36
 70
     1
102
RTVSPost2010Prop37
 90
       50
102
RTVSPost2010PropOp37
 70
     1
102
RTVSPost2010Prop38
140
0.0
102
RTVSPost2010PropOp38
 70
     1
102
RTVSPost2010Prop39
140
1.0
102
RTVSPost2010PropOp39
 70
     1
102
RTVSPost2010Prop40
 90
        0
102
RTVSPost2010PropOp40
 70
     1
102
RTVSPost2010Prop41ColorIndex
 90
       18
102
RTVSPost2010Prop41ColorRGB
 90
        0
102
RTVSPost2010PropOp41
 70
     1
102
RTVSPost2010Prop42
 90
       50
102
RTVSPost2010PropOp42
 70
     1
102
RTVSPost2010Prop43
 90
        3
102
RTVSPost2010PropOp43
 70
     1
102
RTVSPost2010Prop44ColorIndex
 90
        5
102
RTVSPost2010Prop44ColorRGB
 90
      255
102
RTVSPost2010PropOp44
 70
     1
102
RTVSPost2010Prop45
280
     0
102
RTVSPost2010PropOp45
 70
     1
102
RTVSPost2010Prop46
 90
       50
102
RTVSPost2010PropOp46
 70
     1
102
RTVSPost2010Prop47
 90
       50
102
RTVSPost2010PropOp47
 70
     1
102
RTVSPost2010Prop48
 90
       50
102
RTVSPost2010PropOp48
 70
     1
102
RTVSPost2010Prop49
280
     0
102
RTVSPost2010PropOp49
 70
     1
102
RTVSPost2010Prop50
 90
       50
102
RTVSPost2010PropOp50
 70
     1
102
RTVSPost2010Prop51ColorIndex
 90
      256
102
RTVSPost2010Prop51ColorRGB
 90
-16777216
102
RTVSPost2010PropOp51
 70
     0
102
RTVSPost2010Prop52
140
1.0
102
RTVSPost2010PropOp52
 70
     0
102
RTVSPost2010Prop53
 90
        2
102
RTVSPost2010PropOp53
 70
     1
102
RTVSPost2010Prop54
  1
strokes_ogs.tif
102
RTVSPost2010PropOp54
 70
     1
102
RTVSPost2010Prop55
280
     0
102
RTVSPost2010PropOp55
 70
     1
102
RTVSPost2010Prop56
140
1.0
102
RTVSPost2010PropOp56
 70
     1
102
RTVSPost2010Prop57
140
1.0
102
RTVSPost2010PropOp57
 70
     1
  0
XRECORD
  5
12A
102
{ACAD_REACTORS
330
129
102
}
330
129
100
AcDbXrecord
280
     1
102
RTVSPost2010Prop28
280
     0
102
RTVSPost2010PropOp28
 70
     0
102
RTVSPost2010Prop29
280
     1
102
RTVSPost2010PropOp29
 70
     0
102
RTVSPost2010Prop30
280
     1
102
RTVSPost2010PropOp30
 70
     0
102
RTVSPost2010Prop31
280
     0
102
RTVSPost2010PropOp31
 70
     0
102
RTVSPost2010Prop32
280
     0
102
RTVSPost2010PropOp32
 70
     0
102
RTVSPost2010Prop33
280
     0
102
RTVSPost2010PropOp33
 70
     0
102
RTVSPost2010Prop34
280
     0
102
RTVSPost2010PropOp34
 70
     0
102
RTVSPost2010Prop35
280
     0
102
RTVSPost2010PropOp35
 70
     0
102
RTVSPost2010Prop36
280
     0
102
RTVSPost2010PropOp36
 70
     0
102
RTVSPost2010Prop37
 90
       50
102
RTVSPost2010PropOp37
 70
     0
102
RTVSPost2010Prop38
140
0.0
102
RTVSPost2010PropOp38
 70
     0
102
RTVSPost2010Prop39
140
1.0
102
RTVSPost2010PropOp39
 70
     0
102
RTVSPost2010Prop40
 90
        0
102
RTVSPost2010PropOp40
 70
     0
102
RTVSPost2010Prop41ColorIndex
 90
       18
102
RTVSPost2010Prop41ColorRGB
 90
        0
102
RTVSPost2010PropOp41
 70
     0
102
RTVSPost2010Prop42
 90
       50
102
RTVSPost2010PropOp42
 70
     0
102
RTVSPost2010Prop43
 90
        3
102
RTVSPost2010PropOp43
 70
     0
102
RTVSPost2010Prop44ColorIndex
 90
        5
102
RTVSPost2010Prop44ColorRGB
 90
      255
102
RTVSPost2010PropOp44
 70
     0
102
RTVSPost2010Prop45
280
     0
102
RTVSPost2010PropOp45
 70
     0
102
RTVSPost2010Prop46
 90
       50
102
RTVSPost2010PropOp46
 70
     0
102
RTVSPost2010Prop47
 90
       50
102
RTVSPost2010PropOp47
 70
     0
102
RTVSPost2010Prop48
 90
       50
102
RTVSPost2010PropOp48
 70
     0
102
RTVSPost2010Prop49
280
     0
102
RTVSPost2010PropOp49
 70
     0
102
RTVSPost2010Prop50
 90
       50
102
RTVSPost2010PropOp50
 70
     0
102
RTVSPost2010Prop51ColorIndex
 90
      256
102
RTVSPost2010Prop51ColorRGB
 90
-16777216
102
RTVSPost2010PropOp51
 70
     0
102
RTVSPost2010Prop52
140
1.0
102
RTVSPost2010PropOp52
 70
     0
102
RTVSPost2010Prop53
 90
        2
102
RTVSPost2010PropOp53
 70
     0
102
RTVSPost2010Prop54
  1
strokes_ogs.tif
102
RTVSPost2010PropOp54
 70
     0
102
RTVSPost2010Prop55
280
     0
102
RTVSPost2010PropOp55
 70
     0
102
RTVSPost2010Prop56
140
1.0
102
RTVSPost2010PropOp56
 70
     0
102
RTVSPost2010Prop57
140
1.0
102
RTVSPost2010PropOp57
 70
     0
  0
XRECORD
  5
11A
102
{ACAD_REACTORS
330
119
102
}
330
119
100
AcDbXrecord
280
     1
102
RTVSPost2010Prop28
280
     0
102
RTVSPost2010PropOp28
 70
     1
102
RTVSPost2010Prop29
280
     1
102
RTVSPost2010PropOp29
 70
     1
102
RTVSPost2010Prop30
280
     1
102
RTVSPost2010PropOp30
 70
     1
102
RTVSPost2010Prop31
280
     0
102
RTVSPost2010PropOp31
 70
     1
102
RTVSPost2010Prop32
280
     0
102
RTVSPost2010PropOp32
 70
     1
102
RTVSPost2010Prop33
280
     0
102
RTVSPost2010PropOp33
 70
     1
102
RTVSPost2010Prop34
280
     0
102
RTVSPost2010PropOp34
 70
     1
102
RTVSPost2010Prop35
280
     0
102
RTVSPost2010PropOp35
 70
     1
102
RTVSPost2010Prop36
280
     0
102
RTVSPost2010PropOp36
 70
     1
102
RTVSPost2010Prop37
 90
       50
102
RTVSPost2010PropOp37
 70
     1
102
RTVSPost2010Prop38
140
0.0
102
RTVSPost2010PropOp38
 70
     1
102
RTVSPost2010Prop39
140
1.0
102
RTVSPost2010PropOp39
 70
     1
102
RTVSPost2010Prop40
 90
        0
102
RTVSPost2010PropOp40
 70
     1
102
RTVSPost2010Prop41ColorIndex
 90
       18
102
RTVSPost2010Prop41ColorRGB
 90
        0
102
RTVSPost2010PropOp41
 70
     1
102
RTVSPost2010Prop42
 90
       50
102
RTVSPost2010PropOp42
 70
     1
102
RTVSPost2010Prop43
 90
        3
102
RTVSPost2010PropOp43
 70
     1
102
RTVSPost2010Prop44ColorIndex
 90
        5
102
RTVSPost2010Prop44ColorRGB
 90
      255
102
RTVSPost2010PropOp44
 70
     1
102
RTVSPost2010Prop45
280
     0
102
RTVSPost2010PropOp45
 70
     1
102
RTVSPost2010Prop46
 90
       50
102
RTVSPost2010PropOp46
 70
     1
102
RTVSPost2010Prop47
 90
       50
102
RTVSPost2010PropOp47
 70
     1
102
RTVSPost2010Prop48
 90
       50
102
RTVSPost2010PropOp48
 70
     1
102
RTVSPost2010Prop49
280
     0
102
RTVSPost2010PropOp49
 70
     1
102
RTVSPost2010Prop50
 90
       50
102
RTVSPost2010PropOp50
 70
     1
102
RTVSPost2010Prop51ColorIndex
 90
      256
102
RTVSPost2010Prop51ColorRGB
 90
-16777216
102
RTVSPost2010PropOp51
 70
     0
102
RTVSPost2010Prop52
140
1.0
102
RTVSPost2010PropOp52
 70
     0
102
RTVSPost2010Prop53
 90
        2
102
RTVSPost2010PropOp53
 70
     1
102
RTVSPost2010Prop54
  1
strokes_ogs.tif
102
RTVSPost2010PropOp54
 70
     1
102
RTVSPost2010Prop55
280
     0
102
RTVSPost2010PropOp55
 70
     1
102
RTVSPost2010Prop56
140
1.0
102
RTVSPost2010PropOp56
 70
     1
102
RTVSPost2010Prop57
140
1.0
102
RTVSPost2010PropOp57
 70
     1
  0
XRECORD
  5
12C
102
{ACAD_REACTORS
330
12B
102
}
330
12B
100
AcDbXrecord
280
     1
102
RTVSPost2010Prop28
280
     0
102
RTVSPost2010PropOp28
 70
     0
102
RTVSPost2010Prop29
280
     1
102
RTVSPost2010PropOp29
 70
     0
102
RTVSPost2010Prop30
280
     1
102
RTVSPost2010PropOp30
 70
     0
102
RTVSPost2010Prop31
280
     0
102
RTVSPost2010PropOp31
 70
     0
102
RTVSPost2010Prop32
280
     0
102
RTVSPost2010PropOp32
 70
     0
102
RTVSPost2010Prop33
280
     0
102
RTVSPost2010PropOp33
 70
     0
102
RTVSPost2010Prop34
280
     0
102
RTVSPost2010PropOp34
 70
     0
102
RTVSPost2010Prop35
280
     0
102
RTVSPost2010PropOp35
 70
     0
102
RTVSPost2010Prop36
280
     0
102
RTVSPost2010PropOp36
 70
     0
102
RTVSPost2010Prop37
 90
       50
102
RTVSPost2010PropOp37
 70
     0
102
RTVSPost2010Prop38
140
0.0
102
RTVSPost2010PropOp38
 70
     0
102
RTVSPost2010Prop39
140
1.0
102
RTVSPost2010PropOp39
 70
     0
102
RTVSPost2010Prop40
 90
        0
102
RTVSPost2010PropOp40
 70
     0
102
RTVSPost2010Prop41ColorIndex
 90
       18
102
RTVSPost2010Prop41ColorRGB
 90
        0
102
RTVSPost2010PropOp41
 70
     0
102
RTVSPost2010Prop42
 90
       50
102
RTVSPost2010PropOp42
 70
     0
102
RTVSPost2010Prop43
 90
        3
102
RTVSPost2010PropOp43
 70
     0
102
RTVSPost2010Prop44ColorIndex
 90
        5
102
RTVSPost2010Prop44ColorRGB
 90
      255
102
RTVSPost2010PropOp44
 70
     0
102
RTVSPost2010Prop45
280
     0
102
RTVSPost2010PropOp45
 70
     0
102
RTVSPost2010Prop46
 90
       50
102
RTVSPost2010PropOp46
 70
     0
102
RTVSPost2010Prop47
 90
       50
102
RTVSPost2010PropOp47
 70
     0
102
RTVSPost2010Prop48
 90
       50
102
RTVSPost2010PropOp48
 70
     0
102
RTVSPost2010Prop49
280
     0
102
RTVSPost2010PropOp49
 70
     0
102
RTVSPost2010Prop50
 90
       50
102
RTVSPost2010PropOp50
 70
     0
102
RTVSPost2010Prop51ColorIndex
 90
      256
102
RTVSPost2010Prop51ColorRGB
 90
-16777216
102
RTVSPost2010PropOp51
 70
     0
102
RTVSPost2010Prop52
140
1.0
102
RTVSPost2010PropOp52
 70
     0
102
RTVSPost2010Prop53
 90
        2
102
RTVSPost2010PropOp53
 70
     0
102
RTVSPost2010Prop54
  1
strokes_ogs.tif
102
RTVSPost2010PropOp54
 70
     0
102
RTVSPost2010Prop55
280
     0
102
RTVSPost2010PropOp55
 70
     0
102
RTVSPost2010Prop56
140
1.0
102
RTVSPost2010PropOp56
 70
     0
102
RTVSPost2010Prop57
140
1.0
102
RTVSPost2010PropOp57
 70
     0
  0
XRECORD
  5
112
102
{ACAD_REACTORS
330
111
102
}
330
111
100
AcDbXrecord
280
     1
102
RTVSPost2010Prop28
280
     0
102
RTVSPost2010PropOp28
 70
     1
102
RTVSPost2010Prop29
280
     1
102
RTVSPost2010PropOp29
 70
     1
102
RTVSPost2010Prop30
280
     1
102
RTVSPost2010PropOp30
 70
     1
102
RTVSPost2010Prop31
280
     0
102
RTVSPost2010PropOp31
 70
     1
102
RTVSPost2010Prop32
280
     0
102
RTVSPost2010PropOp32
 70
     1
102
RTVSPost2010Prop33
280
     0
102
RTVSPost2010PropOp33
 70
     1
102
RTVSPost2010Prop34
280
     0
102
RTVSPost2010PropOp34
 70
     1
102
RTVSPost2010Prop35
280
     0
102
RTVSPost2010PropOp35
 70
     1
102
RTVSPost2010Prop36
280
     0
102
RTVSPost2010PropOp36
 70
     1
102
RTVSPost2010Prop37
 90
       50
102
RTVSPost2010PropOp37
 70
     1
102
RTVSPost2010Prop38
140
0.0
102
RTVSPost2010PropOp38
 70
     1
102
RTVSPost2010Prop39
140
1.0
102
RTVSPost2010PropOp39
 70
     1
102
RTVSPost2010Prop40
 90
        0
102
RTVSPost2010PropOp40
 70
     1
102
RTVSPost2010Prop41ColorIndex
 90
       18
102
RTVSPost2010Prop41ColorRGB
 90
        0
102
RTVSPost2010PropOp41
 70
     1
102
RTVSPost2010Prop42
 90
       50
102
RTVSPost2010PropOp42
 70
     1
102
RTVSPost2010Prop43
 90
        3
102
RTVSPost2010PropOp43
 70
     1
102
RTVSPost2010Prop44ColorIndex
 90
        5
102
RTVSPost2010Prop44ColorRGB
 90
      255
102
RTVSPost2010PropOp44
 70
     1
102
RTVSPost2010Prop45
280
     0
102
RTVSPost2010PropOp45
 70
     1
102
RTVSPost2010Prop46
 90
       50
102
RTVSPost2010PropOp46
 70
     1
102
RTVSPost2010Prop47
 90
       50
102
RTVSPost2010PropOp47
 70
     1
102
RTVSPost2010Prop48
 90
       50
102
RTVSPost2010PropOp48
 70
     1
102
RTVSPost2010Prop49
280
     0
102
RTVSPost2010PropOp49
 70
     1
102
RTVSPost2010Prop50
 90
       50
102
RTVSPost2010PropOp50
 70
     1
102
RTVSPost2010Prop51ColorIndex
 90
      256
102
RTVSPost2010Prop51ColorRGB
 90
-16777216
102
RTVSPost2010PropOp51
 70
     0
102
RTVSPost2010Prop52
140
1.0
102
RTVSPost2010PropOp52
 70
     0
102
RTVSPost2010Prop53
 90
        2
102
RTVSPost2010PropOp53
 70
     1
102
RTVSPost2010Prop54
  1
strokes_ogs.tif
102
RTVSPost2010PropOp54
 70
     1
102
RTVSPost2010Prop55
280
     0
102
RTVSPost2010PropOp55
 70
     1
102
RTVSPost2010Prop56
140
1.0
102
RTVSPost2010PropOp56
 70
     1
102
RTVSPost2010Prop57
140
1.0
102
RTVSPost2010PropOp57
 70
     1
  0
XRECORD
  5
128
102
{ACAD_REACTORS
330
127
102
}
330
127
100
AcDbXrecord
280
     1
102
RTVSPost2010Prop28
280
     0
102
RTVSPost2010PropOp28
 70
     1
102
RTVSPost2010Prop29
280
     1
102
RTVSPost2010PropOp29
 70
     1
102
RTVSPost2010Prop30
280
     1
102
RTVSPost2010PropOp30
 70
     1
102
RTVSPost2010Prop31
280
     0
102
RTVSPost2010PropOp31
 70
     1
102
RTVSPost2010Prop32
280
     0
102
RTVSPost2010PropOp32
 70
     1
102
RTVSPost2010Prop33
280
     0
102
RTVSPost2010PropOp33
 70
     1
102
RTVSPost2010Prop34
280
     0
102
RTVSPost2010PropOp34
 70
     1
102
RTVSPost2010Prop35
280
     0
102
RTVSPost2010PropOp35
 70
     1
102
RTVSPost2010Prop36
280
     0
102
RTVSPost2010PropOp36
 70
     1
102
RTVSPost2010Prop37
 90
       50
102
RTVSPost2010PropOp37
 70
     1
102
RTVSPost2010Prop38
140
0.0
102
RTVSPost2010PropOp38
 70
     1
102
RTVSPost2010Prop39
140
1.0
102
RTVSPost2010PropOp39
 70
     1
102
RTVSPost2010Prop40
 90
        0
102
RTVSPost2010PropOp40
 70
     1
102
RTVSPost2010Prop41ColorIndex
 90
       18
102
RTVSPost2010Prop41ColorRGB
 90
        0
102
RTVSPost2010PropOp41
 70
     1
102
RTVSPost2010Prop42
 90
       50
102
RTVSPost2010PropOp42
 70
     1
102
RTVSPost2010Prop43
 90
        3
102
RTVSPost2010PropOp43
 70
     1
102
RTVSPost2010Prop44ColorIndex
 90
        5
102
RTVSPost2010Prop44ColorRGB
 90
      255
102
RTVSPost2010PropOp44
 70
     1
102
RTVSPost2010Prop45
280
     0
102
RTVSPost2010PropOp45
 70
     1
102
RTVSPost2010Prop46
 90
       50
102
RTVSPost2010PropOp46
 70
     1
102
RTVSPost2010Prop47
 90
       50
102
RTVSPost2010PropOp47
 70
     1
102
RTVSPost2010Prop48
 90
       50
102
RTVSPost2010PropOp48
 70
     1
102
RTVSPost2010Prop49
280
     0
102
RTVSPost2010PropOp49
 70
     1
102
RTVSPost2010Prop50
 90
       50
102
RTVSPost2010PropOp50
 70
     1
102
RTVSPost2010Prop51ColorIndex
 90
      256
102
RTVSPost2010Prop51ColorRGB
 90
-16777216
102
RTVSPost2010PropOp51
 70
     0
102
RTVSPost2010Prop52
140
1.0
102
RTVSPost2010PropOp52
 70
     0
102
RTVSPost2010Prop53
 90
        2
102
RTVSPost2010PropOp53
 70
     1
102
RTVSPost2010Prop54
  1
strokes_ogs.tif
102
RTVSPost2010PropOp54
 70
     1
102
RTVSPost2010Prop55
280
     0
102
RTVSPost2010PropOp55
 70
     1
102
RTVSPost2010Prop56
140
1.0
102
RTVSPost2010PropOp56
 70
     1
102
RTVSPost2010Prop57
140
1.0
102
RTVSPost2010PropOp57
 70
     1
  0
XRECORD
  5
126
102
{ACAD_REACTORS
330
125
102
}
330
125
100
AcDbXrecord
280
     1
102
RTVSPost2010Prop28
280
     0
102
RTVSPost2010PropOp28
 70
     1
102
RTVSPost2010Prop29
280
     1
102
RTVSPost2010PropOp29
 70
     1
102
RTVSPost2010Prop30
280
     1
102
RTVSPost2010PropOp30
 70
     1
102
RTVSPost2010Prop31
280
     0
102
RTVSPost2010PropOp31
 70
     1
102
RTVSPost2010Prop32
280
     0
102
RTVSPost2010PropOp32
 70
     1
102
RTVSPost2010Prop33
280
     0
102
RTVSPost2010PropOp33
 70
     1
102
RTVSPost2010Prop34
280
     0
102
RTVSPost2010PropOp34
 70
     1
102
RTVSPost2010Prop35
280
     0
102
RTVSPost2010PropOp35
 70
     1
102
RTVSPost2010Prop36
280
     0
102
RTVSPost2010PropOp36
 70
     1
102
RTVSPost2010Prop37
 90
       50
102
RTVSPost2010PropOp37
 70
     1
102
RTVSPost2010Prop38
140
0.0
102
RTVSPost2010PropOp38
 70
     1
102
RTVSPost2010Prop39
140
1.0
102
RTVSPost2010PropOp39
 70
     1
102
RTVSPost2010Prop40
 90
        0
102
RTVSPost2010PropOp40
 70
     1
102
RTVSPost2010Prop41ColorIndex
 90
       18
102
RTVSPost2010Prop41ColorRGB
 90
        0
102
RTVSPost2010PropOp41
 70
     1
102
RTVSPost2010Prop42
 90
       50
102
RTVSPost2010PropOp42
 70
     1
102
RTVSPost2010Prop43
 90
        3
102
RTVSPost2010PropOp43
 70
     1
102
RTVSPost2010Prop44ColorIndex
 90
        5
102
RTVSPost2010Prop44ColorRGB
 90
      255
102
RTVSPost2010PropOp44
 70
     1
102
RTVSPost2010Prop45
280
     0
102
RTVSPost2010PropOp45
 70
     1
102
RTVSPost2010Prop46
 90
       50
102
RTVSPost2010PropOp46
 70
     1
102
RTVSPost2010Prop47
 90
       50
102
RTVSPost2010PropOp47
 70
     1
102
RTVSPost2010Prop48
 90
       50
102
RTVSPost2010PropOp48
 70
     1
102
RTVSPost2010Prop49
280
     0
102
RTVSPost2010PropOp49
 70
     1
102
RTVSPost2010Prop50
 90
       50
102
RTVSPost2010PropOp50
 70
     1
102
RTVSPost2010Prop51ColorIndex
 90
      256
102
RTVSPost2010Prop51ColorRGB
 90
-16777216
102
RTVSPost2010PropOp51
 70
     0
102
RTVSPost2010Prop52
140
1.0
102
RTVSPost2010PropOp52
 70
     0
102
RTVSPost2010Prop53
 90
        2
102
RTVSPost2010PropOp53
 70
     1
102
RTVSPost2010Prop54
  1
strokes_ogs.tif
102
RTVSPost2010PropOp54
 70
     1
102
RTVSPost2010Prop55
280
     0
102
RTVSPost2010PropOp55
 70
     1
102
RTVSPost2010Prop56
140
1.0
102
RTVSPost2010PropOp56
 70
     1
102
RTVSPost2010Prop57
140
1.0
102
RTVSPost2010PropOp57
 70
     1
  0
XRECORD
  5
120
102
{ACAD_REACTORS
330
11F
102
}
330
11F
100
AcDbXrecord
280
     1
102
RTVSPost2010Prop28
280
     0
102
RTVSPost2010PropOp28
 70
     1
102
RTVSPost2010Prop29
280
     1
102
RTVSPost2010PropOp29
 70
     1
102
RTVSPost2010Prop30
280
     1
102
RTVSPost2010PropOp30
 70
     1
102
RTVSPost2010Prop31
280
     0
102
RTVSPost2010PropOp31
 70
     1
102
RTVSPost2010Prop32
280
     0
102
RTVSPost2010PropOp32
 70
     1
102
RTVSPost2010Prop33
280
     0
102
RTVSPost2010PropOp33
 70
     1
102
RTVSPost2010Prop34
280
     0
102
RTVSPost2010PropOp34
 70
     1
102
RTVSPost2010Prop35
280
     0
102
RTVSPost2010PropOp35
 70
     1
102
RTVSPost2010Prop36
280
     0
102
RTVSPost2010PropOp36
 70
     1
102
RTVSPost2010Prop37
 90
       50
102
RTVSPost2010PropOp37
 70
     1
102
RTVSPost2010Prop38
140
0.0
102
RTVSPost2010PropOp38
 70
     1
102
RTVSPost2010Prop39
140
1.0
102
RTVSPost2010PropOp39
 70
     1
102
RTVSPost2010Prop40
 90
        0
102
RTVSPost2010PropOp40
 70
     1
102
RTVSPost2010Prop41ColorIndex
 90
       18
102
RTVSPost2010Prop41ColorRGB
 90
        0
102
RTVSPost2010PropOp41
 70
     1
102
RTVSPost2010Prop42
 90
       50
102
RTVSPost2010PropOp42
 70
     1
102
RTVSPost2010Prop43
 90
        3
102
RTVSPost2010PropOp43
 70
     1
102
RTVSPost2010Prop44ColorIndex
 90
        5
102
RTVSPost2010Prop44ColorRGB
 90
      255
102
RTVSPost2010PropOp44
 70
     1
102
RTVSPost2010Prop45
280
     0
102
RTVSPost2010PropOp45
 70
     1
102
RTVSPost2010Prop46
 90
       50
102
RTVSPost2010PropOp46
 70
     1
102
RTVSPost2010Prop47
 90
       50
102
RTVSPost2010PropOp47
 70
     1
102
RTVSPost2010Prop48
 90
       50
102
RTVSPost2010PropOp48
 70
     1
102
RTVSPost2010Prop49
280
     0
102
RTVSPost2010PropOp49
 70
     1
102
RTVSPost2010Prop50
 90
       50
102
RTVSPost2010PropOp50
 70
     1
102
RTVSPost2010Prop51ColorIndex
 90
      256
102
RTVSPost2010Prop51ColorRGB
 90
-16777216
102
RTVSPost2010PropOp51
 70
     0
102
RTVSPost2010Prop52
140
1.0
102
RTVSPost2010PropOp52
 70
     0
102
RTVSPost2010Prop53
 90
        2
102
RTVSPost2010PropOp53
 70
     1
102
RTVSPost2010Prop54
  1
strokes_ogs.tif
102
RTVSPost2010PropOp54
 70
     1
102
RTVSPost2010Prop55
280
     0
102
RTVSPost2010PropOp55
 70
     1
102
RTVSPost2010Prop56
140
1.0
102
RTVSPost2010PropOp56
 70
     1
102
RTVSPost2010Prop57
140
1.0
102
RTVSPost2010PropOp57
 70
     1
  0
XRECORD
  5
122
102
{ACAD_REACTORS
330
121
102
}
330
121
100
AcDbXrecord
280
     1
102
RTVSPost2010Prop28
280
     0
102
RTVSPost2010PropOp28
 70
     1
102
RTVSPost2010Prop29
280
     1
102
RTVSPost2010PropOp29
 70
     1
102
RTVSPost2010Prop30
280
     1
102
RTVSPost2010PropOp30
 70
     1
102
RTVSPost2010Prop31
280
     0
102
RTVSPost2010PropOp31
 70
     1
102
RTVSPost2010Prop32
280
     0
102
RTVSPost2010PropOp32
 70
     1
102
RTVSPost2010Prop33
280
     0
102
RTVSPost2010PropOp33
 70
     1
102
RTVSPost2010Prop34
280
     0
102
RTVSPost2010PropOp34
 70
     1
102
RTVSPost2010Prop35
280
     0
102
RTVSPost2010PropOp35
 70
     1
102
RTVSPost2010Prop36
280
     0
102
RTVSPost2010PropOp36
 70
     1
102
RTVSPost2010Prop37
 90
       50
102
RTVSPost2010PropOp37
 70
     1
102
RTVSPost2010Prop38
140
0.0
102
RTVSPost2010PropOp38
 70
     1
102
RTVSPost2010Prop39
140
1.0
102
RTVSPost2010PropOp39
 70
     1
102
RTVSPost2010Prop40
 90
        0
102
RTVSPost2010PropOp40
 70
     1
102
RTVSPost2010Prop41ColorIndex
 90
       18
102
RTVSPost2010Prop41ColorRGB
 90
        0
102
RTVSPost2010PropOp41
 70
     1
102
RTVSPost2010Prop42
 90
       50
102
RTVSPost2010PropOp42
 70
     1
102
RTVSPost2010Prop43
 90
        3
102
RTVSPost2010PropOp43
 70
     1
102
RTVSPost2010Prop44ColorIndex
 90
        5
102
RTVSPost2010Prop44ColorRGB
 90
      255
102
RTVSPost2010PropOp44
 70
     1
102
RTVSPost2010Prop45
280
     0
102
RTVSPost2010PropOp45
 70
     1
102
RTVSPost2010Prop46
 90
       50
102
RTVSPost2010PropOp46
 70
     1
102
RTVSPost2010Prop47
 90
       50
102
RTVSPost2010PropOp47
 70
     1
102
RTVSPost2010Prop48
 90
       50
102
RTVSPost2010PropOp48
 70
     1
102
RTVSPost2010Prop49
280
     0
102
RTVSPost2010PropOp49
 70
     1
102
RTVSPost2010Prop50
 90
       50
102
RTVSPost2010PropOp50
 70
     1
102
RTVSPost2010Prop51ColorIndex
 90
      256
102
RTVSPost2010Prop51ColorRGB
 90
-16777216
102
RTVSPost2010PropOp51
 70
     0
102
RTVSPost2010Prop52
140
1.0
102
RTVSPost2010PropOp52
 70
     0
102
RTVSPost2010Prop53
 90
        2
102
RTVSPost2010PropOp53
 70
     1
102
RTVSPost2010Prop54
  1
strokes_ogs.tif
102
RTVSPost2010PropOp54
 70
     1
102
RTVSPost2010Prop55
280
     0
102
RTVSPost2010PropOp55
 70
     1
102
RTVSPost2010Prop56
140
1.0
102
RTVSPost2010PropOp56
 70
     1
102
RTVSPost2010Prop57
140
1.0
102
RTVSPost2010PropOp57
 70
     1
  0
XRECORD
  5
118
102
{ACAD_REACTORS
330
117
102
}
330
117
100
AcDbXrecord
280
     1
102
RTVSPost2010Prop28
280
     0
102
RTVSPost2010PropOp28
 70
     1
102
RTVSPost2010Prop29
280
     1
102
RTVSPost2010PropOp29
 70
     1
102
RTVSPost2010Prop30
280
     1
102
RTVSPost2010PropOp30
 70
     1
102
RTVSPost2010Prop31
280
     0
102
RTVSPost2010PropOp31
 70
     1
102
RTVSPost2010Prop32
280
     0
102
RTVSPost2010PropOp32
 70
     1
102
RTVSPost2010Prop33
280
     0
102
RTVSPost2010PropOp33
 70
     1
102
RTVSPost2010Prop34
280
     0
102
RTVSPost2010PropOp34
 70
     1
102
RTVSPost2010Prop35
280
     0
102
RTVSPost2010PropOp35
 70
     1
102
RTVSPost2010Prop36
280
     0
102
RTVSPost2010PropOp36
 70
     1
102
RTVSPost2010Prop37
 90
       50
102
RTVSPost2010PropOp37
 70
     1
102
RTVSPost2010Prop38
140
0.0
102
RTVSPost2010PropOp38
 70
     1
102
RTVSPost2010Prop39
140
1.0
102
RTVSPost2010PropOp39
 70
     1
102
RTVSPost2010Prop40
 90
        0
102
RTVSPost2010PropOp40
 70
     1
102
RTVSPost2010Prop41ColorIndex
 90
       18
102
RTVSPost2010Prop41ColorRGB
 90
        0
102
RTVSPost2010PropOp41
 70
     1
102
RTVSPost2010Prop42
 90
       50
102
RTVSPost2010PropOp42
 70
     1
102
RTVSPost2010Prop43
 90
        3
102
RTVSPost2010PropOp43
 70
     1
102
RTVSPost2010Prop44ColorIndex
 90
        5
102
RTVSPost2010Prop44ColorRGB
 90
      255
102
RTVSPost2010PropOp44
 70
     1
102
RTVSPost2010Prop45
280
     0
102
RTVSPost2010PropOp45
 70
     1
102
RTVSPost2010Prop46
 90
       50
102
RTVSPost2010PropOp46
 70
     1
102
RTVSPost2010Prop47
 90
       50
102
RTVSPost2010PropOp47
 70
     1
102
RTVSPost2010Prop48
 90
       50
102
RTVSPost2010PropOp48
 70
     1
102
RTVSPost2010Prop49
280
     0
102
RTVSPost2010PropOp49
 70
     1
102
RTVSPost2010Prop50
 90
       50
102
RTVSPost2010PropOp50
 70
     1
102
RTVSPost2010Prop51ColorIndex
 90
      256
102
RTVSPost2010Prop51ColorRGB
 90
-16777216
102
RTVSPost2010PropOp51
 70
     0
102
RTVSPost2010Prop52
140
1.0
102
RTVSPost2010PropOp52
 70
     0
102
RTVSPost2010Prop53
 90
        2
102
RTVSPost2010PropOp53
 70
     1
102
RTVSPost2010Prop54
  1
strokes_ogs.tif
102
RTVSPost2010PropOp54
 70
     1
102
RTVSPost2010Prop55
280
     0
102
RTVSPost2010PropOp55
 70
     1
102
RTVSPost2010Prop56
140
1.0
102
RTVSPost2010PropOp56
 70
     1
102
RTVSPost2010Prop57
140
1.0
102
RTVSPost2010PropOp57
 70
     1
  0
XRECORD
  5
10C
102
{ACAD_REACTORS
330
10B
102
}
330
10B
100
AcDbXrecord
280
     1
102
RTVSPost2010Prop28
280
     0
102
RTVSPost2010PropOp28
 70
     1
102
RTVSPost2010Prop29
280
     1
102
RTVSPost2010PropOp29
 70
     1
102
RTVSPost2010Prop30
280
     1
102
RTVSPost2010PropOp30
 70
     1
102
RTVSPost2010Prop31
280
     0
102
RTVSPost2010PropOp31
 70
     1
102
RTVSPost2010Prop32
280
     0
102
RTVSPost2010PropOp32
 70
     1
102
RTVSPost2010Prop33
280
     0
102
RTVSPost2010PropOp33
 70
     1
102
RTVSPost2010Prop34
280
     0
102
RTVSPost2010PropOp34
 70
     1
102
RTVSPost2010Prop35
280
     0
102
RTVSPost2010PropOp35
 70
     1
102
RTVSPost2010Prop36
280
     0
102
RTVSPost2010PropOp36
 70
     1
102
RTVSPost2010Prop37
 90
       50
102
RTVSPost2010PropOp37
 70
     1
102
RTVSPost2010Prop38
140
0.0
102
RTVSPost2010PropOp38
 70
     1
102
RTVSPost2010Prop39
140
1.0
102
RTVSPost2010PropOp39
 70
     1
102
RTVSPost2010Prop40
 90
        0
102
RTVSPost2010PropOp40
 70
     1
102
RTVSPost2010Prop41ColorIndex
 90
       18
102
RTVSPost2010Prop41ColorRGB
 90
        0
102
RTVSPost2010PropOp41
 70
     1
102
RTVSPost2010Prop42
 90
       50
102
RTVSPost2010PropOp42
 70
     1
102
RTVSPost2010Prop43
 90
        3
102
RTVSPost2010PropOp43
 70
     1
102
RTVSPost2010Prop44ColorIndex
 90
        5
102
RTVSPost2010Prop44ColorRGB
 90
      255
102
RTVSPost2010PropOp44
 70
     1
102
RTVSPost2010Prop45
280
     0
102
RTVSPost2010PropOp45
 70
     1
102
RTVSPost2010Prop46
 90
       50
102
RTVSPost2010PropOp46
 70
     1
102
RTVSPost2010Prop47
 90
       50
102
RTVSPost2010PropOp47
 70
     1
102
RTVSPost2010Prop48
 90
       50
102
RTVSPost2010PropOp48
 70
     1
102
RTVSPost2010Prop49
280
     0
102
RTVSPost2010PropOp49
 70
     1
102
RTVSPost2010Prop50
 90
       50
102
RTVSPost2010PropOp50
 70
     1
102
RTVSPost2010Prop51ColorIndex
 90
      256
102
RTVSPost2010Prop51ColorRGB
 90
-16777216
102
RTVSPost2010PropOp51
 70
     0
102
RTVSPost2010Prop52
140
1.0
102
RTVSPost2010PropOp52
 70
     0
102
RTVSPost2010Prop53
 90
        2
102
RTVSPost2010PropOp53
 70
     1
102
RTVSPost2010Prop54
  1
strokes_ogs.tif
102
RTVSPost2010PropOp54
 70
     1
102
RTVSPost2010Prop55
280
     0
102
RTVSPost2010PropOp55
 70
     1
102
RTVSPost2010Prop56
140
1.0
102
RTVSPost2010PropOp56
 70
     1
102
RTVSPost2010Prop57
140
1.0
102
RTVSPost2010PropOp57
 70
     1
  0
XRECORD
  5
124
102
{ACAD_REACTORS
330
123
102
}
330
123
100
AcDbXrecord
280
     1
102
RTVSPost2010Prop28
280
     0
102
RTVSPost2010PropOp28
 70
     1
102
RTVSPost2010Prop29
280
     1
102
RTVSPost2010PropOp29
 70
     1
102
RTVSPost2010Prop30
280
     1
102
RTVSPost2010PropOp30
 70
     1
102
RTVSPost2010Prop31
280
     0
102
RTVSPost2010PropOp31
 70
     1
102
RTVSPost2010Prop32
280
     0
102
RTVSPost2010PropOp32
 70
     1
102
RTVSPost2010Prop33
280
     0
102
RTVSPost2010PropOp33
 70
     1
102
RTVSPost2010Prop34
280
     0
102
RTVSPost2010PropOp34
 70
     1
102
RTVSPost2010Prop35
280
     0
102
RTVSPost2010PropOp35
 70
     1
102
RTVSPost2010Prop36
280
     0
102
RTVSPost2010PropOp36
 70
     1
102
RTVSPost2010Prop37
 90
       50
102
RTVSPost2010PropOp37
 70
     1
102
RTVSPost2010Prop38
140
0.0
102
RTVSPost2010PropOp38
 70
     1
102
RTVSPost2010Prop39
140
1.0
102
RTVSPost2010PropOp39
 70
     1
102
RTVSPost2010Prop40
 90
        0
102
RTVSPost2010PropOp40
 70
     1
102
RTVSPost2010Prop41ColorIndex
 90
       18
102
RTVSPost2010Prop41ColorRGB
 90
        0
102
RTVSPost2010PropOp41
 70
     1
102
RTVSPost2010Prop42
 90
       50
102
RTVSPost2010PropOp42
 70
     1
102
RTVSPost2010Prop43
 90
        3
102
RTVSPost2010PropOp43
 70
     1
102
RTVSPost2010Prop44ColorIndex
 90
        5
102
RTVSPost2010Prop44ColorRGB
 90
      255
102
RTVSPost2010PropOp44
 70
     1
102
RTVSPost2010Prop45
280
     0
102
RTVSPost2010PropOp45
 70
     1
102
RTVSPost2010Prop46
 90
       50
102
RTVSPost2010PropOp46
 70
     1
102
RTVSPost2010Prop47
 90
       50
102
RTVSPost2010PropOp47
 70
     1
102
RTVSPost2010Prop48
 90
       50
102
RTVSPost2010PropOp48
 70
     1
102
RTVSPost2010Prop49
280
     0
102
RTVSPost2010PropOp49
 70
     1
102
RTVSPost2010Prop50
 90
       50
102
RTVSPost2010PropOp50
 70
     1
102
RTVSPost2010Prop51ColorIndex
 90
      256
102
RTVSPost2010Prop51ColorRGB
 90
-16777216
102
RTVSPost2010PropOp51
 70
     0
102
RTVSPost2010Prop52
140
1.0
102
RTVSPost2010PropOp52
 70
     0
102
RTVSPost2010Prop53
 90
        2
102
RTVSPost2010PropOp53
 70
     1
102
RTVSPost2010Prop54
  1
strokes_ogs.tif
102
RTVSPost2010PropOp54
 70
     1
102
RTVSPost2010Prop55
280
     0
102
RTVSPost2010PropOp55
 70
     1
102
RTVSPost2010Prop56
140
1.0
102
RTVSPost2010PropOp56
 70
     1
102
RTVSPost2010Prop57
140
1.0
102
RTVSPost2010PropOp57
 70
     1
  0
ENDSEC
  0
EOF
