  0
SECTION
  2
HEADER
  9
$ACADVER
  1
AC1024
  9
$ACADMAINTVER
 70
     6
  9
$DWGCODEPAGE
  3
UNDEFINED
  9
$INSBASE
 10
0.0
 20
0.0
 30
0.0
  9
$EXTMIN
 10
1.000000000000000E+20
 20
1.000000000000000E+20
 30
1.000000000000000E+20
  9
$EXTMAX
 10
-1.000000000000000E+20
 20
-1.000000000000000E+20
 30
-1.000000000000000E+20
  9
$LIMMIN
 10
0.0
 20
0.0
  9
$LIMMAX
 10
12.0
 20
9.0
  9
$ORTHOMODE
 70
     0
  9
$REGENMODE
 70
     1
  9
$FILLMODE
 70
     1
  9
$QTEXTMODE
 70
     0
  9
$MIRRTEXT
 70
     1
  9
$LTSCALE
 40
1.0
  9
$ATTMODE
 70
     1
  9
$TEXTSIZE
 40
0.2
  9
$TRACEWID
 40
0.05
  9
$TEXTSTYLE
  7
Standard
  9
$CLAYER
  8
0
  9
$CELTYPE
  6
ByLayer
  9
$CECOLOR
 62
   256
  9
$CELTSCALE
 40
1.0
  9
$DISPSILH
 70
     0
  9
$DIMSCALE
 40
1.0
  9
$DIMASZ
 40
0.18
  9
$DIMEXO
 40
0.0625
  9
$DIMDLI
 40
0.38
  9
$DIMRND
 40
0.0
  9
$DIMDLE
 40
0.0
  9
$DIMEXE
 40
0.18
  9
$DIMTP
 40
0.0
  9
$DIMTM
 40
0.0
  9
$DIMTXT
 40
0.18
  9
$DIMCEN
 40
0.09
  9
$DIMTSZ
 40
0.0
  9
$DIMTOL
 70
     0
  9
$DIMLIM
 70
     0
  9
$DIMTIH
 70
     1
  9
$DIMTOH
 70
     1
  9
$DIMSE1
 70
     0
  9
$DIMSE2
 70
     0
  9
$DIMTAD
 70
     0
  9
$DIMZIN
 70
     0
  9
$DIMBLK
  1

  9
$DIMASO
 70
     1
  9
$DIMSHO
 70
     1
  9
$DIMPOST
  1

  9
$DIMAPOST
  1

  9
$DIMALT
 70
     0
  9
$DIMALTD
 70
     2
  9
$DIMALTF
 40
25.4
  9
$DIMLFAC
 40
1.0
  9
$DIMTOFL
 70
     0
  9
$DIMTVP
 40
0.0
  9
$DIMTIX
 70
     0
  9
$DIMSOXD
 70
     0
  9
$DIMSAH
 70
     0
  9
$DIMBLK1
  1

  9
$DIMBLK2
  1

  9
$DIMSTYLE
  2
Standard
  9
$DIMCLRD
 70
     0
  9
$DIMCLRE
 70
     0
  9
$DIMCLRT
 70
     0
  9
$DIMTFAC
 40
1.0
  9
$DIMGAP
 40
0.09
  9
$DIMJUST
 70
     0
  9
$DIMSD1
 70
     0
  9
$DIMSD2
 70
     0
  9
$DIMTOLJ
 70
     1
  9
$DIMTZIN
 70
     0
  9
$DIMALTZ
 70
     0
  9
$DIMALTTZ
 70
     0
  9
$DIMUPT
 70
     0
  9
$DIMDEC
 70
     4
  9
$DIMTDEC
 70
     4
  9
$DIMALTU
 70
     2
  9
$DIMALTTD
 70
     2
  9
$DIMTXSTY
  7
Standard
  9
$DIMAUNIT
 70
     0
  9
$DIMADEC
 70
     0
  9
$DIMALTRND
 40
0.0
  9
$DIMAZIN
 70
     0
  9
$DIMDSEP
 70
    46
  9
$DIMATFIT
 70
     3
  9
$DIMFRAC
 70
     0
  9
$DIMLDRBLK
  1

  9
$DIMLUNIT
 70
     2
  9
$DIMLWD
 70
    -2
  9
$DIMLWE
 70
    -2
  9
$DIMTMOVE
 70
     0
  9
$DIMFXL
 40
1.0
  9
$DIMFXLON
 70
     0
  9
$DIMJOGANG
 40
0.7853981633974483
  9
$DIMTFILL
 70
     0
  9
$DIMTFILLCLR
 70
     0
  9
$DIMARCSYM
 70
     0
  9
$DIMLTYPE
  6

  9
$DIMLTEX1
  6

  9
$DIMLTEX2
  6

  9
$DIMTXTDIRECTION
 70
     0
  9
$LUNITS
 70
     2
  9
$LUPREC
 70
     4
  9
$SKETCHINC
 40
0.1
  9
$FILLETRAD
 40
0.5
  9
$AUNITS
 70
     0
  9
$AUPREC
 70
     0
  9
$MENU
  1
.
  9
$ELEVATION
 40
0.0
  9
$PELEVATION
 40
0.0
  9
$THICKNESS
 40
0.0
  9
$LIMCHECK
 70
     0
  9
$CHAMFERA
 40
0.5
  9
$CHAMFERB
 40
0.5
  9
$CHAMFERC
 40
1.0
  9
$CHAMFERD
 40
0.0
  9
$SKPOLY
 70
     0
  9
$TDCREATE
 40
2457917.588333333
  9
$TDUCREATE
 40
2457917.213333333
  9
$TDUPDATE
 40
2457917.588333333
  9
$TDUUPDATE
 40
2457917.213333333
  9
$TDINDWG
 40
0.0000000116
  9
$TDUSRTIMER
 40
0.0000000116
  9
$USRTIMER
 70
     1
  9
$ANGBASE
 50
0.0
  9
$ANGDIR
 70
     0
  9
$PDMODE
 70
     0
  9
$PDSIZE
 40
0.0
  9
$PLINEWID
 40
0.0
  9
$SPLFRAME
 70
     0
  9
$SPLINETYPE
 70
     6
  9
$SPLINESEGS
 70
     8
  9
$HANDSEED
  5
D6
  9
$SURFTAB1
 70
     6
  9
$SURFTAB2
 70
     6
  9
$SURFTYPE
 70
     6
  9
$SURFU
 70
     6
  9
$SURFV
 70
     6
  9
$UCSBASE
  2

  9
$UCSNAME
  2

  9
$UCSORG
 10
0.0
 20
0.0
 30
0.0
  9
$UCSXDIR
 10
1.0
 20
0.0
 30
0.0
  9
$UCSYDIR
 10
0.0
 20
1.0
 30
0.0
  9
$UCSORTHOREF
  2

  9
$UCSORTHOVIEW
 70
     0
  9
$UCSORGTOP
 10
0.0
 20
0.0
 30
0.0
  9
$UCSORGBOTTOM
 10
0.0
 20
0.0
 30
0.0
  9
$UCSORGLEFT
 10
0.0
 20
0.0
 30
0.0
  9
$UCSORGRIGHT
 10
0.0
 20
0.0
 30
0.0
  9
$UCSORGFRONT
 10
0.0
 20
0.0
 30
0.0
  9
$UCSORGBACK
 10
0.0
 20
0.0
 30
0.0
  9
$PUCSBASE
  2

  9
$PUCSNAME
  2

  9
$PUCSORG
 10
0.0
 20
0.0
 30
0.0
  9
$PUCSXDIR
 10
1.0
 20
0.0
 30
0.0
  9
$PUCSYDIR
 10
0.0
 20
1.0
 30
0.0
  9
$PUCSORTHOREF
  2

  9
$PUCSORTHOVIEW
 70
     0
  9
$PUCSORGTOP
 10
0.0
 20
0.0
 30
0.0
  9
$PUCSORGBOTTOM
 10
0.0
 20
0.0
 30
0.0
  9
$PUCSORGLEFT
 10
0.0
 20
0.0
 30
0.0
  9
$PUCSORGRIGHT
 10
0.0
 20
0.0
 30
0.0
  9
$PUCSORGFRONT
 10
0.0
 20
0.0
 30
0.0
  9
$PUCSORGBACK
 10
0.0
 20
0.0
 30
0.0
  9
$USERI1
 70
     0
  9
$USERI2
 70
     0
  9
$USERI3
 70
     0
  9
$USERI4
 70
     0
  9
$USERI5
 70
     0
  9
$USERR1
 40
0.0
  9
$USERR2
 40
0.0
  9
$USERR3
 40
0.0
  9
$USERR4
 40
0.0
  9
$USERR5
 40
0.0
  9
$WORLDVIEW
 70
     1
  9
$SHADEDGE
 70
     3
  9
$SHADEDIF
 70
    70
  9
$TILEMODE
 70
     1
  9
$MAXACTVP
 70
    64
  9
$PINSBASE
 10
0.0
 20
0.0
 30
0.0
  9
$PLIMCHECK
 70
     0
  9
$PEXTMIN
 10
1.000000000000000E+20
 20
1.000000000000000E+20
 30
1.000000000000000E+20
  9
$PEXTMAX
 10
-1.000000000000000E+20
 20
-1.000000000000000E+20
 30
-1.000000000000000E+20
  9
$PLIMMIN
 10
0.0
 20
0.0
  9
$PLIMMAX
 10
12.0
 20
9.0
  9
$UNITMODE
 70
     0
  9
$VISRETAIN
 70
     1
  9
$PLINEGEN
 70
     0
  9
$PSLTSCALE
 70
     1
  9
$TREEDEPTH
 70
  3020
  9
$CMLSTYLE
  2
Standard
  9
$CMLJUST
 70
     0
  9
$CMLSCALE
 40
1.0
  9
$PROXYGRAPHICS
 70
     1
  9
$MEASUREMENT
 70
     0
  9
$CELWEIGHT
370
    -1
  9
$ENDCAPS
280
     0
  9
$JOINSTYLE
280
     0
  9
$LWDISPLAY
290
     1
  9
$INSUNITS
 70
     1
  9
$HYPERLINKBASE
  1

  9
$STYLESHEET
  1

  9
$XEDIT
290
     1
  9
$CEPSNTYPE
380
     0
  9
$PSTYLEMODE
290
     1
  9
$FINGERPRINTGUID
  2
{BD6507D7-AC1D-E448-02D0-8AC68DF728C8}
  9
$VERSIONGUID
  2
{FAEB1C32-E019-11D5-929B-00C0DF256EC4}
  9
$EXTNAMES
290
     1
  9
$PSVPSCALE
 40
0.0
  9
$OLESTARTUP
290
     0
  9
$SORTENTS
280
   127
  9
$INDEXCTL
280
     0
  9
$HIDETEXT
280
     1
  9
$XCLIPFRAME
280
     2
  9
$HALOGAP
280
     0
  9
$OBSCOLOR
 70
   257
  9
$OBSLTYPE
280
     0
  9
$INTERSECTIONDISPLAY
280
     0
  9
$INTERSECTIONCOLOR
 70
   257
  9
$DIMASSOC
280
     2
  9
$PROJECTNAME
  1

  9
$CAMERADISPLAY
290
     0
  9
$LENSLENGTH
 40
50.0
  9
$CAMERAHEIGHT
 40
0.0
  9
$STEPSPERSEC
 40
2.0
  9
$STEPSIZE
 40
6.0
  9
$3DDWFPREC
 40
2.0
  9
$PSOLWIDTH
 40
0.25
  9
$PSOLHEIGHT
 40
4.0
  9
$LOFTANG1
 40
1.570796326794897
  9
$LOFTANG2
 40
1.570796326794897
  9
$LOFTMAG1
 40
0.0
  9
$LOFTMAG2
 40
0.0
  9
$LOFTPARAM
 70
     7
  9
$LOFTNORMALS
280
     1
  9
$LATITUDE
 40
37.795
  9
$LONGITUDE
 40
-122.394
  9
$NORTHDIRECTION
 40
0.0
  9
$TIMEZONE
 70
 -8000
  9
$LIGHTGLYPHDISPLAY
280
     1
  9
$TILEMODELIGHTSYNCH
280
     1
  9
$CMATERIAL
347
3C
  9
$SOLIDHIST
280
     1
  9
$SHOWHIST
280
     1
  9
$DWFFRAME
280
     2
  9
$DGNFRAME
280
     2
  9
$REALWORLDSCALE
290
     1
  9
$INTERFERECOLOR
 62
   256
  9
$CSHADOW
280
     0
  9
$SHADOWPLANELOCATION
 40
0.0
  0
ENDSEC
  0
SECTION
  2
CLASSES
  0
CLASS
  1
ACDBDICTIONARYWDFLT
  2
AcDbDictionaryWithDefault
  3
ObjectDBX Classes
 90
        0
 91
        4
280
     0
281
     0
  0
CLASS
  1
VISUALSTYLE
  2
AcDbVisualStyle
  3
ObjectDBX Classes
 90
     4095
 91
        4
280
     0
281
     0
  0
CLASS
  1
MATERIAL
  2
AcDbMaterial
  3
ObjectDBX Classes
 90
     1153
 91
        4
280
     0
281
     0
  0
CLASS
  1
SUN
  2
AcDbSun
  3
SCENEOE
 90
     1024
 91
        4
280
     0
281
     0
  0
ENDSEC
  0
SECTION
  2
TABLES
  0
TABLE
  2
VPORT
  5
8
330
0
100
AcDbSymbolTable
 70
     1
  0
VPORT
  5
29
330
8
100
AcDbSymbolTableRecord
100
AcDbViewportTableRecord
  2
*Active
 70
     0
 10
0.0
 20
0.0
 11
1.0
 21
1.0
 12
0.0
 22
0.0
 13
0.0
 23
0.0
 14
0.5
 24
0.5
 15
0.5
 25
0.5
 16
0.0
 26
0.0
 36
1.0
 17
63.499999984125
 27
-89.00059456108309
 37
0.0
 40
178.0011891221662
 41
0.7134783795241226
 42
50.0
 43
0.0
 44
0.0
 50
0.0
 51
0.0
 71
     0
 72
   100
 73
     1
 74
     3
 75
     0
 76
     0
 77
     0
 78
     0
281
     0
 65
     1
110
0.0
120
0.0
130
0.0
111
1.0
121
0.0
131
0.0
112
0.0
122
1.0
132
0.0
 79
     0
146
0.0
 60
     3
 61
     5
292
     1
282
     1
141
0.0
142
0.0
 63
   250
361
3F
  0
ENDTAB
  0
TABLE
  2
LTYPE
  5
5
330
0
100
AcDbSymbolTable
 70
     1
  0
LTYPE
  5
14
330
5
100
AcDbSymbolTableRecord
100
AcDbLinetypeTableRecord
  2
ByBlock
 70
     0
  3

 72
    65
 73
     0
 40
0.0
  0
LTYPE
  5
15
330
5
100
AcDbSymbolTableRecord
100
AcDbLinetypeTableRecord
  2
ByLayer
 70
     0
  3

 72
    65
 73
     0
 40
0.0
  0
LTYPE
  5
16
330
5
100
AcDbSymbolTableRecord
100
AcDbLinetypeTableRecord
  2
Continuous
 70
     0
  3
Solid line
 72
    65
 73
     0
 40
0.0
  0
ENDTAB
  0
TABLE
  2
LAYER
  5
2
330
0
100
AcDbSymbolTable
 70
     2
  0
LAYER
  5
10
330
2
100
AcDbSymbolTableRecord
100
AcDbLayerTableRecord
  2
0
 70
     0
 62
     7
  6
Continuous
370
    -3
390
F
347
3E
  0
LAYER
  5
40
330
2
100
AcDbSymbolTableRecord
100
AcDbLayerTableRecord
  2
_U+30EC_U+30A4_U+30E4_U+30FC 1
 70
     0
 62
     7
  6
Continuous
370
    -3
390
F
347
3E
  0
ENDTAB
  0
TABLE
  2
STYLE
  5
3
330
0
100
AcDbSymbolTable
 70
     1
  0
STYLE
  5
11
330
3
100
AcDbSymbolTableRecord
100
AcDbTextStyleTableRecord
  2
Standard
 70
     0
 40
0.0
 41
1.0
 50
0.0
 71
     0
 42
0.2
  3
txt
  4

  0
ENDTAB
  0
TABLE
  2
VIEW
  5
6
330
0
100
AcDbSymbolTable
 70
     0
  0
ENDTAB
  0
TABLE
  2
UCS
  5
7
330
0
100
AcDbSymbolTable
 70
     0
  0
ENDTAB
  0
TABLE
  2
APPID
  5
9
330
0
100
AcDbSymbolTable
 70
     1
  0
APPID
  5
12
330
9
100
AcDbSymbolTableRecord
100
AcDbRegAppTableRecord
  2
ACAD
 70
     0
  0
ENDTAB
  0
TABLE
  2
DIMSTYLE
  5
A
330
0
100
AcDbSymbolTable
 70
     1
100
AcDbDimStyleTable
  0
DIMSTYLE
105
27
330
A
100
AcDbSymbolTableRecord
100
AcDbDimStyleTableRecord
  2
Standard
 70
     0
178
     0
340
11
  0
ENDTAB
  0
TABLE
  2
BLOCK_RECORD
  5
1
330
0
100
AcDbSymbolTable
 70
     7
  0
BLOCK_RECORD
  5
1F
330
1
100
AcDbSymbolTableRecord
100
AcDbBlockTableRecord
  2
*Model_Space
340
22
 70
     0
280
     1
281
     0
  0
BLOCK_RECORD
  5
1B
330
1
100
AcDbSymbolTableRecord
100
AcDbBlockTableRecord
  2
*Paper_Space
340
1E
 70
     0
280
     1
281
     0
  0
BLOCK_RECORD
  5
23
330
1
100
AcDbSymbolTableRecord
100
AcDbBlockTableRecord
  2
*Paper_Space0
340
26
 70
     0
280
     1
281
     0
  0
BLOCK_RECORD
  5
41
330
1
100
AcDbSymbolTableRecord
100
AcDbBlockTableRecord
  2
block 2
340
0
102
{BLKREFS
331
42
102
}
 70
     0
280
     1
281
     0
  0
BLOCK_RECORD
  5
82
330
1
100
AcDbSymbolTableRecord
100
AcDbBlockTableRecord
  2
block 3
340
0
102
{BLKREFS
331
83
102
}
 70
     0
280
     1
281
     0
  0
BLOCK_RECORD
  5
94
330
1
100
AcDbSymbolTableRecord
100
AcDbBlockTableRecord
  2
block 4
340
0
102
{BLKREFS
331
95
102
}
 70
     0
280
     1
281
     0
  0
BLOCK_RECORD
  5
A8
330
1
100
AcDbSymbolTableRecord
100
AcDbBlockTableRecord
  2
block 5
340
0
102
{BLKREFS
331
A9
102
}
 70
     0
280
     1
281
     0
  0
BLOCK_RECORD
  5
C1
330
1
100
AcDbSymbolTableRecord
100
AcDbBlockTableRecord
  2
block 6
340
0
102
{BLKREFS
331
C2
102
}
 70
     0
280
     1
281
     0
  0
BLOCK_RECORD
  5
CB
330
1
100
AcDbSymbolTableRecord
100
AcDbBlockTableRecord
  2
block 7
340
0
102
{BLKREFS
331
CC
102
}
 70
     0
280
     1
281
     0
  0
ENDTAB
  0
ENDSEC
  0
SECTION
  2
BLOCKS
  0
BLOCK
  5
20
330
1F
100
AcDbEntity
  8
0
100
AcDbBlockBegin
  2
*Model_Space
 70
     0
 10
0.0
 20
0.0
 30
0.0
  3
*Model_Space
  1

  0
ENDBLK
  5
21
330
1F
100
AcDbEntity
  8
0
100
AcDbBlockEnd
  0
BLOCK
  5
1C
330
1B
100
AcDbEntity
 67
     1
  8
0
100
AcDbBlockBegin
  2
*Paper_Space
 70
     0
 10
0.0
 20
0.0
 30
0.0
  3
*Paper_Space
  1

  0
ENDBLK
  5
1D
330
1B
100
AcDbEntity
 67
     1
  8
0
100
AcDbBlockEnd
  0
BLOCK
  5
24
330
23
100
AcDbEntity
  8
0
100
AcDbBlockBegin
  2
*Paper_Space0
 70
     0
 10
0.0
 20
0.0
 30
0.0
  3
*Paper_Space0
  1

  0
ENDBLK
  5
25
330
23
100
AcDbEntity
  8
0
100
AcDbBlockEnd
  0
BLOCK
  5
43
330
41
100
AcDbEntity
  8
0
100
AcDbBlockBegin
  2
block 2
 70
     0
 10
0.0
 20
0.0
 30
0.0
  3
block 2
  1

  0
POLYLINE
  5
45
330
41
100
AcDbEntity
  8
_U+30EC_U+30A4_U+30E4_U+30FC 1
 62
   179
420
  2234388
370
    25
100
AcDb2dPolyline
 66
     1
 10
0.0
 20
0.0
 30
0.0
  0
VERTEX
  5
46
330
45
100
AcDbEntity
  8
_U+30EC_U+30A4_U+30E4_U+30FC 1
 62
   179
420
  2234388
370
    25
100
AcDbVertex
100
AcDb2dVertex
 10
78.37868300039321
 20
-74.1715277592349
 30
0.0
  0
VERTEX
  5
47
330
45
100
AcDbEntity
  8
_U+30EC_U+30A4_U+30E4_U+30FC 1
 62
   179
420
  2234388
370
    25
100
AcDbVertex
100
AcDb2dVertex
 10
78.37868300039321
 20
-77.17151470292924
 30
0.0
  0
SEQEND
  5
48
330
45
100
AcDbEntity
  8
_U+30EC_U+30A4_U+30E4_U+30FC 1
 62
   179
420
  2234388
370
    25
  0
POLYLINE
  5
49
330
41
100
AcDbEntity
  8
_U+30EC_U+30A4_U+30E4_U+30FC 1
 62
   179
420
  2234388
370
    25
100
AcDb2dPolyline
 66
     1
 10
0.0
 20
0.0
 30
0.0
  0
VERTEX
  5
4A
330
49
100
AcDbEntity
  8
_U+30EC_U+30A4_U+30E4_U+30FC 1
 62
   179
420
  2234388
370
    25
100
AcDbVertex
100
AcDb2dVertex
 10
51.37827202256441
 20
-74.1715277592349
 30
0.0
  0
VERTEX
  5
4B
330
49
100
AcDbEntity
  8
_U+30EC_U+30A4_U+30E4_U+30FC 1
 62
   179
420
  2234388
370
    25
100
AcDbVertex
100
AcDb2dVertex
 10
51.37827202256441
 20
-99.17119553076283
 30
0.0
  0
SEQEND
  5
4C
330
49
100
AcDbEntity
  8
_U+30EC_U+30A4_U+30E4_U+30FC 1
 62
   179
420
  2234388
370
    25
  0
POLYLINE
  5
4D
330
41
100
AcDbEntity
  8
_U+30EC_U+30A4_U+30E4_U+30FC 1
 62
   179
420
  2234388
370
    25
100
AcDb2dPolyline
 66
     1
 10
0.0
 20
0.0
 30
0.0
  0
VERTEX
  5
4E
330
4D
100
AcDbEntity
  8
_U+30EC_U+30A4_U+30E4_U+30FC 1
 62
   179
420
  2234388
370
    25
100
AcDbVertex
100
AcDb2dVertex
 10
51.37827202256441
 20
-74.1715277592349
 30
0.0
  0
VERTEX
  5
4F
330
4D
100
AcDbEntity
  8
_U+30EC_U+30A4_U+30E4_U+30FC 1
 62
   179
420
  2234388
370
    25
100
AcDbVertex
100
AcDb2dVertex
 10
78.37868300039321
 20
-74.1715277592349
 30
0.0
  0
SEQEND
  5
50
330
4D
100
AcDbEntity
  8
_U+30EC_U+30A4_U+30E4_U+30FC 1
 62
   179
420
  2234388
370
    25
  0
POLYLINE
  5
51
330
41
100
AcDbEntity
  8
_U+30EC_U+30A4_U+30E4_U+30FC 1
 62
   179
420
  2234388
370
    25
100
AcDb2dPolyline
 66
     1
 10
0.0
 20
0.0
 30
0.0
  0
VERTEX
  5
52
330
51
100
AcDbEntity
  8
_U+30EC_U+30A4_U+30E4_U+30FC 1
 62
   179
420
  2234388
370
    25
100
AcDbVertex
100
AcDb2dVertex
 10
51.37827202256441
 20
-99.17119553076283
 30
0.0
  0
VERTEX
  5
53
330
51
100
AcDbEntity
  8
_U+30EC_U+30A4_U+30E4_U+30FC 1
 62
   179
420
  2234388
370
    25
100
AcDbVertex
100
AcDb2dVertex
 10
52.37836171927222
 20
-99.17119553076283
 30
0.0
  0
SEQEND
  5
54
330
51
100
AcDbEntity
  8
_U+30EC_U+30A4_U+30E4_U+30FC 1
 62
   179
420
  2234388
370
    25
  0
POLYLINE
  5
55
330
41
100
AcDbEntity
  8
_U+30EC_U+30A4_U+30E4_U+30FC 1
 62
   179
420
  2234388
370
    25
100
AcDb2dPolyline
 66
     1
 10
0.0
 20
0.0
 30
0.0
  0
VERTEX
  5
56
330
55
100
AcDbEntity
  8
_U+30EC_U+30A4_U+30E4_U+30FC 1
 62
   179
420
  2234388
370
    25
100
AcDbVertex
100
AcDb2dVertex
 10
52.37836171927222
 20
-75.17129998120711
 30
0.0
  0
VERTEX
  5
57
330
55
100
AcDbEntity
  8
_U+30EC_U+30A4_U+30E4_U+30FC 1
 62
   179
420
  2234388
370
    25
100
AcDbVertex
100
AcDb2dVertex
 10
52.37836171927222
 20
-99.17119553076283
 30
0.0
  0
SEQEND
  5
58
330
55
100
AcDbEntity
  8
_U+30EC_U+30A4_U+30E4_U+30FC 1
 62
   179
420
  2234388
370
    25
  0
POLYLINE
  5
59
330
41
100
AcDbEntity
  8
_U+30EC_U+30A4_U+30E4_U+30FC 1
 62
   179
420
  2234388
370
    25
100
AcDb2dPolyline
 66
     1
 10
0.0
 20
0.0
 30
0.0
  0
VERTEX
  5
5A
330
59
100
AcDbEntity
  8
_U+30EC_U+30A4_U+30E4_U+30FC 1
 62
   179
420
  2234388
370
    25
100
AcDbVertex
100
AcDb2dVertex
 10
52.37836171927222
 20
-75.17129998120711
 30
0.0
  0
VERTEX
  5
5B
330
59
100
AcDbEntity
  8
_U+30EC_U+30A4_U+30E4_U+30FC 1
 62
   179
420
  2234388
370
    25
100
AcDbVertex
100
AcDb2dVertex
 10
77.37820524813975
 20
-75.17129998120711
 30
0.0
  0
SEQEND
  5
5C
330
59
100
AcDbEntity
  8
_U+30EC_U+30A4_U+30E4_U+30FC 1
 62
   179
420
  2234388
370
    25
  0
POLYLINE
  5
5D
330
41
100
AcDbEntity
  8
_U+30EC_U+30A4_U+30E4_U+30FC 1
 62
   179
420
  2234388
370
    25
100
AcDb2dPolyline
 66
     1
 10
0.0
 20
0.0
 30
0.0
  0
VERTEX
  5
5E
330
5D
100
AcDbEntity
  8
_U+30EC_U+30A4_U+30E4_U+30FC 1
 62
   179
420
  2234388
370
    25
100
AcDbVertex
100
AcDb2dVertex
 10
68.37824464441454
 20
-77.17151470292924
 30
0.0
  0
VERTEX
  5
5F
330
5D
100
AcDbEntity
  8
_U+30EC_U+30A4_U+30E4_U+30FC 1
 62
   179
420
  2234388
370
    25
100
AcDbVertex
100
AcDb2dVertex
 10
78.37868300039321
 20
-77.17151470292924
 30
0.0
  0
SEQEND
  5
60
330
5D
100
AcDbEntity
  8
_U+30EC_U+30A4_U+30E4_U+30FC 1
 62
   179
420
  2234388
370
    25
  0
POLYLINE
  5
61
330
41
100
AcDbEntity
  8
_U+30EC_U+30A4_U+30E4_U+30FC 1
 62
   179
420
  2234388
370
    25
100
AcDb2dPolyline
 66
     1
 10
0.0
 20
0.0
 30
0.0
  0
VERTEX
  5
62
330
61
100
AcDbEntity
  8
_U+30EC_U+30A4_U+30E4_U+30FC 1
 62
   179
420
  2234388
370
    25
100
AcDbVertex
100
AcDb2dVertex
 10
77.37820524813975
 20
-75.17129998120711
 30
0.0
  0
VERTEX
  5
63
330
61
100
AcDbEntity
  8
_U+30EC_U+30A4_U+30E4_U+30FC 1
 62
   179
420
  2234388
370
    25
100
AcDbVertex
100
AcDb2dVertex
 10
77.37820524813975
 20
-76.17107220317934
 30
0.0
  0
SEQEND
  5
64
330
61
100
AcDbEntity
  8
_U+30EC_U+30A4_U+30E4_U+30FC 1
 62
   179
420
  2234388
370
    25
  0
POLYLINE
  5
65
330
41
100
AcDbEntity
  8
_U+30EC_U+30A4_U+30E4_U+30FC 1
 62
   179
420
  2234388
370
    25
100
AcDb2dPolyline
 66
     1
 10
0.0
 20
0.0
 30
0.0
  0
VERTEX
  5
66
330
65
100
AcDbEntity
  8
_U+30EC_U+30A4_U+30E4_U+30FC 1
 62
   179
420
  2234388
370
    25
100
AcDbVertex
100
AcDb2dVertex
 10
68.37824464441454
 20
-76.17107220317934
 30
0.0
  0
VERTEX
  5
67
330
65
100
AcDbEntity
  8
_U+30EC_U+30A4_U+30E4_U+30FC 1
 62
   179
420
  2234388
370
    25
100
AcDbVertex
100
AcDb2dVertex
 10
77.37820524813975
 20
-76.17107220317934
 30
0.0
  0
SEQEND
  5
68
330
65
100
AcDbEntity
  8
_U+30EC_U+30A4_U+30E4_U+30FC 1
 62
   179
420
  2234388
370
    25
  0
POLYLINE
  5
69
330
41
100
AcDbEntity
  8
_U+30EC_U+30A4_U+30E4_U+30FC 1
 62
   179
420
  2234388
370
    25
100
AcDb2dPolyline
 66
     1
 10
0.0
 20
0.0
 30
0.0
  0
VERTEX
  5
6A
330
69
100
AcDbEntity
  8
_U+30EC_U+30A4_U+30E4_U+30FC 1
 62
   179
420
  2234388
370
    25
100
AcDbVertex
100
AcDb2dVertex
 10
68.37824464441454
 20
-76.17107220317934
 30
0.0
  0
VERTEX
  5
6B
330
69
100
AcDbEntity
  8
_U+30EC_U+30A4_U+30E4_U+30FC 1
 62
   179
420
  2234388
370
    25
100
AcDbVertex
100
AcDb2dVertex
 10
68.37824464441454
 20
-77.17151470292924
 30
0.0
  0
SEQEND
  5
6C
330
69
100
AcDbEntity
  8
_U+30EC_U+30A4_U+30E4_U+30FC 1
 62
   179
420
  2234388
370
    25
  0
SPLINE
  5
6D
330
41
100
AcDbEntity
  8
_U+30EC_U+30A4_U+30E4_U+30FC 1
 62
   179
420
  2234388
370
     9
100
AcDbSpline
210
0.0
220
0.0
230
1.0
 70
    11
 71
     3
 72
    17
 73
    13
 74
     0
 42
0.0000000001
 43
0.0000000001
 12
1.0
 22
0.0
 32
0.0
 13
1.0
 23
0.0
 33
0.0
 40
0.0
 40
0.0
 40
0.0
 40
0.0
 40
1.0
 40
1.0
 40
1.0
 40
2.0
 40
2.0
 40
2.0
 40
3.0
 40
3.0
 40
3.0
 40
4.0
 40
4.0
 40
4.0
 40
4.0
 10
47.47841962205793
 20
-74.1715277592349
 30
0.0
 10
47.47841962205793
 20
-74.11571831480445
 30
0.0
 10
47.43361684542317
 20
-74.07091553703773
 30
0.0
 10
47.3785129579401
 20
-74.07091553703773
 30
0.0
 10
47.32302221039155
 20
-74.07091553703773
 30
0.0
 10
47.27860629382226
 20
-74.11571831480445
 30
0.0
 10
47.27860629382226
 20
-74.1715277592349
 30
0.0
 10
47.27860629382226
 20
-74.22666692588766
 30
0.0
 10
47.32302221039155
 20
-74.27143442587654
 30
0.0
 10
47.3785129579401
 20
-74.27143442587654
 30
0.0
 10
47.43361684542317
 20
-74.27143442587654
 30
0.0
 10
47.47841962205793
 20
-74.22666692588766
 30
0.0
 10
47.47841962205793
 20
-74.1715277592349
 30
0.0
  0
SPLINE
  5
6E
330
41
100
AcDbEntity
  8
_U+30EC_U+30A4_U+30E4_U+30FC 1
 62
   179
420
  2234388
370
     9
100
AcDbSpline
210
0.0
220
0.0
230
1.0
 70
    11
 71
     3
 72
    17
 73
    13
 74
     0
 42
0.0000000001
 43
0.0000000001
 12
1.0
 22
0.0
 32
0.0
 13
1.0
 23
0.0
 33
0.0
 40
0.0
 40
0.0
 40
0.0
 40
0.0
 40
1.0
 40
1.0
 40
1.0
 40
2.0
 40
2.0
 40
2.0
 40
3.0
 40
3.0
 40
3.0
 40
4.0
 40
4.0
 40
4.0
 40
4.0
 10
47.47841962205793
 20
-99.17119553076283
 30
0.0
 10
47.47841962205793
 20
-99.1160916418879
 30
0.0
 10
47.43361684542317
 20
-99.07128886412119
 30
0.0
 10
47.3785129579401
 20
-99.07128886412119
 30
0.0
 10
47.32302221039155
 20
-99.07128886412119
 30
0.0
 10
47.27860629382226
 20
-99.1160916418879
 30
0.0
 10
47.27860629382226
 20
-99.17119553076283
 30
0.0
 10
47.27860629382226
 20
-99.22633469741591
 30
0.0
 10
47.32302221039155
 20
-99.27110219740446
 30
0.0
 10
47.3785129579401
 20
-99.27110219740446
 30
0.0
 10
47.43361684542317
 20
-99.27110219740446
 30
0.0
 10
47.47841962205793
 20
-99.22633469741591
 30
0.0
 10
47.47841962205793
 20
-99.17119553076283
 30
0.0
  0
SPLINE
  5
6F
330
41
100
AcDbEntity
  8
_U+30EC_U+30A4_U+30E4_U+30FC 1
 62
   179
420
  2234388
370
     9
100
AcDbSpline
210
0.0
220
0.0
230
1.0
 70
    11
 71
     3
 72
    17
 73
    13
 74
     0
 42
0.0000000001
 43
0.0000000001
 12
1.0
 22
0.0
 32
0.0
 13
1.0
 23
0.0
 33
0.0
 40
0.0
 40
0.0
 40
0.0
 40
0.0
 40
1.0
 40
1.0
 40
1.0
 40
2.0
 40
2.0
 40
2.0
 40
3.0
 40
3.0
 40
3.0
 40
4.0
 40
4.0
 40
4.0
 40
4.0
 10
51.47817868668225
 20
-103.1716602519846
 30
0.0
 10
51.47817868668225
 20
-103.1158508075542
 30
0.0
 10
51.43337591004749
 20
-103.0710480297881
 30
0.0
 10
51.37827202256441
 20
-103.0710480297881
 30
0.0
 10
51.32313285730446
 20
-103.0710480297881
 30
0.0
 10
51.27836665384699
 20
-103.1158508075542
 30
0.0
 10
51.27836665384699
 20
-103.1716602519846
 30
0.0
 10
51.27836665384699
 20
-103.2267641408602
 30
0.0
 10
51.32313285730446
 20
-103.2715669186269
 30
0.0
 10
51.37827202256441
 20
-103.2715669186269
 30
0.0
 10
51.43337591004749
 20
-103.2715669186269
 30
0.0
 10
51.47817868668225
 20
-103.2267641408602
 30
0.0
 10
51.47817868668225
 20
-103.1716602519846
 30
0.0
  0
SPLINE
  5
70
330
41
100
AcDbEntity
  8
_U+30EC_U+30A4_U+30E4_U+30FC 1
 62
   179
420
  2234388
370
     9
100
AcDbSpline
210
0.0
220
0.0
230
1.0
 70
    11
 71
     3
 72
    17
 73
    13
 74
     0
 42
0.0000000001
 43
0.0000000001
 12
1.0
 22
0.0
 32
0.0
 13
1.0
 23
0.0
 33
0.0
 40
0.0
 40
0.0
 40
0.0
 40
0.0
 40
1.0
 40
1.0
 40
1.0
 40
2.0
 40
2.0
 40
2.0
 40
3.0
 40
3.0
 40
3.0
 40
4.0
 40
4.0
 40
4.0
 40
4.0
 10
52.47826838339006
 20
-103.1716602519846
 30
0.0
 10
52.47826838339006
 20
-103.1158508075542
 30
0.0
 10
52.43350088453217
 20
-103.0710480297881
 30
0.0
 10
52.37836171927222
 20
-103.0710480297881
 30
0.0
 10
52.32325783178915
 20
-103.0710480297881
 30
0.0
 10
52.27845505515439
 20
-103.1158508075542
 30
0.0
 10
52.27845505515439
 20
-103.1716602519846
 30
0.0
 10
52.27845505515439
 20
-103.2267641408602
 30
0.0
 10
52.32325783178915
 20
-103.2715669186269
 30
0.0
 10
52.37836171927222
 20
-103.2715669186269
 30
0.0
 10
52.43350088453217
 20
-103.2715669186269
 30
0.0
 10
52.47826838339006
 20
-103.2267641408602
 30
0.0
 10
52.47826838339006
 20
-103.1716602519846
 30
0.0
  0
SPLINE
  5
71
330
41
100
AcDbEntity
  8
_U+30EC_U+30A4_U+30E4_U+30FC 1
 62
   179
420
  2234388
370
     9
100
AcDbSpline
210
0.0
220
0.0
230
1.0
 70
    11
 71
     3
 72
    17
 73
    13
 74
     0
 42
0.0000000001
 43
0.0000000001
 12
1.0
 22
0.0
 32
0.0
 13
1.0
 23
0.0
 33
0.0
 40
0.0
 40
0.0
 40
0.0
 40
0.0
 40
1.0
 40
1.0
 40
1.0
 40
2.0
 40
2.0
 40
2.0
 40
3.0
 40
3.0
 40
3.0
 40
4.0
 40
4.0
 40
4.0
 40
4.0
 10
78.47859164704728
 20
-81.17127386859613
 30
0.0
 10
78.47859164704728
 20
-81.11613470194305
 30
0.0
 10
78.43378886928056
 20
-81.07136720195449
 30
0.0
 10
78.37868300039321
 20
-81.07136720195449
 30
0.0
 10
78.32354383513326
 20
-81.07136720195449
 30
0.0
 10
78.27877633627537
 20
-81.11613470194305
 30
0.0
 10
78.27877633627537
 20
-81.17127386859613
 30
0.0
 10
78.27877633627537
 20
-81.22637775747104
 30
0.0
 10
78.32354383513326
 20
-81.27118053523776
 30
0.0
 10
78.37868300039321
 20
-81.27118053523776
 30
0.0
 10
78.43378886928056
 20
-81.27118053523776
 30
0.0
 10
78.47859164704728
 20
-81.22637775747104
 30
0.0
 10
78.47859164704728
 20
-81.17127386859613
 30
0.0
  0
SPLINE
  5
72
330
41
100
AcDbEntity
  8
_U+30EC_U+30A4_U+30E4_U+30FC 1
 62
   179
420
  2234388
370
     9
100
AcDbSpline
210
0.0
220
0.0
230
1.0
 70
    11
 71
     3
 72
    17
 73
    13
 74
     0
 42
0.0000000001
 43
0.0000000001
 12
1.0
 22
0.0
 32
0.0
 13
1.0
 23
0.0
 33
0.0
 40
0.0
 40
0.0
 40
0.0
 40
0.0
 40
1.0
 40
1.0
 40
1.0
 40
2.0
 40
2.0
 40
2.0
 40
3.0
 40
3.0
 40
3.0
 40
4.0
 40
4.0
 40
4.0
 40
4.0
 10
68.47815130853238
 20
-81.17127386859613
 30
0.0
 10
68.47815130853238
 20
-81.11613470194305
 30
0.0
 10
68.43338380967448
 20
-81.07136720195449
 30
0.0
 10
68.37824464441454
 20
-81.07136720195449
 30
0.0
 10
68.32314075693147
 20
-81.07136720195449
 30
0.0
 10
68.2783379802967
 20
-81.11613470194305
 30
0.0
 10
68.2783379802967
 20
-81.17127386859613
 30
0.0
 10
68.2783379802967
 20
-81.22637775747104
 30
0.0
 10
68.32314075693147
 20
-81.27118053523776
 30
0.0
 10
68.37824464441454
 20
-81.27118053523776
 30
0.0
 10
68.43338380967448
 20
-81.27118053523776
 30
0.0
 10
68.47815130853238
 20
-81.22637775747104
 30
0.0
 10
68.47815130853238
 20
-81.17127386859613
 30
0.0
  0
SPLINE
  5
73
330
41
100
AcDbEntity
  8
_U+30EC_U+30A4_U+30E4_U+30FC 1
 62
   179
420
  2234388
370
     9
100
AcDbSpline
210
0.0
220
0.0
230
1.0
 70
    11
 71
     3
 72
    17
 73
    13
 74
     0
 42
0.0000000001
 43
0.0000000001
 12
1.0
 22
0.0
 32
0.0
 13
1.0
 23
0.0
 33
0.0
 40
0.0
 40
0.0
 40
0.0
 40
0.0
 40
1.0
 40
1.0
 40
1.0
 40
2.0
 40
2.0
 40
2.0
 40
3.0
 40
3.0
 40
3.0
 40
4.0
 40
4.0
 40
4.0
 40
4.0
 10
82.47901900689604
 20
-77.17151470292924
 30
0.0
 10
82.47901900689604
 20
-77.1157052584988
 30
0.0
 10
82.43425150803814
 20
-77.0716080362876
 30
0.0
 10
82.3791123427782
 20
-77.0716080362876
 30
0.0
 10
82.32330289975756
 20
-77.0716080362876
 30
0.0
 10
82.27853540089968
 20
-77.1157052584988
 30
0.0
 10
82.27853540089968
 20
-77.17151470292924
 30
0.0
 10
82.27853540089968
 20
-77.22665386958232
 30
0.0
 10
82.32330289975756
 20
-77.27142136957087
 30
0.0
 10
82.3791123427782
 20
-77.27142136957087
 30
0.0
 10
82.43425150803814
 20
-77.27142136957087
 30
0.0
 10
82.47901900689604
 20
-77.22665386958232
 30
0.0
 10
82.47901900689604
 20
-77.17151470292924
 30
0.0
  0
SPLINE
  5
74
330
41
100
AcDbEntity
  8
_U+30EC_U+30A4_U+30E4_U+30FC 1
 62
   179
420
  2234388
370
     9
100
AcDbSpline
210
0.0
220
0.0
230
1.0
 70
    11
 71
     3
 72
    17
 73
    13
 74
     0
 42
0.0000000001
 43
0.0000000001
 12
1.0
 22
0.0
 32
0.0
 13
1.0
 23
0.0
 33
0.0
 40
0.0
 40
0.0
 40
0.0
 40
0.0
 40
1.0
 40
1.0
 40
1.0
 40
2.0
 40
2.0
 40
2.0
 40
3.0
 40
3.0
 40
3.0
 40
4.0
 40
4.0
 40
4.0
 40
4.0
 10
82.47901900689604
 20
-74.1715277592349
 30
0.0
 10
82.47901900689604
 20
-74.11571831480445
 30
0.0
 10
82.43425150803814
 20
-74.07091553703773
 30
0.0
 10
82.3791123427782
 20
-74.07091553703773
 30
0.0
 10
82.32330289975756
 20
-74.07091553703773
 30
0.0
 10
82.27853540089968
 20
-74.11571831480445
 30
0.0
 10
82.27853540089968
 20
-74.1715277592349
 30
0.0
 10
82.27853540089968
 20
-74.22666692588766
 30
0.0
 10
82.32330289975756
 20
-74.27143442587654
 30
0.0
 10
82.3791123427782
 20
-74.27143442587654
 30
0.0
 10
82.43425150803814
 20
-74.27143442587654
 30
0.0
 10
82.47901900689604
 20
-74.22666692588766
 30
0.0
 10
82.47901900689604
 20
-74.1715277592349
 30
0.0
  0
SPLINE
  5
75
330
41
100
AcDbEntity
  8
_U+30EC_U+30A4_U+30E4_U+30FC 1
 62
   179
420
  2234388
370
     9
100
AcDbSpline
210
0.0
220
0.0
230
1.0
 70
    11
 71
     3
 72
    17
 73
    13
 74
     0
 42
0.0000000001
 43
0.0000000001
 12
1.0
 22
0.0
 32
0.0
 13
1.0
 23
0.0
 33
0.0
 40
0.0
 40
0.0
 40
0.0
 40
0.0
 40
1.0
 40
1.0
 40
1.0
 40
2.0
 40
2.0
 40
2.0
 40
3.0
 40
3.0
 40
3.0
 40
4.0
 40
4.0
 40
4.0
 40
4.0
 10
52.47826838339006
 20
-81.17127386859613
 30
0.0
 10
52.47826838339006
 20
-81.11613470194305
 30
0.0
 10
52.43350088453217
 20
-81.07136720195449
 30
0.0
 10
52.37836171927222
 20
-81.07136720195449
 30
0.0
 10
52.32325783178915
 20
-81.07136720195449
 30
0.0
 10
52.27845505515439
 20
-81.11613470194305
 30
0.0
 10
52.27845505515439
 20
-81.17127386859613
 30
0.0
 10
52.27845505515439
 20
-81.22637775747104
 30
0.0
 10
52.32325783178915
 20
-81.27118053523776
 30
0.0
 10
52.37836171927222
 20
-81.27118053523776
 30
0.0
 10
52.43350088453217
 20
-81.27118053523776
 30
0.0
 10
52.47826838339006
 20
-81.22637775747104
 30
0.0
 10
52.47826838339006
 20
-81.17127386859613
 30
0.0
  0
POLYLINE
  5
76
330
41
100
AcDbEntity
  8
_U+30EC_U+30A4_U+30E4_U+30FC 1
 62
   179
420
  2234388
370
     9
100
AcDb2dPolyline
 66
     1
 10
0.0
 20
0.0
 30
0.0
  0
VERTEX
  5
77
330
76
100
AcDbEntity
  8
_U+30EC_U+30A4_U+30E4_U+30FC 1
 62
   179
420
  2234388
370
     9
100
AcDbVertex
100
AcDb2dVertex
 10
82.3791123427782
 20
-74.1715277592349
 30
0.0
  0
VERTEX
  5
78
330
76
100
AcDbEntity
  8
_U+30EC_U+30A4_U+30E4_U+30FC 1
 62
   179
420
  2234388
370
     9
100
AcDbVertex
100
AcDb2dVertex
 10
82.3791123427782
 20
-77.17151470292924
 30
0.0
  0
SEQEND
  5
79
330
76
100
AcDbEntity
  8
_U+30EC_U+30A4_U+30E4_U+30FC 1
 62
   179
420
  2234388
370
     9
  0
POLYLINE
  5
7A
330
41
100
AcDbEntity
  8
_U+30EC_U+30A4_U+30E4_U+30FC 1
 62
   179
420
  2234388
370
     9
100
AcDb2dPolyline
 66
     1
 10
0.0
 20
0.0
 30
0.0
  0
VERTEX
  5
7B
330
7A
100
AcDbEntity
  8
_U+30EC_U+30A4_U+30E4_U+30FC 1
 62
   179
420
  2234388
370
     9
100
AcDbVertex
100
AcDb2dVertex
 10
80.9191083131037
 20
-74.1715277592349
 30
0.0
  0
VERTEX
  5
7C
330
7A
100
AcDbEntity
  8
_U+30EC_U+30A4_U+30E4_U+30FC 1
 62
   179
420
  2234388
370
     9
100
AcDbVertex
100
AcDb2dVertex
 10
83.37888453949411
 20
-74.1715277592349
 30
0.0
  0
SEQEND
  5
7D
330
7A
100
AcDbEntity
  8
_U+30EC_U+30A4_U+30E4_U+30FC 1
 62
   179
420
  2234388
370
     9
  0
POLYLINE
  5
7E
330
41
100
AcDbEntity
  8
_U+30EC_U+30A4_U+30E4_U+30FC 1
 62
   179
420
  2234388
370
     9
100
AcDb2dPolyline
 66
     1
 10
0.0
 20
0.0
 30
0.0
  0
VERTEX
  5
7F
330
7E
100
AcDbEntity
  8
_U+30EC_U+30A4_U+30E4_U+30FC 1
 62
   179
420
  2234388
370
     9
100
AcDbVertex
100
AcDb2dVertex
 10
80.9191083131037
 20
-77.17151470292924
 30
0.0
  0
VERTEX
  5
80
330
7E
100
AcDbEntity
  8
_U+30EC_U+30A4_U+30E4_U+30FC 1
 62
   179
420
  2234388
370
     9
100
AcDbVertex
100
AcDb2dVertex
 10
83.37888453949411
 20
-77.17151470292924
 30
0.0
  0
SEQEND
  5
81
330
7E
100
AcDbEntity
  8
_U+30EC_U+30A4_U+30E4_U+30FC 1
 62
   179
420
  2234388
370
     9
  0
INSERT
  5
83
330
41
100
AcDbEntity
  8
_U+30EC_U+30A4_U+30E4_U+30FC 1
100
AcDbBlockReference
  2
block 3
 10
0.0
 20
0.0
 30
0.0
  0
POLYLINE
  5
88
330
41
100
AcDbEntity
  8
_U+30EC_U+30A4_U+30E4_U+30FC 1
 62
   179
420
  2234388
370
     9
100
AcDb2dPolyline
 66
     1
 10
0.0
 20
0.0
 30
0.0
  0
VERTEX
  5
89
330
88
100
AcDbEntity
  8
_U+30EC_U+30A4_U+30E4_U+30FC 1
 62
   179
420
  2234388
370
     9
100
AcDbVertex
100
AcDb2dVertex
 10
47.3785129579401
 20
-74.1715277592349
 30
0.0
  0
VERTEX
  5
8A
330
88
100
AcDbEntity
  8
_U+30EC_U+30A4_U+30E4_U+30FC 1
 62
   179
420
  2234388
370
     9
100
AcDbVertex
100
AcDb2dVertex
 10
47.3785129579401
 20
-99.17119553076283
 30
0.0
  0
SEQEND
  5
8B
330
88
100
AcDbEntity
  8
_U+30EC_U+30A4_U+30E4_U+30FC 1
 62
   179
420
  2234388
370
     9
  0
POLYLINE
  5
8C
330
41
100
AcDbEntity
  8
_U+30EC_U+30A4_U+30E4_U+30FC 1
 62
   179
420
  2234388
370
     9
100
AcDb2dPolyline
 66
     1
 10
0.0
 20
0.0
 30
0.0
  0
VERTEX
  5
8D
330
8C
100
AcDbEntity
  8
_U+30EC_U+30A4_U+30E4_U+30FC 1
 62
   179
420
  2234388
370
     9
100
AcDbVertex
100
AcDb2dVertex
 10
48.83851903180335
 20
-74.1715277592349
 30
0.0
  0
VERTEX
  5
8E
330
8C
100
AcDbEntity
  8
_U+30EC_U+30A4_U+30E4_U+30FC 1
 62
   179
420
  2234388
370
     9
100
AcDbVertex
100
AcDb2dVertex
 10
46.37838798345542
 20
-74.1715277592349
 30
0.0
  0
SEQEND
  5
8F
330
8C
100
AcDbEntity
  8
_U+30EC_U+30A4_U+30E4_U+30FC 1
 62
   179
420
  2234388
370
     9
  0
POLYLINE
  5
90
330
41
100
AcDbEntity
  8
_U+30EC_U+30A4_U+30E4_U+30FC 1
 62
   179
420
  2234388
370
     9
100
AcDb2dPolyline
 66
     1
 10
0.0
 20
0.0
 30
0.0
  0
VERTEX
  5
91
330
90
100
AcDbEntity
  8
_U+30EC_U+30A4_U+30E4_U+30FC 1
 62
   179
420
  2234388
370
     9
100
AcDbVertex
100
AcDb2dVertex
 10
48.83851903180335
 20
-99.17119553076283
 30
0.0
  0
VERTEX
  5
92
330
90
100
AcDbEntity
  8
_U+30EC_U+30A4_U+30E4_U+30FC 1
 62
   179
420
  2234388
370
     9
100
AcDbVertex
100
AcDb2dVertex
 10
46.37838798345542
 20
-99.17119553076283
 30
0.0
  0
SEQEND
  5
93
330
90
100
AcDbEntity
  8
_U+30EC_U+30A4_U+30E4_U+30FC 1
 62
   179
420
  2234388
370
     9
  0
INSERT
  5
95
330
41
100
AcDbEntity
  8
_U+30EC_U+30A4_U+30E4_U+30FC 1
100
AcDbBlockReference
  2
block 4
 10
0.0
 20
0.0
 30
0.0
  0
POLYLINE
  5
9C
330
41
100
AcDbEntity
  8
_U+30EC_U+30A4_U+30E4_U+30FC 1
 62
   179
420
  2234388
370
     9
100
AcDb2dPolyline
 66
     1
 10
0.0
 20
0.0
 30
0.0
  0
VERTEX
  5
9D
330
9C
100
AcDbEntity
  8
_U+30EC_U+30A4_U+30E4_U+30FC 1
 62
   179
420
  2234388
370
     9
100
AcDbVertex
100
AcDb2dVertex
 10
68.37824464441454
 20
-81.17127386859613
 30
0.0
  0
VERTEX
  5
9E
330
9C
100
AcDbEntity
  8
_U+30EC_U+30A4_U+30E4_U+30FC 1
 62
   179
420
  2234388
370
     9
100
AcDbVertex
100
AcDb2dVertex
 10
78.37868300039321
 20
-81.17127386859613
 30
0.0
  0
SEQEND
  5
9F
330
9C
100
AcDbEntity
  8
_U+30EC_U+30A4_U+30E4_U+30FC 1
 62
   179
420
  2234388
370
     9
  0
POLYLINE
  5
A0
330
41
100
AcDbEntity
  8
_U+30EC_U+30A4_U+30E4_U+30FC 1
 62
   179
420
  2234388
370
     9
100
AcDb2dPolyline
 66
     1
 10
0.0
 20
0.0
 30
0.0
  0
VERTEX
  5
A1
330
A0
100
AcDbEntity
  8
_U+30EC_U+30A4_U+30E4_U+30FC 1
 62
   179
420
  2234388
370
     9
100
AcDbVertex
100
AcDb2dVertex
 10
68.37824464441454
 20
-79.7112324800721
 30
0.0
  0
VERTEX
  5
A2
330
A0
100
AcDbEntity
  8
_U+30EC_U+30A4_U+30E4_U+30FC 1
 62
   179
420
  2234388
370
     9
100
AcDbVertex
100
AcDb2dVertex
 10
68.37824464441454
 20
-82.17171636834603
 30
0.0
  0
SEQEND
  5
A3
330
A0
100
AcDbEntity
  8
_U+30EC_U+30A4_U+30E4_U+30FC 1
 62
   179
420
  2234388
370
     9
  0
POLYLINE
  5
A4
330
41
100
AcDbEntity
  8
_U+30EC_U+30A4_U+30E4_U+30FC 1
 62
   179
420
  2234388
370
     9
100
AcDb2dPolyline
 66
     1
 10
0.0
 20
0.0
 30
0.0
  0
VERTEX
  5
A5
330
A4
100
AcDbEntity
  8
_U+30EC_U+30A4_U+30E4_U+30FC 1
 62
   179
420
  2234388
370
     9
100
AcDbVertex
100
AcDb2dVertex
 10
78.37868300039321
 20
-79.7112324800721
 30
0.0
  0
VERTEX
  5
A6
330
A4
100
AcDbEntity
  8
_U+30EC_U+30A4_U+30E4_U+30FC 1
 62
   179
420
  2234388
370
     9
100
AcDbVertex
100
AcDb2dVertex
 10
78.37868300039321
 20
-82.17171636834603
 30
0.0
  0
SEQEND
  5
A7
330
A4
100
AcDbEntity
  8
_U+30EC_U+30A4_U+30E4_U+30FC 1
 62
   179
420
  2234388
370
     9
  0
INSERT
  5
A9
330
41
100
AcDbEntity
  8
_U+30EC_U+30A4_U+30E4_U+30FC 1
100
AcDbBlockReference
  2
block 5
 10
0.0
 20
0.0
 30
0.0
  0
POLYLINE
  5
B1
330
41
100
AcDbEntity
  8
_U+30EC_U+30A4_U+30E4_U+30FC 1
 62
   179
420
  2234388
370
     9
100
AcDb2dPolyline
 66
     1
 10
0.0
 20
0.0
 30
0.0
  0
VERTEX
  5
B2
330
B1
100
AcDbEntity
  8
_U+30EC_U+30A4_U+30E4_U+30FC 1
 62
   179
420
  2234388
370
     9
100
AcDbVertex
100
AcDb2dVertex
 10
52.37836171927222
 20
-103.1716602519846
 30
0.0
  0
VERTEX
  5
B3
330
B1
100
AcDbEntity
  8
_U+30EC_U+30A4_U+30E4_U+30FC 1
 62
   179
420
  2234388
370
     9
100
AcDbVertex
100
AcDb2dVertex
 10
56.14867412308354
 20
-103.1716602519846
 30
0.0
  0
SEQEND
  5
B4
330
B1
100
AcDbEntity
  8
_U+30EC_U+30A4_U+30E4_U+30FC 1
 62
   179
420
  2234388
370
     9
  0
POLYLINE
  5
B5
330
41
100
AcDbEntity
  8
_U+30EC_U+30A4_U+30E4_U+30FC 1
 62
   179
420
  2234388
370
     9
100
AcDb2dPolyline
 66
     1
 10
0.0
 20
0.0
 30
0.0
  0
VERTEX
  5
B6
330
B5
100
AcDbEntity
  8
_U+30EC_U+30A4_U+30E4_U+30FC 1
 62
   179
420
  2234388
370
     9
100
AcDbVertex
100
AcDb2dVertex
 10
52.37836171927222
 20
-103.1716602519846
 30
0.0
  0
VERTEX
  5
B7
330
B5
100
AcDbEntity
  8
_U+30EC_U+30A4_U+30E4_U+30FC 1
 62
   179
420
  2234388
370
     9
100
AcDbVertex
100
AcDb2dVertex
 10
50.37849982584851
 20
-103.1716602519846
 30
0.0
  0
SEQEND
  5
B8
330
B5
100
AcDbEntity
  8
_U+30EC_U+30A4_U+30E4_U+30FC 1
 62
   179
420
  2234388
370
     9
  0
POLYLINE
  5
B9
330
41
100
AcDbEntity
  8
_U+30EC_U+30A4_U+30E4_U+30FC 1
 62
   179
420
  2234388
370
     9
100
AcDb2dPolyline
 66
     1
 10
0.0
 20
0.0
 30
0.0
  0
VERTEX
  5
BA
330
B9
100
AcDbEntity
  8
_U+30EC_U+30A4_U+30E4_U+30FC 1
 62
   179
420
  2234388
370
     9
100
AcDbVertex
100
AcDb2dVertex
 10
52.37836171927222
 20
-101.7116188634609
 30
0.0
  0
VERTEX
  5
BB
330
B9
100
AcDbEntity
  8
_U+30EC_U+30A4_U+30E4_U+30FC 1
 62
   179
420
  2234388
370
     9
100
AcDbVertex
100
AcDb2dVertex
 10
52.37836171927222
 20
-104.1714324739571
 30
0.0
  0
SEQEND
  5
BC
330
B9
100
AcDbEntity
  8
_U+30EC_U+30A4_U+30E4_U+30FC 1
 62
   179
420
  2234388
370
     9
  0
POLYLINE
  5
BD
330
41
100
AcDbEntity
  8
_U+30EC_U+30A4_U+30E4_U+30FC 1
 62
   179
420
  2234388
370
     9
100
AcDb2dPolyline
 66
     1
 10
0.0
 20
0.0
 30
0.0
  0
VERTEX
  5
BE
330
BD
100
AcDbEntity
  8
_U+30EC_U+30A4_U+30E4_U+30FC 1
 62
   179
420
  2234388
370
     9
100
AcDbVertex
100
AcDb2dVertex
 10
51.37827202256441
 20
-101.7116188634609
 30
0.0
  0
VERTEX
  5
BF
330
BD
100
AcDbEntity
  8
_U+30EC_U+30A4_U+30E4_U+30FC 1
 62
   179
420
  2234388
370
     9
100
AcDbVertex
100
AcDb2dVertex
 10
51.37827202256441
 20
-104.1714324739571
 30
0.0
  0
SEQEND
  5
C0
330
BD
100
AcDbEntity
  8
_U+30EC_U+30A4_U+30E4_U+30FC 1
 62
   179
420
  2234388
370
     9
  0
INSERT
  5
C2
330
41
100
AcDbEntity
  8
_U+30EC_U+30A4_U+30E4_U+30FC 1
100
AcDbBlockReference
  2
block 6
 10
0.0
 20
0.0
 30
0.0
  0
POLYLINE
  5
C7
330
41
100
AcDbEntity
  8
_U+30EC_U+30A4_U+30E4_U+30FC 1
 62
   179
420
  2234388
370
     9
100
AcDb2dPolyline
 66
     1
 10
0.0
 20
0.0
 30
0.0
  0
VERTEX
  5
C8
330
C7
100
AcDbEntity
  8
_U+30EC_U+30A4_U+30E4_U+30FC 1
 62
   179
420
  2234388
370
     9
100
AcDbVertex
100
AcDb2dVertex
 10
68.37824464441454
 20
-81.17127386859613
 30
0.0
  0
VERTEX
  5
C9
330
C7
100
AcDbEntity
  8
_U+30EC_U+30A4_U+30E4_U+30FC 1
 62
   179
420
  2234388
370
     9
100
AcDbVertex
100
AcDb2dVertex
 10
52.37836171927222
 20
-81.17127386859613
 30
0.0
  0
SEQEND
  5
CA
330
C7
100
AcDbEntity
  8
_U+30EC_U+30A4_U+30E4_U+30FC 1
 62
   179
420
  2234388
370
     9
  0
INSERT
  5
CC
330
41
100
AcDbEntity
  8
_U+30EC_U+30A4_U+30E4_U+30FC 1
100
AcDbBlockReference
  2
block 7
 10
0.0
 20
0.0
 30
0.0
  0
ENDBLK
  5
44
330
41
100
AcDbEntity
  8
0
100
AcDbBlockEnd
  0
BLOCK
  5
84
330
82
100
AcDbEntity
  8
0
100
AcDbBlockBegin
  2
block 3
 70
     0
 10
0.0
 20
0.0
 30
0.0
  3
block 3
  1

  0
SPLINE
  5
86
330
82
100
AcDbEntity
  8
_U+30EC_U+30A4_U+30E4_U+30FC 1
370
     0
100
AcDbSpline
210
0.0
220
0.0
230
1.0
 70
    11
 71
     3
 72
    62
 73
    58
 74
     0
 42
0.0000000001
 43
0.0000000001
 12
1.0
 22
0.0
 32
0.0
 13
1.0
 23
0.0
 33
0.0
 40
0.0
 40
0.0
 40
0.0
 40
0.0
 40
1.0
 40
1.0
 40
1.0
 40
2.0
 40
2.0
 40
2.0
 40
3.0
 40
3.0
 40
3.0
 40
4.0
 40
4.0
 40
4.0
 40
5.0
 40
5.0
 40
5.0
 40
6.0
 40
6.0
 40
6.0
 40
7.0
 40
7.0
 40
7.0
 40
8.0
 40
8.0
 40
8.0
 40
9.0
 40
9.0
 40
9.0
 40
10.0
 40
10.0
 40
10.0
 40
11.0
 40
11.0
 40
11.0
 40
12.0
 40
12.0
 40
12.0
 40
13.0
 40
13.0
 40
13.0
 40
14.0
 40
14.0
 40
14.0
 40
15.0
 40
15.0
 40
15.0
 40
16.0
 40
16.0
 40
16.0
 40
17.0
 40
17.0
 40
17.0
 40
18.0
 40
18.0
 40
18.0
 40
19.0
 40
19.0
 40
19.0
 40
19.0
 10
81.12752005350285
 20
-75.63844941685429
 30
0.0
 10
81.12752005350285
 20
-75.74007973366915
 30
0.0
 10
81.10650497104282
 20
-75.97296818847204
 30
0.0
 10
80.92046981483934
 20
-76.10646563852546
 30
0.0
 10
80.80815970202019
 20
-76.18553057991195
 30
0.0
 10
80.708940952045
 20
-76.19000920404278
 30
0.0
 10
80.62419160310785
 20
-76.1944878281736
 30
0.0
 10
80.62419160310785
 20
-76.1944878281736
 30
0.0
 10
80.62419160310785
 20
-75.95953231607956
 30
0.0
 10
80.62419160310785
 20
-75.95953231607956
 30
0.0
 10
80.69826115604072
 20
-75.95712074923989
 30
0.0
 10
80.93287215858624
 20
-75.94592418891283
 30
0.0
 10
80.93287215858624
 20
-75.64292804098511
 30
0.0
 10
80.93287215858624
 20
-75.4959947185392
 30
0.0
 10
80.86328122978418
 20
-75.33321395686114
 30
0.0
 10
80.63487139911211
 20
-75.33321395686114
 30
0.0
 10
80.51842717171067
 20
-75.33321395686114
 30
0.0
 10
80.46985132536865
 20
-75.37386608358709
 30
0.0
 10
80.43815644690436
 20
-75.40780027411681
 30
0.0
 10
80.36408689397147
 20
-75.48686521550329
 30
0.0
 10
80.35134004067606
 20
-75.6112331625208
 30
0.0
 10
80.35134004067606
 20
-75.67014429531858
 30
0.0
 10
80.35134004067606
 20
-75.69047035868155
 30
0.0
 10
80.3534070979672
 20
-75.72888317334208
 30
0.0
 10
80.3575412125495
 20
-75.75816648496671
 30
0.0
 10
80.3575412125495
 20
-75.75816648496671
 30
0.0
 10
80.16289331763289
 20
-75.75816648496671
 30
0.0
 10
80.16289331763289
 20
-75.75816648496671
 30
0.0
 10
80.16943899905486
 20
-75.71751435824076
 30
0.0
 10
80.17150605634602
 20
-75.67238360738399
 30
0.0
 10
80.17150605634602
 20
-75.6654934164135
 30
0.0
 10
80.17150605634602
 20
-75.59538572328866
 30
0.0
 10
80.15014646433747
 20
-75.38299558662301
 30
0.0
 10
79.9134684045008
 20
-75.38299558662301
 30
0.0
 10
79.73570147746192
 20
-75.38299558662301
 30
0.0
 10
79.68057994969791
 20
-75.5230387180984
 30
0.0
 10
79.68057994969791
 20
-75.6406887289197
 30
0.0
 10
79.68057994969791
 20
-75.92335881348444
 30
0.0
 10
79.9134684045008
 20
-75.93231606174609
 30
0.0
 10
79.985126390594
 20
-75.93679468587692
 30
0.0
 10
79.985126390594
 20
-75.93679468587692
 30
0.0
 10
79.985126390594
 20
-76.15383570144766
 30
0.0
 10
79.985126390594
 20
-76.15383570144766
 30
0.0
 10
79.86041393402796
 20
-76.14487845318601
 30
0.0
 10
79.48386499749014
 20
-76.11542288678712
 30
0.0
 10
79.48386499749014
 20
-75.62708060175295
 30
0.0
 10
79.48386499749014
 20
-75.38747421075382
 30
0.0
 10
79.61098902089587
 20
-75.12978106845713
 30
0.0
 10
79.90692272307882
 20
-75.12978106845713
 30
0.0
 10
80.09330238883085
 20
-75.12978106845713
 30
0.0
 10
80.17564017092832
 20
-75.23141138527201
 30
0.0
 10
80.23696287056576
 20
-75.33769258099197
 30
0.0
 10
80.26452363444776
 20
-75.27223576677223
 30
0.0
 10
80.34479435925408
 20
-75.07776012662987
 30
0.0
 10
80.62212454581669
 20
-75.07776012662987
 30
0.0
 10
80.96043292246823
 20
-75.07776012662987
 30
0.0
 10
81.12752005350285
 20
-75.3421712051228
 30
0.0
 10
81.12752005350285
 20
-75.63844941685429
 30
0.0
  0
HATCH
  5
87
330
82
100
AcDbEntity
  8
_U+30EC_U+30A4_U+30E4_U+30FC 1
 62
   179
420
  2234388
100
AcDbHatch
 10
0.0
 20
0.0
 30
0.0
210
0.0
220
0.0
230
1.0
  2
SOLID
 70
     1
 71
     0
 91
        1
 92
        1
 93
        1
 72
     4
 94
        3
 73
     0
 74
     1
 95
       62
 96
       58
 40
0.0
 40
0.0
 40
0.0
 40
0.0
 40
1.0
 40
1.0
 40
1.0
 40
2.0
 40
2.0
 40
2.0
 40
3.0
 40
3.0
 40
3.0
 40
4.0
 40
4.0
 40
4.0
 40
5.0
 40
5.0
 40
5.0
 40
6.0
 40
6.0
 40
6.0
 40
7.0
 40
7.0
 40
7.0
 40
8.0
 40
8.0
 40
8.0
 40
9.0
 40
9.0
 40
9.0
 40
10.0
 40
10.0
 40
10.0
 40
11.0
 40
11.0
 40
11.0
 40
12.0
 40
12.0
 40
12.0
 40
13.0
 40
13.0
 40
13.0
 40
14.0
 40
14.0
 40
14.0
 40
15.0
 40
15.0
 40
15.0
 40
16.0
 40
16.0
 40
16.0
 40
17.0
 40
17.0
 40
17.0
 40
18.0
 40
18.0
 40
18.0
 40
19.0
 40
19.0
 40
19.0
 40
19.0
 10
81.12752005350285
 20
-75.63844941685429
 10
81.12752005350285
 20
-75.74007973366915
 10
81.10650497104282
 20
-75.97296818847204
 10
80.92046981483934
 20
-76.10646563852546
 10
80.80815970202019
 20
-76.18553057991195
 10
80.708940952045
 20
-76.19000920404278
 10
80.62419160310785
 20
-76.1944878281736
 10
80.62419160310785
 20
-76.1944878281736
 10
80.62419160310785
 20
-75.95953231607956
 10
80.62419160310785
 20
-75.95953231607956
 10
80.69826115604072
 20
-75.95712074923989
 10
80.93287215858624
 20
-75.94592418891283
 10
80.93287215858624
 20
-75.64292804098511
 10
80.93287215858624
 20
-75.4959947185392
 10
80.86328122978418
 20
-75.33321395686114
 10
80.63487139911211
 20
-75.33321395686114
 10
80.51842717171067
 20
-75.33321395686114
 10
80.46985132536865
 20
-75.37386608358709
 10
80.43815644690436
 20
-75.40780027411681
 10
80.36408689397147
 20
-75.48686521550329
 10
80.35134004067606
 20
-75.6112331625208
 10
80.35134004067606
 20
-75.67014429531858
 10
80.35134004067606
 20
-75.69047035868155
 10
80.3534070979672
 20
-75.72888317334208
 10
80.3575412125495
 20
-75.75816648496671
 10
80.3575412125495
 20
-75.75816648496671
 10
80.16289331763289
 20
-75.75816648496671
 10
80.16289331763289
 20
-75.75816648496671
 10
80.16943899905486
 20
-75.71751435824076
 10
80.17150605634602
 20
-75.67238360738399
 10
80.17150605634602
 20
-75.6654934164135
 10
80.17150605634602
 20
-75.59538572328866
 10
80.15014646433747
 20
-75.38299558662301
 10
79.9134684045008
 20
-75.38299558662301
 10
79.73570147746192
 20
-75.38299558662301
 10
79.68057994969791
 20
-75.5230387180984
 10
79.68057994969791
 20
-75.6406887289197
 10
79.68057994969791
 20
-75.92335881348444
 10
79.9134684045008
 20
-75.93231606174609
 10
79.985126390594
 20
-75.93679468587692
 10
79.985126390594
 20
-75.93679468587692
 10
79.985126390594
 20
-76.15383570144766
 10
79.985126390594
 20
-76.15383570144766
 10
79.86041393402796
 20
-76.14487845318601
 10
79.48386499749014
 20
-76.11542288678712
 10
79.48386499749014
 20
-75.62708060175295
 10
79.48386499749014
 20
-75.38747421075382
 10
79.61098902089587
 20
-75.12978106845713
 10
79.90692272307882
 20
-75.12978106845713
 10
80.09330238883085
 20
-75.12978106845713
 10
80.17564017092832
 20
-75.23141138527201
 10
80.23696287056576
 20
-75.33769258099197
 10
80.26452363444776
 20
-75.27223576677223
 10
80.34479435925408
 20
-75.07776012662987
 10
80.62212454581669
 20
-75.07776012662987
 10
80.96043292246823
 20
-75.07776012662987
 10
81.12752005350285
 20
-75.3421712051228
 10
81.12752005350285
 20
-75.63844941685429
 97
        0
 97
        0
 75
     2
 76
     1
 98
        0
  0
ENDBLK
  5
85
330
82
100
AcDbEntity
  8
0
100
AcDbBlockEnd
  0
BLOCK
  5
96
330
94
100
AcDbEntity
  8
0
100
AcDbBlockBegin
  2
block 4
 70
     0
 10
0.0
 20
0.0
 30
0.0
  3
block 4
  1

  0
SPLINE
  5
98
330
94
100
AcDbEntity
  8
_U+30EC_U+30A4_U+30E4_U+30FC 1
370
     0
100
AcDbSpline
210
0.0
220
0.0
230
1.0
 70
    11
 71
     3
 72
    44
 73
    40
 74
     0
 42
0.0000000001
 43
0.0000000001
 12
1.0
 22
0.0
 32
0.0
 13
1.0
 23
0.0
 33
0.0
 40
0.0
 40
0.0
 40
0.0
 40
0.0
 40
1.0
 40
1.0
 40
1.0
 40
2.0
 40
2.0
 40
2.0
 40
3.0
 40
3.0
 40
3.0
 40
4.0
 40
4.0
 40
4.0
 40
5.0
 40
5.0
 40
5.0
 40
6.0
 40
6.0
 40
6.0
 40
7.0
 40
7.0
 40
7.0
 40
8.0
 40
8.0
 40
8.0
 40
9.0
 40
9.0
 40
9.0
 40
10.0
 40
10.0
 40
10.0
 40
11.0
 40
11.0
 40
11.0
 40
12.0
 40
12.0
 40
12.0
 40
13.0
 40
13.0
 40
13.0
 40
13.0
 10
45.49420843046673
 20
-87.19777829851306
 30
0.0
 10
45.65285507756249
 20
-87.43066675331595
 30
0.0
 10
45.72692463049535
 20
-87.53023001283967
 30
0.0
 10
45.87075736700454
 20
-87.58225095466695
 30
0.0
 10
45.87075736700454
 20
-87.58225095466695
 30
0.0
 10
45.87075736700454
 20
-86.74991588543058
 30
0.0
 10
45.87075736700454
 20
-86.74991588543058
 30
0.0
 10
45.87075736700454
 20
-86.74991588543058
 30
0.0
 10
46.07591280315116
 20
-86.74991588543058
 30
0.0
 10
46.07591280315116
 20
-86.74991588543058
 30
0.0
 10
46.07591280315116
 20
-86.74991588543058
 30
0.0
 10
46.07591280315116
 20
-87.84890134522527
 30
0.0
 10
46.07591280315116
 20
-87.84890134522527
 30
0.0
 10
45.71831189178223
 20
-87.81479489992131
 30
0.0
 10
45.64010822426706
 20
-87.74485946157074
 30
0.0
 10
45.34176295524442
 20
-87.3335150606319
 30
0.0
 10
45.14298094574551
 20
-87.05997447910306
 30
0.0
 10
45.07528481946035
 20
-86.98969453120397
 30
0.0
 10
44.93782550959888
 20
-86.98969453120397
 30
0.0
 10
44.81931422490629
 20
-86.98969453120397
 30
0.0
 10
44.68822834169253
 20
-87.06652016052504
 30
0.0
 10
44.68822834169253
 20
-87.2770154946738
 30
0.0
 10
44.68822834169253
 20
-87.55503470033347
 30
0.0
 10
44.91870522965574
 20
-87.56399194859512
 30
0.0
 10
45.03514945705719
 20
-87.56847057272594
 30
0.0
 10
45.03514945705719
 20
-87.56847057272594
 30
0.0
 10
45.03514945705719
 20
-87.80824921849933
 30
0.0
 10
45.03514945705719
 20
-87.80824921849933
 30
0.0
 10
44.90819768842573
 20
-87.79929197023768
 30
0.0
 10
44.79605983038085
 20
-87.78792315513635
 30
0.0
 10
44.67754854568825
 20
-87.70179576800511
 30
0.0
 10
44.51683484130135
 20
-87.58431801195809
 30
0.0
 10
44.48290065077164
 20
-87.38553600245918
 30
0.0
 10
44.48290065077164
 20
-87.26116805544166
 30
0.0
 10
44.48290065077164
 20
-86.96488984371017
 30
0.0
 10
44.66704100445824
 20
-86.7433702040086
 30
0.0
 10
44.93989256689003
 20
-86.7433702040086
 30
0.0
 10
45.16830239756209
 20
-86.7433702040086
 30
0.0
 10
45.26786565708581
 20
-86.86773815102613
 30
0.0
 10
45.49420843046673
 20
-87.19777829851306
 30
0.0
  0
HATCH
  5
99
330
94
100
AcDbEntity
  8
_U+30EC_U+30A4_U+30E4_U+30FC 1
 62
   179
420
  2234388
100
AcDbHatch
 10
0.0
 20
0.0
 30
0.0
210
0.0
220
0.0
230
1.0
  2
SOLID
 70
     1
 71
     0
 91
        1
 92
        1
 93
        1
 72
     4
 94
        3
 73
     0
 74
     1
 95
       44
 96
       40
 40
0.0
 40
0.0
 40
0.0
 40
0.0
 40
1.0
 40
1.0
 40
1.0
 40
2.0
 40
2.0
 40
2.0
 40
3.0
 40
3.0
 40
3.0
 40
4.0
 40
4.0
 40
4.0
 40
5.0
 40
5.0
 40
5.0
 40
6.0
 40
6.0
 40
6.0
 40
7.0
 40
7.0
 40
7.0
 40
8.0
 40
8.0
 40
8.0
 40
9.0
 40
9.0
 40
9.0
 40
10.0
 40
10.0
 40
10.0
 40
11.0
 40
11.0
 40
11.0
 40
12.0
 40
12.0
 40
12.0
 40
13.0
 40
13.0
 40
13.0
 40
13.0
 10
45.49420843046673
 20
-87.19777829851306
 10
45.65285507756249
 20
-87.43066675331595
 10
45.72692463049535
 20
-87.53023001283967
 10
45.87075736700454
 20
-87.58225095466695
 10
45.87075736700454
 20
-87.58225095466695
 10
45.87075736700454
 20
-86.74991588543058
 10
45.87075736700454
 20
-86.74991588543058
 10
45.87075736700454
 20
-86.74991588543058
 10
46.07591280315116
 20
-86.74991588543058
 10
46.07591280315116
 20
-86.74991588543058
 10
46.07591280315116
 20
-86.74991588543058
 10
46.07591280315116
 20
-87.84890134522527
 10
46.07591280315116
 20
-87.84890134522527
 10
45.71831189178223
 20
-87.81479489992131
 10
45.64010822426706
 20
-87.74485946157074
 10
45.34176295524442
 20
-87.3335150606319
 10
45.14298094574551
 20
-87.05997447910306
 10
45.07528481946035
 20
-86.98969453120397
 10
44.93782550959888
 20
-86.98969453120397
 10
44.81931422490629
 20
-86.98969453120397
 10
44.68822834169253
 20
-87.06652016052504
 10
44.68822834169253
 20
-87.2770154946738
 10
44.68822834169253
 20
-87.55503470033347
 10
44.91870522965574
 20
-87.56399194859512
 10
45.03514945705719
 20
-87.56847057272594
 10
45.03514945705719
 20
-87.56847057272594
 10
45.03514945705719
 20
-87.80824921849933
 10
45.03514945705719
 20
-87.80824921849933
 10
44.90819768842573
 20
-87.79929197023768
 10
44.79605983038085
 20
-87.78792315513635
 10
44.67754854568825
 20
-87.70179576800511
 10
44.51683484130135
 20
-87.58431801195809
 10
44.48290065077164
 20
-87.38553600245918
 10
44.48290065077164
 20
-87.26116805544166
 10
44.48290065077164
 20
-86.96488984371017
 10
44.66704100445824
 20
-86.7433702040086
 10
44.93989256689003
 20
-86.7433702040086
 10
45.16830239756209
 20
-86.7433702040086
 10
45.26786565708581
 20
-86.86773815102613
 10
45.49420843046673
 20
-87.19777829851306
 97
        0
 97
        0
 75
     2
 76
     1
 98
        0
  0
SPLINE
  5
9A
330
94
100
AcDbEntity
  8
_U+30EC_U+30A4_U+30E4_U+30FC 1
370
     0
100
AcDbSpline
210
0.0
220
0.0
230
1.0
 70
    11
 71
     3
 72
    53
 73
    49
 74
     0
 42
0.0000000001
 43
0.0000000001
 12
1.0
 22
0.0
 32
0.0
 13
1.0
 23
0.0
 33
0.0
 40
0.0
 40
0.0
 40
0.0
 40
0.0
 40
1.0
 40
1.0
 40
1.0
 40
2.0
 40
2.0
 40
2.0
 40
3.0
 40
3.0
 40
3.0
 40
4.0
 40
4.0
 40
4.0
 40
5.0
 40
5.0
 40
5.0
 40
6.0
 40
6.0
 40
6.0
 40
7.0
 40
7.0
 40
7.0
 40
8.0
 40
8.0
 40
8.0
 40
9.0
 40
9.0
 40
9.0
 40
10.0
 40
10.0
 40
10.0
 40
11.0
 40
11.0
 40
11.0
 40
12.0
 40
12.0
 40
12.0
 40
13.0
 40
13.0
 40
13.0
 40
14.0
 40
14.0
 40
14.0
 40
15.0
 40
15.0
 40
15.0
 40
16.0
 40
16.0
 40
16.0
 40
16.0
 10
46.1267279615586
 20
-86.05986325973504
 30
0.0
 10
46.1267279615586
 20
-86.14357908002661
 30
0.0
 10
46.10967473890661
 20
-86.25175507826346
 30
0.0
 10
46.04628498197801
 20
-86.36062009559735
 30
0.0
 10
45.93621418122428
 20
-86.54596623270379
 30
0.0
 10
45.80512829801052
 20
-86.56835935335792
 30
0.0
 10
45.6972968093222
 20
-86.58868541672089
 30
0.0
 10
45.6972968093222
 20
-86.58868541672089
 30
0.0
 10
45.6972968093222
 20
-86.35131833778718
 30
0.0
 10
45.6972968093222
 20
-86.35131833778718
 30
0.0
 10
45.89607881882112
 20
-86.29275171453793
 30
0.0
 10
45.92570663999427
 20
-86.15701495241909
 30
0.0
 10
45.92570663999427
 20
-86.05745169289537
 30
0.0
 10
45.92570663999427
 20
-85.90827905838404
 30
0.0
 10
45.82631563524481
 20
-85.74532604193173
 30
0.0
 10
45.59359943521618
 20
-85.74532604193173
 30
0.0
 10
45.33762884066212
 20
-85.74532604193173
 30
0.0
 10
45.26786565708581
 20
-85.93756237000866
 30
0.0
 10
45.26786565708581
 20
-86.06640894115701
 30
0.0
 10
45.26786565708581
 20
-86.10051538646098
 30
0.0
 10
45.26786565708581
 20
-86.25175507826346
 30
0.0
 10
45.39688448300842
 20
-86.34683971365635
 30
0.0
 10
45.39688448300842
 20
-86.34683971365635
 30
0.0
 10
45.37776420306528
 20
-86.53459741760247
 30
0.0
 10
45.37776420306528
 20
-86.53459741760247
 30
0.0
 10
45.37776420306528
 20
-86.53459741760247
 30
0.0
 10
44.53164875188792
 20
-86.40575084645413
 30
0.0
 10
44.53164875188792
 20
-86.40575084645413
 30
0.0
 10
44.53164875188792
 20
-86.40575084645413
 30
0.0
 10
44.53164875188792
 20
-85.57376028676629
 30
0.0
 10
44.53164875188792
 20
-85.57376028676629
 30
0.0
 10
44.53164875188792
 20
-85.57376028676629
 30
0.0
 10
44.72629664680454
 20
-85.57376028676629
 30
0.0
 10
44.72629664680454
 20
-85.57376028676629
 30
0.0
 10
44.72629664680454
 20
-85.57376028676629
 30
0.0
 10
44.72629664680454
 20
-86.23142901490048
 30
0.0
 10
44.72629664680454
 20
-86.23142901490048
 30
0.0
 10
44.72629664680454
 20
-86.23142901490048
 30
0.0
 10
45.14935437239322
 20
-86.30170896279958
 30
0.0
 10
45.14935437239322
 20
-86.30170896279958
 30
0.0
 10
45.11542018186351
 20
-86.23625214857984
 30
0.0
 10
45.07528481946035
 20
-86.14805770415744
 30
0.0
 10
45.07528481946035
 20
-86.02127819030024
 30
0.0
 10
45.07528481946035
 20
-85.75014917561107
 30
0.0
 10
45.2614922304381
 20
-85.49693465744521
 30
0.0
 10
45.57447915527305
 20
-85.49693465744521
 30
0.0
 10
45.89194470423882
 20
-85.49693465744521
 30
0.0
 10
46.1267279615586
 20
-85.73636879367008
 30
0.0
 10
46.1267279615586
 20
-86.05986325973504
 30
0.0
  0
HATCH
  5
9B
330
94
100
AcDbEntity
  8
_U+30EC_U+30A4_U+30E4_U+30FC 1
 62
   179
420
  2234388
100
AcDbHatch
 10
0.0
 20
0.0
 30
0.0
210
0.0
220
0.0
230
1.0
  2
SOLID
 70
     1
 71
     0
 91
        1
 92
        1
 93
        1
 72
     4
 94
        3
 73
     0
 74
     1
 95
       53
 96
       49
 40
0.0
 40
0.0
 40
0.0
 40
0.0
 40
1.0
 40
1.0
 40
1.0
 40
2.0
 40
2.0
 40
2.0
 40
3.0
 40
3.0
 40
3.0
 40
4.0
 40
4.0
 40
4.0
 40
5.0
 40
5.0
 40
5.0
 40
6.0
 40
6.0
 40
6.0
 40
7.0
 40
7.0
 40
7.0
 40
8.0
 40
8.0
 40
8.0
 40
9.0
 40
9.0
 40
9.0
 40
10.0
 40
10.0
 40
10.0
 40
11.0
 40
11.0
 40
11.0
 40
12.0
 40
12.0
 40
12.0
 40
13.0
 40
13.0
 40
13.0
 40
14.0
 40
14.0
 40
14.0
 40
15.0
 40
15.0
 40
15.0
 40
16.0
 40
16.0
 40
16.0
 40
16.0
 10
46.1267279615586
 20
-86.05986325973504
 10
46.1267279615586
 20
-86.14357908002661
 10
46.10967473890661
 20
-86.25175507826346
 10
46.04628498197801
 20
-86.36062009559735
 10
45.93621418122428
 20
-86.54596623270379
 10
45.80512829801052
 20
-86.56835935335792
 10
45.6972968093222
 20
-86.58868541672089
 10
45.6972968093222
 20
-86.58868541672089
 10
45.6972968093222
 20
-86.35131833778718
 10
45.6972968093222
 20
-86.35131833778718
 10
45.89607881882112
 20
-86.29275171453793
 10
45.92570663999427
 20
-86.15701495241909
 10
45.92570663999427
 20
-86.05745169289537
 10
45.92570663999427
 20
-85.90827905838404
 10
45.82631563524481
 20
-85.74532604193173
 10
45.59359943521618
 20
-85.74532604193173
 10
45.33762884066212
 20
-85.74532604193173
 10
45.26786565708581
 20
-85.93756237000866
 10
45.26786565708581
 20
-86.06640894115701
 10
45.26786565708581
 20
-86.10051538646098
 10
45.26786565708581
 20
-86.25175507826346
 10
45.39688448300842
 20
-86.34683971365635
 10
45.39688448300842
 20
-86.34683971365635
 10
45.37776420306528
 20
-86.53459741760247
 10
45.37776420306528
 20
-86.53459741760247
 10
45.37776420306528
 20
-86.53459741760247
 10
44.53164875188792
 20
-86.40575084645413
 10
44.53164875188792
 20
-86.40575084645413
 10
44.53164875188792
 20
-86.40575084645413
 10
44.53164875188792
 20
-85.57376028676629
 10
44.53164875188792
 20
-85.57376028676629
 10
44.53164875188792
 20
-85.57376028676629
 10
44.72629664680454
 20
-85.57376028676629
 10
44.72629664680454
 20
-85.57376028676629
 10
44.72629664680454
 20
-85.57376028676629
 10
44.72629664680454
 20
-86.23142901490048
 10
44.72629664680454
 20
-86.23142901490048
 10
44.72629664680454
 20
-86.23142901490048
 10
45.14935437239322
 20
-86.30170896279958
 10
45.14935437239322
 20
-86.30170896279958
 10
45.11542018186351
 20
-86.23625214857984
 10
45.07528481946035
 20
-86.14805770415744
 10
45.07528481946035
 20
-86.02127819030024
 10
45.07528481946035
 20
-85.75014917561107
 10
45.2614922304381
 20
-85.49693465744521
 10
45.57447915527305
 20
-85.49693465744521
 10
45.89194470423882
 20
-85.49693465744521
 10
46.1267279615586
 20
-85.73636879367008
 10
46.1267279615586
 20
-86.05986325973504
 97
        0
 97
        0
 75
     2
 76
     1
 98
        0
  0
ENDBLK
  5
97
330
94
100
AcDbEntity
  8
0
100
AcDbBlockEnd
  0
BLOCK
  5
AA
330
A8
100
AcDbEntity
  8
0
100
AcDbBlockBegin
  2
block 5
 70
     0
 10
0.0
 20
0.0
 30
0.0
  3
block 5
  1

  0
SPLINE
  5
AC
330
A8
100
AcDbEntity
  8
_U+30EC_U+30A4_U+30E4_U+30FC 1
370
     0
100
AcDbSpline
210
0.0
220
0.0
230
1.0
 70
    11
 71
     3
 72
    26
 73
    22
 74
     0
 42
0.0000000001
 43
0.0000000001
 12
1.0
 22
0.0
 32
0.0
 13
1.0
 23
0.0
 33
0.0
 40
0.0
 40
0.0
 40
0.0
 40
0.0
 40
1.0
 40
1.0
 40
1.0
 40
2.0
 40
2.0
 40
2.0
 40
3.0
 40
3.0
 40
3.0
 40
4.0
 40
4.0
 40
4.0
 40
5.0
 40
5.0
 40
5.0
 40
6.0
 40
6.0
 40
6.0
 40
7.0
 40
7.0
 40
7.0
 40
7.0
 10
72.70185002522732
 20
-79.87143823958075
 30
0.0
 10
72.70185002522732
 20
-79.87143823958075
 30
0.0
 10
72.70185002522732
 20
-78.76711288178392
 30
0.0
 10
72.70185002522732
 20
-78.76711288178392
 30
0.0
 10
72.70185002522732
 20
-78.76711288178392
 30
0.0
 10
72.34941675708626
 20
-78.76711288178392
 30
0.0
 10
72.34941675708626
 20
-78.76711288178392
 30
0.0
 10
72.34941675708626
 20
-78.76711288178392
 30
0.0
 10
72.34941675708626
 20
-78.61914603069243
 30
0.0
 10
72.34941675708626
 20
-78.61914603069243
 30
0.0
 10
72.704261592067
 20
-78.60433212010587
 30
0.0
 10
72.7538709670546
 20
-78.44137910365355
 30
0.0
 10
72.78556584551889
 20
-78.32717418831751
 30
0.0
 10
72.78556584551889
 20
-78.32717418831751
 30
0.0
 10
72.94162867100071
 20
-78.32717418831751
 30
0.0
 10
72.94162867100071
 20
-78.32717418831751
 30
0.0
 10
72.94162867100071
 20
-78.32717418831751
 30
0.0
 10
72.94162867100071
 20
-79.87143823958075
 30
0.0
 10
72.94162867100071
 20
-79.87143823958075
 30
0.0
 10
72.94162867100071
 20
-79.87143823958075
 30
0.0
 10
72.70185002522732
 20
-79.87143823958075
 30
0.0
 10
72.70185002522732
 20
-79.87143823958075
 30
0.0
  0
HATCH
  5
AD
330
A8
100
AcDbEntity
  8
_U+30EC_U+30A4_U+30E4_U+30FC 1
 62
   179
420
  2234388
100
AcDbHatch
 10
0.0
 20
0.0
 30
0.0
210
0.0
220
0.0
230
1.0
  2
SOLID
 70
     1
 71
     0
 91
        1
 92
        1
 93
        1
 72
     4
 94
        3
 73
     0
 74
     1
 95
       26
 96
       22
 40
0.0
 40
0.0
 40
0.0
 40
0.0
 40
1.0
 40
1.0
 40
1.0
 40
2.0
 40
2.0
 40
2.0
 40
3.0
 40
3.0
 40
3.0
 40
4.0
 40
4.0
 40
4.0
 40
5.0
 40
5.0
 40
5.0
 40
6.0
 40
6.0
 40
6.0
 40
7.0
 40
7.0
 40
7.0
 40
7.0
 10
72.70185002522732
 20
-79.87143823958075
 10
72.70185002522732
 20
-79.87143823958075
 10
72.70185002522732
 20
-78.76711288178392
 10
72.70185002522732
 20
-78.76711288178392
 10
72.70185002522732
 20
-78.76711288178392
 10
72.34941675708626
 20
-78.76711288178392
 10
72.34941675708626
 20
-78.76711288178392
 10
72.34941675708626
 20
-78.76711288178392
 10
72.34941675708626
 20
-78.61914603069243
 10
72.34941675708626
 20
-78.61914603069243
 10
72.704261592067
 20
-78.60433212010587
 10
72.7538709670546
 20
-78.44137910365355
 10
72.78556584551889
 20
-78.32717418831751
 10
72.78556584551889
 20
-78.32717418831751
 10
72.94162867100071
 20
-78.32717418831751
 10
72.94162867100071
 20
-78.32717418831751
 10
72.94162867100071
 20
-78.32717418831751
 10
72.94162867100071
 20
-79.87143823958075
 10
72.94162867100071
 20
-79.87143823958075
 10
72.94162867100071
 20
-79.87143823958075
 10
72.70185002522732
 20
-79.87143823958075
 10
72.70185002522732
 20
-79.87143823958075
 97
        0
 97
        0
 75
     2
 76
     1
 98
        0
  0
SPLINE
  5
AE
330
A8
100
AcDbEntity
  8
_U+30EC_U+30A4_U+30E4_U+30FC 1
370
     0
100
AcDbSpline
210
0.0
220
0.0
230
1.0
 70
    11
 71
     3
 72
    29
 73
    25
 74
     0
 42
0.0000000001
 43
0.0000000001
 12
1.0
 22
0.0
 32
0.0
 13
1.0
 23
0.0
 33
0.0
 40
0.0
 40
0.0
 40
0.0
 40
0.0
 40
1.0
 40
1.0
 40
1.0
 40
2.0
 40
2.0
 40
2.0
 40
3.0
 40
3.0
 40
3.0
 40
4.0
 40
4.0
 40
4.0
 40
5.0
 40
5.0
 40
5.0
 40
6.0
 40
6.0
 40
6.0
 40
7.0
 40
7.0
 40
7.0
 40
8.0
 40
8.0
 40
8.0
 40
8.0
 10
74.43680011159914
 20
-79.69367131254187
 30
0.0
 10
74.32138941284327
 20
-79.90313311804505
 30
0.0
 10
74.13604327573682
 20
-79.92208114321393
 30
0.0
 10
74.0116753287193
 20
-79.92208114321393
 30
0.0
 10
73.84010957355386
 20
-79.92208114321393
 30
0.0
 10
73.68852537220288
 20
-79.87557235416305
 30
0.0
 10
73.586895055388
 20
-79.69367131254187
 30
0.0
 10
73.47596298076296
 20
-79.49902341762525
 30
0.0
 10
73.45563691739999
 20
-79.26234535778859
 30
0.0
 10
73.45563691739999
 20
-79.09939234133627
 30
0.0
 10
73.45563691739999
 20
-78.95538735005282
 30
0.0
 10
73.47355141392329
 20
-78.70372312485533
 30
0.0
 10
73.586895055388
 20
-78.50476886058215
 30
0.0
 10
73.70196124459535
 20
-78.30168048172666
 30
0.0
 10
73.87387150930931
 20
-78.27842608720123
 30
0.0
 10
74.0116753287193
 20
-78.27842608720123
 30
0.0
 10
74.18151853614212
 20
-78.27842608720123
 30
0.0
 10
74.33516979478426
 20
-78.32286781896096
 30
0.0
 10
74.43680011159914
 20
-78.50476886058215
 30
0.0
 10
74.54325356209335
 20
-78.69734969820762
 30
0.0
 10
74.56805824958715
 20
-78.92575952887968
 30
0.0
 10
74.56805824958715
 20
-79.09939234133627
 30
0.0
 10
74.56805824958715
 20
-79.27061358695319
 30
0.0
 10
74.54532061938451
 20
-79.5010904749164
 30
0.0
 10
74.43680011159914
 20
-79.69367131254187
 30
0.0
  0
SPLINE
  5
AF
330
A8
100
AcDbEntity
  8
_U+30EC_U+30A4_U+30E4_U+30FC 1
370
     0
100
AcDbSpline
210
0.0
220
0.0
230
1.0
 70
    11
 71
     3
 72
    17
 73
    13
 74
     0
 42
0.0000000001
 43
0.0000000001
 12
1.0
 22
0.0
 32
0.0
 13
1.0
 23
0.0
 33
0.0
 40
0.0
 40
0.0
 40
0.0
 40
0.0
 40
1.0
 40
1.0
 40
1.0
 40
2.0
 40
2.0
 40
2.0
 40
3.0
 40
3.0
 40
3.0
 40
4.0
 40
4.0
 40
4.0
 40
4.0
 10
74.0116753287193
 20
-78.4710069248267
 30
0.0
 10
73.74502493816097
 20
-78.4710069248267
 30
0.0
 10
73.69541556317337
 20
-78.75453828326276
 30
0.0
 10
73.69541556317337
 20
-79.09939234133627
 30
0.0
 10
73.69541556317337
 20
-79.41875269281893
 30
0.0
 10
73.73365612305965
 20
-79.72743324829732
 30
0.0
 10
74.0116753287193
 20
-79.72743324829732
 30
0.0
 10
74.27625866198649
 20
-79.72743324829732
 30
0.0
 10
74.32827960381377
 20
-79.44631345670092
 30
0.0
 10
74.32827960381377
 20
-79.09939234133627
 30
0.0
 10
74.32827960381377
 20
-78.77985973507934
 30
0.0
 10
74.28762747708782
 20
-78.4710069248267
 30
0.0
 10
74.0116753287193
 20
-78.4710069248267
 30
0.0
  0
HATCH
  5
B0
330
A8
100
AcDbEntity
  8
_U+30EC_U+30A4_U+30E4_U+30FC 1
 62
   179
420
  2234388
100
AcDbHatch
 10
0.0
 20
0.0
 30
0.0
210
0.0
220
0.0
230
1.0
  2
SOLID
 70
     1
 71
     0
 91
        2
 92
        1
 93
        1
 72
     4
 94
        3
 73
     0
 74
     1
 95
       29
 96
       25
 40
0.0
 40
0.0
 40
0.0
 40
0.0
 40
1.0
 40
1.0
 40
1.0
 40
2.0
 40
2.0
 40
2.0
 40
3.0
 40
3.0
 40
3.0
 40
4.0
 40
4.0
 40
4.0
 40
5.0
 40
5.0
 40
5.0
 40
6.0
 40
6.0
 40
6.0
 40
7.0
 40
7.0
 40
7.0
 40
8.0
 40
8.0
 40
8.0
 40
8.0
 10
74.43680011159914
 20
-79.69367131254187
 10
74.32138941284327
 20
-79.90313311804505
 10
74.13604327573682
 20
-79.92208114321393
 10
74.0116753287193
 20
-79.92208114321393
 10
73.84010957355386
 20
-79.92208114321393
 10
73.68852537220288
 20
-79.87557235416305
 10
73.586895055388
 20
-79.69367131254187
 10
73.47596298076296
 20
-79.49902341762525
 10
73.45563691739999
 20
-79.26234535778859
 10
73.45563691739999
 20
-79.09939234133627
 10
73.45563691739999
 20
-78.95538735005282
 10
73.47355141392329
 20
-78.70372312485533
 10
73.586895055388
 20
-78.50476886058215
 10
73.70196124459535
 20
-78.30168048172666
 10
73.87387150930931
 20
-78.27842608720123
 10
74.0116753287193
 20
-78.27842608720123
 10
74.18151853614212
 20
-78.27842608720123
 10
74.33516979478426
 20
-78.32286781896096
 10
74.43680011159914
 20
-78.50476886058215
 10
74.54325356209335
 20
-78.69734969820762
 10
74.56805824958715
 20
-78.92575952887968
 10
74.56805824958715
 20
-79.09939234133627
 10
74.56805824958715
 20
-79.27061358695319
 10
74.54532061938451
 20
-79.5010904749164
 10
74.43680011159914
 20
-79.69367131254187
 97
        0
 97
        0
 92
        1
 93
        1
 72
     4
 94
        3
 73
     0
 74
     1
 95
       17
 96
       13
 40
0.0
 40
0.0
 40
0.0
 40
0.0
 40
1.0
 40
1.0
 40
1.0
 40
2.0
 40
2.0
 40
2.0
 40
3.0
 40
3.0
 40
3.0
 40
4.0
 40
4.0
 40
4.0
 40
4.0
 10
74.0116753287193
 20
-78.4710069248267
 10
73.74502493816097
 20
-78.4710069248267
 10
73.69541556317337
 20
-78.75453828326276
 10
73.69541556317337
 20
-79.09939234133627
 10
73.69541556317337
 20
-79.41875269281893
 10
73.73365612305965
 20
-79.72743324829732
 10
74.0116753287193
 20
-79.72743324829732
 10
74.27625866198649
 20
-79.72743324829732
 10
74.32827960381377
 20
-79.44631345670092
 10
74.32827960381377
 20
-79.09939234133627
 10
74.32827960381377
 20
-78.77985973507934
 10
74.28762747708782
 20
-78.4710069248267
 10
74.0116753287193
 20
-78.4710069248267
 97
        0
 97
        0
 75
     2
 76
     1
 98
        0
  0
ENDBLK
  5
AB
330
A8
100
AcDbEntity
  8
0
100
AcDbBlockEnd
  0
BLOCK
  5
C3
330
C1
100
AcDbEntity
  8
0
100
AcDbBlockBegin
  2
block 6
 70
     0
 10
0.0
 20
0.0
 30
0.0
  3
block 6
  1

  0
SPLINE
  5
C5
330
C1
100
AcDbEntity
  8
_U+30EC_U+30A4_U+30E4_U+30FC 1
370
     0
100
AcDbSpline
210
0.0
220
0.0
230
1.0
 70
    11
 71
     3
 72
    26
 73
    22
 74
     0
 42
0.0000000001
 43
0.0000000001
 12
1.0
 22
0.0
 32
0.0
 13
1.0
 23
0.0
 33
0.0
 40
0.0
 40
0.0
 40
0.0
 40
0.0
 40
1.0
 40
1.0
 40
1.0
 40
2.0
 40
2.0
 40
2.0
 40
3.0
 40
3.0
 40
3.0
 40
4.0
 40
4.0
 40
4.0
 40
5.0
 40
5.0
 40
5.0
 40
6.0
 40
6.0
 40
6.0
 40
7.0
 40
7.0
 40
7.0
 40
7.0
 10
55.36854111028981
 20
-101.8700954606436
 30
0.0
 10
55.36854111028981
 20
-101.8700954606436
 30
0.0
 10
55.36854111028981
 20
-100.765942357621
 30
0.0
 10
55.36854111028981
 20
-100.765942357621
 30
0.0
 10
55.36854111028981
 20
-100.765942357621
 30
0.0
 10
55.01576333260023
 20
-100.765942357621
 30
0.0
 10
55.01576333260023
 20
-100.765942357621
 30
0.0
 10
55.01576333260023
 20
-100.765942357621
 30
0.0
 10
55.01576333260023
 20
-100.6178032517553
 30
0.0
 10
55.01576333260023
 20
-100.6178032517553
 30
0.0
 10
55.37078042235522
 20
-100.6029893411687
 30
0.0
 10
55.42056205211708
 20
-100.4400363247164
 30
0.0
 10
55.45225693058138
 20
-100.3256591546061
 30
0.0
 10
55.45225693058138
 20
-100.3256591546061
 30
0.0
 10
55.60814750128894
 20
-100.3256591546061
 30
0.0
 10
55.60814750128894
 20
-100.3256591546061
 30
0.0
 10
55.60814750128894
 20
-100.3256591546061
 30
0.0
 10
55.60814750128894
 20
-101.8700954606436
 30
0.0
 10
55.60814750128894
 20
-101.8700954606436
 30
0.0
 10
55.60814750128894
 20
-101.8700954606436
 30
0.0
 10
55.36854111028981
 20
-101.8700954606436
 30
0.0
 10
55.36854111028981
 20
-101.8700954606436
 30
0.0
  0
HATCH
  5
C6
330
C1
100
AcDbEntity
  8
_U+30EC_U+30A4_U+30E4_U+30FC 1
 62
   179
420
  2234388
100
AcDbHatch
 10
0.0
 20
0.0
 30
0.0
210
0.0
220
0.0
230
1.0
  2
SOLID
 70
     1
 71
     0
 91
        1
 92
        1
 93
        1
 72
     4
 94
        3
 73
     0
 74
     1
 95
       26
 96
       22
 40
0.0
 40
0.0
 40
0.0
 40
0.0
 40
1.0
 40
1.0
 40
1.0
 40
2.0
 40
2.0
 40
2.0
 40
3.0
 40
3.0
 40
3.0
 40
4.0
 40
4.0
 40
4.0
 40
5.0
 40
5.0
 40
5.0
 40
6.0
 40
6.0
 40
6.0
 40
7.0
 40
7.0
 40
7.0
 40
7.0
 10
55.36854111028981
 20
-101.8700954606436
 10
55.36854111028981
 20
-101.8700954606436
 10
55.36854111028981
 20
-100.765942357621
 10
55.36854111028981
 20
-100.765942357621
 10
55.36854111028981
 20
-100.765942357621
 10
55.01576333260023
 20
-100.765942357621
 10
55.01576333260023
 20
-100.765942357621
 10
55.01576333260023
 20
-100.765942357621
 10
55.01576333260023
 20
-100.6178032517553
 10
55.01576333260023
 20
-100.6178032517553
 10
55.37078042235522
 20
-100.6029893411687
 10
55.42056205211708
 20
-100.4400363247164
 10
55.45225693058138
 20
-100.3256591546061
 10
55.45225693058138
 20
-100.3256591546061
 10
55.60814750128894
 20
-100.3256591546061
 10
55.60814750128894
 20
-100.3256591546061
 10
55.60814750128894
 20
-100.3256591546061
 10
55.60814750128894
 20
-101.8700954606436
 10
55.60814750128894
 20
-101.8700954606436
 10
55.60814750128894
 20
-101.8700954606436
 10
55.36854111028981
 20
-101.8700954606436
 10
55.36854111028981
 20
-101.8700954606436
 97
        0
 97
        0
 75
     2
 76
     1
 98
        0
  0
ENDBLK
  5
C4
330
C1
100
AcDbEntity
  8
0
100
AcDbBlockEnd
  0
BLOCK
  5
CD
330
CB
100
AcDbEntity
  8
0
100
AcDbBlockBegin
  2
block 7
 70
     0
 10
0.0
 20
0.0
 30
0.0
  3
block 7
  1

  0
SPLINE
  5
CF
330
CB
100
AcDbEntity
  8
_U+30EC_U+30A4_U+30E4_U+30FC 1
370
     0
100
AcDbSpline
210
0.0
220
0.0
230
1.0
 70
    11
 71
     3
 72
    26
 73
    22
 74
     0
 42
0.0000000001
 43
0.0000000001
 12
1.0
 22
0.0
 32
0.0
 13
1.0
 23
0.0
 33
0.0
 40
0.0
 40
0.0
 40
0.0
 40
0.0
 40
1.0
 40
1.0
 40
1.0
 40
2.0
 40
2.0
 40
2.0
 40
3.0
 40
3.0
 40
3.0
 40
4.0
 40
4.0
 40
4.0
 40
5.0
 40
5.0
 40
5.0
 40
6.0
 40
6.0
 40
6.0
 40
7.0
 40
7.0
 40
7.0
 40
7.0
 10
59.69695907795771
 20
-79.87143823958075
 30
0.0
 10
59.69695907795771
 20
-79.87143823958075
 30
0.0
 10
59.69695907795771
 20
-78.76711288178392
 30
0.0
 10
59.69695907795771
 20
-78.76711288178392
 30
0.0
 10
59.69695907795771
 20
-78.76711288178392
 30
0.0
 10
59.34452580981665
 20
-78.76711288178392
 30
0.0
 10
59.34452580981665
 20
-78.76711288178392
 30
0.0
 10
59.34452580981665
 20
-78.76711288178392
 30
0.0
 10
59.34452580981665
 20
-78.61914603069243
 30
0.0
 10
59.34452580981665
 20
-78.61914603069243
 30
0.0
 10
59.69937064479738
 20
-78.60433212010587
 30
0.0
 10
59.74898001978498
 20
-78.44137910365355
 30
0.0
 10
59.78067489824928
 20
-78.32717418831751
 30
0.0
 10
59.78067489824928
 20
-78.32717418831751
 30
0.0
 10
59.9367377237311
 20
-78.32717418831751
 30
0.0
 10
59.9367377237311
 20
-78.32717418831751
 30
0.0
 10
59.9367377237311
 20
-78.32717418831751
 30
0.0
 10
59.9367377237311
 20
-79.87143823958075
 30
0.0
 10
59.9367377237311
 20
-79.87143823958075
 30
0.0
 10
59.9367377237311
 20
-79.87143823958075
 30
0.0
 10
59.69695907795771
 20
-79.87143823958075
 30
0.0
 10
59.69695907795771
 20
-79.87143823958075
 30
0.0
  0
HATCH
  5
D0
330
CB
100
AcDbEntity
  8
_U+30EC_U+30A4_U+30E4_U+30FC 1
 62
   179
420
  2234388
100
AcDbHatch
 10
0.0
 20
0.0
 30
0.0
210
0.0
220
0.0
230
1.0
  2
SOLID
 70
     1
 71
     0
 91
        1
 92
        1
 93
        1
 72
     4
 94
        3
 73
     0
 74
     1
 95
       26
 96
       22
 40
0.0
 40
0.0
 40
0.0
 40
0.0
 40
1.0
 40
1.0
 40
1.0
 40
2.0
 40
2.0
 40
2.0
 40
3.0
 40
3.0
 40
3.0
 40
4.0
 40
4.0
 40
4.0
 40
5.0
 40
5.0
 40
5.0
 40
6.0
 40
6.0
 40
6.0
 40
7.0
 40
7.0
 40
7.0
 40
7.0
 10
59.69695907795771
 20
-79.87143823958075
 10
59.69695907795771
 20
-79.87143823958075
 10
59.69695907795771
 20
-78.76711288178392
 10
59.69695907795771
 20
-78.76711288178392
 10
59.69695907795771
 20
-78.76711288178392
 10
59.34452580981665
 20
-78.76711288178392
 10
59.34452580981665
 20
-78.76711288178392
 10
59.34452580981665
 20
-78.76711288178392
 10
59.34452580981665
 20
-78.61914603069243
 10
59.34452580981665
 20
-78.61914603069243
 10
59.69937064479738
 20
-78.60433212010587
 10
59.74898001978498
 20
-78.44137910365355
 10
59.78067489824928
 20
-78.32717418831751
 10
59.78067489824928
 20
-78.32717418831751
 10
59.9367377237311
 20
-78.32717418831751
 10
59.9367377237311
 20
-78.32717418831751
 10
59.9367377237311
 20
-78.32717418831751
 10
59.9367377237311
 20
-79.87143823958075
 10
59.9367377237311
 20
-79.87143823958075
 10
59.9367377237311
 20
-79.87143823958075
 10
59.69695907795771
 20
-79.87143823958075
 10
59.69695907795771
 20
-79.87143823958075
 97
        0
 97
        0
 75
     2
 76
     1
 98
        0
  0
SPLINE
  5
D1
330
CB
100
AcDbEntity
  8
_U+30EC_U+30A4_U+30E4_U+30FC 1
370
     0
100
AcDbSpline
210
0.0
220
0.0
230
1.0
 70
    11
 71
     3
 72
    32
 73
    28
 74
     0
 42
0.0000000001
 43
0.0000000001
 12
1.0
 22
0.0
 32
0.0
 13
1.0
 23
0.0
 33
0.0
 40
0.0
 40
0.0
 40
0.0
 40
0.0
 40
1.0
 40
1.0
 40
1.0
 40
2.0
 40
2.0
 40
2.0
 40
3.0
 40
3.0
 40
3.0
 40
4.0
 40
4.0
 40
4.0
 40
5.0
 40
5.0
 40
5.0
 40
6.0
 40
6.0
 40
6.0
 40
7.0
 40
7.0
 40
7.0
 40
8.0
 40
8.0
 40
8.0
 40
9.0
 40
9.0
 40
9.0
 40
9.0
 10
61.01126300558052
 20
-79.92208114321393
 30
0.0
 10
60.45970321839202
 20
-79.92208114321393
 30
0.0
 10
60.45074597013037
 20
-79.36810978918575
 30
0.0
 10
60.45074597013037
 20
-79.15416935955174
 30
0.0
 10
60.45074597013037
 20
-78.92369247158852
 30
0.0
 10
60.47107203349334
 20
-78.27635902991008
 30
0.0
 10
61.052259641855
 20
-78.27635902991008
 30
0.0
 10
61.23760577896144
 20
-78.27635902991008
 30
0.0
 10
61.49977754538894
 20
-78.3461222134864
 30
0.0
 10
61.5404296721149
 20
-78.67822941826448
 30
0.0
 10
61.5404296721149
 20
-78.67822941826448
 30
0.0
 10
61.31201984144283
 20
-78.67822941826448
 30
0.0
 10
61.31201984144283
 20
-78.67822941826448
 30
0.0
 10
61.30065102634151
 20
-78.62121308798359
 30
0.0
 10
61.26688909058606
 20
-78.47307398211785
 30
0.0
 10
61.04984807501532
 20
-78.47307398211785
 30
0.0
 10
60.73772242405168
 20
-78.47307398211785
 30
0.0
 10
60.69500324003459
 20
-78.80104707231364
 30
0.0
 10
60.68122285809358
 20
-79.00620250846026
 30
0.0
 10
60.7807861176173
 20
-78.9279988409451
 30
0.0
 10
60.85313312280756
 20
-78.86874319859879
 30
0.0
 10
61.04778101772417
 20
-78.86874319859879
 30
0.0
 10
61.23967283625259
 20
-78.86874319859879
 30
0.0
 10
61.56316730231755
 20
-78.97657468728711
 30
0.0
 10
61.56316730231755
 20
-79.38292369977233
 30
0.0
 10
61.56316730231755
 20
-79.70228405125499
 30
0.0
 10
61.35060491087763
 20
-79.92208114321393
 30
0.0
 10
61.01126300558052
 20
-79.92208114321393
 30
0.0
  0
SPLINE
  5
D2
330
CB
100
AcDbEntity
  8
_U+30EC_U+30A4_U+30E4_U+30FC 1
370
     0
100
AcDbSpline
210
0.0
220
0.0
230
1.0
 70
    11
 71
     3
 72
    17
 73
    13
 74
     0
 42
0.0000000001
 43
0.0000000001
 12
1.0
 22
0.0
 32
0.0
 13
1.0
 23
0.0
 33
0.0
 40
0.0
 40
0.0
 40
0.0
 40
0.0
 40
1.0
 40
1.0
 40
1.0
 40
2.0
 40
2.0
 40
2.0
 40
3.0
 40
3.0
 40
3.0
 40
4.0
 40
4.0
 40
4.0
 40
4.0
 10
61.02952201165235
 20
-79.06321883874115
 30
0.0
 10
60.74909123915301
 20
-79.06321883874115
 30
0.0
 10
60.70843911242706
 20
-79.27474770153549
 30
0.0
 10
60.70843911242706
 20
-79.39119192893693
 30
0.0
 10
60.70843911242706
 20
-79.56689179868467
 30
0.0
 10
60.81006942924193
 20
-79.72984481513699
 30
0.0
 10
61.0067843814497
 20
-79.72984481513699
 30
0.0
 10
61.13563095259804
 20
-79.72984481513699
 30
0.0
 10
61.32338865654415
 20
-79.67058917279068
 30
0.0
 10
61.32338865654415
 20
-79.38499075706348
 30
0.0
 10
61.32338865654415
 20
-79.16071504097371
 30
0.0
 10
61.17421602203284
 20
-79.06321883874115
 30
0.0
 10
61.02952201165235
 20
-79.06321883874115
 30
0.0
  0
HATCH
  5
D3
330
CB
100
AcDbEntity
  8
_U+30EC_U+30A4_U+30E4_U+30FC 1
 62
   179
420
  2234388
100
AcDbHatch
 10
0.0
 20
0.0
 30
0.0
210
0.0
220
0.0
230
1.0
  2
SOLID
 70
     1
 71
     0
 91
        2
 92
        1
 93
        1
 72
     4
 94
        3
 73
     0
 74
     1
 95
       32
 96
       28
 40
0.0
 40
0.0
 40
0.0
 40
0.0
 40
1.0
 40
1.0
 40
1.0
 40
2.0
 40
2.0
 40
2.0
 40
3.0
 40
3.0
 40
3.0
 40
4.0
 40
4.0
 40
4.0
 40
5.0
 40
5.0
 40
5.0
 40
6.0
 40
6.0
 40
6.0
 40
7.0
 40
7.0
 40
7.0
 40
8.0
 40
8.0
 40
8.0
 40
9.0
 40
9.0
 40
9.0
 40
9.0
 10
61.01126300558052
 20
-79.92208114321393
 10
60.45970321839202
 20
-79.92208114321393
 10
60.45074597013037
 20
-79.36810978918575
 10
60.45074597013037
 20
-79.15416935955174
 10
60.45074597013037
 20
-78.92369247158852
 10
60.47107203349334
 20
-78.27635902991008
 10
61.052259641855
 20
-78.27635902991008
 10
61.23760577896144
 20
-78.27635902991008
 10
61.49977754538894
 20
-78.3461222134864
 10
61.5404296721149
 20
-78.67822941826448
 10
61.5404296721149
 20
-78.67822941826448
 10
61.31201984144283
 20
-78.67822941826448
 10
61.31201984144283
 20
-78.67822941826448
 10
61.30065102634151
 20
-78.62121308798359
 10
61.26688909058606
 20
-78.47307398211785
 10
61.04984807501532
 20
-78.47307398211785
 10
60.73772242405168
 20
-78.47307398211785
 10
60.69500324003459
 20
-78.80104707231364
 10
60.68122285809358
 20
-79.00620250846026
 10
60.7807861176173
 20
-78.9279988409451
 10
60.85313312280756
 20
-78.86874319859879
 10
61.04778101772417
 20
-78.86874319859879
 10
61.23967283625259
 20
-78.86874319859879
 10
61.56316730231755
 20
-78.97657468728711
 10
61.56316730231755
 20
-79.38292369977233
 10
61.56316730231755
 20
-79.70228405125499
 10
61.35060491087763
 20
-79.92208114321393
 10
61.01126300558052
 20
-79.92208114321393
 97
        0
 97
        0
 92
        1
 93
        1
 72
     4
 94
        3
 73
     0
 74
     1
 95
       17
 96
       13
 40
0.0
 40
0.0
 40
0.0
 40
0.0
 40
1.0
 40
1.0
 40
1.0
 40
2.0
 40
2.0
 40
2.0
 40
3.0
 40
3.0
 40
3.0
 40
4.0
 40
4.0
 40
4.0
 40
4.0
 10
61.02952201165235
 20
-79.06321883874115
 10
60.74909123915301
 20
-79.06321883874115
 10
60.70843911242706
 20
-79.27474770153549
 10
60.70843911242706
 20
-79.39119192893693
 10
60.70843911242706
 20
-79.56689179868467
 10
60.81006942924193
 20
-79.72984481513699
 10
61.0067843814497
 20
-79.72984481513699
 10
61.13563095259804
 20
-79.72984481513699
 10
61.32338865654415
 20
-79.67058917279068
 10
61.32338865654415
 20
-79.38499075706348
 10
61.32338865654415
 20
-79.16071504097371
 10
61.17421602203284
 20
-79.06321883874115
 10
61.02952201165235
 20
-79.06321883874115
 97
        0
 97
        0
 75
     2
 76
     1
 98
        0
  0
ENDBLK
  5
CE
330
CB
100
AcDbEntity
  8
0
100
AcDbBlockEnd
  0
ENDSEC
  0
SECTION
  2
ENTITIES
  0
INSERT
  5
42
330
1F
100
AcDbEntity
  8
_U+30EC_U+30A4_U+30E4_U+30FC 1
100
AcDbBlockReference
  2
block 2
 10
0.0
 20
0.0
 30
0.0
  0
ENDSEC
  0
SECTION
  2
OBJECTS
  0
DICTIONARY
  5
C
330
0
100
AcDbDictionary
281
     1
  3
ACAD_GROUP
350
D
  3
ACAD_LAYOUT
350
1A
  3
ACAD_MATERIAL
350
3B
  3
ACAD_MLEADERSTYLE
350
D5
  3
ACAD_MLINESTYLE
350
17
  3
ACAD_PLOTSETTINGS
350
19
  3
ACAD_PLOTSTYLENAME
350
E
  3
ACAD_TABLESTYLE
350
D4
  3
ACAD_VISUALSTYLE
350
2A
  0
SUN
  5
3F
330
29
100
AcDbSun
 90
        1
290
     0
 63
     7
421
 16777215
 40
1.0
291
     1
 91
  2455826
 92
 54000000
292
     0
 70
     2
 71
   256
280
     1
  0
DICTIONARY
  5
D
102
{ACAD_REACTORS
330
C
102
}
330
C
100
AcDbDictionary
281
     1
  0
DICTIONARY
  5
1A
102
{ACAD_REACTORS
330
C
102
}
330
C
100
AcDbDictionary
281
     1
  3
Layout1
350
1E
  3
Layout2
350
26
  3
Model
350
22
  0
DICTIONARY
  5
3B
102
{ACAD_REACTORS
330
C
102
}
330
C
100
AcDbDictionary
281
     1
  3
ByBlock
350
3D
  3
ByLayer
350
3C
  3
Global
350
3E
  0
DICTIONARY
  5
D5
102
{ACAD_REACTORS
330
C
102
}
330
C
100
AcDbDictionary
281
     1
  0
DICTIONARY
  5
17
102
{ACAD_REACTORS
330
C
102
}
330
C
100
AcDbDictionary
281
     1
  3
Standard
350
18
  0
DICTIONARY
  5
19
102
{ACAD_REACTORS
330
C
102
}
330
C
100
AcDbDictionary
281
     1
  0
ACDBDICTIONARYWDFLT
  5
E
102
{ACAD_REACTORS
330
C
102
}
330
C
100
AcDbDictionary
281
     1
  3
Normal
350
F
100
AcDbDictionaryWithDefault
340
F
  0
DICTIONARY
  5
D4
102
{ACAD_REACTORS
330
C
102
}
330
C
100
AcDbDictionary
281
     1
  0
DICTIONARY
  5
2A
102
{ACAD_REACTORS
330
C
102
}
330
C
100
AcDbDictionary
281
     1
  3
2dWireframe
350
2F
  3
3D Hidden
350
31
  3
3dWireframe
350
30
  3
Basic
350
32
  3
Brighten
350
36
  3
ColorChange
350
3A
  3
Conceptual
350
34
  3
Dim
350
35
  3
Facepattern
350
39
  3
Flat
350
2B
  3
FlatWithEdges
350
2C
  3
Gouraud
350
2D
  3
GouraudWithEdges
350
2E
  3
Linepattern
350
38
  3
Realistic
350
33
  3
Thicken
350
37
  0
LAYOUT
  5
1E
102
{ACAD_REACTORS
330
1A
102
}
330
1A
100
AcDbPlotSettings
  1

  2
none_device
  4

  6

 40
0.0
 41
0.0
 42
0.0
 43
0.0
 44
0.0
 45
0.0
 46
0.0
 47
0.0
 48
0.0
 49
0.0
140
0.0
141
0.0
142
1.0
143
1.0
 70
   688
 72
     0
 73
     0
 74
     5
  7

 75
    16
 76
     0
 77
     2
 78
   300
147
1.0
148
0.0
149
0.0
100
AcDbLayout
  1
Layout1
 70
     1
 71
     1
 10
0.0
 20
0.0
 11
12.0
 21
9.0
 12
0.0
 22
0.0
 32
0.0
 14
1.000000000000000E+20
 24
1.000000000000000E+20
 34
1.000000000000000E+20
 15
-1.000000000000000E+20
 25
-1.000000000000000E+20
 35
-1.000000000000000E+20
146
0.0
 13
0.0
 23
0.0
 33
0.0
 16
1.0
 26
0.0
 36
0.0
 17
0.0
 27
1.0
 37
0.0
 76
     0
330
1B
  0
LAYOUT
  5
26
102
{ACAD_REACTORS
330
1A
102
}
330
1A
100
AcDbPlotSettings
  1

  2
none_device
  4

  6

 40
0.0
 41
0.0
 42
0.0
 43
0.0
 44
0.0
 45
0.0
 46
0.0
 47
0.0
 48
0.0
 49
0.0
140
0.0
141
0.0
142
1.0
143
1.0
 70
   688
 72
     0
 73
     0
 74
     5
  7

 75
    16
 76
     0
 77
     2
 78
   300
147
1.0
148
0.0
149
0.0
100
AcDbLayout
  1
Layout2
 70
     1
 71
     2
 10
0.0
 20
0.0
 11
0.0
 21
0.0
 12
0.0
 22
0.0
 32
0.0
 14
0.0
 24
0.0
 34
0.0
 15
0.0
 25
0.0
 35
0.0
146
0.0
 13
0.0
 23
0.0
 33
0.0
 16
1.0
 26
0.0
 36
0.0
 17
0.0
 27
1.0
 37
0.0
 76
     0
330
23
  0
LAYOUT
  5
22
102
{ACAD_REACTORS
330
1A
102
}
330
1A
100
AcDbPlotSettings
  1

  2
none_device
  4

  6

 40
0.0
 41
0.0
 42
0.0
 43
0.0
 44
0.0
 45
0.0
 46
0.0
 47
0.0
 48
0.0
 49
0.0
140
0.0
141
0.0
142
1.0
143
1.0
 70
  1712
 72
     0
 73
     0
 74
     0
  7

 75
     0
 76
     0
 77
     2
 78
   300
147
1.0
148
0.0
149
0.0
100
AcDbLayout
  1
Model
 70
     1
 71
     0
 10
0.0
 20
0.0
 11
12.0
 21
9.0
 12
0.0
 22
0.0
 32
0.0
 14
1.000000000000000E+20
 24
1.000000000000000E+20
 34
1.000000000000000E+20
 15
-1.000000000000000E+20
 25
-1.000000000000000E+20
 35
-1.000000000000000E+20
146
0.0
 13
0.0
 23
0.0
 33
0.0
 16
1.0
 26
0.0
 36
0.0
 17
0.0
 27
1.0
 37
0.0
 76
     0
330
1F
331
29
  0
MATERIAL
  5
3D
102
{ACAD_REACTORS
330
3B
102
}
330
3B
100
AcDbMaterial
  1
ByBlock
 72
     1
 94
      127
  0
MATERIAL
  5
3C
102
{ACAD_REACTORS
330
3B
102
}
330
3B
100
AcDbMaterial
  1
ByLayer
 72
     1
 94
      127
  0
MATERIAL
  5
3E
102
{ACAD_REACTORS
330
3B
102
}
330
3B
100
AcDbMaterial
  1
Global
 72
     1
 94
      127
  0
MLINESTYLE
  5
18
102
{ACAD_REACTORS
330
17
102
}
330
17
100
AcDbMlineStyle
  2
Standard
 70
     0
  3

 62
   256
 51
90.0
 52
90.0
 71
     2
 49
0.5
 62
   256
  6
BYLAYER
 49
-0.5
 62
   256
  6
BYLAYER
  0
ACDBPLACEHOLDER
  5
F
102
{ACAD_REACTORS
330
E
102
}
330
E
  0
VISUALSTYLE
  5
2F
102
{ACAD_REACTORS
330
2A
102
}
330
2A
100
AcDbVisualStyle
  2
2dWireframe
 70
     4
177
     2
291
     0
 71
     0
176
     1
 72
     2
176
     1
 73
     0
176
     1
 90
        0
176
     1
 40
-0.6
176
     1
 41
-30.0
176
     1
 62
     5
 63
     7
421
 16777215
176
     1
 74
     1
176
     1
 91
        4
176
     1
 64
     7
176
     1
 65
   257
176
     1
 75
     1
176
     1
175
     1
176
     1
 42
1.0
176
     1
 92
        0
176
     1
 66
   257
176
     1
 43
1.0
176
     1
 76
     1
176
     1
 77
     6
176
     1
 78
     2
176
     1
 67
     7
176
     1
 79
     5
176
     1
170
     0
176
     1
171
     0
176
     1
290
     0
176
     1
 93
        1
176
     1
 44
0.0
176
     1
173
     0
176
     1
  0
VISUALSTYLE
  5
31
102
{ACAD_REACTORS
330
2A
102
}
330
2A
100
AcDbVisualStyle
  2
3D Hidden
 70
     6
177
     2
291
     0
 71
     1
176
     1
 72
     2
176
     1
 73
     2
176
     1
 90
        0
176
     1
 40
-0.6
176
     1
 41
-30.0
176
     1
 62
     5
 63
     7
421
 16777215
176
     1
 74
     2
176
     1
 91
        2
176
     1
 64
     7
176
     1
 65
   257
176
     1
 75
     2
176
     1
175
     1
176
     1
 42
40.0
176
     1
 92
        0
176
     1
 66
   257
176
     1
 43
1.0
176
     1
 76
     1
176
     1
 77
     6
176
     1
 78
     2
176
     1
 67
     7
176
     1
 79
     3
176
     1
170
     0
176
     1
171
     0
176
     1
290
     0
176
     1
 93
        1
176
     1
 44
0.0
176
     1
173
     0
176
     1
  0
VISUALSTYLE
  5
30
102
{ACAD_REACTORS
330
2A
102
}
330
2A
100
AcDbVisualStyle
  2
3dWireframe
 70
     5
177
     2
291
     0
 71
     0
176
     1
 72
     2
176
     1
 73
     0
176
     1
 90
        0
176
     1
 40
-0.6
176
     1
 41
-30.0
176
     1
 62
     5
 63
     7
421
 16777215
176
     1
 74
     1
176
     1
 91
        4
176
     1
 64
     7
176
     1
 65
   257
176
     1
 75
     1
176
     1
175
     1
176
     1
 42
1.0
176
     1
 92
        0
176
     1
 66
   257
176
     1
 43
1.0
176
     1
 76
     1
176
     1
 77
     6
176
     1
 78
     2
176
     1
 67
     7
176
     1
 79
     5
176
     1
170
     0
176
     1
171
     0
176
     1
290
     0
176
     1
 93
        1
176
     1
 44
0.0
176
     1
173
     0
176
     1
  0
VISUALSTYLE
  5
32
102
{ACAD_REACTORS
330
2A
102
}
330
2A
100
AcDbVisualStyle
  2
Basic
 70
     7
177
     2
291
     1
 71
     1
176
     1
 72
     0
176
     1
 73
     1
176
     1
 90
        0
176
     1
 40
-0.6
176
     1
 41
-30.0
176
     1
 62
     5
 63
     7
421
 16777215
176
     1
 74
     0
176
     1
 91
        4
176
     1
 64
     7
176
     1
 65
   257
176
     1
 75
     1
176
     1
175
     1
176
     1
 42
1.0
176
     1
 92
        8
176
     1
 66
     7
176
     1
 43
1.0
176
     1
 76
     1
176
     1
 77
     6
176
     1
 78
     2
176
     1
 67
     7
176
     1
 79
     5
176
     1
170
     0
176
     1
171
     0
176
     1
290
     0
176
     1
 93
        1
176
     1
 44
0.0
176
     1
173
     0
176
     1
  0
VISUALSTYLE
  5
36
102
{ACAD_REACTORS
330
2A
102
}
330
2A
100
AcDbVisualStyle
  2
Brighten
 70
    12
177
     2
291
     1
 71
     2
176
     1
 72
     2
176
     1
 73
     0
176
     1
 90
        0
176
     1
 40
-0.6
176
     1
 41
-30.0
176
     1
 62
     5
 63
     7
421
 16777215
176
     1
 74
     1
176
     1
 91
        4
176
     1
 64
     7
176
     1
 65
   257
176
     1
 75
     1
176
     1
175
     1
176
     1
 42
1.0
176
     1
 92
        8
176
     1
 66
     7
176
     1
 43
1.0
176
     1
 76
     1
176
     1
 77
     6
176
     1
 78
     2
176
     1
 67
     7
176
     1
 79
     5
176
     1
170
     0
176
     1
171
     0
176
     1
290
     0
176
     1
 93
        1
176
     1
 44
50.0
176
     1
173
     0
176
     1
  0
VISUALSTYLE
  5
3A
102
{ACAD_REACTORS
330
2A
102
}
330
2A
100
AcDbVisualStyle
  2
ColorChange
 70
    16
177
     2
291
     1
 71
     2
176
     1
 72
     2
176
     1
 73
     3
176
     1
 90
        0
176
     1
 40
-0.6
176
     1
 41
-30.0
176
     1
 62
     5
 63
     8
421
  8421504
176
     1
 74
     1
176
     1
 91
        4
176
     1
 64
     7
176
     1
 65
   257
176
     1
 75
     1
176
     1
175
     1
176
     1
 42
1.0
176
     1
 92
        8
176
     1
 66
     8
424
  8421504
176
     1
 43
1.0
176
     1
 76
     1
176
     1
 77
     6
176
     1
 78
     2
176
     1
 67
     7
176
     1
 79
     5
176
     1
170
     0
176
     1
171
     0
176
     1
290
     0
176
     1
 93
        1
176
     1
 44
0.0
176
     1
173
     0
176
     1
  0
VISUALSTYLE
  5
34
102
{ACAD_REACTORS
330
2A
102
}
330
2A
100
AcDbVisualStyle
  2
Conceptual
 70
     9
177
     2
291
     0
 71
     3
176
     1
 72
     2
176
     1
 73
     0
176
     1
 90
        0
176
     1
 40
-0.6
176
     1
 41
-30.0
176
     1
 62
     5
 63
     7
421
 16777215
176
     1
 74
     2
176
     1
 91
        2
176
     1
 64
     7
176
     1
 65
   257
176
     1
 75
     1
176
     1
175
     1
176
     1
 42
40.0
176
     1
 92
        8
176
     1
 66
     7
176
     1
 43
1.0
176
     1
 76
     1
176
     1
 77
     6
176
     1
 78
     2
176
     1
 67
     7
176
     1
 79
     3
176
     1
170
     0
176
     1
171
     0
176
     1
290
     0
176
     1
 93
        1
176
     1
 44
0.0
176
     1
173
     0
176
     1
  0
VISUALSTYLE
  5
35
102
{ACAD_REACTORS
330
2A
102
}
330
2A
100
AcDbVisualStyle
  2
Dim
 70
    11
177
     2
291
     1
 71
     2
176
     1
 72
     2
176
     1
 73
     0
176
     1
 90
        0
176
     1
 40
-0.6
176
     1
 41
-30.0
176
     1
 62
     5
 63
     7
421
 16777215
176
     1
 74
     1
176
     1
 91
        4
176
     1
 64
     7
176
     1
 65
   257
176
     1
 75
     1
176
     1
175
     1
176
     1
 42
1.0
176
     1
 92
        8
176
     1
 66
     7
176
     1
 43
1.0
176
     1
 76
     1
176
     1
 77
     6
176
     1
 78
     2
176
     1
 67
     7
176
     1
 79
     5
176
     1
170
     0
176
     1
171
     0
176
     1
290
     0
176
     1
 93
        1
176
     1
 44
-50.0
176
     1
173
     0
176
     1
  0
VISUALSTYLE
  5
39
102
{ACAD_REACTORS
330
2A
102
}
330
2A
100
AcDbVisualStyle
  2
Facepattern
 70
    15
177
     2
291
     1
 71
     2
176
     1
 72
     2
176
     1
 73
     0
176
     1
 90
        0
176
     1
 40
-0.6
176
     1
 41
-30.0
176
     1
 62
     5
 63
     7
421
 16777215
176
     1
 74
     1
176
     1
 91
        4
176
     1
 64
     7
176
     1
 65
   257
176
     1
 75
     1
176
     1
175
     1
176
     1
 42
1.0
176
     1
 92
        8
176
     1
 66
     7
176
     1
 43
1.0
176
     1
 76
     1
176
     1
 77
     6
176
     1
 78
     2
176
     1
 67
     7
176
     1
 79
     5
176
     1
170
     0
176
     1
171
     0
176
     1
290
     0
176
     1
 93
        1
176
     1
 44
0.0
176
     1
173
     0
176
     1
  0
VISUALSTYLE
  5
2B
102
{ACAD_REACTORS
330
2A
102
}
330
2A
100
AcDbVisualStyle
  2
Flat
 70
     0
177
     2
291
     1
 71
     2
176
     1
 72
     1
176
     1
 73
     1
176
     1
 90
        2
176
     1
 40
-0.6
176
     1
 41
30.0
176
     1
 62
     5
 63
     7
421
 16777215
176
     1
 74
     0
176
     1
 91
        4
176
     1
 64
     7
176
     1
 65
   257
176
     1
 75
     1
176
     1
175
     1
176
     1
 42
1.0
176
     1
 92
        8
176
     1
 66
     7
176
     1
 43
1.0
176
     1
 76
     1
176
     1
 77
     6
176
     1
 78
     2
176
     1
 67
     7
176
     1
 79
     5
176
     1
170
     0
176
     1
171
     0
176
     1
290
     0
176
     1
 93
       13
176
     1
 44
0.0
176
     1
173
     0
176
     1
  0
VISUALSTYLE
  5
2C
102
{ACAD_REACTORS
330
2A
102
}
330
2A
100
AcDbVisualStyle
  2
FlatWithEdges
 70
     1
177
     2
291
     1
 71
     2
176
     1
 72
     1
176
     1
 73
     1
176
     1
 90
        2
176
     1
 40
-0.6
176
     1
 41
30.0
176
     1
 62
     5
 63
     7
421
 16777215
176
     1
 74
     1
176
     1
 91
        4
176
     1
 64
     7
176
     1
 65
   257
176
     1
 75
     1
176
     1
175
     1
176
     1
 42
1.0
176
     1
 92
        0
176
     1
 66
   257
176
     1
 43
1.0
176
     1
 76
     1
176
     1
 77
     6
176
     1
 78
     2
176
     1
 67
     7
176
     1
 79
     5
176
     1
170
     0
176
     1
171
     0
176
     1
290
     0
176
     1
 93
       13
176
     1
 44
0.0
176
     1
173
     0
176
     1
  0
VISUALSTYLE
  5
2D
102
{ACAD_REACTORS
330
2A
102
}
330
2A
100
AcDbVisualStyle
  2
Gouraud
 70
     2
177
     2
291
     1
 71
     2
176
     1
 72
     2
176
     1
 73
     1
176
     1
 90
        2
176
     1
 40
-0.6
176
     1
 41
30.0
176
     1
 62
     5
 63
     7
421
 16777215
176
     1
 74
     0
176
     1
 91
        4
176
     1
 64
     7
176
     1
 65
   257
176
     1
 75
     1
176
     1
175
     1
176
     1
 42
1.0
176
     1
 92
        0
176
     1
 66
     7
176
     1
 43
1.0
176
     1
 76
     1
176
     1
 77
     6
176
     1
 78
     2
176
     1
 67
     7
176
     1
 79
     5
176
     1
170
     0
176
     1
171
     0
176
     1
290
     0
176
     1
 93
       13
176
     1
 44
0.0
176
     1
173
     0
176
     1
  0
VISUALSTYLE
  5
2E
102
{ACAD_REACTORS
330
2A
102
}
330
2A
100
AcDbVisualStyle
  2
GouraudWithEdges
 70
     3
177
     2
291
     1
 71
     2
176
     1
 72
     2
176
     1
 73
     1
176
     1
 90
        2
176
     1
 40
-0.6
176
     1
 41
30.0
176
     1
 62
     5
 63
     7
421
 16777215
176
     1
 74
     1
176
     1
 91
        4
176
     1
 64
     7
176
     1
 65
   257
176
     1
 75
     1
176
     1
175
     1
176
     1
 42
1.0
176
     1
 92
        0
176
     1
 66
   257
176
     1
 43
1.0
176
     1
 76
     1
176
     1
 77
     6
176
     1
 78
     2
176
     1
 67
     7
176
     1
 79
     5
176
     1
170
     0
176
     1
171
     0
176
     1
290
     0
176
     1
 93
       13
176
     1
 44
0.0
176
     1
173
     0
176
     1
  0
VISUALSTYLE
  5
38
102
{ACAD_REACTORS
330
2A
102
}
330
2A
100
AcDbVisualStyle
  2
Linepattern
 70
    14
177
     2
291
     1
 71
     2
176
     1
 72
     2
176
     1
 73
     0
176
     1
 90
        0
176
     1
 40
-0.6
176
     1
 41
-30.0
176
     1
 62
     5
 63
     7
421
 16777215
176
     1
 74
     1
176
     1
 91
        4
176
     1
 64
     7
176
     1
 65
   257
176
     1
 75
     7
176
     1
175
     7
176
     1
 42
1.0
176
     1
 92
        8
176
     1
 66
     7
176
     1
 43
1.0
176
     1
 76
     1
176
     1
 77
     6
176
     1
 78
     2
176
     1
 67
     7
176
     1
 79
     5
176
     1
170
     0
176
     1
171
     0
176
     1
290
     0
176
     1
 93
        1
176
     1
 44
0.0
176
     1
173
     0
176
     1
  0
VISUALSTYLE
  5
33
102
{ACAD_REACTORS
330
2A
102
}
330
2A
100
AcDbVisualStyle
  2
Realistic
 70
     8
177
     2
291
     0
 71
     2
176
     1
 72
     2
176
     1
 73
     0
176
     1
 90
        0
176
     1
 40
-0.6
176
     1
 41
-30.0
176
     1
 62
     5
 63
     7
421
 16777215
176
     1
 74
     1
176
     1
 91
        0
176
     1
 64
     7
176
     1
 65
   257
176
     1
 75
     1
176
     1
175
     1
176
     1
 42
1.0
176
     1
 92
        8
176
     1
 66
     8
424
  7895160
176
     1
 43
1.0
176
     1
 76
     1
176
     1
 77
     6
176
     1
 78
     2
176
     1
 67
     7
176
     1
 79
     5
176
     1
170
     0
176
     1
171
     0
176
     1
290
     0
176
     1
 93
       13
176
     1
 44
0.0
176
     1
173
     0
176
     1
  0
VISUALSTYLE
  5
37
102
{ACAD_REACTORS
330
2A
102
}
330
2A
100
AcDbVisualStyle
  2
Thicken
 70
    13
177
     2
291
     1
 71
     2
176
     1
 72
     2
176
     1
 73
     0
176
     1
 90
        0
176
     1
 40
-0.6
176
     1
 41
-30.0
176
     1
 62
     5
 63
     7
421
 16777215
176
     1
 74
     1
176
     1
 91
        4
176
     1
 64
     7
176
     1
 65
   257
176
     1
 75
     1
176
     1
175
     1
176
     1
 42
1.0
176
     1
 92
       12
176
     1
 66
     7
176
     1
 43
1.0
176
     1
 76
     1
176
     1
 77
     6
176
     1
 78
     2
176
     1
 67
     7
176
     1
 79
     5
176
     1
170
     0
176
     1
171
     0
176
     1
290
     0
176
     1
 93
        1
176
     1
 44
0.0
176
     1
173
     0
176
     1
  0
ENDSEC
  0
EOF
