  0
SECTION
  2
HEADER
  9
$ACADVER
  1
AC1014
  9
$ACADMAINTVER
 70
     9
  9
$DWGCODEPAGE
  3
UNDEFINED
  9
$INSBASE
 10
0.0
 20
0.0
 30
0.0
  9
$EXTMIN
 10
1.000000000000000E+20
 20
1.000000000000000E+20
 30
1.000000000000000E+20
  9
$EXTMAX
 10
-1.000000000000000E+20
 20
-1.000000000000000E+20
 30
-1.000000000000000E+20
  9
$LIMMIN
 10
0.0
 20
0.0
  9
$LIMMAX
 10
12.0
 20
9.0
  9
$ORTHOMODE
 70
     0
  9
$REGENMODE
 70
     1
  9
$FILLMODE
 70
     1
  9
$QTEXTMODE
 70
     0
  9
$MIRRTEXT
 70
     1
  9
$DRAGMODE
 70
     2
  9
$LTSCALE
 40
1.0
  9
$OSMODE
 70
    37
  9
$ATTMODE
 70
     1
  9
$TEXTSIZE
 40
0.2
  9
$TRACEWID
 40
0.05
  9
$TEXTSTYLE
  7
STANDARD
  9
$CLAYER
  8
0
  9
$CELTYPE
  6
BYLAYER
  9
$CECOLOR
 62
   256
  9
$CELTSCALE
 40
1.0
  9
$DELOBJ
 70
     1
  9
$DISPSILH
 70
     0
  9
$DIMSCALE
 40
1.0
  9
$DIMASZ
 40
0.18
  9
$DIMEXO
 40
0.0625
  9
$DIMDLI
 40
0.38
  9
$DIMRND
 40
0.0
  9
$DIMDLE
 40
0.0
  9
$DIMEXE
 40
0.18
  9
$DIMTP
 40
0.0
  9
$DIMTM
 40
0.0
  9
$DIMTXT
 40
0.18
  9
$DIMCEN
 40
0.09
  9
$DIMTSZ
 40
0.0
  9
$DIMTOL
 70
     0
  9
$DIMLIM
 70
     0
  9
$DIMTIH
 70
     1
  9
$DIMTOH
 70
     1
  9
$DIMSE1
 70
     0
  9
$DIMSE2
 70
     0
  9
$DIMTAD
 70
     0
  9
$DIMZIN
 70
     0
  9
$DIMBLK
  1

  9
$DIMASO
 70
     1
  9
$DIMSHO
 70
     1
  9
$DIMPOST
  1

  9
$DIMAPOST
  1

  9
$DIMALT
 70
     0
  9
$DIMALTD
 70
     2
  9
$DIMALTF
 40
25.4
  9
$DIMLFAC
 40
1.0
  9
$DIMTOFL
 70
     0
  9
$DIMTVP
 40
0.0
  9
$DIMTIX
 70
     0
  9
$DIMSOXD
 70
     0
  9
$DIMSAH
 70
     0
  9
$DIMBLK1
  1

  9
$DIMBLK2
  1

  9
$DIMSTYLE
  2
STANDARD
  9
$DIMCLRD
 70
     0
  9
$DIMCLRE
 70
     0
  9
$DIMCLRT
 70
     0
  9
$DIMTFAC
 40
1.0
  9
$DIMGAP
 40
0.09
  9
$DIMJUST
 70
     0
  9
$DIMSD1
 70
     0
  9
$DIMSD2
 70
     0
  9
$DIMTOLJ
 70
     1
  9
$DIMTZIN
 70
     0
  9
$DIMALTZ
 70
     0
  9
$DIMALTTZ
 70
     0
  9
$DIMFIT
 70
     3
  9
$DIMUPT
 70
     0
  9
$DIMUNIT
 70
     2
  9
$DIMDEC
 70
     4
  9
$DIMTDEC
 70
     4
  9
$DIMALTU
 70
     2
  9
$DIMALTTD
 70
     2
  9
$DIMTXSTY
  7
STANDARD
  9
$DIMAUNIT
 70
     0
  9
$LUNITS
 70
     2
  9
$LUPREC
 70
     4
  9
$SKETCHINC
 40
0.1
  9
$FILLETRAD
 40
0.5
  9
$AUNITS
 70
     0
  9
$AUPREC
 70
     0
  9
$MENU
  1
.
  9
$ELEVATION
 40
0.0
  9
$PELEVATION
 40
0.0
  9
$THICKNESS
 40
0.0
  9
$LIMCHECK
 70
     0
  9
$CHAMFERA
 40
0.5
  9
$CHAMFERB
 40
0.5
  9
$CHAMFERC
 40
1.0
  9
$CHAMFERD
 40
0.0
  9
$SKPOLY
 70
     0
  9
$TDCREATE
 40
2457955.7815625
  9
$TDUPDATE
 40
2457955.7815625
  9
$TDINDWG
 40
0.0000000116
  9
$TDUSRTIMER
 40
0.0000000116
  9
$USRTIMER
 70
     1
  9
$ANGBASE
 50
0.0
  9
$ANGDIR
 70
     0
  9
$PDMODE
 70
     0
  9
$PDSIZE
 40
0.0
  9
$PLINEWID
 40
0.0
  9
$COORDS
 70
     1
  9
$SPLFRAME
 70
     0
  9
$SPLINETYPE
 70
     6
  9
$SPLINESEGS
 70
     8
  9
$ATTDIA
 70
     0
  9
$ATTREQ
 70
     1
  9
$HANDLING
 70
     1
  9
$HANDSEED
  5
DF
  9
$SURFTAB1
 70
     6
  9
$SURFTAB2
 70
     6
  9
$SURFTYPE
 70
     6
  9
$SURFU
 70
     6
  9
$SURFV
 70
     6
  9
$UCSNAME
  2

  9
$UCSORG
 10
0.0
 20
0.0
 30
0.0
  9
$UCSXDIR
 10
1.0
 20
0.0
 30
0.0
  9
$UCSYDIR
 10
0.0
 20
1.0
 30
0.0
  9
$PUCSNAME
  2

  9
$PUCSORG
 10
0.0
 20
0.0
 30
0.0
  9
$PUCSXDIR
 10
1.0
 20
0.0
 30
0.0
  9
$PUCSYDIR
 10
0.0
 20
1.0
 30
0.0
  9
$USERI1
 70
     0
  9
$USERI2
 70
     0
  9
$USERI3
 70
     0
  9
$USERI4
 70
     0
  9
$USERI5
 70
     0
  9
$USERR1
 40
0.0
  9
$USERR2
 40
0.0
  9
$USERR3
 40
0.0
  9
$USERR4
 40
0.0
  9
$USERR5
 40
0.0
  9
$WORLDVIEW
 70
     1
  9
$SHADEDGE
 70
     3
  9
$SHADEDIF
 70
    70
  9
$TILEMODE
 70
     1
  9
$MAXACTVP
 70
    64
  9
$PINSBASE
 10
0.0
 20
0.0
 30
0.0
  9
$PLIMCHECK
 70
     0
  9
$PEXTMIN
 10
1.000000000000000E+20
 20
1.000000000000000E+20
 30
1.000000000000000E+20
  9
$PEXTMAX
 10
-1.000000000000000E+20
 20
-1.000000000000000E+20
 30
-1.000000000000000E+20
  9
$PLIMMIN
 10
0.0
 20
0.0
  9
$PLIMMAX
 10
12.0
 20
9.0
  9
$UNITMODE
 70
     0
  9
$VISRETAIN
 70
     1
  9
$PLINEGEN
 70
     0
  9
$PSLTSCALE
 70
     1
  9
$TREEDEPTH
 70
  3020
  9
$PICKSTYLE
 70
     1
  9
$CMLSTYLE
  2
STANDARD
  9
$CMLJUST
 70
     0
  9
$CMLSCALE
 40
1.0
  9
$PROXYGRAPHICS
 70
     1
  9
$MEASUREMENT
 70
     0
  0
ENDSEC
  0
SECTION
  2
CLASSES
  0
CLASS
  1
ACDBDICTIONARYWDFLT
  2
AcDbDictionaryWithDefault
  3
ObjectDBX Classes
 90
        0
280
     0
281
     0
  0
CLASS
  1
VISUALSTYLE
  2
AcDbVisualStyle
  3
ObjectDBX Classes
 90
     4095
280
     0
281
     0
  0
CLASS
  1
MATERIAL
  2
AcDbMaterial
  3
ObjectDBX Classes
 90
     1153
280
     0
281
     0
  0
CLASS
  1
SUN
  2
AcDbSun
  3
SCENEOE
 90
     1024
280
     0
281
     0
  0
CLASS
  1
DICTIONARYVAR
  2
AcDbDictionaryVar
  3
ObjectDBX Classes
 90
        0
280
     0
281
     0
  0
CLASS
  1
XRECORD
  2
AcDbXrecord
  3
AutoCAD 2000
 90
        0
280
     0
281
     0
  0
CLASS
  1
LWPOLYLINE
  2
AcDbPolyline
  3
AutoCAD 2000
 90
        0
280
     0
281
     1
  0
CLASS
  1
HATCH
  2
AcDbHatch
  3
AutoCAD 2000
 90
        0
280
     0
281
     1
  0
CLASS
  1
ACDBPLACEHOLDER
  2
AcDbPlaceHolder
  3
ObjectDBX Classes
 90
        0
280
     0
281
     0
  0
CLASS
  1
LAYOUT
  2
AcDbLayout
  3
ObjectDBX Classes
 90
        0
280
     0
281
     0
  0
ENDSEC
  0
SECTION
  2
TABLES
  0
TABLE
  2
VPORT
  5
8
330
0
100
AcDbSymbolTable
 70
     1
  0
VPORT
  5
29
330
8
100
AcDbSymbolTableRecord
100
AcDbViewportTableRecord
  2
*ACTIVE
 70
     0
 10
0.0
 20
0.0
 11
1.0
 21
1.0
 12
0.0
 22
0.0
 13
0.0
 23
0.0
 14
0.5
 24
0.5
 15
0.5
 25
0.5
 16
0.0
 26
0.0
 36
1.0
 17
178.3243993548181
 27
258.0176727104318
 37
0.0
 40
77.96388886939792
 41
0.8421996657290776
 42
50.0
 43
0.0
 44
0.0
 50
0.0
 51
0.0
 71
     0
 72
   100
 73
     1
 74
     3
 75
     0
 76
     0
 77
     0
 78
     0
  0
ENDTAB
  0
TABLE
  2
LTYPE
  5
5
330
0
100
AcDbSymbolTable
 70
     1
  0
LTYPE
  5
14
330
5
100
AcDbSymbolTableRecord
100
AcDbLinetypeTableRecord
  2
BYBLOCK
 70
     0
  3

 72
    65
 73
     0
 40
0.0
  0
LTYPE
  5
15
330
5
100
AcDbSymbolTableRecord
100
AcDbLinetypeTableRecord
  2
BYLAYER
 70
     0
  3

 72
    65
 73
     0
 40
0.0
  0
LTYPE
  5
16
330
5
100
AcDbSymbolTableRecord
100
AcDbLinetypeTableRecord
  2
CONTINUOUS
 70
     0
  3
Solid line
 72
    65
 73
     0
 40
0.0
  0
ENDTAB
  0
TABLE
  2
LAYER
  5
2
330
0
100
AcDbSymbolTable
 70
     8
  0
LAYER
  5
10
330
2
100
AcDbSymbolTableRecord
100
AcDbLayerTableRecord
  2
0
 70
     0
 62
     7
  6
CONTINUOUS
  0
LAYER
  5
40
330
2
100
AcDbSymbolTableRecord
100
AcDbLayerTableRecord
  2
WAKU
 70
     0
 62
     7
  6
CONTINUOUS
  0
LAYER
  5
41
330
2
100
AcDbSymbolTableRecord
100
AcDbLayerTableRecord
  2
_U_30EC_U_30A4_U_30E4_U_30
 70
     0
 62
     7
  6
CONTINUOUS
  0
LAYER
  5
42
330
2
100
AcDbSymbolTableRecord
100
AcDbLayerTableRecord
  2
_U_30EC_U_30A4_U_30E4_U_31
 70
     0
 62
     7
  6
CONTINUOUS
  0
LAYER
  5
B0
330
2
100
AcDbSymbolTableRecord
100
AcDbLayerTableRecord
  2
_U_30EC_U_30A4_U_30E4_U_32
 70
     0
 62
     7
  6
CONTINUOUS
  0
LAYER
  5
B1
330
2
100
AcDbSymbolTableRecord
100
AcDbLayerTableRecord
  2
_U_30EC_U_30A4_U_30E4_U_33
 70
     0
 62
     7
  6
CONTINUOUS
  0
LAYER
  5
B2
330
2
100
AcDbSymbolTableRecord
100
AcDbLayerTableRecord
  2
TOP
 70
     0
 62
     7
  6
CONTINUOUS
  0
LAYER
  5
B3
330
2
100
AcDbSymbolTableRecord
100
AcDbLayerTableRecord
  2
_U_30EC_U_30A4_U_30E4_U_34
 70
     0
 62
     7
  6
CONTINUOUS
  0
ENDTAB
  0
TABLE
  2
STYLE
  5
3
330
0
100
AcDbSymbolTable
 70
     1
  0
STYLE
  5
11
330
3
100
AcDbSymbolTableRecord
100
AcDbTextStyleTableRecord
  2
STANDARD
 70
     0
 40
0.0
 41
1.0
 50
0.0
 71
     0
 42
0.2
  3
txt
  4

  0
ENDTAB
  0
TABLE
  2
VIEW
  5
6
330
0
100
AcDbSymbolTable
 70
     0
  0
ENDTAB
  0
TABLE
  2
UCS
  5
7
330
0
100
AcDbSymbolTable
 70
     0
  0
ENDTAB
  0
TABLE
  2
APPID
  5
9
330
0
100
AcDbSymbolTable
 70
     1
  0
APPID
  5
12
330
9
100
AcDbSymbolTableRecord
100
AcDbRegAppTableRecord
  2
ACAD
 70
     0
  0
ENDTAB
  0
TABLE
  2
DIMSTYLE
  5
A
330
0
100
AcDbSymbolTable
 70
     1
  0
DIMSTYLE
105
27
330
A
100
AcDbSymbolTableRecord
100
AcDbDimStyleTableRecord
  2
STANDARD
 70
     0
  3

  4

  5

  6

  7

 40
1.0
 41
0.18
 42
0.0625
 43
0.38
 44
0.18
 45
0.0
 46
0.0
 47
0.0
 48
0.0
140
0.18
141
0.09
142
0.0
143
25.4
144
1.0
145
0.0
146
1.0
147
0.09
 71
     0
 72
     0
 73
     1
 74
     1
 75
     0
 76
     0
 77
     0
 78
     0
170
     0
171
     2
172
     0
173
     0
174
     0
175
     0
176
     0
177
     0
178
     0
270
     2
271
     4
272
     4
273
     2
274
     2
340
11
275
     0
280
     0
281
     0
282
     0
283
     1
284
     0
285
     0
286
     0
287
     3
288
     0
  0
ENDTAB
  0
TABLE
  2
BLOCK_RECORD
  5
1
330
0
100
AcDbSymbolTable
 70
     2
  0
BLOCK_RECORD
  5
1F
330
1
100
AcDbSymbolTableRecord
100
AcDbBlockTableRecord
  2
*MODEL_SPACE
  0
BLOCK_RECORD
  5
1B
330
1
100
AcDbSymbolTableRecord
100
AcDbBlockTableRecord
  2
*PAPER_SPACE
  0
BLOCK_RECORD
  5
43
330
1
100
AcDbSymbolTableRecord
100
AcDbBlockTableRecord
  2
BLOCK_2
  0
ENDTAB
  0
ENDSEC
  0
SECTION
  2
BLOCKS
  0
BLOCK
  5
20
330
1F
100
AcDbEntity
  8
0
100
AcDbBlockBegin
  2
*MODEL_SPACE
 70
     0
 10
0.0
 20
0.0
 30
0.0
  3
*MODEL_SPACE
  1

  0
ENDBLK
  5
21
330
1F
100
AcDbEntity
  8
0
100
AcDbBlockEnd
  0
BLOCK
  5
1C
330
1B
100
AcDbEntity
 67
     1
  8
0
100
AcDbBlockBegin
  2
*PAPER_SPACE
 70
     0
 10
0.0
 20
0.0
 30
0.0
  3
*PAPER_SPACE
  1

  0
ENDBLK
  5
1D
330
1B
100
AcDbEntity
 67
     1
  8
0
100
AcDbBlockEnd
  0
BLOCK
  5
45
330
43
100
AcDbEntity
  8
0
100
AcDbBlockBegin
  2
BLOCK_2
 70
     0
 10
0.0
 20
0.0
 30
0.0
  3
BLOCK_2
  1

  0
SPLINE
  5
47
330
43
100
AcDbEntity
  8
_U_30EC_U_30A4_U_30E4_U_31
 62
     7
100
AcDbSpline
210
0.0
220
0.0
230
1.0
 70
    11
 71
     3
 72
    17
 73
    13
 74
     0
 42
0.0000000001
 43
0.0000000001
 12
1.0
 22
0.0
 32
0.0
 13
1.0
 23
0.0
 33
0.0
 40
0.0
 40
0.0
 40
0.0
 40
0.0
 40
1.0
 40
1.0
 40
1.0
 40
2.0
 40
2.0
 40
2.0
 40
3.0
 40
3.0
 40
3.0
 40
4.0
 40
4.0
 40
4.0
 40
4.0
 10
152.7931486064675
 20
230.6001076080749
 30
0.0
 10
152.7931486064675
 20
230.4854314345288
 30
0.0
 10
152.6999745023902
 20
230.3923306982382
 30
0.0
 10
152.5846440365538
 20
230.3923306982382
 30
0.0
 10
152.4699738596432
 20
230.3923306982382
 30
0.0
 10
152.3768731209997
 20
230.4854314345288
 30
0.0
 10
152.3768731209997
 20
230.6001076080749
 30
0.0
 10
152.3768731209997
 20
230.7146984171203
 30
0.0
 10
152.4699738596432
 20
230.8078725188461
 30
0.0
 10
152.5846440365538
 20
230.8078725188461
 30
0.0
 10
152.6999745023902
 20
230.8078725188461
 30
0.0
 10
152.7931486064675
 20
230.7146984171203
 30
0.0
 10
152.7931486064675
 20
230.6001076080749
 30
0.0
  0
SPLINE
  5
48
330
43
100
AcDbEntity
  8
_U_30EC_U_30A4_U_30E4_U_31
 62
     7
100
AcDbSpline
210
0.0
220
0.0
230
1.0
 70
    11
 71
     3
 72
    17
 73
    13
 74
     0
 42
0.0000000001
 43
0.0000000001
 12
1.0
 22
0.0
 32
0.0
 13
1.0
 23
0.0
 33
0.0
 40
0.0
 40
0.0
 40
0.0
 40
0.0
 40
1.0
 40
1.0
 40
1.0
 40
2.0
 40
2.0
 40
2.0
 40
3.0
 40
3.0
 40
3.0
 40
4.0
 40
4.0
 40
4.0
 40
4.0
 10
152.7931486064675
 20
282.4308735316456
 30
0.0
 10
152.7931486064675
 20
282.3162767230671
 30
0.0
 10
152.6999745023902
 20
282.2231026213416
 30
0.0
 10
152.5846440365538
 20
282.2231026213416
 30
0.0
 10
152.4699738596432
 20
282.2231026213416
 30
0.0
 10
152.3768731209997
 20
282.3162767230671
 30
0.0
 10
152.3768731209997
 20
282.4308735316456
 30
0.0
 10
152.3768731209997
 20
282.5455437056589
 30
0.0
 10
152.4699738596432
 20
282.6386444419502
 30
0.0
 10
152.5846440365538
 20
282.6386444419502
 30
0.0
 10
152.6999745023902
 20
282.6386444419502
 30
0.0
 10
152.7931486064675
 20
282.5455437056589
 30
0.0
 10
152.7931486064675
 20
282.4308735316456
 30
0.0
  0
SPLINE
  5
49
330
43
100
AcDbEntity
  8
_U_30EC_U_30A4_U_30E4_U_31
 62
     7
100
AcDbSpline
210
0.0
220
0.0
230
1.0
 70
    11
 71
     3
 72
    17
 73
    13
 74
     0
 42
0.0000000001
 43
0.0000000001
 12
1.0
 22
0.0
 32
0.0
 13
1.0
 23
0.0
 33
0.0
 40
0.0
 40
0.0
 40
0.0
 40
0.0
 40
1.0
 40
1.0
 40
1.0
 40
2.0
 40
2.0
 40
2.0
 40
3.0
 40
3.0
 40
3.0
 40
4.0
 40
4.0
 40
4.0
 40
4.0
 10
161.1119086957037
 20
290.9101645043573
 30
0.0
 10
161.1119086957037
 20
290.7940928639956
 30
0.0
 10
161.0188079570616
 20
290.7009921277046
 30
0.0
 10
160.9034774912238
 20
290.7009921277046
 30
0.0
 10
160.7888073143152
 20
290.7009921277046
 30
0.0
 10
160.6957065756711
 20
290.7940928639956
 30
0.0
 10
160.6957065756711
 20
290.9101645043573
 30
0.0
 10
160.6957065756711
 20
291.0248271552759
 30
0.0
 10
160.7888073143152
 20
291.1179278915669
 30
0.0
 10
160.9034774912238
 20
291.1179278915669
 30
0.0
 10
161.0188079570616
 20
291.1179278915669
 30
0.0
 10
161.1119086957037
 20
291.0248271552759
 30
0.0
 10
161.1119086957037
 20
290.9101645043573
 30
0.0
  0
SPLINE
  5
4A
330
43
100
AcDbEntity
  8
_U_30EC_U_30A4_U_30E4_U_31
 62
     7
100
AcDbSpline
210
0.0
220
0.0
230
1.0
 70
    11
 71
     3
 72
    17
 73
    13
 74
     0
 42
0.0000000001
 43
0.0000000001
 12
1.0
 22
0.0
 32
0.0
 13
1.0
 23
0.0
 33
0.0
 40
0.0
 40
0.0
 40
0.0
 40
0.0
 40
1.0
 40
1.0
 40
1.0
 40
2.0
 40
2.0
 40
2.0
 40
3.0
 40
3.0
 40
3.0
 40
4.0
 40
4.0
 40
4.0
 40
4.0
 10
163.1910851599575
 20
290.9101645043573
 30
0.0
 10
163.1910851599575
 20
290.7940928639956
 30
0.0
 10
163.0979844213154
 20
290.7009921277046
 30
0.0
 10
162.983314244406
 20
290.7009921277046
 30
0.0
 10
162.8687174329319
 20
290.7009921277046
 30
0.0
 10
162.7755433288527
 20
290.7940928639956
 30
0.0
 10
162.7755433288527
 20
290.9101645043573
 30
0.0
 10
162.7755433288527
 20
291.0248271552759
 30
0.0
 10
162.8687174329319
 20
291.1179278915669
 30
0.0
 10
162.983314244406
 20
291.1179278915669
 30
0.0
 10
163.0979844213154
 20
291.1179278915669
 30
0.0
 10
163.1910851599575
 20
291.0248271552759
 30
0.0
 10
163.1910851599575
 20
290.9101645043573
 30
0.0
  0
SPLINE
  5
4B
330
43
100
AcDbEntity
  8
_U_30EC_U_30A4_U_30E4_U_31
 62
     7
100
AcDbSpline
210
0.0
220
0.0
230
1.0
 70
    11
 71
     3
 72
    17
 73
    13
 74
     0
 42
0.0000000001
 43
0.0000000001
 12
1.0
 22
0.0
 32
0.0
 13
1.0
 23
0.0
 33
0.0
 40
0.0
 40
0.0
 40
0.0
 40
0.0
 40
1.0
 40
1.0
 40
1.0
 40
2.0
 40
2.0
 40
2.0
 40
3.0
 40
3.0
 40
3.0
 40
4.0
 40
4.0
 40
4.0
 40
4.0
 10
200.2076871860351
 20
222.0720301450292
 30
0.0
 10
200.2076871860351
 20
221.957433336451
 30
0.0
 10
200.1145864497442
 20
221.8642592347253
 30
0.0
 10
199.9999162757308
 20
221.8642592347253
 30
0.0
 10
199.885319467152
 20
221.8642592347253
 30
0.0
 10
199.7921453654259
 20
221.957433336451
 30
0.0
 10
199.7921453654259
 20
222.0720301450292
 30
0.0
 10
199.7921453654259
 20
222.1867003190422
 30
0.0
 10
199.885319467152
 20
222.2798010553332
 30
0.0
 10
199.9999162757308
 20
222.2798010553332
 30
0.0
 10
200.1145864497442
 20
222.2798010553332
 30
0.0
 10
200.2076871860351
 20
222.1867003190422
 30
0.0
 10
200.2076871860351
 20
222.0720301450292
 30
0.0
  0
SPLINE
  5
4C
330
43
100
AcDbEntity
  8
_U_30EC_U_30A4_U_30E4_U_31
 62
     7
100
AcDbSpline
210
0.0
220
0.0
230
1.0
 70
    11
 71
     3
 72
    17
 73
    13
 74
     0
 42
0.0000000001
 43
0.0000000001
 12
1.0
 22
0.0
 32
0.0
 13
1.0
 23
0.0
 33
0.0
 40
0.0
 40
0.0
 40
0.0
 40
0.0
 40
1.0
 40
1.0
 40
1.0
 40
2.0
 40
2.0
 40
2.0
 40
3.0
 40
3.0
 40
3.0
 40
4.0
 40
4.0
 40
4.0
 40
4.0
 10
208.5265228565568
 20
236.8390247869868
 30
0.0
 10
208.5265228565568
 20
236.7243546129738
 30
0.0
 10
208.433348752477
 20
236.6312538766829
 30
0.0
 10
208.3187495202503
 20
236.6312538766829
 30
0.0
 10
208.2033456918927
 20
236.6312538766829
 30
0.0
 10
208.1102449556017
 20
236.7243546129738
 30
0.0
 10
208.1102449556017
 20
236.8390247869868
 30
0.0
 10
208.1102449556017
 20
236.953621595566
 30
0.0
 10
208.2033456918927
 20
237.0467956972911
 30
0.0
 10
208.3187495202503
 20
237.0467956972911
 30
0.0
 10
208.433348752477
 20
237.0467956972911
 30
0.0
 10
208.5265228565568
 20
236.953621595566
 30
0.0
 10
208.5265228565568
 20
236.8390247869868
 30
0.0
  0
SPLINE
  5
4D
330
43
100
AcDbEntity
  8
_U_30EC_U_30A4_U_30E4_U_31
 62
     7
100
AcDbSpline
210
0.0
220
0.0
230
1.0
 70
    11
 71
     3
 72
    17
 73
    13
 74
     0
 42
0.0000000001
 43
0.0000000001
 12
1.0
 22
0.0
 32
0.0
 13
1.0
 23
0.0
 33
0.0
 40
0.0
 40
0.0
 40
0.0
 40
0.0
 40
1.0
 40
1.0
 40
1.0
 40
2.0
 40
2.0
 40
2.0
 40
3.0
 40
3.0
 40
3.0
 40
4.0
 40
4.0
 40
4.0
 40
4.0
 10
208.5265228565568
 20
230.6001076080749
 30
0.0
 10
208.5265228565568
 20
230.4854314345288
 30
0.0
 10
208.433348752477
 20
230.3923306982382
 30
0.0
 10
208.3187495202503
 20
230.3923306982382
 30
0.0
 10
208.2033456918927
 20
230.3923306982382
 30
0.0
 10
208.1102449556017
 20
230.4854314345288
 30
0.0
 10
208.1102449556017
 20
230.6001076080749
 30
0.0
 10
208.1102449556017
 20
230.7146984171203
 30
0.0
 10
208.2033456918927
 20
230.8078725188461
 30
0.0
 10
208.3187495202503
 20
230.8078725188461
 30
0.0
 10
208.433348752477
 20
230.8078725188461
 30
0.0
 10
208.5265228565568
 20
230.7146984171203
 30
0.0
 10
208.5265228565568
 20
230.6001076080749
 30
0.0
  0
SPLINE
  5
4E
330
43
100
AcDbEntity
  8
_U_30EC_U_30A4_U_30E4_U_31
 62
     7
100
AcDbSpline
210
0.0
220
0.0
230
1.0
 70
    11
 71
     3
 72
    17
 73
    13
 74
     0
 42
0.0000000001
 43
0.0000000001
 12
1.0
 22
0.0
 32
0.0
 13
1.0
 23
0.0
 33
0.0
 40
0.0
 40
0.0
 40
0.0
 40
0.0
 40
1.0
 40
1.0
 40
1.0
 40
2.0
 40
2.0
 40
2.0
 40
3.0
 40
3.0
 40
3.0
 40
4.0
 40
4.0
 40
4.0
 40
4.0
 10
163.1910851599575
 20
245.1571243771626
 30
0.0
 10
163.1910851599575
 20
245.0424542031493
 30
0.0
 10
163.0979844213154
 20
244.9493534668586
 30
0.0
 10
162.983314244406
 20
244.9493534668586
 30
0.0
 10
162.8687174329319
 20
244.9493534668586
 30
0.0
 10
162.7755433288527
 20
245.0424542031493
 30
0.0
 10
162.7755433288527
 20
245.1571243771626
 30
0.0
 10
162.7755433288527
 20
245.2717275559112
 30
0.0
 10
162.8687174329319
 20
245.3649016599898
 30
0.0
 10
162.983314244406
 20
245.3649016599898
 30
0.0
 10
163.0979844213154
 20
245.3649016599898
 30
0.0
 10
163.1910851599575
 20
245.2717275559112
 30
0.0
 10
163.1910851599575
 20
245.1571243771626
 30
0.0
  0
POLYLINE
  5
4F
330
43
100
AcDbEntity
  8
_U_30EC_U_30A4_U_30E4_U_31
 62
     7
100
AcDb2dPolyline
 66
     1
 10
0.0
 20
0.0
 30
0.0
  0
VERTEX
  5
50
330
4F
100
AcDbEntity
  8
_U_30EC_U_30A4_U_30E4_U_31
 62
     7
100
AcDbVertex
100
AcDb2dVertex
 10
208.3187495202503
 20
230.6001076080749
 30
0.0
  0
VERTEX
  5
51
330
4F
100
AcDbEntity
  8
_U_30EC_U_30A4_U_30E4_U_31
 62
     7
100
AcDbVertex
100
AcDb2dVertex
 10
208.3187495202503
 20
236.8390247869868
 30
0.0
  0
SEQEND
  5
52
330
4F
100
AcDbEntity
  8
_U_30EC_U_30A4_U_30E4_U_31
 62
     7
  0
POLYLINE
  5
53
330
43
100
AcDbEntity
  8
_U_30EC_U_30A4_U_30E4_U_31
 62
     7
100
AcDb2dPolyline
 66
     1
 10
0.0
 20
0.0
 30
0.0
  0
VERTEX
  5
54
330
53
100
AcDbEntity
  8
_U_30EC_U_30A4_U_30E4_U_31
 62
     7
100
AcDbVertex
100
AcDb2dVertex
 10
205.2823742855191
 20
230.6001076080749
 30
0.0
  0
VERTEX
  5
55
330
53
100
AcDbEntity
  8
_U_30EC_U_30A4_U_30E4_U_31
 62
     7
100
AcDbVertex
100
AcDb2dVertex
 10
210.3979259319804
 20
230.6001076080749
 30
0.0
  0
SEQEND
  5
56
330
53
100
AcDbEntity
  8
_U_30EC_U_30A4_U_30E4_U_31
 62
     7
  0
POLYLINE
  5
57
330
43
100
AcDbEntity
  8
_U_30EC_U_30A4_U_30E4_U_31
 62
     7
100
AcDb2dPolyline
 66
     1
 10
0.0
 20
0.0
 30
0.0
  0
VERTEX
  5
58
330
57
100
AcDbEntity
  8
_U_30EC_U_30A4_U_30E4_U_31
 62
     7
100
AcDbVertex
100
AcDb2dVertex
 10
205.2823742855191
 20
236.8390247869868
 30
0.0
  0
VERTEX
  5
59
330
57
100
AcDbEntity
  8
_U_30EC_U_30A4_U_30E4_U_31
 62
     7
100
AcDbVertex
100
AcDb2dVertex
 10
210.3979259319804
 20
236.8390247869868
 30
0.0
  0
SEQEND
  5
5A
330
57
100
AcDbEntity
  8
_U_30EC_U_30A4_U_30E4_U_31
 62
     7
  0
MTEXT
  5
5B
330
43
100
AcDbEntity
  8
_U_30EC_U_30A4_U_30E4_U_31
 62
     7
100
AcDbMText
 10
205.6119112984234
 20
232.3226040448428
 30
0.0
 40
3.1165640917616
 41
0.0
 71
     7
 72
     1
  1
\fA-OTF Futo Go B101 Pro|b1|i0|c0|p34;\W1.06875;3
 11
6.123233995736766E-17
 21
1.0
 31
0.0
  0
POLYLINE
  5
5C
330
43
100
AcDbEntity
  8
_U_30EC_U_30A4_U_30E4_U_31
 62
     7
100
AcDb2dPolyline
 66
     1
 10
0.0
 20
0.0
 30
0.0
  0
VERTEX
  5
5D
330
5C
100
AcDbEntity
  8
_U_30EC_U_30A4_U_30E4_U_31
 62
     7
100
AcDbVertex
100
AcDb2dVertex
 10
152.5846440365538
 20
230.6001076080749
 30
0.0
  0
VERTEX
  5
5E
330
5C
100
AcDbEntity
  8
_U_30EC_U_30A4_U_30E4_U_31
 62
     7
100
AcDbVertex
100
AcDb2dVertex
 10
152.5846440365538
 20
282.4308735316456
 30
0.0
  0
SEQEND
  5
5F
330
5C
100
AcDbEntity
  8
_U_30EC_U_30A4_U_30E4_U_31
 62
     7
  0
POLYLINE
  5
60
330
43
100
AcDbEntity
  8
_U_30EC_U_30A4_U_30E4_U_31
 62
     7
100
AcDb2dPolyline
 66
     1
 10
0.0
 20
0.0
 30
0.0
  0
VERTEX
  5
61
330
60
100
AcDbEntity
  8
_U_30EC_U_30A4_U_30E4_U_31
 62
     7
100
AcDbVertex
100
AcDb2dVertex
 10
155.6210193479898
 20
230.6001076080749
 30
0.0
  0
VERTEX
  5
62
330
60
100
AcDbEntity
  8
_U_30EC_U_30A4_U_30E4_U_31
 62
     7
100
AcDbVertex
100
AcDb2dVertex
 10
150.505467572298
 20
230.6001076080749
 30
0.0
  0
SEQEND
  5
63
330
60
100
AcDbEntity
  8
_U_30EC_U_30A4_U_30E4_U_31
 62
     7
  0
POLYLINE
  5
64
330
43
100
AcDbEntity
  8
_U_30EC_U_30A4_U_30E4_U_31
 62
     7
100
AcDb2dPolyline
 66
     1
 10
0.0
 20
0.0
 30
0.0
  0
VERTEX
  5
65
330
64
100
AcDbEntity
  8
_U_30EC_U_30A4_U_30E4_U_31
 62
     7
100
AcDbVertex
100
AcDb2dVertex
 10
155.6210193479898
 20
282.4308735316456
 30
0.0
  0
VERTEX
  5
66
330
64
100
AcDbEntity
  8
_U_30EC_U_30A4_U_30E4_U_31
 62
     7
100
AcDbVertex
100
AcDb2dVertex
 10
150.505467572298
 20
282.4308735316456
 30
0.0
  0
SEQEND
  5
67
330
64
100
AcDbEntity
  8
_U_30EC_U_30A4_U_30E4_U_31
 62
     7
  0
MTEXT
  5
68
330
43
100
AcDbEntity
  8
_U_30EC_U_30A4_U_30E4_U_31
 62
     7
100
AcDbMText
 10
149.8764675189545
 20
253.9691725073131
 30
0.0
 40
3.1165640917616
 41
0.0
 71
     7
 72
     1
  1
\fA-OTF Futo Go B101 Pro|b1|i0|c0|p34;\W1.06875;25
 11
6.123233995736766E-17
 21
1.0
 31
0.0
  0
POLYLINE
  5
69
330
43
100
AcDbEntity
  8
_U_30EC_U_30A4_U_30E4_U_31
 62
     7
100
AcDb2dPolyline
 66
     1
 10
0.0
 20
0.0
 30
0.0
  0
VERTEX
  5
6A
330
69
100
AcDbEntity
  8
_U_30EC_U_30A4_U_30E4_U_31
 62
     7
100
AcDbVertex
100
AcDb2dVertex
 10
160.9023770096808
 20
222.0720301450292
 30
0.0
  0
VERTEX
  5
6B
330
69
100
AcDbEntity
  8
_U_30EC_U_30A4_U_30E4_U_31
 62
     7
100
AcDbVertex
100
AcDb2dVertex
 10
199.9999162757308
 20
222.0720301450292
 30
0.0
  0
SEQEND
  5
6C
330
69
100
AcDbEntity
  8
_U_30EC_U_30A4_U_30E4_U_31
 62
     7
  0
POLYLINE
  5
6D
330
43
100
AcDbEntity
  8
_U_30EC_U_30A4_U_30E4_U_31
 62
     7
100
AcDb2dPolyline
 66
     1
 10
0.0
 20
0.0
 30
0.0
  0
VERTEX
  5
6E
330
6D
100
AcDbEntity
  8
_U_30EC_U_30A4_U_30E4_U_31
 62
     7
100
AcDbVertex
100
AcDb2dVertex
 10
199.9999162757308
 20
219.0357282757328
 30
0.0
  0
VERTEX
  5
6F
330
6D
100
AcDbEntity
  8
_U_30EC_U_30A4_U_30E4_U_31
 62
     7
100
AcDbVertex
100
AcDb2dVertex
 10
199.9999162757308
 20
224.1526738654485
 30
0.0
  0
SEQEND
  5
70
330
6D
100
AcDbEntity
  8
_U_30EC_U_30A4_U_30E4_U_31
 62
     7
  0
SPLINE
  5
71
330
43
100
AcDbEntity
  8
_U_30EC_U_30A4_U_30E4_U_31
 62
     7
100
AcDbSpline
210
0.0
220
0.0
230
1.0
 70
    11
 71
     3
 72
    17
 73
    13
 74
     0
 42
0.0000000001
 43
0.0000000001
 12
1.0
 22
0.0
 32
0.0
 13
1.0
 23
0.0
 33
0.0
 40
0.0
 40
0.0
 40
0.0
 40
0.0
 40
1.0
 40
1.0
 40
1.0
 40
2.0
 40
2.0
 40
2.0
 40
3.0
 40
3.0
 40
3.0
 40
4.0
 40
4.0
 40
4.0
 40
4.0
 10
161.1101479252322
 20
222.0720301450292
 30
0.0
 10
161.1101479252322
 20
221.957433336451
 30
0.0
 10
161.0169738211537
 20
221.8642592347253
 30
0.0
 10
160.9023770096808
 20
221.8642592347253
 30
0.0
 10
160.7877068327708
 20
221.8642592347253
 30
0.0
 10
160.6946060941274
 20
221.957433336451
 30
0.0
 10
160.6946060941274
 20
222.0720301450292
 30
0.0
 10
160.6946060941274
 20
222.1867003190422
 30
0.0
 10
160.7877068327708
 20
222.2798010553332
 30
0.0
 10
160.9023770096808
 20
222.2798010553332
 30
0.0
 10
161.0169738211537
 20
222.2798010553332
 30
0.0
 10
161.1101479252322
 20
222.1867003190422
 30
0.0
 10
161.1101479252322
 20
222.0720301450292
 30
0.0
  0
POLYLINE
  5
72
330
43
100
AcDbEntity
  8
_U_30EC_U_30A4_U_30E4_U_31
 62
     7
100
AcDb2dPolyline
 66
     1
 10
0.0
 20
0.0
 30
0.0
  0
VERTEX
  5
73
330
72
100
AcDbEntity
  8
_U_30EC_U_30A4_U_30E4_U_31
 62
     7
100
AcDbVertex
100
AcDb2dVertex
 10
160.9023770096808
 20
219.0357282757328
 30
0.0
  0
VERTEX
  5
74
330
72
100
AcDbEntity
  8
_U_30EC_U_30A4_U_30E4_U_31
 62
     7
100
AcDbVertex
100
AcDb2dVertex
 10
160.9023770096808
 20
224.1526738654485
 30
0.0
  0
SEQEND
  5
75
330
72
100
AcDbEntity
  8
_U_30EC_U_30A4_U_30E4_U_31
 62
     7
  0
MTEXT
  5
76
330
43
100
AcDbEntity
  8
_U_30EC_U_30A4_U_30E4_U_31
 62
     7
100
AcDbMText
 10
175.917944291958
 20
224.2839904943351
 30
0.0
 40
3.1165640917616
 41
0.0
 71
     7
 72
     1
  1
\fA-OTF Futo Go B101 Pro|b1|i0|c0|p34;\W1.06875;18.8
  0
POLYLINE
  5
77
330
43
100
AcDbEntity
  8
_U_30EC_U_30A4_U_30E4_U_31
 62
     7
100
AcDb2dPolyline
 66
     1
 10
0.0
 20
0.0
 30
0.0
  0
VERTEX
  5
78
330
77
100
AcDbEntity
  8
_U_30EC_U_30A4_U_30E4_U_31
 62
     7
100
AcDbVertex
100
AcDb2dVertex
 10
162.983314244406
 20
290.9101645043573
 30
0.0
  0
VERTEX
  5
79
330
77
100
AcDbEntity
  8
_U_30EC_U_30A4_U_30E4_U_31
 62
     7
100
AcDbVertex
100
AcDb2dVertex
 10
170.8242452471319
 20
290.9101645043573
 30
0.0
  0
SEQEND
  5
7A
330
77
100
AcDbEntity
  8
_U_30EC_U_30A4_U_30E4_U_31
 62
     7
  0
POLYLINE
  5
7B
330
43
100
AcDbEntity
  8
_U_30EC_U_30A4_U_30E4_U_31
 62
     7
100
AcDb2dPolyline
 66
     1
 10
0.0
 20
0.0
 30
0.0
  0
VERTEX
  5
7C
330
7B
100
AcDbEntity
  8
_U_30EC_U_30A4_U_30E4_U_31
 62
     7
100
AcDbVertex
100
AcDb2dVertex
 10
162.983314244406
 20
290.9101645043573
 30
0.0
  0
VERTEX
  5
7D
330
7B
100
AcDbEntity
  8
_U_30EC_U_30A4_U_30E4_U_31
 62
     7
100
AcDbVertex
100
AcDb2dVertex
 10
158.8235673726071
 20
290.9101645043573
 30
0.0
  0
SEQEND
  5
7E
330
7B
100
AcDbEntity
  8
_U_30EC_U_30A4_U_30E4_U_31
 62
     7
  0
POLYLINE
  5
7F
330
43
100
AcDbEntity
  8
_U_30EC_U_30A4_U_30E4_U_31
 62
     7
100
AcDb2dPolyline
 66
     1
 10
0.0
 20
0.0
 30
0.0
  0
VERTEX
  5
80
330
7F
100
AcDbEntity
  8
_U_30EC_U_30A4_U_30E4_U_31
 62
     7
100
AcDbVertex
100
AcDb2dVertex
 10
162.983314244406
 20
287.8738551119659
 30
0.0
  0
VERTEX
  5
81
330
7F
100
AcDbEntity
  8
_U_30EC_U_30A4_U_30E4_U_31
 62
     7
100
AcDbVertex
100
AcDb2dVertex
 10
162.983314244406
 20
292.9893409686111
 30
0.0
  0
SEQEND
  5
82
330
7F
100
AcDbEntity
  8
_U_30EC_U_30A4_U_30E4_U_31
 62
     7
  0
POLYLINE
  5
83
330
43
100
AcDbEntity
  8
_U_30EC_U_30A4_U_30E4_U_31
 62
     7
100
AcDb2dPolyline
 66
     1
 10
0.0
 20
0.0
 30
0.0
  0
VERTEX
  5
84
330
83
100
AcDbEntity
  8
_U_30EC_U_30A4_U_30E4_U_31
 62
     7
100
AcDbVertex
100
AcDb2dVertex
 10
160.9034774912238
 20
287.8738551119659
 30
0.0
  0
VERTEX
  5
85
330
83
100
AcDbEntity
  8
_U_30EC_U_30A4_U_30E4_U_31
 62
     7
100
AcDbVertex
100
AcDb2dVertex
 10
160.9034774912238
 20
292.9893409686111
 30
0.0
  0
SEQEND
  5
86
330
83
100
AcDbEntity
  8
_U_30EC_U_30A4_U_30E4_U_31
 62
     7
  0
MTEXT
  5
87
330
43
100
AcDbEntity
  8
_U_30EC_U_30A4_U_30E4_U_31
 62
     7
100
AcDbMText
 10
168.0035264336936
 20
293.1211324042092
 30
0.0
 40
3.1165640917616
 41
0.0
 71
     7
 72
     1
  1
\fA-OTF Futo Go B101 Pro|b1|i0|c0|p34;\W1.06875;1
  0
POLYLINE
  5
88
330
43
100
AcDbEntity
  8
_U_30EC_U_30A4_U_30E4_U_31
 62
     7
100
AcDb2dPolyline
 66
     1
 10
0.0
 20
0.0
 30
0.0
  0
VERTEX
  5
89
330
88
100
AcDbEntity
  8
_U_30EC_U_30A4_U_30E4_U_31
 62
     7
100
AcDbVertex
100
AcDb2dVertex
 10
160.9034774912238
 20
230.6001076080749
 30
0.0
  0
VERTEX
  5
8A
330
88
100
AcDbEntity
  8
_U_30EC_U_30A4_U_30E4_U_31
 62
     7
100
AcDbVertex
100
AcDb2dVertex
 10
160.9034774912238
 20
282.5906634478331
 30
0.0
  0
SEQEND
  5
8B
330
88
100
AcDbEntity
  8
_U_30EC_U_30A4_U_30E4_U_31
 62
     7
  0
POLYLINE
  5
8C
330
43
100
AcDbEntity
  8
_U_30EC_U_30A4_U_30E4_U_31
 62
     7
100
AcDb2dPolyline
 66
     1
 10
0.0
 20
0.0
 30
0.0
  0
VERTEX
  5
8D
330
8C
100
AcDbEntity
  8
_U_30EC_U_30A4_U_30E4_U_31
 62
     7
100
AcDbVertex
100
AcDb2dVertex
 10
199.9999162757308
 20
230.6001076080749
 30
0.0
  0
VERTEX
  5
8E
330
8C
100
AcDbEntity
  8
_U_30EC_U_30A4_U_30E4_U_31
 62
     7
100
AcDbVertex
100
AcDb2dVertex
 10
160.9034774912238
 20
230.6001076080749
 30
0.0
  0
SEQEND
  5
8F
330
8C
100
AcDbEntity
  8
_U_30EC_U_30A4_U_30E4_U_31
 62
     7
  0
POLYLINE
  5
90
330
43
100
AcDbEntity
  8
_U_30EC_U_30A4_U_30E4_U_31
 62
     7
100
AcDb2dPolyline
 66
     1
 10
0.0
 20
0.0
 30
0.0
  0
VERTEX
  5
91
330
90
100
AcDbEntity
  8
_U_30EC_U_30A4_U_30E4_U_31
 62
     7
100
AcDbVertex
100
AcDb2dVertex
 10
199.9999162757308
 20
236.8390247869868
 30
0.0
  0
VERTEX
  5
92
330
90
100
AcDbEntity
  8
_U_30EC_U_30A4_U_30E4_U_31
 62
     7
100
AcDbVertex
100
AcDb2dVertex
 10
199.9999162757308
 20
230.6001076080749
 30
0.0
  0
SEQEND
  5
93
330
90
100
AcDbEntity
  8
_U_30EC_U_30A4_U_30E4_U_31
 62
     7
  0
POLYLINE
  5
94
330
43
100
AcDbEntity
  8
_U_30EC_U_30A4_U_30E4_U_31
 62
     7
100
AcDb2dPolyline
 66
     1
 10
0.0
 20
0.0
 30
0.0
  0
VERTEX
  5
95
330
94
100
AcDbEntity
  8
_U_30EC_U_30A4_U_30E4_U_31
 62
     7
100
AcDbVertex
100
AcDb2dVertex
 10
189.6026422217685
 20
236.8390247869868
 30
0.0
  0
VERTEX
  5
96
330
94
100
AcDbEntity
  8
_U_30EC_U_30A4_U_30E4_U_31
 62
     7
100
AcDbVertex
100
AcDb2dVertex
 10
199.9999162757308
 20
236.8390247869868
 30
0.0
  0
SEQEND
  5
97
330
94
100
AcDbEntity
  8
_U_30EC_U_30A4_U_30E4_U_31
 62
     7
  0
POLYLINE
  5
98
330
43
100
AcDbEntity
  8
_U_30EC_U_30A4_U_30E4_U_31
 62
     7
100
AcDb2dPolyline
 66
     1
 10
0.0
 20
0.0
 30
0.0
  0
VERTEX
  5
99
330
98
100
AcDbEntity
  8
_U_30EC_U_30A4_U_30E4_U_31
 62
     7
100
AcDbVertex
100
AcDb2dVertex
 10
189.6026422217685
 20
234.7598483752564
 30
0.0
  0
VERTEX
  5
9A
330
98
100
AcDbEntity
  8
_U_30EC_U_30A4_U_30E4_U_31
 62
     7
100
AcDbVertex
100
AcDb2dVertex
 10
189.6026422217685
 20
236.8390247869868
 30
0.0
  0
SEQEND
  5
9B
330
98
100
AcDbEntity
  8
_U_30EC_U_30A4_U_30E4_U_31
 62
     7
  0
POLYLINE
  5
9C
330
43
100
AcDbEntity
  8
_U_30EC_U_30A4_U_30E4_U_31
 62
     7
100
AcDb2dPolyline
 66
     1
 10
0.0
 20
0.0
 30
0.0
  0
VERTEX
  5
9D
330
9C
100
AcDbEntity
  8
_U_30EC_U_30A4_U_30E4_U_31
 62
     7
100
AcDbVertex
100
AcDb2dVertex
 10
197.9200062096558
 20
234.7598483752564
 30
0.0
  0
VERTEX
  5
9E
330
9C
100
AcDbEntity
  8
_U_30EC_U_30A4_U_30E4_U_31
 62
     7
100
AcDbVertex
100
AcDb2dVertex
 10
189.6026422217685
 20
234.7598483752564
 30
0.0
  0
SEQEND
  5
9F
330
9C
100
AcDbEntity
  8
_U_30EC_U_30A4_U_30E4_U_31
 62
     7
  0
POLYLINE
  5
A0
330
43
100
AcDbEntity
  8
_U_30EC_U_30A4_U_30E4_U_31
 62
     7
100
AcDb2dPolyline
 66
     1
 10
0.0
 20
0.0
 30
0.0
  0
VERTEX
  5
A1
330
A0
100
AcDbEntity
  8
_U_30EC_U_30A4_U_30E4_U_31
 62
     7
100
AcDbVertex
100
AcDb2dVertex
 10
197.9200062096558
 20
232.6792046548377
 30
0.0
  0
VERTEX
  5
A2
330
A0
100
AcDbEntity
  8
_U_30EC_U_30A4_U_30E4_U_31
 62
     7
100
AcDbVertex
100
AcDb2dVertex
 10
197.9200062096558
 20
234.7598483752564
 30
0.0
  0
SEQEND
  5
A3
330
A0
100
AcDbEntity
  8
_U_30EC_U_30A4_U_30E4_U_31
 62
     7
  0
POLYLINE
  5
A4
330
43
100
AcDbEntity
  8
_U_30EC_U_30A4_U_30E4_U_31
 62
     7
100
AcDb2dPolyline
 66
     1
 10
0.0
 20
0.0
 30
0.0
  0
VERTEX
  5
A5
330
A4
100
AcDbEntity
  8
_U_30EC_U_30A4_U_30E4_U_31
 62
     7
100
AcDbVertex
100
AcDb2dVertex
 10
162.983314244406
 20
232.6792046548377
 30
0.0
  0
VERTEX
  5
A6
330
A4
100
AcDbEntity
  8
_U_30EC_U_30A4_U_30E4_U_31
 62
     7
100
AcDbVertex
100
AcDb2dVertex
 10
197.9200062096558
 20
232.6792046548377
 30
0.0
  0
SEQEND
  5
A7
330
A4
100
AcDbEntity
  8
_U_30EC_U_30A4_U_30E4_U_31
 62
     7
  0
POLYLINE
  5
A8
330
43
100
AcDbEntity
  8
_U_30EC_U_30A4_U_30E4_U_31
 62
     7
100
AcDb2dPolyline
 66
     1
 10
0.0
 20
0.0
 30
0.0
  0
VERTEX
  5
A9
330
A8
100
AcDbEntity
  8
_U_30EC_U_30A4_U_30E4_U_31
 62
     7
100
AcDbVertex
100
AcDb2dVertex
 10
162.983314244406
 20
282.5906634478331
 30
0.0
  0
VERTEX
  5
AA
330
A8
100
AcDbEntity
  8
_U_30EC_U_30A4_U_30E4_U_31
 62
     7
100
AcDbVertex
100
AcDb2dVertex
 10
162.983314244406
 20
232.6792046548377
 30
0.0
  0
SEQEND
  5
AB
330
A8
100
AcDbEntity
  8
_U_30EC_U_30A4_U_30E4_U_31
 62
     7
  0
POLYLINE
  5
AC
330
43
100
AcDbEntity
  8
_U_30EC_U_30A4_U_30E4_U_31
 62
     7
100
AcDb2dPolyline
 66
     1
 10
0.0
 20
0.0
 30
0.0
  0
VERTEX
  5
AD
330
AC
100
AcDbEntity
  8
_U_30EC_U_30A4_U_30E4_U_31
 62
     7
100
AcDbVertex
100
AcDb2dVertex
 10
160.9034774912238
 20
282.5906634478331
 30
0.0
  0
VERTEX
  5
AE
330
AC
100
AcDbEntity
  8
_U_30EC_U_30A4_U_30E4_U_31
 62
     7
100
AcDbVertex
100
AcDb2dVertex
 10
162.983314244406
 20
282.5906634478331
 30
0.0
  0
SEQEND
  5
AF
330
AC
100
AcDbEntity
  8
_U_30EC_U_30A4_U_30E4_U_31
 62
     7
  0
ENDBLK
  5
46
330
43
100
AcDbEntity
  8
0
100
AcDbBlockEnd
  0
ENDSEC
  0
SECTION
  2
ENTITIES
  0
INSERT
  5
44
330
1F
100
AcDbEntity
  8
_U_30EC_U_30A4_U_30E4_U_31
100
AcDbBlockReference
  2
BLOCK_2
 10
0.0
 20
0.0
 30
0.0
  0
ENDSEC
  0
SECTION
  2
OBJECTS
  0
DICTIONARY
  5
C
330
0
100
AcDbDictionary
  3
ACAD_GROUP
350
D
  3
ACAD_LAYOUT
350
1A
  3
ACAD_MATERIAL
350
3B
  3
ACAD_MLEADERSTYLE
350
D6
  3
ACAD_MLINESTYLE
350
17
  3
ACAD_PLOTSETTINGS
350
19
  3
ACAD_VISUALSTYLE
350
2A
  3
ACDBHEADERROUNDTRIPXREC
350
B4
  3
ACDBVARIABLEDICTIONARY
350
D4
  0
DICTIONARY
  5
D
102
{ACAD_REACTORS
330
C
102
}
330
C
100
AcDbDictionary
  0
DICTIONARY
  5
1A
102
{ACAD_REACTORS
330
C
102
}
330
C
100
AcDbDictionary
  0
DICTIONARY
  5
3B
102
{ACAD_REACTORS
330
C
102
}
330
C
100
AcDbDictionary
  3
BYBLOCK
350
3D
  3
BYLAYER
350
3C
  3
GLOBAL
350
3E
  0
DICTIONARY
  5
D6
102
{ACAD_REACTORS
330
C
102
}
330
C
100
AcDbDictionary
  0
DICTIONARY
  5
17
102
{ACAD_REACTORS
330
C
102
}
330
C
100
AcDbDictionary
  3
STANDARD
350
18
  0
DICTIONARY
  5
19
102
{ACAD_REACTORS
330
C
102
}
330
C
100
AcDbDictionary
  0
DICTIONARY
  5
2A
102
{ACAD_REACTORS
330
C
102
}
330
C
100
AcDbDictionary
  3
2DWIREFRAME
350
2F
  3
3DWIREFRAME
350
30
  3
3D_HIDDEN
350
31
  3
BASIC
350
32
  3
BRIGHTEN
350
36
  3
COLORCHANGE
350
3A
  3
CONCEPTUAL
350
34
  3
DIM
350
35
  3
FACEPATTERN
350
39
  3
FLAT
350
2B
  3
FLATWITHEDGES
350
2C
  3
GOURAUD
350
2D
  3
GOURAUDWITHEDGES
350
2E
  3
LINEPATTERN
350
38
  3
REALISTIC
350
33
  3
THICKEN
350
37
  0
DICTIONARY
  5
B4
102
{ACAD_REACTORS
330
C
102
}
330
C
100
AcDbDictionary
  3
CEPSNTYPE
350
BD
  3
DIMSTYLEDATA
350
D3
  3
FINGERPRINTGUID
350
BE
  3
HYPERLINKBASE
350
B7
  3
INSUNITS
350
BC
  3
LAYOUTDICT
350
B9
  3
LWETCUNION
350
BB
  3
PLOTSETDICT
350
BA
  3
PSVPSCALE
350
C0
  3
PUCSBASE
350
C3
  3
PUCSORGBACK
350
C9
  3
PUCSORGBOTTOM
350
C5
  3
PUCSORGFRONT
350
C8
  3
PUCSORGLEFT
350
C6
  3
PUCSORGRIGHT
350
C7
  3
PUCSORGTOP
350
C4
  3
PUCSORTHOREF
350
C1
  3
PUCSORTHOVIEW
350
C2
  3
STYLESHEET
350
B8
  3
TSTACKALIGN
350
B5
  3
TSTACKSIZE
350
B6
  3
UCSBASE
350
CC
  3
UCSORGBACK
350
D2
  3
UCSORGBOTTOM
350
CE
  3
UCSORGFRONT
350
D1
  3
UCSORGLEFT
350
CF
  3
UCSORGRIGHT
350
D0
  3
UCSORGTOP
350
CD
  3
UCSORTHOREF
350
CA
  3
UCSORTHOVIEW
350
CB
  3
VERSIONGUID
350
BF
  0
DICTIONARY
  5
D4
102
{ACAD_REACTORS
330
C
102
}
330
C
100
AcDbDictionary
  3
DIMASSOC
350
D7
  3
HIDETEXT
350
D8
  0
MATERIAL
  5
3D
102
{ACAD_REACTORS
330
3B
102
}
102
{ACAD_XDICTIONARY
360
DB
102
}
330
3B
100
AcDbMaterial
  1
ByBlock
  0
MATERIAL
  5
3C
102
{ACAD_REACTORS
330
3B
102
}
102
{ACAD_XDICTIONARY
360
D9
102
}
330
3B
100
AcDbMaterial
  1
ByLayer
  0
MATERIAL
  5
3E
102
{ACAD_REACTORS
330
3B
102
}
102
{ACAD_XDICTIONARY
360
DD
102
}
330
3B
100
AcDbMaterial
  1
Global
  0
MLINESTYLE
  5
18
102
{ACAD_REACTORS
330
17
102
}
330
17
100
AcDbMlineStyle
  2
Standard
 70
     0
  3

 62
   256
 51
90.0
 52
90.0
 71
     2
 49
0.5
 62
   256
  6
BYLAYER
 49
-0.5
 62
   256
  6
BYLAYER
  0
ACAD_PROXY_OBJECT
  5
2F
102
{ACAD_REACTORS
330
2A
102
}
330
2A
100
AcDbProxyObject
 90
      499
 91
      501
 93
      436
310
42CC9915DA5C99599C985B595049028333333333333E3BF0000000000000FB0107901411070040501600405405064090741402480A0340
1001
ACAD
1000
AcDbSavedByObjectVersion
1070
     0
  0
ACAD_PROXY_OBJECT
  5
30
102
{ACAD_REACTORS
330
2A
102
}
330
2A
100
AcDbProxyObject
 90
      499
 91
      501
 93
      436
310
42CCD915DA5C99599C985B595059028333333333333E3BF0000000000000FB0107901411070040501600405405064090741402480A0340
1001
ACAD
1000
AcDbSavedByObjectVersion
1070
     0
  0
ACAD_PROXY_OBJECT
  5
31
102
{ACAD_REACTORS
330
2A
102
}
330
2A
100
AcDbProxyObject
 90
      499
 91
      501
 93
      500
310
424CD108121A5919195B90640502408333333333333E3BF0000000000000FB01079024090700405020000000000001110200405405064090740C02480A0340
1001
ACAD
1000
AcDbSavedByObjectVersion
1070
     0
  0
ACAD_PROXY_OBJECT
  5
32
102
{ACAD_REACTORS
330
2A
102
}
330
2A
100
AcDbProxyObject
 90
      499
 91
      501
 93
      388
310
4150985CDA58D07406404333333333333E3BF0000000000000FB0107A41107004050150841D405064090741402480A0350
1001
ACAD
1000
AcDbSavedByObjectVersion
1070
     0
  0
ACAD_PROXY_OBJECT
  5
36
102
{ACAD_REACTORS
330
2A
102
}
330
2A
100
AcDbProxyObject
 90
      499
 91
      501
 93
      428
310
42109C9A59DA1D195B90C409028333333333333E3BF0000000000000FB010790141107004050150841D405064090741402480A029950
1001
ACAD
1000
AcDbSavedByObjectVersion
1070
     0
  0
ACAD_PROXY_OBJECT
  5
3A
102
{ACAD_REACTORS
330
2A
102
}
330
2A
100
AcDbProxyObject
 90
      499
 91
      501
 93
      452
310
42D0DBDB1BDC90DA185B99D95104090240C333333333333E3BF0000000000000FB0108901411070040501508421405064090741402480A0350
1001
ACAD
1000
AcDbSavedByObjectVersion
1070
     0
  0
ACAD_PROXY_OBJECT
  5
34
102
{ACAD_REACTORS
330
2A
102
}
330
2A
100
AcDbProxyObject
 90
      499
 91
      501
 93
      500
310
4290DBDB98D95C1D1D585B10940D028333333333333E3BF0000000000000FB0107902409070040501000000000000111010841D405064090740C02480A0340
1001
ACAD
1000
AcDbSavedByObjectVersion
1070
     0
  0
ACAD_PROXY_OBJECT
  5
35
102
{ACAD_REACTORS
330
2A
102
}
330
2A
100
AcDbProxyObject
 90
      499
 91
      501
 93
      412
310
40D11A5B50B409028333333333333E3BF0000000000000FB010790141107004050150841D405064090741402480A02677FFFFFD0
1001
ACAD
1000
AcDbSavedByObjectVersion
1070
     0
  0
ACAD_PROXY_OBJECT
  5
39
102
{ACAD_REACTORS
330
2A
102
}
330
2A
100
AcDbProxyObject
 90
      499
 91
      501
 93
      444
310
42D19858D95C185D1D195C9B90F409028333333333333E3BF0000000000000FB010790141107004050150841D405064090741402480A0350
1001
ACAD
1000
AcDbSavedByObjectVersion
1070
     0
  0
ACAD_PROXY_OBJECT
  5
2B
102
{ACAD_REACTORS
330
2A
102
}
330
2A
100
AcDbProxyObject
 90
      499
 91
      501
 93
      388
310
41119B185D240901404333333333333E3BF0000000000000F9010740A41107004050150841D405064090741402480A1B50
1001
ACAD
1000
AcDbSavedByObjectVersion
1070
     0
  0
ACAD_PROXY_OBJECT
  5
2C
102
{ACAD_REACTORS
330
2A
102
}
330
2A
100
AcDbProxyObject
 90
      499
 91
      501
 93
      476
310
43519B185D15DA5D1A115919D95CD0140901404333333333333E3BF0000000000000F9010740901411070040501600405405064090741402480A1B50
1001
ACAD
1000
AcDbSavedByObjectVersion
1070
     0
  0
ACAD_PROXY_OBJECT
  5
2D
102
{ACAD_REACTORS
330
2A
102
}
330
2A
100
AcDbProxyObject
 90
      499
 91
      501
 93
      412
310
41D1DBDD5C985D5910240902404333333333333E3BF0000000000000F9010740A411070040501641D405064090741402480A1B50
1001
ACAD
1000
AcDbSavedByObjectVersion
1070
     0
  0
ACAD_PROXY_OBJECT
  5
2E
102
{ACAD_REACTORS
330
2A
102
}
330
2A
100
AcDbProxyObject
 90
      499
 91
      501
 93
      500
310
4411DBDD5C985D5915DA5D1A115919D95CD0340902404333333333333E3BF0000000000000F9010740901411070040501600405405064090741402480A1B50
1001
ACAD
1000
AcDbSavedByObjectVersion
1070
     0
  0
ACAD_PROXY_OBJECT
  5
38
102
{ACAD_REACTORS
330
2A
102
}
330
2A
100
AcDbProxyObject
 90
      499
 91
      501
 93
      444
310
42D31A5B995C185D1D195C9B90E409028333333333333E3BF0000000000000FB010790141107004050750841D405064090741402483A0350
1001
ACAD
1000
AcDbSavedByObjectVersion
1070
     0
  0
ACAD_PROXY_OBJECT
  5
33
102
{ACAD_REACTORS
330
2A
102
}
330
2A
100
AcDbProxyObject
 90
      499
 91
      501
 93
      420
310
425499585B1A5CDD1A58D08409028333333333333E3BF0000000000000FB01079019070040501508421405064090741402480A1B40
1001
ACAD
1000
AcDbSavedByObjectVersion
1070
     0
  0
ACAD_PROXY_OBJECT
  5
37
102
{ACAD_REACTORS
330
2A
102
}
330
2A
100
AcDbProxyObject
 90
      499
 91
      501
 93
      412
310
41D51A1A58DAD95B90D409028333333333333E3BF0000000000000FB010790141107004050150C41D405064090741402480A0350
1001
ACAD
1000
AcDbSavedByObjectVersion
1070
     0
  0
XRECORD
  5
BD
102
{ACAD_REACTORS
330
B4
102
}
330
B4
100
AcDbXrecord
 90
        0
  0
XRECORD
  5
D3
102
{ACAD_REACTORS
330
B4
102
}
330
B4
100
AcDbXrecord
1000
DSTYLE
1002
{
1070
   340
340
11
1002
}
  0
XRECORD
  5
BE
102
{ACAD_REACTORS
330
B4
102
}
330
B4
100
AcDbXrecord
  1
{D1CC959D-6AE7-A0F5-0EAD-0AC12F6A4BC7}
  0
XRECORD
  5
B7
102
{ACAD_REACTORS
330
B4
102
}
330
B4
100
AcDbXrecord
  1

  0
XRECORD
  5
BC
102
{ACAD_REACTORS
330
B4
102
}
330
B4
100
AcDbXrecord
 90
        1
  0
XRECORD
  5
B9
102
{ACAD_REACTORS
330
B4
102
}
330
B4
100
AcDbXrecord
340
1A
  0
XRECORD
  5
BB
102
{ACAD_REACTORS
330
B4
102
}
330
B4
100
AcDbXrecord
 90
    10269
  0
XRECORD
  5
BA
102
{ACAD_REACTORS
330
B4
102
}
330
B4
100
AcDbXrecord
340
19
  0
XRECORD
  5
C0
102
{ACAD_REACTORS
330
B4
102
}
330
B4
100
AcDbXrecord
 40
0.0
  0
XRECORD
  5
C3
102
{ACAD_REACTORS
330
B4
102
}
330
B4
100
AcDbXrecord
340
0
  0
XRECORD
  5
C9
102
{ACAD_REACTORS
330
B4
102
}
330
B4
100
AcDbXrecord
 10
0.0
 20
0.0
 30
0.0
  0
XRECORD
  5
C5
102
{ACAD_REACTORS
330
B4
102
}
330
B4
100
AcDbXrecord
 10
0.0
 20
0.0
 30
0.0
  0
XRECORD
  5
C8
102
{ACAD_REACTORS
330
B4
102
}
330
B4
100
AcDbXrecord
 10
0.0
 20
0.0
 30
0.0
  0
XRECORD
  5
C6
102
{ACAD_REACTORS
330
B4
102
}
330
B4
100
AcDbXrecord
 10
0.0
 20
0.0
 30
0.0
  0
XRECORD
  5
C7
102
{ACAD_REACTORS
330
B4
102
}
330
B4
100
AcDbXrecord
 10
0.0
 20
0.0
 30
0.0
  0
XRECORD
  5
C4
102
{ACAD_REACTORS
330
B4
102
}
330
B4
100
AcDbXrecord
 10
0.0
 20
0.0
 30
0.0
  0
XRECORD
  5
C1
102
{ACAD_REACTORS
330
B4
102
}
330
B4
100
AcDbXrecord
340
0
  0
XRECORD
  5
C2
102
{ACAD_REACTORS
330
B4
102
}
330
B4
100
AcDbXrecord
 70
     0
  0
XRECORD
  5
B8
102
{ACAD_REACTORS
330
B4
102
}
330
B4
100
AcDbXrecord
  1

  0
XRECORD
  5
B5
102
{ACAD_REACTORS
330
B4
102
}
330
B4
100
AcDbXrecord
 90
        1
  0
XRECORD
  5
B6
102
{ACAD_REACTORS
330
B4
102
}
330
B4
100
AcDbXrecord
 90
       70
  0
XRECORD
  5
CC
102
{ACAD_REACTORS
330
B4
102
}
330
B4
100
AcDbXrecord
340
0
  0
XRECORD
  5
D2
102
{ACAD_REACTORS
330
B4
102
}
330
B4
100
AcDbXrecord
 10
0.0
 20
0.0
 30
0.0
  0
XRECORD
  5
CE
102
{ACAD_REACTORS
330
B4
102
}
330
B4
100
AcDbXrecord
 10
0.0
 20
0.0
 30
0.0
  0
XRECORD
  5
D1
102
{ACAD_REACTORS
330
B4
102
}
330
B4
100
AcDbXrecord
 10
0.0
 20
0.0
 30
0.0
  0
XRECORD
  5
CF
102
{ACAD_REACTORS
330
B4
102
}
330
B4
100
AcDbXrecord
 10
0.0
 20
0.0
 30
0.0
  0
XRECORD
  5
D0
102
{ACAD_REACTORS
330
B4
102
}
330
B4
100
AcDbXrecord
 10
0.0
 20
0.0
 30
0.0
  0
XRECORD
  5
CD
102
{ACAD_REACTORS
330
B4
102
}
330
B4
100
AcDbXrecord
 10
0.0
 20
0.0
 30
0.0
  0
XRECORD
  5
CA
102
{ACAD_REACTORS
330
B4
102
}
330
B4
100
AcDbXrecord
340
0
  0
XRECORD
  5
CB
102
{ACAD_REACTORS
330
B4
102
}
330
B4
100
AcDbXrecord
 70
     0
  0
XRECORD
  5
BF
102
{ACAD_REACTORS
330
B4
102
}
330
B4
100
AcDbXrecord
  1
{FAEB1C32-E019-11D5-929B-00C0DF256EC4}
  0
DICTIONARYVAR
  5
D7
102
{ACAD_REACTORS
330
D4
102
}
330
D4
100
DictionaryVariables
280
     0
  1
2
  0
DICTIONARYVAR
  5
D8
102
{ACAD_REACTORS
330
D4
102
}
330
D4
100
DictionaryVariables
280
     0
  1
1
  0
DICTIONARY
  5
DB
330
3D
100
AcDbDictionary
280
     1
  3
ACAD_XREC_ROUNDTRIP
360
DC
  0
DICTIONARY
  5
D9
330
3C
100
AcDbDictionary
280
     1
  3
ACAD_XREC_ROUNDTRIP
360
DA
  0
DICTIONARY
  5
DD
330
3E
100
AcDbDictionary
280
     1
  3
ACAD_XREC_ROUNDTRIP
360
DE
  0
XRECORD
  5
DC
102
{ACAD_REACTORS
330
DB
102
}
330
DB
100
AcDbXrecord
102
MATERIAL
148
0.0
149
0.0
149
0.0
 93
        0
 94
      127
282
     0
 72
     1
 77
     1
171
     1
175
     1
179
     1
273
     0
  0
XRECORD
  5
DA
102
{ACAD_REACTORS
330
D9
102
}
330
D9
100
AcDbXrecord
102
MATERIAL
148
0.0
149
0.0
149
0.0
 93
        0
 94
      127
282
     0
 72
     1
 77
     1
171
     1
175
     1
179
     1
273
     0
  0
XRECORD
  5
DE
102
{ACAD_REACTORS
330
DD
102
}
330
DD
100
AcDbXrecord
102
MATERIAL
148
0.0
149
0.0
149
0.0
 93
        0
 94
      127
282
     0
 72
     1
 77
     1
171
     1
175
     1
179
     1
273
     0
  0
ENDSEC
  0
EOF
