  0
SECTION
  2
HEADER
  9
$ACADVER
  1
AC1024
  9
$ACADMAINTVER
 70
   226
  9
$DWGCODEPAGE
  3
ANSI_932
  9
$INSBASE
 10
0.0
 20
0.0
 30
0.0
  9
$EXTMIN
 10
1.000000000000000E+20
 20
1.000000000000000E+20
 30
1.000000000000000E+20
  9
$EXTMAX
 10
-1.000000000000000E+20
 20
-1.000000000000000E+20
 30
-1.000000000000000E+20
  9
$LIMMIN
 10
0.0
 20
0.0
  9
$LIMMAX
 10
12.0
 20
9.0
  9
$ORTHOMODE
 70
     0
  9
$REGENMODE
 70
     1
  9
$FILLMODE
 70
     1
  9
$QTEXTMODE
 70
     0
  9
$MIRRTEXT
 70
     0
  9
$LTSCALE
 40
1.0
  9
$ATTMODE
 70
     1
  9
$TEXTSIZE
 40
0.2
  9
$TRACEWID
 40
0.05
  9
$TEXTSTYLE
  7
Standard
  9
$CLAYER
  8
0
  9
$CELTYPE
  6
ByLayer
  9
$CECOLOR
 62
   256
  9
$CELTSCALE
 40
1.0
  9
$DISPSILH
 70
     0
  9
$DIMSCALE
 40
1.0
  9
$DIMASZ
 40
0.18
  9
$DIMEXO
 40
0.0625
  9
$DIMDLI
 40
0.38
  9
$DIMRND
 40
0.0
  9
$DIMDLE
 40
0.0
  9
$DIMEXE
 40
0.18
  9
$DIMTP
 40
0.0
  9
$DIMTM
 40
0.0
  9
$DIMTXT
 40
0.18
  9
$DIMCEN
 40
0.09
  9
$DIMTSZ
 40
0.0
  9
$DIMTOL
 70
     0
  9
$DIMLIM
 70
     0
  9
$DIMTIH
 70
     1
  9
$DIMTOH
 70
     1
  9
$DIMSE1
 70
     0
  9
$DIMSE2
 70
     0
  9
$DIMTAD
 70
     0
  9
$DIMZIN
 70
     0
  9
$DIMBLK
  1

  9
$DIMASO
 70
     1
  9
$DIMSHO
 70
     1
  9
$DIMPOST
  1

  9
$DIMAPOST
  1

  9
$DIMALT
 70
     0
  9
$DIMALTD
 70
     2
  9
$DIMALTF
 40
25.4
  9
$DIMLFAC
 40
1.0
  9
$DIMTOFL
 70
     0
  9
$DIMTVP
 40
0.0
  9
$DIMTIX
 70
     0
  9
$DIMSOXD
 70
     0
  9
$DIMSAH
 70
     0
  9
$DIMBLK1
  1

  9
$DIMBLK2
  1

  9
$DIMSTYLE
  2
Standard
  9
$DIMCLRD
 70
     0
  9
$DIMCLRE
 70
     0
  9
$DIMCLRT
 70
     0
  9
$DIMTFAC
 40
1.0
  9
$DIMGAP
 40
0.09
  9
$DIMJUST
 70
     0
  9
$DIMSD1
 70
     0
  9
$DIMSD2
 70
     0
  9
$DIMTOLJ
 70
     1
  9
$DIMTZIN
 70
     0
  9
$DIMALTZ
 70
     0
  9
$DIMALTTZ
 70
     0
  9
$DIMUPT
 70
     0
  9
$DIMDEC
 70
     4
  9
$DIMTDEC
 70
     4
  9
$DIMALTU
 70
     2
  9
$DIMALTTD
 70
     2
  9
$DIMTXSTY
  7
Standard
  9
$DIMAUNIT
 70
     0
  9
$DIMADEC
 70
     0
  9
$DIMALTRND
 40
0.0
  9
$DIMAZIN
 70
     0
  9
$DIMDSEP
 70
    46
  9
$DIMATFIT
 70
     3
  9
$DIMFRAC
 70
     0
  9
$DIMLDRBLK
  1

  9
$DIMLUNIT
 70
     2
  9
$DIMLWD
 70
    -2
  9
$DIMLWE
 70
    -2
  9
$DIMTMOVE
 70
     0
  9
$DIMFXL
 40
1.0
  9
$DIMFXLON
 70
     0
  9
$DIMJOGANG
 40
0.7853981633974483
  9
$DIMTFILL
 70
     0
  9
$DIMTFILLCLR
 70
     0
  9
$DIMARCSYM
 70
     0
  9
$DIMLTYPE
  6

  9
$DIMLTEX1
  6

  9
$DIMLTEX2
  6

  9
$DIMTXTDIRECTION
 70
     0
  9
$LUNITS
 70
     2
  9
$LUPREC
 70
     4
  9
$SKETCHINC
 40
0.1
  9
$FILLETRAD
 40
0.0
  9
$AUNITS
 70
     0
  9
$AUPREC
 70
     0
  9
$MENU
  1
.
  9
$ELEVATION
 40
0.0
  9
$PELEVATION
 40
0.0
  9
$THICKNESS
 40
0.0
  9
$LIMCHECK
 70
     0
  9
$CHAMFERA
 40
0.0
  9
$CHAMFERB
 40
0.0
  9
$CHAMFERC
 40
0.0
  9
$CHAMFERD
 40
0.0
  9
$SKPOLY
 70
     0
  9
$TDCREATE
 40
2459569.488773148
  9
$TDUCREATE
 40
2459569.113773148
  9
$TDUPDATE
 40
2459569.488773148
  9
$TDUUPDATE
 40
2459569.113773148
  9
$TDINDWG
 40
0.0000000000
  9
$TDUSRTIMER
 40
0.0000000000
  9
$USRTIMER
 70
     1
  9
$ANGBASE
 50
0.0
  9
$ANGDIR
 70
     0
  9
$PDMODE
 70
     0
  9
$PDSIZE
 40
0.0
  9
$PLINEWID
 40
0.0
  9
$SPLFRAME
 70
     0
  9
$SPLINETYPE
 70
     6
  9
$SPLINESEGS
 70
     8
  9
$HANDSEED
  5
125
  9
$SURFTAB1
 70
     6
  9
$SURFTAB2
 70
     6
  9
$SURFTYPE
 70
     6
  9
$SURFU
 70
     6
  9
$SURFV
 70
     6
  9
$UCSBASE
  2

  9
$UCSNAME
  2

  9
$UCSORG
 10
0.0
 20
0.0
 30
0.0
  9
$UCSXDIR
 10
1.0
 20
0.0
 30
0.0
  9
$UCSYDIR
 10
0.0
 20
1.0
 30
0.0
  9
$UCSORTHOREF
  2

  9
$UCSORTHOVIEW
 70
     0
  9
$UCSORGTOP
 10
0.0
 20
0.0
 30
0.0
  9
$UCSORGBOTTOM
 10
0.0
 20
0.0
 30
0.0
  9
$UCSORGLEFT
 10
0.0
 20
0.0
 30
0.0
  9
$UCSORGRIGHT
 10
0.0
 20
0.0
 30
0.0
  9
$UCSORGFRONT
 10
0.0
 20
0.0
 30
0.0
  9
$UCSORGBACK
 10
0.0
 20
0.0
 30
0.0
  9
$PUCSBASE
  2

  9
$PUCSNAME
  2

  9
$PUCSORG
 10
0.0
 20
0.0
 30
0.0
  9
$PUCSXDIR
 10
1.0
 20
0.0
 30
0.0
  9
$PUCSYDIR
 10
0.0
 20
1.0
 30
0.0
  9
$PUCSORTHOREF
  2

  9
$PUCSORTHOVIEW
 70
     0
  9
$PUCSORGTOP
 10
0.0
 20
0.0
 30
0.0
  9
$PUCSORGBOTTOM
 10
0.0
 20
0.0
 30
0.0
  9
$PUCSORGLEFT
 10
0.0
 20
0.0
 30
0.0
  9
$PUCSORGRIGHT
 10
0.0
 20
0.0
 30
0.0
  9
$PUCSORGFRONT
 10
0.0
 20
0.0
 30
0.0
  9
$PUCSORGBACK
 10
0.0
 20
0.0
 30
0.0
  9
$USERI1
 70
     0
  9
$USERI2
 70
     0
  9
$USERI3
 70
     0
  9
$USERI4
 70
     0
  9
$USERI5
 70
     0
  9
$USERR1
 40
0.0
  9
$USERR2
 40
0.0
  9
$USERR3
 40
0.0
  9
$USERR4
 40
0.0
  9
$USERR5
 40
0.0
  9
$WORLDVIEW
 70
     1
  9
$SHADEDGE
 70
     3
  9
$SHADEDIF
 70
    70
  9
$TILEMODE
 70
     1
  9
$MAXACTVP
 70
    64
  9
$PINSBASE
 10
0.0
 20
0.0
 30
0.0
  9
$PLIMCHECK
 70
     0
  9
$PEXTMIN
 10
1.000000000000000E+20
 20
1.000000000000000E+20
 30
1.000000000000000E+20
  9
$PEXTMAX
 10
-1.000000000000000E+20
 20
-1.000000000000000E+20
 30
-1.000000000000000E+20
  9
$PLIMMIN
 10
0.0
 20
0.0
  9
$PLIMMAX
 10
12.0
 20
9.0
  9
$UNITMODE
 70
     0
  9
$VISRETAIN
 70
     1
  9
$PLINEGEN
 70
     0
  9
$PSLTSCALE
 70
     1
  9
$TREEDEPTH
 70
  3020
  9
$CMLSTYLE
  2
Standard
  9
$CMLJUST
 70
     0
  9
$CMLSCALE
 40
1.0
  9
$PROXYGRAPHICS
 70
     1
  9
$MEASUREMENT
 70
     0
  9
$CELWEIGHT
370
    -1
  9
$ENDCAPS
280
     0
  9
$JOINSTYLE
280
     0
  9
$LWDISPLAY
290
     1
  9
$INSUNITS
 70
     4
  9
$HYPERLINKBASE
  1

  9
$STYLESHEET
  1

  9
$XEDIT
290
     1
  9
$CEPSNTYPE
380
     0
  9
$PSTYLEMODE
290
     1
  9
$FINGERPRINTGUID
  2
{AA1CF0AF-7C61-644B-98BA-7B1E68F8FBAB}
  9
$VERSIONGUID
  2
{0798CDFA-7DA2-7A4C-BFD3-E223F8D45DCE}
  9
$EXTNAMES
290
     1
  9
$PSVPSCALE
 40
0.0
  9
$OLESTARTUP
290
     0
  9
$SORTENTS
280
   127
  9
$INDEXCTL
280
     0
  9
$HIDETEXT
280
     1
  9
$XCLIPFRAME
280
     2
  9
$HALOGAP
280
     0
  9
$OBSCOLOR
 70
   257
  9
$OBSLTYPE
280
     0
  9
$INTERSECTIONDISPLAY
280
     0
  9
$INTERSECTIONCOLOR
 70
   257
  9
$DIMASSOC
280
     2
  9
$PROJECTNAME
  1

  9
$CAMERADISPLAY
290
     0
  9
$LENSLENGTH
 40
50.0
  9
$CAMERAHEIGHT
 40
0.0
  9
$STEPSPERSEC
 40
2.0
  9
$STEPSIZE
 40
6.0
  9
$3DDWFPREC
 40
2.0
  9
$PSOLWIDTH
 40
0.25
  9
$PSOLHEIGHT
 40
4.0
  9
$LOFTANG1
 40
1.570796326794896
  9
$LOFTANG2
 40
1.570796326794896
  9
$LOFTMAG1
 40
0.0
  9
$LOFTMAG2
 40
0.0
  9
$LOFTPARAM
 70
     7
  9
$LOFTNORMALS
280
     1
  9
$LATITUDE
 40
37.795
  9
$LONGITUDE
 40
-122.394
  9
$NORTHDIRECTION
 40
0.0
  9
$TIMEZONE
 70
 -8000
  9
$LIGHTGLYPHDISPLAY
280
     1
  9
$TILEMODELIGHTSYNCH
280
     1
  9
$CMATERIAL
347
11
  9
$SOLIDHIST
280
     0
  9
$SHOWHIST
280
     1
  9
$DWFFRAME
280
     2
  9
$DGNFRAME
280
     0
  9
$REALWORLDSCALE
290
     1
  9
$INTERFERECOLOR
 62
     1
  9
$INTERFEREOBJVS
345
33
  9
$INTERFEREVPVS
346
30
  9
$CSHADOW
280
     0
  9
$SHADOWPLANELOCATION
 40
0.0
  0
ENDSEC
  0
SECTION
  2
CLASSES
  0
CLASS
  1
ACDBDICTIONARYWDFLT
  2
AcDbDictionaryWithDefault
  3
ObjectDBX Classes
 90
        0
 91
        1
280
     0
281
     0
  0
CLASS
  1
MATERIAL
  2
AcDbMaterial
  3
ObjectDBX Classes
 90
     1153
 91
        3
280
     0
281
     0
  0
CLASS
  1
VISUALSTYLE
  2
AcDbVisualStyle
  3
ObjectDBX Classes
 90
     4095
 91
       24
280
     0
281
     0
  0
CLASS
  1
SCALE
  2
AcDbScale
  3
ObjectDBX Classes
 90
     1153
 91
       17
280
     0
281
     0
  0
CLASS
  1
TABLESTYLE
  2
AcDbTableStyle
  3
ObjectDBX Classes
 90
     4095
 91
        1
280
     0
281
     0
  0
CLASS
  1
MLEADERSTYLE
  2
AcDbMLeaderStyle
  3
ACDB_MLEADERSTYLE_CLASS
 90
     4095
 91
        1
280
     0
281
     0
  0
CLASS
  1
ACDBSECTIONVIEWSTYLE
  2
AcDbSectionViewStyle
  3
ObjectDBX Classes
 90
     1025
 91
        1
280
     0
281
     0
  0
CLASS
  1
ACDBDETAILVIEWSTYLE
  2
AcDbDetailViewStyle
  3
ObjectDBX Classes
 90
     1025
 91
        1
280
     0
281
     0
  0
CLASS
  1
DICTIONARYVAR
  2
AcDbDictionaryVar
  3
ObjectDBX Classes
 90
        0
 91
        5
280
     0
281
     0
  0
CLASS
  1
CELLSTYLEMAP
  2
AcDbCellStyleMap
  3
ObjectDBX Classes
 90
     1152
 91
        1
280
     0
281
     0
  0
ENDSEC
  0
SECTION
  2
TABLES
  0
TABLE
  2
VPORT
  5
8
330
0
100
AcDbSymbolTable
 70
     1
  0
VPORT
  5
57
330
8
100
AcDbSymbolTableRecord
100
AcDbViewportTableRecord
  2
*Active
 70
     0
 10
0.0
 20
0.0
 11
1.0
 21
1.0
 12
0.0
 22
0.0
 13
0.0
 23
0.0
 14
1.0
 24
1.0
 15
0.0
 25
0.0
 16
0.0
 26
0.0
 36
1.0
 17
104.9999999737534
 27
-148.4999999628701
 37
0.0
 40
302.939999924255
 41
0.7070707070707534
 42
50.0
 43
0.0
 44
0.0
 50
0.0
 51
0.0
 71
     0
 72
   100
 73
     1
 74
     0
 75
     1
 76
     0
 77
     0
 78
     0
281
     0
 65
     1
110
0.0
120
0.0
130
0.0
111
1.0
121
0.0
131
0.0
112
0.0
122
1.0
132
0.0
 79
     0
146
0.0
 60
     3
 61
     5
292
     1
282
     1
141
0.0
142
0.0
 63
   250
421
  3355443
  0
ENDTAB
  0
TABLE
  2
LTYPE
  5
5
330
0
100
AcDbSymbolTable
 70
     2
  0
LTYPE
  5
5B
330
5
100
AcDbSymbolTableRecord
100
AcDbLinetypeTableRecord
  2
ByBlock
 70
     0
  3

 72
    65
 73
     0
 40
0.0
  0
LTYPE
  5
5C
330
5
100
AcDbSymbolTableRecord
100
AcDbLinetypeTableRecord
  2
ByLayer
 70
     0
  3

 72
    65
 73
     0
 40
0.0
  0
LTYPE
  5
5D
330
5
100
AcDbSymbolTableRecord
100
AcDbLinetypeTableRecord
  2
Continuous
 70
     0
  3
Solid line
 72
    65
 73
     0
 40
0.0
  0
LTYPE
  5
C5
330
5
100
AcDbSymbolTableRecord
100
AcDbLinetypeTableRecord
  2
AI-Linetype-0
 70
     0
  3
Adobe Illustrator Linetype No. 0
 72
    65
 73
     2
 40
1.411111110758333
 49
0.7055555553791667
 74
     0
 49
-0.7055555553791667
 74
     0
  0
ENDTAB
  0
TABLE
  2
LAYER
  5
2
330
0
100
AcDbSymbolTable
 70
     2
  0
LAYER
  5
54
330
2
100
AcDbSymbolTableRecord
100
AcDbLayerTableRecord
  2
0
 70
     0
 62
     7
  6
Continuous
370
    -3
390
F
347
21
  0
LAYER
  5
78
330
2
100
AcDbSymbolTableRecord
100
AcDbLayerTableRecord
  2
レイヤー 1
 70
     0
 62
     7
  6
Continuous
370
     0
390
F
347
21
  0
ENDTAB
  0
TABLE
  2
STYLE
  5
3
330
0
100
AcDbSymbolTable
 70
     2
  0
STYLE
  5
55
330
3
100
AcDbSymbolTableRecord
100
AcDbTextStyleTableRecord
  2
Standard
 70
     0
 40
0.0
 41
1.0
 50
0.0
 71
     0
 42
0.2
  3
txt
  4

  0
STYLE
  5
5A
330
3
100
AcDbSymbolTableRecord
100
AcDbTextStyleTableRecord
  2
Annotative
 70
     0
 40
0.0
 41
1.0
 50
0.0
 71
     0
 42
0.2
  3
txt
  4

1001
AcadAnnotative
1000
AnnotativeData
1002
{
1070
     1
1070
     1
1002
}
  0
ENDTAB
  0
TABLE
  2
VIEW
  5
6
330
0
100
AcDbSymbolTable
 70
     0
  0
ENDTAB
  0
TABLE
  2
UCS
  5
7
330
0
100
AcDbSymbolTable
 70
     0
  0
ENDTAB
  0
TABLE
  2
APPID
  5
9
330
0
100
AcDbSymbolTable
 70
     2
  0
APPID
  5
56
330
9
100
AcDbSymbolTableRecord
100
AcDbRegAppTableRecord
  2
ACAD
 70
     0
  0
APPID
  5
5E
330
9
100
AcDbSymbolTableRecord
100
AcDbRegAppTableRecord
  2
AcadAnnotative
 70
     0
  0
ENDTAB
  0
TABLE
  2
DIMSTYLE
  5
A
330
0
100
AcDbSymbolTable
 70
     2
100
AcDbDimStyleTable
 71
     0
  0
DIMSTYLE
105
58
330
A
100
AcDbSymbolTableRecord
100
AcDbDimStyleTableRecord
  2
Standard
 70
     0
340
55
  0
DIMSTYLE
105
59
330
A
100
AcDbSymbolTableRecord
100
AcDbDimStyleTableRecord
  2
Annotative
 70
     0
340
55
1001
AcadAnnotative
1000
AnnotativeData
1002
{
1070
     1
1070
     1
1002
}
  0
ENDTAB
  0
TABLE
  2
BLOCK_RECORD
  5
1
330
0
100
AcDbSymbolTable
 70
    12
  0
BLOCK_RECORD
  5
70
330
1
100
AcDbSymbolTableRecord
100
AcDbBlockTableRecord
  2
*Model_Space
340
73
 70
     0
280
     1
281
     0
  0
BLOCK_RECORD
  5
6C
330
1
100
AcDbSymbolTableRecord
100
AcDbBlockTableRecord
  2
*Paper_Space
340
6F
 70
     0
280
     1
281
     0
  0
BLOCK_RECORD
  5
74
330
1
100
AcDbSymbolTableRecord
100
AcDbBlockTableRecord
  2
*Paper_Space0
340
77
 70
     0
280
     1
281
     0
  0
BLOCK_RECORD
  5
79
330
1
100
AcDbSymbolTableRecord
100
AcDbBlockTableRecord
  2
Block_0
340
0
102
{BLKREFS
331
7A
102
}
 70
     0
280
     1
281
     0
  0
BLOCK_RECORD
  5
8A
330
1
100
AcDbSymbolTableRecord
100
AcDbBlockTableRecord
  2
Block_1
340
0
102
{BLKREFS
331
8B
102
}
 70
     0
280
     1
281
     0
  0
BLOCK_RECORD
  5
93
330
1
100
AcDbSymbolTableRecord
100
AcDbBlockTableRecord
  2
Block_2
340
0
102
{BLKREFS
331
94
102
}
 70
     0
280
     1
281
     0
  0
BLOCK_RECORD
  5
97
330
1
100
AcDbSymbolTableRecord
100
AcDbBlockTableRecord
  2
Block_3
340
0
102
{BLKREFS
331
98
102
}
 70
     0
280
     1
281
     0
  0
BLOCK_RECORD
  5
A2
330
1
100
AcDbSymbolTableRecord
100
AcDbBlockTableRecord
  2
Block_4
340
0
102
{BLKREFS
331
A3
102
}
 70
     0
280
     1
281
     0
  0
BLOCK_RECORD
  5
A9
330
1
100
AcDbSymbolTableRecord
100
AcDbBlockTableRecord
  2
Block_5
340
0
102
{BLKREFS
331
AA
102
}
 70
     0
280
     1
281
     0
  0
BLOCK_RECORD
  5
AD
330
1
100
AcDbSymbolTableRecord
100
AcDbBlockTableRecord
  2
Block_6
340
0
102
{BLKREFS
331
AE
102
}
 70
     0
280
     1
281
     0
  0
BLOCK_RECORD
  5
BE
330
1
100
AcDbSymbolTableRecord
100
AcDbBlockTableRecord
  2
Block_7
340
0
102
{BLKREFS
331
BF
102
}
 70
     0
280
     1
281
     0
  0
BLOCK_RECORD
  5
C6
330
1
100
AcDbSymbolTableRecord
100
AcDbBlockTableRecord
  2
Block_8
340
0
102
{BLKREFS
331
C7
102
}
 70
     0
280
     1
281
     0
  0
BLOCK_RECORD
  5
CC
330
1
100
AcDbSymbolTableRecord
100
AcDbBlockTableRecord
  2
Block_9
340
0
102
{BLKREFS
331
CD
102
}
 70
     0
280
     1
281
     0
  0
BLOCK_RECORD
  5
D0
330
1
100
AcDbSymbolTableRecord
100
AcDbBlockTableRecord
  2
Block_10
340
0
102
{BLKREFS
331
D1
102
}
 70
     0
280
     1
281
     0
  0
ENDTAB
  0
ENDSEC
  0
SECTION
  2
BLOCKS
  0
BLOCK
  5
71
330
70
100
AcDbEntity
  8
0
100
AcDbBlockBegin
  2
*Model_Space
 70
     0
 10
0.0
 20
0.0
 30
0.0
  3
*Model_Space
  1

  0
ENDBLK
  5
72
330
70
100
AcDbEntity
  8
0
100
AcDbBlockEnd
  0
BLOCK
  5
6D
330
6C
100
AcDbEntity
 67
     1
  8
0
100
AcDbBlockBegin
  2
*Paper_Space
 70
     0
 10
0.0
 20
0.0
 30
0.0
  3
*Paper_Space
  1

  0
ENDBLK
  5
6E
330
6C
100
AcDbEntity
 67
     1
  8
0
100
AcDbBlockEnd
  0
BLOCK
  5
75
330
74
100
AcDbEntity
 67
     1
  8
0
100
AcDbBlockBegin
  2
*Paper_Space0
 70
     0
 10
0.0
 20
0.0
 30
0.0
  3
*Paper_Space0
  1

  0
ENDBLK
  5
76
330
74
100
AcDbEntity
 67
     1
  8
0
100
AcDbBlockEnd
  0
BLOCK
  5
7B
330
79
100
AcDbEntity
  8
0
100
AcDbBlockBegin
  2
Block_0
 70
     0
 10
0.0
 20
0.0
 30
0.0
  3
Block_0
  1

  0
LWPOLYLINE
  5
7D
330
79
100
AcDbEntity
  8
レイヤー 1
 62
    18
420
        0
370
    25
100
AcDbPolyline
 90
       10
 70
     1
 43
0.0
 10
96.32616245882424
 20
-160.8684245542679
 10
97.32628743330923
 20
-160.8684245542679
 10
97.32628743330923
 20
-136.8684943332234
 10
111.1256131923699
 20
-136.8684943332234
 10
111.1256131923699
 20
-137.8686193077081
 10
107.1262069055143
 20
-137.8686193077081
 10
107.1262069055143
 20
-138.8687090044159
 10
112.1257381668546
 20
-138.8687090044159
 10
112.1257381668546
 20
-135.8687221365075
 10
96.32616245882424
 20
-135.8687221365075
  0
SPLINE
  5
7E
330
79
100
AcDbEntity
  8
レイヤー 1
 62
    18
420
        0
370
     9
100
AcDbSpline
210
0.0
220
0.0
230
1.0
 70
     9
 71
     3
 72
    17
 73
    13
 74
     0
 42
0.0000000001
 43
0.0000000001
 40
0.0
 40
0.0
 40
0.0
 40
0.0
 40
1.0
 40
1.0
 40
1.0
 40
2.0
 40
2.0
 40
2.0
 40
3.0
 40
3.0
 40
3.0
 40
4.0
 40
4.0
 40
4.0
 40
4.0
 10
92.42634759194139
 20
-135.8687221365075
 30
0.0
 10
92.42634759194139
 20
-135.813265471256
 30
0.0
 10
92.38154481417467
 20
-135.7684626946209
 30
0.0
 10
92.32608589420802
 20
-135.7684626946209
 30
0.0
 10
92.27094672894805
 20
-135.7684626946209
 30
0.0
 10
92.22617923009018
 20
-135.813265471256
 30
0.0
 10
92.22617923009018
 20
-135.8687221365075
 30
0.0
 10
92.22617923009018
 20
-135.9238613017675
 30
0.0
 10
92.27094672894805
 20
-135.9686222627992
 30
0.0
 10
92.32608589420802
 20
-135.9686222627992
 30
0.0
 10
92.38154481417467
 20
-135.9686222627992
 30
0.0
 10
92.42634759194139
 20
-135.9238613017675
 30
0.0
 10
92.42634759194139
 20
-135.8687221365075
 30
0.0
  0
SPLINE
  5
7F
330
79
100
AcDbEntity
  8
レイヤー 1
 62
    18
420
        0
370
     9
100
AcDbSpline
210
0.0
220
0.0
230
1.0
 70
     9
 71
     3
 72
    17
 73
    13
 74
     0
 42
0.0000000001
 43
0.0000000001
 40
0.0
 40
0.0
 40
0.0
 40
0.0
 40
1.0
 40
1.0
 40
1.0
 40
2.0
 40
2.0
 40
2.0
 40
3.0
 40
3.0
 40
3.0
 40
4.0
 40
4.0
 40
4.0
 40
4.0
 10
92.42634759194139
 20
-160.7914131673437
 30
0.0
 10
92.42634759194139
 20
-160.7362740020837
 30
0.0
 10
92.38154481417467
 20
-160.6915065032259
 30
0.0
 10
92.32608589420802
 20
-160.6915065032259
 30
0.0
 10
92.27094672894805
 20
-160.6915065032259
 30
0.0
 10
92.22617923009018
 20
-160.7362740020837
 30
0.0
 10
92.22617923009018
 20
-160.7914131673437
 30
0.0
 10
92.22617923009018
 20
-160.8465111454684
 30
0.0
 10
92.27094672894805
 20
-160.8913139232352
 30
0.0
 10
92.32608589420802
 20
-160.8913139232352
 30
0.0
 10
92.38154481417467
 20
-160.8913139232352
 30
0.0
 10
92.42634759194139
 20
-160.8465111454684
 30
0.0
 10
92.42634759194139
 20
-160.7914131673437
 30
0.0
  0
SPLINE
  5
80
330
79
100
AcDbEntity
  8
レイヤー 1
 62
    18
420
        0
370
     9
100
AcDbSpline
210
0.0
220
0.0
230
1.0
 70
     9
 71
     3
 72
    17
 73
    13
 74
     0
 42
0.0000000001
 43
0.0000000001
 40
0.0
 40
0.0
 40
0.0
 40
0.0
 40
1.0
 40
1.0
 40
1.0
 40
2.0
 40
2.0
 40
2.0
 40
3.0
 40
3.0
 40
3.0
 40
4.0
 40
4.0
 40
4.0
 40
4.0
 10
96.42642190071084
 20
-164.8688538966528
 30
0.0
 10
96.42642190071084
 20
-164.8130444536322
 30
0.0
 10
96.38165440185296
 20
-164.7682416769975
 30
0.0
 10
96.32616245882424
 20
-164.7682416769975
 30
0.0
 10
96.27105857134116
 20
-164.7682416769975
 30
0.0
 10
96.22625579470639
 20
-164.8130444536322
 30
0.0
 10
96.22625579470639
 20
-164.8688538966528
 30
0.0
 10
96.22625579470639
 20
-164.9239577841359
 30
0.0
 10
96.27105857134116
 20
-164.9687605607707
 30
0.0
 10
96.32616245882424
 20
-164.9687605607707
 30
0.0
 10
96.38165440185296
 20
-164.9687605607707
 30
0.0
 10
96.42642190071084
 20
-164.9239577841359
 30
0.0
 10
96.42642190071084
 20
-164.8688538966528
 30
0.0
  0
SPLINE
  5
81
330
79
100
AcDbEntity
  8
レイヤー 1
 62
    18
420
        0
370
     9
100
AcDbSpline
210
0.0
220
0.0
230
1.0
 70
     9
 71
     3
 72
    17
 73
    13
 74
     0
 42
0.0000000001
 43
0.0000000001
 40
0.0
 40
0.0
 40
0.0
 40
0.0
 40
1.0
 40
1.0
 40
1.0
 40
2.0
 40
2.0
 40
2.0
 40
3.0
 40
3.0
 40
3.0
 40
4.0
 40
4.0
 40
4.0
 40
4.0
 10
97.42619409742674
 20
-164.8688538966528
 30
0.0
 10
97.42619409742674
 20
-164.8130444536322
 30
0.0
 10
97.38142659856887
 20
-164.7682416769975
 30
0.0
 10
97.32628743330923
 20
-164.7682416769975
 30
0.0
 10
97.27118354582584
 20
-164.7682416769975
 30
0.0
 10
97.22638076919109
 20
-164.8130444536322
 30
0.0
 10
97.22638076919109
 20
-164.8688538966528
 30
0.0
 10
97.22638076919109
 20
-164.9239577841359
 30
0.0
 10
97.27118354582584
 20
-164.9687605607707
 30
0.0
 10
97.32628743330923
 20
-164.9687605607707
 30
0.0
 10
97.38142659856887
 20
-164.9687605607707
 30
0.0
 10
97.42619409742674
 20
-164.9239577841359
 30
0.0
 10
97.42619409742674
 20
-164.8688538966528
 30
0.0
  0
SPLINE
  5
82
330
79
100
AcDbEntity
  8
レイヤー 1
 62
    18
420
        0
370
     9
100
AcDbSpline
210
0.0
220
0.0
230
1.0
 70
     9
 71
     3
 72
    17
 73
    13
 74
     0
 42
0.0000000001
 43
0.0000000001
 40
0.0
 40
0.0
 40
0.0
 40
0.0
 40
1.0
 40
1.0
 40
1.0
 40
2.0
 40
2.0
 40
2.0
 40
3.0
 40
3.0
 40
3.0
 40
4.0
 40
4.0
 40
4.0
 40
4.0
 10
112.2256475869915
 20
-142.8684680690402
 30
0.0
 10
112.2256475869915
 20
-142.8133641815572
 30
0.0
 10
112.1808448092248
 20
-142.7685614049227
 30
0.0
 10
112.1257381668546
 20
-142.7685614049227
 30
0.0
 10
112.0705990015946
 20
-142.7685614049227
 30
0.0
 10
112.0258315027367
 20
-142.8133641815572
 30
0.0
 10
112.0258315027367
 20
-142.8684680690402
 30
0.0
 10
112.0258315027367
 20
-142.9236072343002
 30
0.0
 10
112.0705990015946
 20
-142.9683747331581
 30
0.0
 10
112.1257381668546
 20
-142.9683747331581
 30
0.0
 10
112.1808448092248
 20
-142.9683747331581
 30
0.0
 10
112.2256475869915
 20
-142.9236072343002
 30
0.0
 10
112.2256475869915
 20
-142.8684680690402
 30
0.0
  0
CIRCLE
  5
83
330
79
100
AcDbEntity
  8
レイヤー 1
 62
    18
420
        0
370
     9
100
AcDbCircle
 10
107.1262069055143
 20
-142.8684680690403
 30
0.0
 40
0.099906664117715
  0
SPLINE
  5
84
330
79
100
AcDbEntity
  8
レイヤー 1
 62
    18
420
        0
370
     9
100
AcDbSpline
210
0.0
220
0.0
230
1.0
 70
     9
 71
     3
 72
    17
 73
    13
 74
     0
 42
0.0000000001
 43
0.0000000001
 40
0.0
 40
0.0
 40
0.0
 40
0.0
 40
1.0
 40
1.0
 40
1.0
 40
2.0
 40
2.0
 40
2.0
 40
3.0
 40
3.0
 40
3.0
 40
4.0
 40
4.0
 40
4.0
 40
4.0
 10
116.2257213955886
 20
-138.8687090044159
 30
0.0
 10
116.2257213955886
 20
-138.8132523391641
 30
0.0
 10
116.1809538967307
 20
-138.7688023402981
 30
0.0
 10
116.1258147314708
 20
-138.7688023402981
 30
0.0
 10
116.0703580662189
 20
-138.7688023402981
 30
0.0
 10
116.025590567361
 20
-138.8132523391641
 30
0.0
 10
116.025590567361
 20
-138.8687090044159
 30
0.0
 10
116.025590567361
 20
-138.9238417065046
 30
0.0
 10
116.0703580662189
 20
-138.9686156685334
 30
0.0
 10
116.1258147314708
 20
-138.9686156685334
 30
0.0
 10
116.1809538967307
 20
-138.9686156685334
 30
0.0
 10
116.2257213955886
 20
-138.9238417065046
 30
0.0
 10
116.2257213955886
 20
-138.8687090044159
 30
0.0
  0
SPLINE
  5
85
330
79
100
AcDbEntity
  8
レイヤー 1
 62
    18
420
        0
370
     9
100
AcDbSpline
210
0.0
220
0.0
230
1.0
 70
     9
 71
     3
 72
    17
 73
    13
 74
     0
 42
0.0000000001
 43
0.0000000001
 40
0.0
 40
0.0
 40
0.0
 40
0.0
 40
1.0
 40
1.0
 40
1.0
 40
2.0
 40
2.0
 40
2.0
 40
3.0
 40
3.0
 40
3.0
 40
4.0
 40
4.0
 40
4.0
 40
4.0
 10
116.2257213955886
 20
-135.8687221365075
 30
0.0
 10
116.2257213955886
 20
-135.813265471256
 30
0.0
 10
116.1809538967307
 20
-135.7684626946209
 30
0.0
 10
116.1258147314708
 20
-135.7684626946209
 30
0.0
 10
116.0703580662189
 20
-135.7684626946209
 30
0.0
 10
116.025590567361
 20
-135.813265471256
 30
0.0
 10
116.025590567361
 20
-135.8687221365075
 30
0.0
 10
116.025590567361
 20
-135.9238613017675
 30
0.0
 10
116.0703580662189
 20
-135.9686222627992
 30
0.0
 10
116.1258147314708
 20
-135.9686222627992
 30
0.0
 10
116.1809538967307
 20
-135.9686222627992
 30
0.0
 10
116.2257213955886
 20
-135.9238613017675
 30
0.0
 10
116.2257213955886
 20
-135.8687221365075
 30
0.0
  0
CIRCLE
  5
86
330
79
100
AcDbEntity
  8
レイヤー 1
 62
    18
420
        0
370
     9
100
AcDbCircle
 10
97.32628743330907
 20
-142.8684680690403
 30
0.0
 40
0.0999066641177952
  0
LINE
  5
87
330
79
100
AcDbEntity
  8
レイヤー 1
 62
    18
420
        0
370
     9
100
AcDbLine
 10
116.1258147314708
 20
-135.8687221365075
 30
0.0
 11
116.1258147314708
 21
-138.8687090044159
 31
0.0
  0
LINE
  5
88
330
79
100
AcDbEntity
  8
レイヤー 1
 62
    18
420
        0
370
     9
100
AcDbLine
 10
114.6658114752701
 20
-135.8687221365075
 30
0.0
 11
117.1255869281867
 21
-135.8687221365075
 31
0.0
  0
LINE
  5
89
330
79
100
AcDbEntity
  8
レイヤー 1
 62
    18
420
        0
370
     9
100
AcDbLine
 10
114.6658114752701
 20
-138.8687090044159
 30
0.0
 11
117.1255869281867
 21
-138.8687090044159
 31
0.0
  0
INSERT
  5
8B
330
79
100
AcDbEntity
  8
レイヤー 1
100
AcDbBlockReference
  2
Block_1
 10
0.0
 20
0.0
 30
0.0
  0
LINE
  5
90
330
79
100
AcDbEntity
  8
レイヤー 1
 62
    18
420
        0
370
     9
100
AcDbLine
 10
92.32608589420802
 20
-135.8687221365075
 30
0.0
 11
92.32608589420802
 21
-160.7914131673437
 31
0.0
  0
LINE
  5
91
330
79
100
AcDbEntity
  8
レイヤー 1
 62
    18
420
        0
370
     9
100
AcDbLine
 10
93.78609196807127
 20
-135.8687221365075
 30
0.0
 11
91.32631369749178
 21
-135.8687221365075
 31
0.0
  0
LINE
  5
92
330
79
100
AcDbEntity
  8
レイヤー 1
 62
    18
420
        0
370
     9
100
AcDbLine
 10
93.78609196807127
 20
-160.7914131673437
 30
0.0
 11
91.32631369749178
 21
-160.7914131673437
 31
0.0
  0
INSERT
  5
94
330
79
100
AcDbEntity
  8
レイヤー 1
100
AcDbBlockReference
  2
Block_2
 10
0.0
 20
0.0
 30
0.0
  0
LINE
  5
9F
330
79
100
AcDbEntity
  8
レイヤー 1
 62
    18
420
        0
370
     9
100
AcDbLine
 10
107.1262069055143
 20
-142.8684680690402
 30
0.0
 11
112.1257381668546
 21
-142.8684680690402
 31
0.0
  0
LINE
  5
A0
330
79
100
AcDbEntity
  8
レイヤー 1
 62
    18
420
        0
370
     9
100
AcDbLine
 10
107.1262069055143
 20
-141.4084267174001
 30
0.0
 11
107.1262069055143
 21
-143.8689458212937
 31
0.0
  0
LINE
  5
A1
330
79
100
AcDbEntity
  8
レイヤー 1
 62
    18
420
        0
370
     9
100
AcDbLine
 10
112.1257381668546
 20
-141.4084267174001
 30
0.0
 11
112.1257381668546
 21
-143.8689458212937
 31
0.0
  0
INSERT
  5
A3
330
79
100
AcDbEntity
  8
レイヤー 1
100
AcDbBlockReference
  2
Block_4
 10
0.0
 20
0.0
 30
0.0
  0
LINE
  5
A8
330
79
100
AcDbEntity
  8
レイヤー 1
 62
    18
420
        0
370
     9
100
AcDbLine
 10
107.1262069055143
 20
-142.8684680690402
 30
0.0
 11
97.32628743330923
 21
-142.8684680690402
 31
0.0
  0
INSERT
  5
AA
330
79
100
AcDbEntity
  8
レイヤー 1
100
AcDbBlockReference
  2
Block_5
 10
0.0
 20
0.0
 30
0.0
  0
LINE
  5
BA
330
79
100
AcDbEntity
  8
レイヤー 1
 62
    18
420
        0
370
     9
100
AcDbLine
 10
97.32628743330923
 20
-164.8688538966528
 30
0.0
 11
101.0965998371202
 21
-164.8688538966528
 31
0.0
  0
LINE
  5
BB
330
79
100
AcDbEntity
  8
レイヤー 1
 62
    18
420
        0
370
     9
100
AcDbLine
 10
97.32628743330923
 20
-164.8688538966528
 30
0.0
 11
95.32607276211642
 21
-164.8688538966528
 31
0.0
  0
LINE
  5
BC
330
79
100
AcDbEntity
  8
レイヤー 1
 62
    18
420
        0
370
     9
100
AcDbLine
 10
97.32628743330923
 20
-163.4088125450127
 30
0.0
 11
97.32628743330923
 21
-165.8686260933688
 31
0.0
  0
LINE
  5
BD
330
79
100
AcDbEntity
  8
レイヤー 1
 62
    18
420
        0
370
     9
100
AcDbLine
 10
96.32616245882424
 20
-163.4088125450127
 30
0.0
 11
96.32616245882424
 21
-165.8686260933688
 31
0.0
  0
INSERT
  5
BF
330
79
100
AcDbEntity
  8
レイヤー 1
100
AcDbBlockReference
  2
Block_7
 10
0.0
 20
0.0
 30
0.0
  0
ENDBLK
  5
7C
330
79
100
AcDbEntity
  8
0
100
AcDbBlockEnd
  0
BLOCK
  5
8C
330
8A
100
AcDbEntity
  8
0
100
AcDbBlockBegin
  2
Block_1
 70
     0
 10
0.0
 20
0.0
 30
0.0
  3
Block_1
  1

  0
SPLINE
  5
8E
330
8A
100
AcDbEntity
  8
レイヤー 1
100
AcDbSpline
210
0.0
220
0.0
230
1.0
 70
     9
 71
     3
 72
    62
 73
    58
 74
     0
 42
0.0000000001
 43
0.0000000001
 40
0.0
 40
0.0
 40
0.0
 40
0.0
 40
1.0
 40
1.0
 40
1.0
 40
2.0
 40
2.0
 40
2.0
 40
3.0
 40
3.0
 40
3.0
 40
4.0
 40
4.0
 40
4.0
 40
5.0
 40
5.0
 40
5.0
 40
6.0
 40
6.0
 40
6.0
 40
7.0
 40
7.0
 40
7.0
 40
8.0
 40
8.0
 40
8.0
 40
9.0
 40
9.0
 40
9.0
 40
10.0
 40
10.0
 40
10.0
 40
11.0
 40
11.0
 40
11.0
 40
12.0
 40
12.0
 40
12.0
 40
13.0
 40
13.0
 40
13.0
 40
14.0
 40
14.0
 40
14.0
 40
15.0
 40
15.0
 40
15.0
 40
16.0
 40
16.0
 40
16.0
 40
17.0
 40
17.0
 40
17.0
 40
18.0
 40
18.0
 40
18.0
 40
19.0
 40
19.0
 40
19.0
 40
19.0
 10
114.8746418983646
 20
-137.3352864239995
 30
0.0
 10
114.8746418983646
 20
-137.4369167408143
 30
0.0
 10
114.8536268159046
 20
-137.6698051956172
 30
0.0
 10
114.6675916597011
 20
-137.8033026456707
 30
0.0
 10
114.555281546882
 20
-137.8823675870572
 30
0.0
 10
114.4560627969068
 20
-137.886846211188
 30
0.0
 10
114.3713134479697
 20
-137.8913248353188
 30
0.0
 10
114.3713134479697
 20
-137.8913248353188
 30
0.0
 10
114.3713134479697
 20
-137.6563693232248
 30
0.0
 10
114.3713134479697
 20
-137.6563693232248
 30
0.0
 10
114.4453830009025
 20
-137.6539577563851
 30
0.0
 10
114.679994003448
 20
-137.642761196058
 30
0.0
 10
114.679994003448
 20
-137.3397650481303
 30
0.0
 10
114.679994003448
 20
-137.1928317256844
 30
0.0
 10
114.610403074646
 20
-137.0300509640064
 30
0.0
 10
114.3819932439739
 20
-137.0300509640064
 30
0.0
 10
114.2655490165725
 20
-137.0300509640064
 30
0.0
 10
114.2169731702305
 20
-137.0707030907323
 30
0.0
 10
114.1852782917662
 20
-137.104637281262
 30
0.0
 10
114.1112087388333
 20
-137.1837022226485
 30
0.0
 10
114.0984618855379
 20
-137.308070169666
 30
0.0
 10
114.0984618855379
 20
-137.3669813024638
 30
0.0
 10
114.0984618855379
 20
-137.3873073658268
 30
0.0
 10
114.100528942829
 20
-137.4257201804873
 30
0.0
 10
114.1046630574113
 20
-137.4550034921119
 30
0.0
 10
114.1046630574113
 20
-137.4550034921119
 30
0.0
 10
113.9100151624947
 20
-137.4550034921119
 30
0.0
 10
113.9100151624947
 20
-137.4550034921119
 30
0.0
 10
113.9165608439167
 20
-137.414351365386
 30
0.0
 10
113.9186279012078
 20
-137.3692206145292
 30
0.0
 10
113.9186279012078
 20
-137.3623304235587
 30
0.0
 10
113.9186279012078
 20
-137.2922227304339
 30
0.0
 10
113.8972683091993
 20
-137.0798325937682
 30
0.0
 10
113.6605902493626
 20
-137.0798325937682
 30
0.0
 10
113.4828233223237
 20
-137.0798325937682
 30
0.0
 10
113.4277017945597
 20
-137.2198757252436
 30
0.0
 10
113.4277017945597
 20
-137.3375257360649
 30
0.0
 10
113.4277017945597
 20
-137.6201958206296
 30
0.0
 10
113.6605902493626
 20
-137.6291530688913
 30
0.0
 10
113.7322482354558
 20
-137.6336316930221
 30
0.0
 10
113.7322482354558
 20
-137.6336316930221
 30
0.0
 10
113.7322482354558
 20
-137.8506727085929
 30
0.0
 10
113.7322482354558
 20
-137.8506727085929
 30
0.0
 10
113.6075357788898
 20
-137.8417154603312
 30
0.0
 10
113.2309868423519
 20
-137.8122598939323
 30
0.0
 10
113.2309868423519
 20
-137.3239176088982
 30
0.0
 10
113.2309868423519
 20
-137.084311217899
 30
0.0
 10
113.3581108657577
 20
-136.8266180756023
 30
0.0
 10
113.6540445679406
 20
-136.8266180756023
 30
0.0
 10
113.8404242336926
 20
-136.8266180756023
 30
0.0
 10
113.9227620157901
 20
-136.9282483924172
 30
0.0
 10
113.9840847154276
 20
-137.0345295881372
 30
0.0
 10
114.0116454793096
 20
-136.9690727739174
 30
0.0
 10
114.0919162041159
 20
-136.7745971337751
 30
0.0
 10
114.3692463906785
 20
-136.7745971337751
 30
0.0
 10
114.70755476733
 20
-136.7745971337751
 30
0.0
 10
114.8746418983646
 20
-137.039008212268
 30
0.0
 10
114.8746418983646
 20
-137.3352864239995
 30
0.0
  0
HATCH
  5
8F
330
8A
100
AcDbEntity
  8
レイヤー 1
 62
    18
420
        0
440
 33554687
100
AcDbHatch
 10
0.0
 20
0.0
 30
0.0
210
0.0
220
0.0
230
1.0
  2
SOLID
 70
     1
 71
     1
 91
        1
 92
        1
 93
        1
 72
     4
 94
        3
 73
     0
 74
     0
 95
       62
 96
       58
 40
0.0
 40
0.0
 40
0.0
 40
0.0
 40
1.0
 40
1.0
 40
1.0
 40
2.0
 40
2.0
 40
2.0
 40
3.0
 40
3.0
 40
3.0
 40
4.0
 40
4.0
 40
4.0
 40
5.0
 40
5.0
 40
5.0
 40
6.0
 40
6.0
 40
6.0
 40
7.0
 40
7.0
 40
7.0
 40
8.0
 40
8.0
 40
8.0
 40
9.0
 40
9.0
 40
9.0
 40
10.0
 40
10.0
 40
10.0
 40
11.0
 40
11.0
 40
11.0
 40
12.0
 40
12.0
 40
12.0
 40
13.0
 40
13.0
 40
13.0
 40
14.0
 40
14.0
 40
14.0
 40
15.0
 40
15.0
 40
15.0
 40
16.0
 40
16.0
 40
16.0
 40
17.0
 40
17.0
 40
17.0
 40
18.0
 40
18.0
 40
18.0
 40
19.0
 40
19.0
 40
19.0
 40
19.0
 10
114.8746418983646
 20
-137.3352864239995
 10
114.8746418983646
 20
-137.4369167408143
 10
114.8536268159046
 20
-137.6698051956172
 10
114.6675916597011
 20
-137.8033026456707
 10
114.555281546882
 20
-137.8823675870572
 10
114.4560627969068
 20
-137.886846211188
 10
114.3713134479697
 20
-137.8913248353188
 10
114.3713134479697
 20
-137.8913248353188
 10
114.3713134479697
 20
-137.6563693232248
 10
114.3713134479697
 20
-137.6563693232248
 10
114.4453830009025
 20
-137.6539577563851
 10
114.679994003448
 20
-137.642761196058
 10
114.679994003448
 20
-137.3397650481303
 10
114.679994003448
 20
-137.1928317256844
 10
114.610403074646
 20
-137.0300509640064
 10
114.3819932439739
 20
-137.0300509640064
 10
114.2655490165725
 20
-137.0300509640064
 10
114.2169731702305
 20
-137.0707030907323
 10
114.1852782917662
 20
-137.104637281262
 10
114.1112087388333
 20
-137.1837022226485
 10
114.0984618855379
 20
-137.308070169666
 10
114.0984618855379
 20
-137.3669813024638
 10
114.0984618855379
 20
-137.3873073658268
 10
114.100528942829
 20
-137.4257201804873
 10
114.1046630574113
 20
-137.4550034921119
 10
114.1046630574113
 20
-137.4550034921119
 10
113.9100151624947
 20
-137.4550034921119
 10
113.9100151624947
 20
-137.4550034921119
 10
113.9165608439167
 20
-137.414351365386
 10
113.9186279012078
 20
-137.3692206145292
 10
113.9186279012078
 20
-137.3623304235587
 10
113.9186279012078
 20
-137.2922227304339
 10
113.8972683091993
 20
-137.0798325937682
 10
113.6605902493626
 20
-137.0798325937682
 10
113.4828233223237
 20
-137.0798325937682
 10
113.4277017945597
 20
-137.2198757252436
 10
113.4277017945597
 20
-137.3375257360649
 10
113.4277017945597
 20
-137.6201958206296
 10
113.6605902493626
 20
-137.6291530688913
 10
113.7322482354558
 20
-137.6336316930221
 10
113.7322482354558
 20
-137.6336316930221
 10
113.7322482354558
 20
-137.8506727085929
 10
113.7322482354558
 20
-137.8506727085929
 10
113.6075357788898
 20
-137.8417154603312
 10
113.2309868423519
 20
-137.8122598939323
 10
113.2309868423519
 20
-137.3239176088982
 10
113.2309868423519
 20
-137.084311217899
 10
113.3581108657577
 20
-136.8266180756023
 10
113.6540445679406
 20
-136.8266180756023
 10
113.8404242336926
 20
-136.8266180756023
 10
113.9227620157901
 20
-136.9282483924172
 10
113.9840847154276
 20
-137.0345295881372
 10
114.0116454793096
 20
-136.9690727739174
 10
114.0919162041159
 20
-136.7745971337751
 10
114.3692463906785
 20
-136.7745971337751
 10
114.70755476733
 20
-136.7745971337751
 10
114.8746418983646
 20
-137.039008212268
 10
114.8746418983646
 20
-137.3352864239995
 97
        0
 97
        1
330
8E
 75
     2
 76
     1
 98
        1
 10
0.0
 20
0.0
450
        0
451
        0
460
0.0
461
0.0
452
        0
462
0.0
453
        0
470

  0
ENDBLK
  5
8D
330
8A
100
AcDbEntity
  8
0
100
AcDbBlockEnd
  0
BLOCK
  5
95
330
93
100
AcDbEntity
  8
0
100
AcDbBlockBegin
  2
Block_2
 70
     0
 10
0.0
 20
0.0
 30
0.0
  3
Block_2
  1

  0
INSERT
  5
98
330
93
100
AcDbEntity
  8
レイヤー 1
100
AcDbBlockReference
  2
Block_3
 10
0.0
 20
0.0
 30
0.0
  0
ENDBLK
  5
96
330
93
100
AcDbEntity
  8
0
100
AcDbBlockEnd
  0
BLOCK
  5
99
330
97
100
AcDbEntity
  8
0
100
AcDbBlockBegin
  2
Block_3
 70
     0
 10
0.0
 20
0.0
 30
0.0
  3
Block_3
  1

  0
SPLINE
  5
9B
330
97
100
AcDbEntity
  8
レイヤー 1
100
AcDbSpline
210
0.0
220
0.0
230
1.0
 70
     9
 71
     3
 72
    44
 73
    40
 74
     0
 42
0.0000000001
 43
0.0000000001
 40
0.0
 40
0.0
 40
0.0
 40
0.0
 40
1.0
 40
1.0
 40
1.0
 40
2.0
 40
2.0
 40
2.0
 40
3.0
 40
3.0
 40
3.0
 40
4.0
 40
4.0
 40
4.0
 40
5.0
 40
5.0
 40
5.0
 40
6.0
 40
6.0
 40
6.0
 40
7.0
 40
7.0
 40
7.0
 40
8.0
 40
8.0
 40
8.0
 40
9.0
 40
9.0
 40
9.0
 40
10.0
 40
10.0
 40
10.0
 40
11.0
 40
11.0
 40
11.0
 40
12.0
 40
12.0
 40
12.0
 40
13.0
 40
13.0
 40
13.0
 40
13.0
 10
90.44236922652135
 20
-148.8935817770127
 30
0.0
 10
90.60101587361712
 20
-149.1264702318156
 30
0.0
 10
90.67508542654998
 20
-149.2260334913393
 30
0.0
 10
90.81891816305917
 20
-149.2780544331666
 30
0.0
 10
90.81891816305917
 20
-149.2780544331666
 30
0.0
 10
90.81891816305917
 20
-148.4455471091559
 30
0.0
 10
90.81891816305917
 20
-148.4455471091559
 30
0.0
 10
90.81891816305917
 20
-148.4455471091559
 30
0.0
 10
91.02407359920579
 20
-148.4455471091559
 30
0.0
 10
91.02407359920579
 20
-148.4455471091559
 30
0.0
 10
91.02407359920579
 20
-148.4455471091559
 30
0.0
 10
91.02407359920579
 20
-149.5447048237249
 30
0.0
 10
91.02407359920579
 20
-149.5447048237249
 30
0.0
 10
90.66647268783686
 20
-149.510598378421
 30
0.0
 10
90.58826902032169
 20
-149.4406629400704
 30
0.0
 10
90.28992375129906
 20
-149.0293185391315
 30
0.0
 10
90.09114174180012
 20
-148.7556057028284
 30
0.0
 10
90.02344561551497
 20
-148.6853257549294
 30
0.0
 10
89.8859863056535
 20
-148.6853257549294
 30
0.0
 10
89.76747502096092
 20
-148.6853257549294
 30
0.0
 10
89.63621688297289
 20
-148.7621513842504
 30
0.0
 10
89.63621688297289
 20
-148.9728189731734
 30
0.0
 10
89.63621688297289
 20
-149.2508381788331
 30
0.0
 10
89.86686602571037
 20
-149.2597954270948
 30
0.0
 10
89.98331025311181
 20
-149.2642740512256
 30
0.0
 10
89.98331025311181
 20
-149.2642740512256
 30
0.0
 10
89.98331025311181
 20
-149.504052696999
 30
0.0
 10
89.98331025311181
 20
-149.504052696999
 30
0.0
 10
89.85635848448035
 20
-149.4950954487373
 30
0.0
 10
89.74422062643547
 20
-149.483726633636
 30
0.0
 10
89.62570934174287
 20
-149.3975992465047
 30
0.0
 10
89.46499563735597
 20
-149.2801214904577
 30
0.0
 10
89.43106144682626
 20
-149.0813394809588
 30
0.0
 10
89.43106144682626
 20
-148.9569715339413
 30
0.0
 10
89.43106144682626
 20
-148.6605210674356
 30
0.0
 10
89.61520180051286
 20
-148.439001427734
 30
0.0
 10
89.88805336294467
 20
-148.439001427734
 30
0.0
 10
90.11646319361672
 20
-148.439001427734
 30
0.0
 10
90.21602645314045
 20
-148.5633693747515
 30
0.0
 10
90.44236922652135
 20
-148.8935817770127
 30
0.0
  0
HATCH
  5
9C
330
97
100
AcDbEntity
  8
レイヤー 1
 62
    18
420
        0
440
 33554687
100
AcDbHatch
 10
0.0
 20
0.0
 30
0.0
210
0.0
220
0.0
230
1.0
  2
SOLID
 70
     1
 71
     1
 91
        1
 92
        1
 93
        1
 72
     4
 94
        3
 73
     0
 74
     0
 95
       44
 96
       40
 40
0.0
 40
0.0
 40
0.0
 40
0.0
 40
1.0
 40
1.0
 40
1.0
 40
2.0
 40
2.0
 40
2.0
 40
3.0
 40
3.0
 40
3.0
 40
4.0
 40
4.0
 40
4.0
 40
5.0
 40
5.0
 40
5.0
 40
6.0
 40
6.0
 40
6.0
 40
7.0
 40
7.0
 40
7.0
 40
8.0
 40
8.0
 40
8.0
 40
9.0
 40
9.0
 40
9.0
 40
10.0
 40
10.0
 40
10.0
 40
11.0
 40
11.0
 40
11.0
 40
12.0
 40
12.0
 40
12.0
 40
13.0
 40
13.0
 40
13.0
 40
13.0
 10
90.44236922652135
 20
-148.8935817770127
 10
90.60101587361712
 20
-149.1264702318156
 10
90.67508542654998
 20
-149.2260334913393
 10
90.81891816305917
 20
-149.2780544331666
 10
90.81891816305917
 20
-149.2780544331666
 10
90.81891816305917
 20
-148.4455471091559
 10
90.81891816305917
 20
-148.4455471091559
 10
90.81891816305917
 20
-148.4455471091559
 10
91.02407359920579
 20
-148.4455471091559
 10
91.02407359920579
 20
-148.4455471091559
 10
91.02407359920579
 20
-148.4455471091559
 10
91.02407359920579
 20
-149.5447048237249
 10
91.02407359920579
 20
-149.5447048237249
 10
90.66647268783686
 20
-149.510598378421
 10
90.58826902032169
 20
-149.4406629400704
 10
90.28992375129906
 20
-149.0293185391315
 10
90.09114174180012
 20
-148.7556057028284
 10
90.02344561551497
 20
-148.6853257549294
 10
89.8859863056535
 20
-148.6853257549294
 10
89.76747502096092
 20
-148.6853257549294
 10
89.63621688297289
 20
-148.7621513842504
 10
89.63621688297289
 20
-148.9728189731734
 10
89.63621688297289
 20
-149.2508381788331
 10
89.86686602571037
 20
-149.2597954270948
 10
89.98331025311181
 20
-149.2642740512256
 10
89.98331025311181
 20
-149.2642740512256
 10
89.98331025311181
 20
-149.504052696999
 10
89.98331025311181
 20
-149.504052696999
 10
89.85635848448035
 20
-149.4950954487373
 10
89.74422062643547
 20
-149.483726633636
 10
89.62570934174287
 20
-149.3975992465047
 10
89.46499563735597
 20
-149.2801214904577
 10
89.43106144682626
 20
-149.0813394809588
 10
89.43106144682626
 20
-148.9569715339413
 10
89.43106144682626
 20
-148.6605210674356
 10
89.61520180051286
 20
-148.439001427734
 10
89.88805336294467
 20
-148.439001427734
 10
90.11646319361672
 20
-148.439001427734
 10
90.21602645314045
 20
-148.5633693747515
 10
90.44236922652135
 20
-148.8935817770127
 97
        0
 97
        1
330
9B
 75
     2
 76
     1
 98
        1
 10
0.0
 20
0.0
450
        0
451
        0
460
0.0
461
0.0
452
        0
462
0.0
453
        0
470

  0
SPLINE
  5
9D
330
97
100
AcDbEntity
  8
レイヤー 1
100
AcDbSpline
210
0.0
220
0.0
230
1.0
 70
     9
 71
     3
 72
    53
 73
    49
 74
     0
 42
0.0000000001
 43
0.0000000001
 40
0.0
 40
0.0
 40
0.0
 40
0.0
 40
1.0
 40
1.0
 40
1.0
 40
2.0
 40
2.0
 40
2.0
 40
3.0
 40
3.0
 40
3.0
 40
4.0
 40
4.0
 40
4.0
 40
5.0
 40
5.0
 40
5.0
 40
6.0
 40
6.0
 40
6.0
 40
7.0
 40
7.0
 40
7.0
 40
8.0
 40
8.0
 40
8.0
 40
9.0
 40
9.0
 40
9.0
 40
10.0
 40
10.0
 40
10.0
 40
11.0
 40
11.0
 40
11.0
 40
12.0
 40
12.0
 40
12.0
 40
13.0
 40
13.0
 40
13.0
 40
14.0
 40
14.0
 40
14.0
 40
15.0
 40
15.0
 40
15.0
 40
16.0
 40
16.0
 40
16.0
 40
16.0
 10
91.07488875761323
 20
-147.7554944834604
 30
0.0
 10
91.07488875761323
 20
-147.839210303752
 30
0.0
 10
91.0580077897355
 20
-147.9473863019888
 30
0.0
 10
90.99444577803264
 20
-148.0562513193227
 30
0.0
 10
90.88437497727891
 20
-148.2415974564292
 30
0.0
 10
90.75328909406515
 20
-148.2639905770833
 30
0.0
 10
90.64545760537683
 20
-148.2843166404463
 30
0.0
 10
90.64545760537683
 20
-148.2843166404463
 30
0.0
 10
90.64545760537683
 20
-148.0469495615126
 30
0.0
 10
90.64545760537683
 20
-148.0469495615126
 30
0.0
 10
90.84423961487575
 20
-147.9883829382633
 30
0.0
 10
90.8738674360489
 20
-147.8526461761445
 30
0.0
 10
90.8738674360489
 20
-147.7530829166207
 30
0.0
 10
90.8738674360489
 20
-147.6039102821094
 30
0.0
 10
90.77447643129945
 20
-147.4409572656571
 30
0.0
 10
90.54176023127082
 20
-147.4409572656571
 30
0.0
 10
90.28578963671675
 20
-147.4409572656571
 30
0.0
 10
90.21602645314045
 20
-147.633193593734
 30
0.0
 10
90.21602645314045
 20
-147.7620401648824
 30
0.0
 10
90.21602645314045
 20
-147.7961466101864
 30
0.0
 10
90.21602645314045
 20
-147.9473863019888
 30
0.0
 10
90.34504527906305
 20
-148.0424709373817
 30
0.0
 10
90.34504527906305
 20
-148.0424709373817
 30
0.0
 10
90.3259249991199
 20
-148.2302286413278
 30
0.0
 10
90.3259249991199
 20
-148.2302286413278
 30
0.0
 10
90.3259249991199
 20
-148.2302286413278
 30
0.0
 10
89.47980954794255
 20
-148.1013820701795
 30
0.0
 10
89.47980954794255
 20
-148.1013820701795
 30
0.0
 10
89.47980954794255
 20
-148.1013820701795
 30
0.0
 10
89.47980954794255
 20
-147.2693915104917
 30
0.0
 10
89.47980954794255
 20
-147.2693915104917
 30
0.0
 10
89.47980954794255
 20
-147.2693915104917
 30
0.0
 10
89.67445744285916
 20
-147.2693915104917
 30
0.0
 10
89.67445744285916
 20
-147.2693915104917
 30
0.0
 10
89.67445744285916
 20
-147.2693915104917
 30
0.0
 10
89.67445744285916
 20
-147.9270602386258
 30
0.0
 10
89.67445744285916
 20
-147.9270602386258
 30
0.0
 10
89.67445744285916
 20
-147.9270602386258
 30
0.0
 10
90.09751516844785
 20
-147.9973401865249
 30
0.0
 10
90.09751516844785
 20
-147.9973401865249
 30
0.0
 10
90.06358097791814
 20
-147.9318833723052
 30
0.0
 10
90.02344561551497
 20
-147.8436889278828
 30
0.0
 10
90.02344561551497
 20
-147.7169094140256
 30
0.0
 10
90.02344561551497
 20
-147.4457803993365
 30
0.0
 10
90.20965302649273
 20
-147.1925658811706
 30
0.0
 10
90.52263995132767
 20
-147.1925658811706
 30
0.0
 10
90.84010550029345
 20
-147.1925658811706
 30
0.0
 10
91.07488875761323
 20
-147.4320000173954
 30
0.0
 10
91.07488875761323
 20
-147.7554944834604
 30
0.0
  0
HATCH
  5
9E
330
97
100
AcDbEntity
  8
レイヤー 1
 62
    18
420
        0
440
 33554687
100
AcDbHatch
 10
0.0
 20
0.0
 30
0.0
210
0.0
220
0.0
230
1.0
  2
SOLID
 70
     1
 71
     1
 91
        1
 92
        1
 93
        1
 72
     4
 94
        3
 73
     0
 74
     0
 95
       53
 96
       49
 40
0.0
 40
0.0
 40
0.0
 40
0.0
 40
1.0
 40
1.0
 40
1.0
 40
2.0
 40
2.0
 40
2.0
 40
3.0
 40
3.0
 40
3.0
 40
4.0
 40
4.0
 40
4.0
 40
5.0
 40
5.0
 40
5.0
 40
6.0
 40
6.0
 40
6.0
 40
7.0
 40
7.0
 40
7.0
 40
8.0
 40
8.0
 40
8.0
 40
9.0
 40
9.0
 40
9.0
 40
10.0
 40
10.0
 40
10.0
 40
11.0
 40
11.0
 40
11.0
 40
12.0
 40
12.0
 40
12.0
 40
13.0
 40
13.0
 40
13.0
 40
14.0
 40
14.0
 40
14.0
 40
15.0
 40
15.0
 40
15.0
 40
16.0
 40
16.0
 40
16.0
 40
16.0
 10
91.07488875761323
 20
-147.7554944834604
 10
91.07488875761323
 20
-147.839210303752
 10
91.0580077897355
 20
-147.9473863019888
 10
90.99444577803264
 20
-148.0562513193227
 10
90.88437497727891
 20
-148.2415974564292
 10
90.75328909406515
 20
-148.2639905770833
 10
90.64545760537683
 20
-148.2843166404463
 10
90.64545760537683
 20
-148.2843166404463
 10
90.64545760537683
 20
-148.0469495615126
 10
90.64545760537683
 20
-148.0469495615126
 10
90.84423961487575
 20
-147.9883829382633
 10
90.8738674360489
 20
-147.8526461761445
 10
90.8738674360489
 20
-147.7530829166207
 10
90.8738674360489
 20
-147.6039102821094
 10
90.77447643129945
 20
-147.4409572656571
 10
90.54176023127082
 20
-147.4409572656571
 10
90.28578963671675
 20
-147.4409572656571
 10
90.21602645314045
 20
-147.633193593734
 10
90.21602645314045
 20
-147.7620401648824
 10
90.21602645314045
 20
-147.7961466101864
 10
90.21602645314045
 20
-147.9473863019888
 10
90.34504527906305
 20
-148.0424709373817
 10
90.34504527906305
 20
-148.0424709373817
 10
90.3259249991199
 20
-148.2302286413278
 10
90.3259249991199
 20
-148.2302286413278
 10
90.3259249991199
 20
-148.2302286413278
 10
89.47980954794255
 20
-148.1013820701795
 10
89.47980954794255
 20
-148.1013820701795
 10
89.47980954794255
 20
-148.1013820701795
 10
89.47980954794255
 20
-147.2693915104917
 10
89.47980954794255
 20
-147.2693915104917
 10
89.47980954794255
 20
-147.2693915104917
 10
89.67445744285916
 20
-147.2693915104917
 10
89.67445744285916
 20
-147.2693915104917
 10
89.67445744285916
 20
-147.2693915104917
 10
89.67445744285916
 20
-147.9270602386258
 10
89.67445744285916
 20
-147.9270602386258
 10
89.67445744285916
 20
-147.9270602386258
 10
90.09751516844785
 20
-147.9973401865249
 10
90.09751516844785
 20
-147.9973401865249
 10
90.06358097791814
 20
-147.9318833723052
 10
90.02344561551497
 20
-147.8436889278828
 10
90.02344561551497
 20
-147.7169094140256
 10
90.02344561551497
 20
-147.4457803993365
 10
90.20965302649273
 20
-147.1925658811706
 10
90.52263995132767
 20
-147.1925658811706
 10
90.84010550029345
 20
-147.1925658811706
 10
91.07488875761323
 20
-147.4320000173954
 10
91.07488875761323
 20
-147.7554944834604
 97
        0
 97
        1
330
9D
 75
     2
 76
     1
 98
        1
 10
0.0
 20
0.0
450
        0
451
        0
460
0.0
461
0.0
452
        0
462
0.0
453
        0
470

  0
ENDBLK
  5
9A
330
97
100
AcDbEntity
  8
0
100
AcDbBlockEnd
  0
BLOCK
  5
A4
330
A2
100
AcDbEntity
  8
0
100
AcDbBlockBegin
  2
Block_4
 70
     0
 10
0.0
 20
0.0
 30
0.0
  3
Block_4
  1

  0
SPLINE
  5
A6
330
A2
100
AcDbEntity
  8
レイヤー 1
100
AcDbSpline
210
0.0
220
0.0
230
1.0
 70
     9
 71
     3
 72
    53
 73
    49
 74
     0
 42
0.0000000001
 43
0.0000000001
 40
0.0
 40
0.0
 40
0.0
 40
0.0
 40
1.0
 40
1.0
 40
1.0
 40
2.0
 40
2.0
 40
2.0
 40
3.0
 40
3.0
 40
3.0
 40
4.0
 40
4.0
 40
4.0
 40
5.0
 40
5.0
 40
5.0
 40
6.0
 40
6.0
 40
6.0
 40
7.0
 40
7.0
 40
7.0
 40
8.0
 40
8.0
 40
8.0
 40
9.0
 40
9.0
 40
9.0
 40
10.0
 40
10.0
 40
10.0
 40
11.0
 40
11.0
 40
11.0
 40
12.0
 40
12.0
 40
12.0
 40
13.0
 40
13.0
 40
13.0
 40
14.0
 40
14.0
 40
14.0
 40
15.0
 40
15.0
 40
15.0
 40
16.0
 40
16.0
 40
16.0
 40
16.0
 10
109.605368353675
 20
-141.6177123669393
 30
0.0
 10
109.521997042932
 20
-141.6177123669393
 30
0.0
 10
109.4131320255981
 20
-141.6008313990616
 30
0.0
 10
109.3049560273612
 20
-141.537441642133
 30
0.0
 10
109.1192653807063
 20
-141.4275430961535
 30
0.0
 10
109.0968722600522
 20
-141.2962849581655
 30
0.0
 10
109.0765461966892
 20
-141.1884534694772
 30
0.0
 10
109.0765461966892
 20
-141.1884534694772
 30
0.0
 10
109.3139132756229
 20
-141.1884534694772
 30
0.0
 10
109.3139132756229
 20
-141.1884534694772
 30
0.0
 10
109.3724798988721
 20
-141.3872354789761
 30
0.0
 10
109.508216660991
 20
-141.4168633001492
 30
0.0
 10
109.6077799205147
 20
-141.4168633001492
 30
0.0
 10
109.756952555026
 20
-141.4168633001492
 30
0.0
 10
109.9195610619298
 20
-141.3173000406255
 30
0.0
 10
109.9195610619298
 20
-141.0847560953712
 30
0.0
 10
109.9195610619298
 20
-140.8287855008171
 30
0.0
 10
109.7276692434014
 20
-140.7588500624665
 30
0.0
 10
109.598822672253
 20
-140.7588500624665
 30
0.0
 10
109.5647162269491
 20
-140.7588500624665
 30
0.0
 10
109.4131320255981
 20
-140.7588500624665
 30
0.0
 10
109.3183918997537
 20
-140.8880411431634
 30
0.0
 10
109.3183918997537
 20
-140.8880411431634
 30
0.0
 10
109.1306341958076
 20
-140.8690931179945
 30
0.0
 10
109.1306341958076
 20
-140.8690931179945
 30
0.0
 10
109.1306341958076
 20
-140.8690931179945
 30
0.0
 10
109.2594807669559
 20
-140.0228054120429
 30
0.0
 10
109.2594807669559
 20
-140.0228054120429
 30
0.0
 10
109.2594807669559
 20
-140.0228054120429
 30
0.0
 10
110.0914713266438
 20
-140.0228054120429
 30
0.0
 10
110.0914713266438
 20
-140.0228054120429
 30
0.0
 10
110.0914713266438
 20
-140.0228054120429
 30
0.0
 10
110.0914713266438
 20
-140.2174533069595
 30
0.0
 10
110.0914713266438
 20
-140.2174533069595
 30
0.0
 10
110.0914713266438
 20
-140.2174533069595
 30
0.0
 10
109.4338025985096
 20
-140.2174533069595
 30
0.0
 10
109.4338025985096
 20
-140.2174533069595
 30
0.0
 10
109.4338025985096
 20
-140.2174533069595
 30
0.0
 10
109.3635226506105
 20
-140.6405110325482
 30
0.0
 10
109.3635226506105
 20
-140.6405110325482
 30
0.0
 10
109.4289794648302
 20
-140.6065768420185
 30
0.0
 10
109.5171739092526
 20
-140.5664414796153
 30
0.0
 10
109.6439534231098
 20
-140.5664414796153
 30
0.0
 10
109.915082437799
 20
-140.5664414796153
 30
0.0
 10
110.1682969559649
 20
-140.7526488905931
 30
0.0
 10
110.1682969559649
 20
-141.0658080702023
 30
0.0
 10
110.1682969559649
 20
-141.3831013643938
 30
0.0
 10
109.92886281974
 20
-141.6177123669393
 30
0.0
 10
109.605368353675
 20
-141.6177123669393
 30
0.0
  0
HATCH
  5
A7
330
A2
100
AcDbEntity
  8
レイヤー 1
 62
    18
420
        0
440
 33554687
100
AcDbHatch
 10
0.0
 20
0.0
 30
0.0
210
0.0
220
0.0
230
1.0
  2
SOLID
 70
     1
 71
     1
 91
        1
 92
        1
 93
        1
 72
     4
 94
        3
 73
     0
 74
     0
 95
       53
 96
       49
 40
0.0
 40
0.0
 40
0.0
 40
0.0
 40
1.0
 40
1.0
 40
1.0
 40
2.0
 40
2.0
 40
2.0
 40
3.0
 40
3.0
 40
3.0
 40
4.0
 40
4.0
 40
4.0
 40
5.0
 40
5.0
 40
5.0
 40
6.0
 40
6.0
 40
6.0
 40
7.0
 40
7.0
 40
7.0
 40
8.0
 40
8.0
 40
8.0
 40
9.0
 40
9.0
 40
9.0
 40
10.0
 40
10.0
 40
10.0
 40
11.0
 40
11.0
 40
11.0
 40
12.0
 40
12.0
 40
12.0
 40
13.0
 40
13.0
 40
13.0
 40
14.0
 40
14.0
 40
14.0
 40
15.0
 40
15.0
 40
15.0
 40
16.0
 40
16.0
 40
16.0
 40
16.0
 10
109.605368353675
 20
-141.6177123669393
 10
109.521997042932
 20
-141.6177123669393
 10
109.4131320255981
 20
-141.6008313990616
 10
109.3049560273612
 20
-141.537441642133
 10
109.1192653807063
 20
-141.4275430961535
 10
109.0968722600522
 20
-141.2962849581655
 10
109.0765461966892
 20
-141.1884534694772
 10
109.0765461966892
 20
-141.1884534694772
 10
109.3139132756229
 20
-141.1884534694772
 10
109.3139132756229
 20
-141.1884534694772
 10
109.3724798988721
 20
-141.3872354789761
 10
109.508216660991
 20
-141.4168633001492
 10
109.6077799205147
 20
-141.4168633001492
 10
109.756952555026
 20
-141.4168633001492
 10
109.9195610619298
 20
-141.3173000406255
 10
109.9195610619298
 20
-141.0847560953712
 10
109.9195610619298
 20
-140.8287855008171
 10
109.7276692434014
 20
-140.7588500624665
 10
109.598822672253
 20
-140.7588500624665
 10
109.5647162269491
 20
-140.7588500624665
 10
109.4131320255981
 20
-140.7588500624665
 10
109.3183918997537
 20
-140.8880411431634
 10
109.3183918997537
 20
-140.8880411431634
 10
109.1306341958076
 20
-140.8690931179945
 10
109.1306341958076
 20
-140.8690931179945
 10
109.1306341958076
 20
-140.8690931179945
 10
109.2594807669559
 20
-140.0228054120429
 10
109.2594807669559
 20
-140.0228054120429
 10
109.2594807669559
 20
-140.0228054120429
 10
110.0914713266438
 20
-140.0228054120429
 10
110.0914713266438
 20
-140.0228054120429
 10
110.0914713266438
 20
-140.0228054120429
 10
110.0914713266438
 20
-140.2174533069595
 10
110.0914713266438
 20
-140.2174533069595
 10
110.0914713266438
 20
-140.2174533069595
 10
109.4338025985096
 20
-140.2174533069595
 10
109.4338025985096
 20
-140.2174533069595
 10
109.4338025985096
 20
-140.2174533069595
 10
109.3635226506105
 20
-140.6405110325482
 10
109.3635226506105
 20
-140.6405110325482
 10
109.4289794648302
 20
-140.6065768420185
 10
109.5171739092526
 20
-140.5664414796153
 10
109.6439534231098
 20
-140.5664414796153
 10
109.915082437799
 20
-140.5664414796153
 10
110.1682969559649
 20
-140.7526488905931
 10
110.1682969559649
 20
-141.0658080702023
 10
110.1682969559649
 20
-141.3831013643938
 10
109.92886281974
 20
-141.6177123669393
 10
109.605368353675
 20
-141.6177123669393
 97
        0
 97
        1
330
A6
 75
     2
 76
     1
 98
        1
 10
0.0
 20
0.0
450
        0
451
        0
460
0.0
461
0.0
452
        0
462
0.0
453
        0
470

  0
ENDBLK
  5
A5
330
A2
100
AcDbEntity
  8
0
100
AcDbBlockEnd
  0
BLOCK
  5
AB
330
A9
100
AcDbEntity
  8
0
100
AcDbBlockBegin
  2
Block_5
 70
     0
 10
0.0
 20
0.0
 30
0.0
  3
Block_5
  1

  0
INSERT
  5
AE
330
A9
100
AcDbEntity
  8
レイヤー 1
100
AcDbBlockReference
  2
Block_6
 10
0.0
 20
0.0
 30
0.0
  0
ENDBLK
  5
AC
330
A9
100
AcDbEntity
  8
0
100
AcDbBlockEnd
  0
BLOCK
  5
AF
330
AD
100
AcDbEntity
  8
0
100
AcDbBlockBegin
  2
Block_6
 70
     0
 10
0.0
 20
0.0
 30
0.0
  3
Block_6
  1

  0
SPLINE
  5
B1
330
AD
100
AcDbEntity
  8
レイヤー 1
100
AcDbSpline
210
0.0
220
0.0
230
1.0
 70
     9
 71
     3
 72
    17
 73
    13
 74
     0
 42
0.0000000001
 43
0.0000000001
 40
0.0
 40
0.0
 40
0.0
 40
0.0
 40
1.0
 40
1.0
 40
1.0
 40
2.0
 40
2.0
 40
2.0
 40
3.0
 40
3.0
 40
3.0
 40
4.0
 40
4.0
 40
4.0
 40
4.0
 10
101.4494493018946
 20
-140.1666381485521
 30
0.0
 10
101.3226697880374
 20
-140.1666381485521
 30
0.0
 10
101.1352565936398
 20
-140.223654478833
 30
0.0
 10
101.1352565936398
 20
-140.5092528945602
 30
0.0
 10
101.1352565936398
 20
-140.7355956679411
 30
0.0
 10
101.2844292281511
 20
-140.8308525581082
 30
0.0
 10
101.4291232385316
 20
-140.8308525581082
 30
0.0
 10
101.7092095014824
 20
-140.8308525581082
 30
0.0
 10
101.7502061377569
 20
-140.621390752605
 30
0.0
 10
101.7502061377569
 20
-140.5051187799779
 30
0.0
 10
101.7502061377569
 20
-140.3294189102301
 30
0.0
 10
101.6482313113935
 20
-140.1666381485521
 30
0.0
 10
101.4494493018946
 20
-140.1666381485521
 30
0.0
  0
SPLINE
  5
B2
330
AD
100
AcDbEntity
  8
レイヤー 1
100
AcDbSpline
210
0.0
220
0.0
230
1.0
 70
     9
 71
     3
 72
    32
 73
    28
 74
     0
 42
0.0000000001
 43
0.0000000001
 40
0.0
 40
0.0
 40
0.0
 40
0.0
 40
1.0
 40
1.0
 40
1.0
 40
2.0
 40
2.0
 40
2.0
 40
3.0
 40
3.0
 40
3.0
 40
4.0
 40
4.0
 40
4.0
 40
5.0
 40
5.0
 40
5.0
 40
6.0
 40
6.0
 40
6.0
 40
7.0
 40
7.0
 40
7.0
 40
8.0
 40
8.0
 40
8.0
 40
9.0
 40
9.0
 40
9.0
 40
9.0
 10
101.4063856083289
 20
-141.6177123669393
 30
0.0
 10
101.2210394712225
 20
-141.6177123669393
 30
0.0
 10
100.958867704795
 20
-141.5481214381373
 30
0.0
 10
100.918215578069
 20
-141.2160142333592
 30
0.0
 10
100.918215578069
 20
-141.2160142333592
 30
0.0
 10
101.1462808991926
 20
-141.2160142333592
 30
0.0
 10
101.1462808991926
 20
-141.2160142333592
 30
0.0
 10
101.1576497142939
 20
-141.2752698757055
 30
0.0
 10
101.1917561595979
 20
-141.4230644720227
 30
0.0
 10
101.4087971751686
 20
-141.4230644720227
 30
0.0
 10
101.7205783165837
 20
-141.4230644720227
 30
0.0
 10
101.7612304433097
 20
-141.0930243245358
 30
0.0
 10
101.7750108252507
 20
-140.8880411431634
 30
0.0
 10
101.6778591325666
 20
-140.9683118679697
 30
0.0
 10
101.6055121273764
 20
-141.0255004530249
 30
0.0
 10
101.4108642324598
 20
-141.0255004530249
 30
0.0
 10
101.2186279043828
 20
-141.0255004530249
 30
0.0
 10
100.8954779478664
 20
-140.9197360216277
 30
0.0
 10
100.8954779478664
 20
-140.5135592639167
 30
0.0
 10
100.8954779478664
 20
-140.1940266576598
 30
0.0
 10
101.1080403393063
 20
-139.9740573109266
 30
0.0
 10
101.4470377350549
 20
-139.9740573109266
 30
0.0
 10
101.9965304649522
 20
-139.9740573109266
 30
0.0
 10
102.0078992800536
 20
-140.5283731745033
 30
0.0
 10
102.0078992800536
 20
-140.7419690945888
 30
0.0
 10
102.0078992800536
 20
-140.972445982552
 30
0.0
 10
101.9875732166906
 20
-141.6177123669393
 30
0.0
 10
101.4063856083289
 20
-141.6177123669393
 30
0.0
  0
HATCH
  5
B3
330
AD
100
AcDbEntity
  8
レイヤー 1
 62
    18
420
        0
440
 33554687
100
AcDbHatch
 10
0.0
 20
0.0
 30
0.0
210
0.0
220
0.0
230
1.0
  2
SOLID
 70
     1
 71
     1
 91
        2
 92
        1
 93
        1
 72
     4
 94
        3
 73
     0
 74
     0
 95
       17
 96
       13
 40
0.0
 40
0.0
 40
0.0
 40
0.0
 40
1.0
 40
1.0
 40
1.0
 40
2.0
 40
2.0
 40
2.0
 40
3.0
 40
3.0
 40
3.0
 40
4.0
 40
4.0
 40
4.0
 40
4.0
 10
101.4494493018946
 20
-140.1666381485521
 10
101.3226697880374
 20
-140.1666381485521
 10
101.1352565936398
 20
-140.223654478833
 10
101.1352565936398
 20
-140.5092528945602
 10
101.1352565936398
 20
-140.7355956679411
 10
101.2844292281511
 20
-140.8308525581082
 10
101.4291232385316
 20
-140.8308525581082
 10
101.7092095014824
 20
-140.8308525581082
 10
101.7502061377569
 20
-140.621390752605
 10
101.7502061377569
 20
-140.5051187799779
 10
101.7502061377569
 20
-140.3294189102301
 10
101.6482313113935
 20
-140.1666381485521
 10
101.4494493018946
 20
-140.1666381485521
 97
        0
 97
        1
330
B1
 92
        1
 93
        1
 72
     4
 94
        3
 73
     0
 74
     0
 95
       32
 96
       28
 40
0.0
 40
0.0
 40
0.0
 40
0.0
 40
1.0
 40
1.0
 40
1.0
 40
2.0
 40
2.0
 40
2.0
 40
3.0
 40
3.0
 40
3.0
 40
4.0
 40
4.0
 40
4.0
 40
5.0
 40
5.0
 40
5.0
 40
6.0
 40
6.0
 40
6.0
 40
7.0
 40
7.0
 40
7.0
 40
8.0
 40
8.0
 40
8.0
 40
9.0
 40
9.0
 40
9.0
 40
9.0
 10
101.4063856083289
 20
-141.6177123669393
 10
101.2210394712225
 20
-141.6177123669393
 10
100.958867704795
 20
-141.5481214381373
 10
100.918215578069
 20
-141.2160142333592
 10
100.918215578069
 20
-141.2160142333592
 10
101.1462808991926
 20
-141.2160142333592
 10
101.1462808991926
 20
-141.2160142333592
 10
101.1576497142939
 20
-141.2752698757055
 10
101.1917561595979
 20
-141.4230644720227
 10
101.4087971751686
 20
-141.4230644720227
 10
101.7205783165837
 20
-141.4230644720227
 10
101.7612304433097
 20
-141.0930243245358
 10
101.7750108252507
 20
-140.8880411431634
 10
101.6778591325666
 20
-140.9683118679697
 10
101.6055121273764
 20
-141.0255004530249
 10
101.4108642324598
 20
-141.0255004530249
 10
101.2186279043828
 20
-141.0255004530249
 10
100.8954779478664
 20
-140.9197360216277
 10
100.8954779478664
 20
-140.5135592639167
 10
100.8954779478664
 20
-140.1940266576598
 10
101.1080403393063
 20
-139.9740573109266
 10
101.4470377350549
 20
-139.9740573109266
 10
101.9965304649522
 20
-139.9740573109266
 10
102.0078992800536
 20
-140.5283731745033
 10
102.0078992800536
 20
-140.7419690945888
 10
102.0078992800536
 20
-140.972445982552
 10
101.9875732166906
 20
-141.6177123669393
 10
101.4063856083289
 20
-141.6177123669393
 97
        0
 97
        1
330
B2
 75
     2
 76
     1
 98
        1
 10
0.0
 20
0.0
450
        0
451
        0
460
0.0
461
0.0
452
        0
462
0.0
453
        0
470

  0
SPLINE
  5
B4
330
AD
100
AcDbEntity
  8
レイヤー 1
100
AcDbSpline
210
0.0
220
0.0
230
1.0
 70
    11
 71
     3
 72
    17
 73
    13
 74
     0
 42
0.0000000001
 43
0.0000000001
 40
0.0
 40
0.0
 40
0.0
 40
0.0
 40
1.0
 40
1.0
 40
1.0
 40
2.0
 40
2.0
 40
2.0
 40
3.0
 40
3.0
 40
3.0
 40
4.0
 40
4.0
 40
4.0
 40
4.0
 10
102.2390651871138
 20
-141.5670694633061
 30
0.0
 10
102.2390651871138
 20
-141.5670694633061
 30
0.0
 10
102.2390651871138
 20
-141.3152329833344
 30
0.0
 10
102.2390651871138
 20
-141.3152329833344
 30
0.0
 10
102.2390651871138
 20
-141.3152329833344
 30
0.0
 10
102.5081271445118
 20
-141.3152329833344
 30
0.0
 10
102.5081271445118
 20
-141.3152329833344
 30
0.0
 10
102.5081271445118
 20
-141.3152329833344
 30
0.0
 10
102.5081271445118
 20
-141.5670694633061
 30
0.0
 10
102.5081271445118
 20
-141.5670694633061
 30
0.0
 10
102.5081271445118
 20
-141.5670694633061
 30
0.0
 10
102.2390651871138
 20
-141.5670694633061
 30
0.0
 10
102.2390651871138
 20
-141.5670694633061
 30
0.0
  0
HATCH
  5
B5
330
AD
100
AcDbEntity
  8
レイヤー 1
 62
    18
420
        0
440
 33554687
100
AcDbHatch
 10
0.0
 20
0.0
 30
0.0
210
0.0
220
0.0
230
1.0
  2
SOLID
 70
     1
 71
     1
 91
        1
 92
        1
 93
        1
 72
     4
 94
        3
 73
     0
 74
     0
 95
       17
 96
       13
 40
0.0
 40
0.0
 40
0.0
 40
0.0
 40
1.0
 40
1.0
 40
1.0
 40
2.0
 40
2.0
 40
2.0
 40
3.0
 40
3.0
 40
3.0
 40
4.0
 40
4.0
 40
4.0
 40
4.0
 10
102.2390651871138
 20
-141.5670694633061
 10
102.2390651871138
 20
-141.5670694633061
 10
102.2390651871138
 20
-141.3152329833344
 10
102.2390651871138
 20
-141.3152329833344
 10
102.2390651871138
 20
-141.3152329833344
 10
102.5081271445118
 20
-141.3152329833344
 10
102.5081271445118
 20
-141.3152329833344
 10
102.5081271445118
 20
-141.3152329833344
 10
102.5081271445118
 20
-141.5670694633061
 10
102.5081271445118
 20
-141.5670694633061
 10
102.5081271445118
 20
-141.5670694633061
 10
102.2390651871138
 20
-141.5670694633061
 10
102.2390651871138
 20
-141.5670694633061
 97
        0
 97
        1
330
B4
 75
     2
 76
     1
 98
        1
 10
0.0
 20
0.0
450
        0
451
        0
460
0.0
461
0.0
452
        0
462
0.0
453
        0
470

  0
SPLINE
  5
B6
330
AD
100
AcDbEntity
  8
レイヤー 1
100
AcDbSpline
210
0.0
220
0.0
230
1.0
 70
     9
 71
     3
 72
    17
 73
    13
 74
     0
 42
0.0000000001
 43
0.0000000001
 40
0.0
 40
0.0
 40
0.0
 40
0.0
 40
1.0
 40
1.0
 40
1.0
 40
2.0
 40
2.0
 40
2.0
 40
3.0
 40
3.0
 40
3.0
 40
4.0
 40
4.0
 40
4.0
 40
4.0
 10
103.2953314628914
 20
-140.1666381485521
 30
0.0
 10
103.1189425740466
 20
-140.1666381485521
 30
0.0
 10
103.0286810723331
 20
-140.261722783945
 30
0.0
 10
103.0286810723331
 20
-140.3971150365153
 30
0.0
 10
103.0286810723331
 20
-140.5199326905645
 30
0.0
 10
103.1055067016541
 20
-140.6384439752571
 30
0.0
 10
103.2953314628914
 20
-140.6384439752571
 30
0.0
 10
103.4855007336772
 20
-140.6384439752571
 30
0.0
 10
103.5623263629983
 20
-140.5199326905645
 30
0.0
 10
103.5623263629983
 20
-140.3971150365153
 30
0.0
 10
103.5623263629983
 20
-140.261722783945
 30
0.0
 10
103.4696532944451
 20
-140.1666381485521
 30
0.0
 10
103.2953314628914
 20
-140.1666381485521
 30
0.0
  0
SPLINE
  5
B7
330
AD
100
AcDbEntity
  8
レイヤー 1
100
AcDbSpline
210
0.0
220
0.0
230
1.0
 70
     9
 71
     3
 72
    17
 73
    13
 74
     0
 42
0.0000000001
 43
0.0000000001
 40
0.0
 40
0.0
 40
0.0
 40
0.0
 40
1.0
 40
1.0
 40
1.0
 40
2.0
 40
2.0
 40
2.0
 40
3.0
 40
3.0
 40
3.0
 40
4.0
 40
4.0
 40
4.0
 40
4.0
 10
103.2953314628914
 20
-140.826718443526
 30
0.0
 10
103.1416802042493
 20
-140.826718443526
 30
0.0
 10
102.9790716973455
 20
-140.9135348497542
 30
0.0
 10
102.9790716973455
 20
-141.1164509738354
 30
0.0
 10
102.9790716973455
 20
-141.3217786647564
 30
0.0
 10
103.1144639499158
 20
-141.4230644720227
 30
0.0
 10
103.2953314628914
 20
-141.4230644720227
 30
0.0
 10
103.4944579819389
 20
-141.4230644720227
 30
0.0
 10
103.6119357379859
 20
-141.3004190727478
 30
0.0
 10
103.6119357379859
 20
-141.1226521457089
 30
0.0
 10
103.6119357379859
 20
-140.9007879964588
 30
0.0
 10
103.4379584159808
 20
-140.826718443526
 30
0.0
 10
103.2953314628914
 20
-140.826718443526
 30
0.0
  0
SPLINE
  5
B8
330
AD
100
AcDbEntity
  8
レイヤー 1
100
AcDbSpline
210
0.0
220
0.0
230
1.0
 70
     9
 71
     3
 72
    29
 73
    25
 74
     0
 42
0.0000000001
 43
0.0000000001
 40
0.0
 40
0.0
 40
0.0
 40
0.0
 40
1.0
 40
1.0
 40
1.0
 40
2.0
 40
2.0
 40
2.0
 40
3.0
 40
3.0
 40
3.0
 40
4.0
 40
4.0
 40
4.0
 40
5.0
 40
5.0
 40
5.0
 40
6.0
 40
6.0
 40
6.0
 40
7.0
 40
7.0
 40
7.0
 40
8.0
 40
8.0
 40
8.0
 40
8.0
 10
103.2953314628914
 20
-141.6177123669393
 30
0.0
 10
103.0107665758098
 20
-141.6177123669393
 30
0.0
 10
102.7392930515721
 20
-141.4802530570778
 30
0.0
 10
102.7392930515721
 20
-141.131264884422
 30
0.0
 10
102.7392930515721
 20
-140.8752942898679
 30
0.0
 10
102.8908772529231
 20
-140.7802096544751
 30
0.0
 10
103.0038763848393
 20
-140.7187147000634
 30
0.0
 10
102.8705511895601
 20
-140.6594590577171
 30
0.0
 10
102.7889024265597
 20
-140.545254142381
 30
0.0
 10
102.7889024265597
 20
-140.3845404379941
 30
0.0
 10
102.7889024265597
 20
-140.1094495634969
 30
0.0
 10
103.0014648179996
 20
-139.9740573109266
 30
0.0
 10
103.2953314628914
 20
-139.9740573109266
 30
0.0
 10
103.5984998655934
 20
-139.9740573109266
 30
0.0
 10
103.8017604992232
 20
-140.1178900474358
 30
0.0
 10
103.8017604992232
 20
-140.3845404379941
 30
0.0
 10
103.8017604992232
 20
-140.545254142381
 30
0.0
 10
103.7183891884801
 20
-140.6594590577171
 30
0.0
 10
103.5847194836524
 20
-140.7187147000634
 30
0.0
 10
103.6798041190453
 20
-140.7695298584708
 30
0.0
 10
103.8493028169196
 20
-140.8646144938637
 30
0.0
 10
103.8493028169196
 20
-141.1271307698397
 30
0.0
 10
103.8493028169196
 20
-141.5016126490864
 30
0.0
 10
103.550957547897
 20
-141.6177123669393
 30
0.0
 10
103.2953314628914
 20
-141.6177123669393
 30
0.0
  0
HATCH
  5
B9
330
AD
100
AcDbEntity
  8
レイヤー 1
 62
    18
420
        0
440
 33554687
100
AcDbHatch
 10
0.0
 20
0.0
 30
0.0
210
0.0
220
0.0
230
1.0
  2
SOLID
 70
     1
 71
     1
 91
        3
 92
        1
 93
        1
 72
     4
 94
        3
 73
     0
 74
     0
 95
       17
 96
       13
 40
0.0
 40
0.0
 40
0.0
 40
0.0
 40
1.0
 40
1.0
 40
1.0
 40
2.0
 40
2.0
 40
2.0
 40
3.0
 40
3.0
 40
3.0
 40
4.0
 40
4.0
 40
4.0
 40
4.0
 10
103.2953314628914
 20
-140.1666381485521
 10
103.1189425740466
 20
-140.1666381485521
 10
103.0286810723331
 20
-140.261722783945
 10
103.0286810723331
 20
-140.3971150365153
 10
103.0286810723331
 20
-140.5199326905645
 10
103.1055067016541
 20
-140.6384439752571
 10
103.2953314628914
 20
-140.6384439752571
 10
103.4855007336772
 20
-140.6384439752571
 10
103.5623263629983
 20
-140.5199326905645
 10
103.5623263629983
 20
-140.3971150365153
 10
103.5623263629983
 20
-140.261722783945
 10
103.4696532944451
 20
-140.1666381485521
 10
103.2953314628914
 20
-140.1666381485521
 97
        0
 97
        1
330
B6
 92
        1
 93
        1
 72
     4
 94
        3
 73
     0
 74
     0
 95
       17
 96
       13
 40
0.0
 40
0.0
 40
0.0
 40
0.0
 40
1.0
 40
1.0
 40
1.0
 40
2.0
 40
2.0
 40
2.0
 40
3.0
 40
3.0
 40
3.0
 40
4.0
 40
4.0
 40
4.0
 40
4.0
 10
103.2953314628914
 20
-140.826718443526
 10
103.1416802042493
 20
-140.826718443526
 10
102.9790716973455
 20
-140.9135348497542
 10
102.9790716973455
 20
-141.1164509738354
 10
102.9790716973455
 20
-141.3217786647564
 10
103.1144639499158
 20
-141.4230644720227
 10
103.2953314628914
 20
-141.4230644720227
 10
103.4944579819389
 20
-141.4230644720227
 10
103.6119357379859
 20
-141.3004190727478
 10
103.6119357379859
 20
-141.1226521457089
 10
103.6119357379859
 20
-140.9007879964588
 10
103.4379584159808
 20
-140.826718443526
 10
103.2953314628914
 20
-140.826718443526
 97
        0
 97
        1
330
B7
 92
        1
 93
        1
 72
     4
 94
        3
 73
     0
 74
     0
 95
       29
 96
       25
 40
0.0
 40
0.0
 40
0.0
 40
0.0
 40
1.0
 40
1.0
 40
1.0
 40
2.0
 40
2.0
 40
2.0
 40
3.0
 40
3.0
 40
3.0
 40
4.0
 40
4.0
 40
4.0
 40
5.0
 40
5.0
 40
5.0
 40
6.0
 40
6.0
 40
6.0
 40
7.0
 40
7.0
 40
7.0
 40
8.0
 40
8.0
 40
8.0
 40
8.0
 10
103.2953314628914
 20
-141.6177123669393
 10
103.0107665758098
 20
-141.6177123669393
 10
102.7392930515721
 20
-141.4802530570778
 10
102.7392930515721
 20
-141.131264884422
 10
102.7392930515721
 20
-140.8752942898679
 10
102.8908772529231
 20
-140.7802096544751
 10
103.0038763848393
 20
-140.7187147000634
 10
102.8705511895601
 20
-140.6594590577171
 10
102.7889024265597
 20
-140.545254142381
 10
102.7889024265597
 20
-140.3845404379941
 10
102.7889024265597
 20
-140.1094495634969
 10
103.0014648179996
 20
-139.9740573109266
 10
103.2953314628914
 20
-139.9740573109266
 10
103.5984998655934
 20
-139.9740573109266
 10
103.8017604992232
 20
-140.1178900474358
 10
103.8017604992232
 20
-140.3845404379941
 10
103.8017604992232
 20
-140.545254142381
 10
103.7183891884801
 20
-140.6594590577171
 10
103.5847194836524
 20
-140.7187147000634
 10
103.6798041190453
 20
-140.7695298584708
 10
103.8493028169196
 20
-140.8646144938637
 10
103.8493028169196
 20
-141.1271307698397
 10
103.8493028169196
 20
-141.5016126490864
 10
103.550957547897
 20
-141.6177123669393
 10
103.2953314628914
 20
-141.6177123669393
 97
        0
 97
        1
330
B8
 75
     2
 76
     1
 98
        1
 10
0.0
 20
0.0
450
        0
451
        0
460
0.0
461
0.0
452
        0
462
0.0
453
        0
470

  0
ENDBLK
  5
B0
330
AD
100
AcDbEntity
  8
0
100
AcDbBlockEnd
  0
BLOCK
  5
C0
330
BE
100
AcDbEntity
  8
0
100
AcDbBlockBegin
  2
Block_7
 70
     0
 10
0.0
 20
0.0
 30
0.0
  3
Block_7
  1

  0
SPLINE
  5
C2
330
BE
100
AcDbEntity
  8
レイヤー 1
100
AcDbSpline
210
0.0
220
0.0
230
1.0
 70
    11
 71
     3
 72
    26
 73
    22
 74
     0
 42
0.0000000001
 43
0.0000000001
 40
0.0
 40
0.0
 40
0.0
 40
0.0
 40
1.0
 40
1.0
 40
1.0
 40
2.0
 40
2.0
 40
2.0
 40
3.0
 40
3.0
 40
3.0
 40
4.0
 40
4.0
 40
4.0
 40
5.0
 40
5.0
 40
5.0
 40
6.0
 40
6.0
 40
6.0
 40
7.0
 40
7.0
 40
7.0
 40
7.0
 10
100.3165296515702
 20
-163.5669324677888
 30
0.0
 10
100.3165296515702
 20
-163.5669324677888
 30
0.0
 10
100.3165296515702
 20
-162.4627793647662
 30
0.0
 10
100.3165296515702
 20
-162.4627793647662
 30
0.0
 10
100.3165296515702
 20
-162.4627793647662
 30
0.0
 10
99.96375187388061
 20
-162.4627793647662
 30
0.0
 10
99.96375187388061
 20
-162.4627793647662
 30
0.0
 10
99.96375187388061
 20
-162.4627793647662
 30
0.0
 10
99.96375187388061
 20
-162.3146402589005
 30
0.0
 10
99.96375187388061
 20
-162.3146402589005
 30
0.0
 10
100.3187689636356
 20
-162.2998263483139
 30
0.0
 10
100.3685505933974
 20
-162.1368733318616
 30
0.0
 10
100.4000732170875
 20
-162.0224961617513
 30
0.0
 10
100.4000732170875
 20
-162.0224961617513
 30
0.0
 10
100.5561360425693
 20
-162.0224961617513
 30
0.0
 10
100.5561360425693
 20
-162.0224961617513
 30
0.0
 10
100.5561360425693
 20
-162.0224961617513
 30
0.0
 10
100.5561360425693
 20
-163.5669324677888
 30
0.0
 10
100.5561360425693
 20
-163.5669324677888
 30
0.0
 10
100.5561360425693
 20
-163.5669324677888
 30
0.0
 10
100.3165296515702
 20
-163.5669324677888
 30
0.0
 10
100.3165296515702
 20
-163.5669324677888
 30
0.0
  0
HATCH
  5
C3
330
BE
100
AcDbEntity
  8
レイヤー 1
 62
    18
420
        0
440
 33554687
100
AcDbHatch
 10
0.0
 20
0.0
 30
0.0
210
0.0
220
0.0
230
1.0
  2
SOLID
 70
     1
 71
     1
 91
        1
 92
        1
 93
        1
 72
     4
 94
        3
 73
     0
 74
     0
 95
       26
 96
       22
 40
0.0
 40
0.0
 40
0.0
 40
0.0
 40
1.0
 40
1.0
 40
1.0
 40
2.0
 40
2.0
 40
2.0
 40
3.0
 40
3.0
 40
3.0
 40
4.0
 40
4.0
 40
4.0
 40
5.0
 40
5.0
 40
5.0
 40
6.0
 40
6.0
 40
6.0
 40
7.0
 40
7.0
 40
7.0
 40
7.0
 10
100.3165296515702
 20
-163.5669324677888
 10
100.3165296515702
 20
-163.5669324677888
 10
100.3165296515702
 20
-162.4627793647662
 10
100.3165296515702
 20
-162.4627793647662
 10
100.3165296515702
 20
-162.4627793647662
 10
99.96375187388061
 20
-162.4627793647662
 10
99.96375187388061
 20
-162.4627793647662
 10
99.96375187388061
 20
-162.4627793647662
 10
99.96375187388061
 20
-162.3146402589005
 10
99.96375187388061
 20
-162.3146402589005
 10
100.3187689636356
 20
-162.2998263483139
 10
100.3685505933974
 20
-162.1368733318616
 10
100.4000732170875
 20
-162.0224961617513
 10
100.4000732170875
 20
-162.0224961617513
 10
100.5561360425693
 20
-162.0224961617513
 10
100.5561360425693
 20
-162.0224961617513
 10
100.5561360425693
 20
-162.0224961617513
 10
100.5561360425693
 20
-163.5669324677888
 10
100.5561360425693
 20
-163.5669324677888
 10
100.5561360425693
 20
-163.5669324677888
 10
100.3165296515702
 20
-163.5669324677888
 10
100.3165296515702
 20
-163.5669324677888
 97
        0
 97
        1
330
C2
 75
     2
 76
     1
 98
        1
 10
0.0
 20
0.0
450
        0
451
        0
460
0.0
461
0.0
452
        0
462
0.0
453
        0
470

  0
ENDBLK
  5
C1
330
BE
100
AcDbEntity
  8
0
100
AcDbBlockEnd
  0
BLOCK
  5
C8
330
C6
100
AcDbEntity
  8
0
100
AcDbBlockBegin
  2
Block_8
 70
     0
 10
0.0
 20
0.0
 30
0.0
  3
Block_8
  1

  0
LINE
  5
CA
330
C6
100
AcDbEntity
  8
レイヤー 1
 62
   250
420
  2299925
370
     9
100
AcDbLine
 10
106.6490085513337
 20
-135.0213661650277
 30
0.0
 11
109.4848379767764
 21
-132.7876851448236
 31
0.0
  0
LWPOLYLINE
  5
CB
330
C6
100
AcDbEntity
  8
レイヤー 1
 62
   250
420
  2299925
370
     9
100
AcDbPolyline
 90
        3
 70
     0
 43
0.0
 10
107.2413414449471
 20
-134.215439352028
 10
106.6490085513337
 20
-135.0213661650277
 10
107.5648147399015
 20
-134.6192734678695
  0
ENDBLK
  5
C9
330
C6
100
AcDbEntity
  8
0
100
AcDbBlockEnd
  0
BLOCK
  5
CE
330
CC
100
AcDbEntity
  8
0
100
AcDbBlockBegin
  2
Block_9
 70
     0
 10
0.0
 20
0.0
 30
0.0
  3
Block_9
  1

  0
INSERT
  5
D1
330
CC
100
AcDbEntity
  8
レイヤー 1
100
AcDbBlockReference
  2
Block_10
 10
0.0
 20
0.0
 30
0.0
  0
ENDBLK
  5
CF
330
CC
100
AcDbEntity
  8
0
100
AcDbBlockEnd
  0
BLOCK
  5
D2
330
D0
100
AcDbEntity
  8
0
100
AcDbBlockBegin
  2
Block_10
 70
     0
 10
0.0
 20
0.0
 30
0.0
  3
Block_10
  1

  0
SPLINE
  5
D4
330
D0
100
AcDbEntity
  8
レイヤー 1
100
AcDbSpline
210
0.0
220
0.0
230
1.0
 70
     9
 71
     3
 72
    17
 73
    13
 74
     0
 42
0.0000000001
 43
0.0000000001
 40
0.0
 40
0.0
 40
0.0
 40
0.0
 40
1.0
 40
1.0
 40
1.0
 40
2.0
 40
2.0
 40
2.0
 40
3.0
 40
3.0
 40
3.0
 40
4.0
 40
4.0
 40
4.0
 40
4.0
 10
111.0574761007078
 20
-133.047176073509
 30
0.0
 10
111.0405951328301
 20
-133.0766316399079
 30
0.0
 10
110.9899522291969
 20
-133.1698214727839
 30
0.0
 10
110.9792724331927
 20
-133.1887694979528
 30
0.0
 10
111.169786213527
 20
-133.2480251402991
 30
0.0
 10
111.190801295987
 20
-133.2543985669468
 30
0.0
 10
111.2628037916287
 20
-133.2819593308288
 30
0.0
 10
111.3179253193927
 20
-133.1951429246005
 30
0.0
 10
111.3410074591439
 20
-133.1210733716676
 30
0.0
 10
111.3558213697305
 20
-133.047176073509
 30
0.0
 10
111.3558213697305
 20
-133.047176073509
 30
0.0
 10
111.0574761007078
 20
-133.047176073509
 30
0.0
 10
111.0574761007078
 20
-133.047176073509
 30
0.0
  0
SPLINE
  5
D5
330
D0
100
AcDbEntity
  8
レイヤー 1
100
AcDbSpline
210
0.0
220
0.0
230
1.0
 70
    11
 71
     3
 72
    20
 73
    16
 74
     0
 42
0.0000000001
 43
0.0000000001
 40
0.0
 40
0.0
 40
0.0
 40
0.0
 40
1.0
 40
1.0
 40
1.0
 40
2.0
 40
2.0
 40
2.0
 40
3.0
 40
3.0
 40
3.0
 40
4.0
 40
4.0
 40
4.0
 40
5.0
 40
5.0
 40
5.0
 40
5.0
 10
110.9940863437792
 20
-132.1967542529751
 30
0.0
 10
110.9940863437792
 20
-132.1967542529751
 30
0.0
 10
110.9623914653149
 20
-132.1967542529751
 30
0.0
 10
110.9623914653149
 20
-132.1967542529751
 30
0.0
 10
111.0089002543658
 20
-132.2961452577246
 30
0.0
 10
111.0405951328301
 20
-132.3764159825309
 30
0.0
 10
111.0743570685856
 20
-132.5033677511623
 30
0.0
 10
111.0743570685856
 20
-132.5033677511623
 30
0.0
 10
111.2817518167976
 20
-132.5033677511623
 30
0.0
 10
111.2817518167976
 20
-132.5033677511623
 30
0.0
 10
111.3134466952619
 20
-132.4103501730606
 30
0.0
 10
111.3368733445616
 20
-132.3257730788977
 30
0.0
 10
111.3599554843128
 20
-132.1967542529751
 30
0.0
 10
111.3599554843128
 20
-132.1967542529751
 30
0.0
 10
110.9940863437792
 20
-132.1967542529751
 30
0.0
 10
110.9940863437792
 20
-132.1967542529751
 30
0.0
  0
SPLINE
  5
D6
330
D0
100
AcDbEntity
  8
レイヤー 1
100
AcDbSpline
210
0.0
220
0.0
230
1.0
 70
     9
 71
     3
 72
   242
 73
   238
 74
     0
 42
0.0000000001
 43
0.0000000001
 40
0.0
 40
0.0
 40
0.0
 40
0.0
 40
1.0
 40
1.0
 40
1.0
 40
2.0
 40
2.0
 40
2.0
 40
3.0
 40
3.0
 40
3.0
 40
4.0
 40
4.0
 40
4.0
 40
5.0
 40
5.0
 40
5.0
 40
6.0
 40
6.0
 40
6.0
 40
7.0
 40
7.0
 40
7.0
 40
8.0
 40
8.0
 40
8.0
 40
9.0
 40
9.0
 40
9.0
 40
10.0
 40
10.0
 40
10.0
 40
11.0
 40
11.0
 40
11.0
 40
12.0
 40
12.0
 40
12.0
 40
13.0
 40
13.0
 40
13.0
 40
14.0
 40
14.0
 40
14.0
 40
15.0
 40
15.0
 40
15.0
 40
16.0
 40
16.0
 40
16.0
 40
17.0
 40
17.0
 40
17.0
 40
18.0
 40
18.0
 40
18.0
 40
19.0
 40
19.0
 40
19.0
 40
20.0
 40
20.0
 40
20.0
 40
21.0
 40
21.0
 40
21.0
 40
22.0
 40
22.0
 40
22.0
 40
23.0
 40
23.0
 40
23.0
 40
24.0
 40
24.0
 40
24.0
 40
25.0
 40
25.0
 40
25.0
 40
26.0
 40
26.0
 40
26.0
 40
27.0
 40
27.0
 40
27.0
 40
28.0
 40
28.0
 40
28.0
 40
29.0
 40
29.0
 40
29.0
 40
30.0
 40
30.0
 40
30.0
 40
31.0
 40
31.0
 40
31.0
 40
32.0
 40
32.0
 40
32.0
 40
33.0
 40
33.0
 40
33.0
 40
34.0
 40
34.0
 40
34.0
 40
35.0
 40
35.0
 40
35.0
 40
36.0
 40
36.0
 40
36.0
 40
37.0
 40
37.0
 40
37.0
 40
38.0
 40
38.0
 40
38.0
 40
39.0
 40
39.0
 40
39.0
 40
40.0
 40
40.0
 40
40.0
 40
41.0
 40
41.0
 40
41.0
 40
42.0
 40
42.0
 40
42.0
 40
43.0
 40
43.0
 40
43.0
 40
44.0
 40
44.0
 40
44.0
 40
45.0
 40
45.0
 40
45.0
 40
46.0
 40
46.0
 40
46.0
 40
47.0
 40
47.0
 40
47.0
 40
48.0
 40
48.0
 40
48.0
 40
49.0
 40
49.0
 40
49.0
 40
50.0
 40
50.0
 40
50.0
 40
51.0
 40
51.0
 40
51.0
 40
52.0
 40
52.0
 40
52.0
 40
53.0
 40
53.0
 40
53.0
 40
54.0
 40
54.0
 40
54.0
 40
55.0
 40
55.0
 40
55.0
 40
56.0
 40
56.0
 40
56.0
 40
57.0
 40
57.0
 40
57.0
 40
58.0
 40
58.0
 40
58.0
 40
59.0
 40
59.0
 40
59.0
 40
60.0
 40
60.0
 40
60.0
 40
61.0
 40
61.0
 40
61.0
 40
62.0
 40
62.0
 40
62.0
 40
63.0
 40
63.0
 40
63.0
 40
64.0
 40
64.0
 40
64.0
 40
65.0
 40
65.0
 40
65.0
 40
66.0
 40
66.0
 40
66.0
 40
67.0
 40
67.0
 40
67.0
 40
68.0
 40
68.0
 40
68.0
 40
69.0
 40
69.0
 40
69.0
 40
70.0
 40
70.0
 40
70.0
 40
71.0
 40
71.0
 40
71.0
 40
72.0
 40
72.0
 40
72.0
 40
73.0
 40
73.0
 40
73.0
 40
74.0
 40
74.0
 40
74.0
 40
75.0
 40
75.0
 40
75.0
 40
76.0
 40
76.0
 40
76.0
 40
77.0
 40
77.0
 40
77.0
 40
78.0
 40
78.0
 40
78.0
 40
79.0
 40
79.0
 40
79.0
 40
79.0
 10
111.6224717602888
 20
-132.6620143982581
 30
0.0
 10
111.6224717602888
 20
-132.6620143982581
 30
0.0
 10
111.3685682230259
 20
-132.6620143982581
 30
0.0
 10
111.3685682230259
 20
-132.6620143982581
 30
0.0
 10
111.3685682230259
 20
-132.6620143982581
 30
0.0
 10
111.0915825460118
 20
-132.6620143982581
 30
0.0
 10
111.0915825460118
 20
-132.6620143982581
 30
0.0
 10
111.0915825460118
 20
-132.6620143982581
 30
0.0
 10
111.218362059869
 20
-132.7043890727267
 30
0.0
 10
111.218362059869
 20
-132.7043890727267
 30
0.0
 10
111.2290418558733
 20
-132.7086954420832
 30
0.0
 10
111.2417887091687
 20
-132.7148966139567
 30
0.0
 10
111.2417887091687
 20
-132.7276434672521
 30
0.0
 10
111.2417887091687
 20
-132.7488308044864
 30
0.0
 10
111.2097493211559
 20
-132.7552042311341
 30
0.0
 10
111.1887342386959
 20
-132.7593383457164
 30
0.0
 10
111.1780544426916
 20
-132.7825927402418
 30
0.0
 10
111.1484266215184
 20
-132.8482218092359
 30
0.0
 10
111.1294785963496
 20
-132.8926635409956
 30
0.0
 10
111.1294785963496
 20
-132.8926635409956
 30
0.0
 10
111.4002631014902
 20
-132.8926635409956
 30
0.0
 10
111.4002631014902
 20
-132.8926635409956
 30
0.0
 10
111.4912136223008
 20
-132.8926635409956
 30
0.0
 10
111.6879285745085
 20
-132.888357171639
 30
0.0
 10
111.8298665085008
 20
-132.8799166877001
 30
0.0
 10
111.8298665085008
 20
-132.8799166877001
 30
0.0
 10
111.8298665085008
 20
-133.057683614739
 30
0.0
 10
111.8298665085008
 20
-133.057683614739
 30
0.0
 10
111.7471842168549
 20
-133.0533772453825
 30
0.0
 10
111.7261691343948
 20
-133.0533772453825
 30
0.0
 10
111.5463351500648
 20
-133.0492431308002
 30
0.0
 10
111.5146402716005
 20
-133.2035834085394
 30
0.0
 10
111.4701985398408
 20
-133.28402638812
 30
0.0
 10
111.425756808081
 20
-133.3537895716963
 30
0.0
 10
111.5463351500648
 20
-133.4130452140426
 30
0.0
 10
111.652099581462
 20
-133.4807413403277
 30
0.0
 10
111.755796955568
 20
-133.5632513771994
 30
0.0
 10
111.755796955568
 20
-133.5632513771994
 30
0.0
 10
111.6372856708754
 20
-133.7303385082341
 30
0.0
 10
111.6372856708754
 20
-133.7303385082341
 30
0.0
 10
111.6138590215757
 20
-133.7113904830652
 30
0.0
 10
111.6011121682803
 20
-133.7029499991263
 30
0.0
 10
111.4891465650096
 20
-133.6182006501892
 30
0.0
 10
111.4405707186676
 20
-133.5801323450772
 30
0.0
 10
111.3813150763213
 20
-133.5443033520306
 30
0.0
 10
111.3006998419665
 20
-133.4998616202708
 30
0.0
 10
111.0891709791721
 20
-133.6860690312486
 30
0.0
 10
110.8841877977998
 20
-133.7093234257741
 30
0.0
 10
110.5941107579417
 20
-133.7389512469472
 30
0.0
 10
110.5941107579417
 20
-133.7389512469472
 30
0.0
 10
110.4907578933842
 20
-133.5591172626171
 30
0.0
 10
110.4907578933842
 20
-133.5591172626171
 30
0.0
 10
110.8080511875757
 20
-133.5548108932606
 30
0.0
 10
110.983406547775
 20
-133.529489441444
 30
0.0
 10
111.135679768223
 20
-133.4194186406903
 30
0.0
 10
111.0175129930789
 20
-133.3686034822828
 30
0.0
 10
110.9286295295595
 20
-133.3412149731751
 30
0.0
 10
110.8924560269644
 20
-133.3284681198797
 30
0.0
 10
110.8735080017955
 20
-133.3560288837617
 30
0.0
 10
110.8586940912089
 20
-133.3749769089305
 30
0.0
 10
110.8311333273269
 20
-133.4089110994603
 30
0.0
 10
110.8311333273269
 20
-133.4089110994603
 30
0.0
 10
110.6344183751192
 20
-133.3264010625885
 30
0.0
 10
110.6344183751192
 20
-133.3264010625885
 30
0.0
 10
110.7171006667652
 20
-133.2459580830079
 30
0.0
 10
110.7784233664026
 20
-133.1507011928408
 30
0.0
 10
110.8352674419092
 20
-133.0492431308002
 30
0.0
 10
110.6450981711234
 20
-133.0533772453825
 30
0.0
 10
110.6237385791149
 20
-133.0533772453825
 30
0.0
 10
110.5414007970174
 20
-133.057683614739
 30
0.0
 10
110.5414007970174
 20
-133.057683614739
 30
0.0
 10
110.5414007970174
 20
-132.8799166877001
 30
0.0
 10
110.5414007970174
 20
-132.8799166877001
 30
0.0
 10
110.68092716417
 20
-132.8862901143478
 30
0.0
 10
110.8903889696732
 20
-132.8905964837044
 30
0.0
 10
110.9158826762641
 20
-132.8905964837044
 30
0.0
 10
110.9327636441418
 20
-132.8566622931747
 30
0.0
 10
110.9878851719058
 20
-132.736083951191
 30
0.0
 10
111.0068331970747
 20
-132.6620143982581
 30
0.0
 10
110.9878851719058
 20
-132.6620143982581
 30
0.0
 10
110.8101182448669
 20
-132.6683878249058
 30
0.0
 10
110.6154703499503
 20
-132.6811346782012
 30
0.0
 10
110.6154703499503
 20
-132.6811346782012
 30
0.0
 10
110.6154703499503
 20
-132.8144598734804
 30
0.0
 10
110.6154703499503
 20
-132.8144598734804
 30
0.0
 10
110.5668945036083
 20
-132.839781325297
 30
0.0
 10
110.507638861262
 20
-132.8714762037613
 30
0.0
 10
110.3743136659828
 20
-132.9371052727553
 30
0.0
 10
110.3743136659828
 20
-132.9371052727553
 30
0.0
 10
110.3743136659828
 20
-133.0830050665556
 30
0.0
 10
110.3743136659828
 20
-133.0830050665556
 30
0.0
 10
110.3743136659828
 20
-133.0830050665556
 30
0.0
 10
110.3743136659828
 20
-133.5506767786783
 30
0.0
 10
110.3743136659828
 20
-133.5506767786783
 30
0.0
 10
110.3743136659828
 20
-133.6774562925355
 30
0.0
 10
110.3381401633877
 20
-133.7367119348818
 30
0.0
 10
110.0549533145001
 20
-133.7282714509429
 30
0.0
 10
110.0549533145001
 20
-133.7282714509429
 30
0.0
 10
109.9512559403941
 20
-133.5210489575052
 30
0.0
 10
109.9512559403941
 20
-133.5210489575052
 30
0.0
 10
110.0146456973227
 20
-133.5336235560263
 30
0.0
 10
110.0632215436647
 20
-133.5379299253829
 30
0.0
 10
110.1035291608422
 20
-133.5379299253829
 30
0.0
 10
110.1796657710662
 20
-133.5379299253829
 30
0.0
 10
110.1903455670705
 20
-133.5146755308574
 30
0.0
 10
110.1903455670705
 20
-133.4490464618634
 30
0.0
 10
110.1903455670705
 20
-133.4490464618634
 30
0.0
 10
110.1903455670705
 20
-133.019615309627
 30
0.0
 10
110.1903455670705
 20
-133.019615309627
 30
0.0
 10
110.0928493648379
 20
-133.0597506720302
 30
0.0
 10
110.0759683969602
 20
-133.0661240986779
 30
0.0
 10
110.0294596079093
 20
-133.0852443786211
 30
0.0
 10
110.025325493327
 20
-133.1062594610811
 30
0.0
 10
110.0208468691961
 20
-133.1358872822542
 30
0.0
 10
110.0018988440273
 20
-133.1358872822542
 30
0.0
 10
109.9936306148627
 20
-133.1358872822542
 30
0.0
 10
109.9829508188584
 20
-133.1317531676719
 30
0.0
 10
109.9764051374364
 20
-133.1084987731465
 30
0.0
 10
109.9764051374364
 20
-133.1084987731465
 30
0.0
 10
109.9236951765121
 20
-132.915917935521
 30
0.0
 10
109.9236951765121
 20
-132.915917935521
 30
0.0
 10
110.0697672250867
 20
-132.8694091464701
 30
0.0
 10
110.1352240393065
 20
-132.8461547519447
 30
0.0
 10
110.1903455670705
 20
-132.8249674147104
 30
0.0
 10
110.1903455670705
 20
-132.8249674147104
 30
0.0
 10
110.1903455670705
 20
-132.4124172303517
 30
0.0
 10
110.1903455670705
 20
-132.4124172303517
 30
0.0
 10
110.1903455670705
 20
-132.4124172303517
 30
0.0
 10
110.1372910965976
 20
-132.4124172303517
 30
0.0
 10
110.1372910965976
 20
-132.4124172303517
 30
0.0
 10
110.1372910965976
 20
-132.4124172303517
 30
0.0
 10
110.0590874290824
 20
-132.4124172303517
 30
0.0
 10
110.0590874290824
 20
-132.4124172303517
 30
0.0
 10
109.991219048023
 20
-132.4124172303517
 30
0.0
 10
109.9829508188584
 20
-132.4124172303517
 30
0.0
 10
109.9467773162633
 20
-132.4187906569995
 30
0.0
 10
109.9467773162633
 20
-132.4187906569995
 30
0.0
 10
109.9467773162633
 20
-132.2241427620828
 30
0.0
 10
109.9467773162633
 20
-132.2241427620828
 30
0.0
 10
109.9743380801453
 20
-132.2305161887306
 30
0.0
 10
109.9829508188584
 20
-132.2305161887306
 30
0.0
 10
110.0525417476605
 20
-132.2305161887306
 30
0.0
 10
110.0525417476605
 20
-132.2305161887306
 30
0.0
 10
110.1858669429396
 20
-132.2305161887306
 30
0.0
 10
110.1858669429396
 20
-132.2305161887306
 30
0.0
 10
110.1858669429396
 20
-132.1607530051542
 30
0.0
 10
110.1858669429396
 20
-132.0782429682825
 30
0.0
 10
110.1837998856485
 20
-132.0739365989259
 30
0.0
 10
110.1755316564839
 20
-131.8941026145959
 30
0.0
 10
110.1755316564839
 20
-131.875154589427
 30
0.0
 10
110.1731200896442
 20
-131.8286458003761
 30
0.0
 10
110.1731200896442
 20
-131.8286458003761
 30
0.0
 10
110.3891275765694
 20
-131.837086284315
 30
0.0
 10
110.3891275765694
 20
-131.837086284315
 30
0.0
 10
110.3998073725736
 20
-131.837086284315
 30
0.0
 10
110.4208224550337
 20
-131.8391533416062
 30
0.0
 10
110.4208224550337
 20
-131.8560343094839
 30
0.0
 10
110.4208224550337
 20
-131.875154589427
 30
0.0
 10
110.4060085444471
 20
-131.885662130657
 30
0.0
 10
110.3805148378562
 20
-131.9047824106002
 30
0.0
 10
110.3805148378562
 20
-131.9554253142333
 30
0.0
 10
110.3743136659828
 20
-132.1840073996797
 30
0.0
 10
110.376380723274
 20
-132.2305161887306
 30
0.0
 10
110.5055718039708
 20
-132.2305161887306
 30
0.0
 10
110.5179741477177
 20
-132.2305161887306
 30
0.0
 10
110.6154703499503
 20
-132.2220757047917
 30
0.0
 10
110.6154703499503
 20
-132.2220757047917
 30
0.0
 10
110.6154703499503
 20
-132.4167235997083
 30
0.0
 10
110.6154703499503
 20
-132.4167235997083
 30
0.0
 10
110.577229790064
 20
-132.4144842876429
 30
0.0
 10
110.5097059185531
 20
-132.4103501730606
 30
0.0
 10
110.3743136659828
 20
-132.4124172303517
 30
0.0
 10
110.3743136659828
 20
-132.4124172303517
 30
0.0
 10
110.3743136659828
 20
-132.7508978617775
 30
0.0
 10
110.3743136659828
 20
-132.7508978617775
 30
0.0
 10
110.4294351937468
 20
-132.7276434672521
 30
0.0
 10
110.4948920079665
 20
-132.7000827033701
 30
0.0
 10
110.5434678543086
 20
-132.6768283088447
 30
0.0
 10
110.5434678543086
 20
-132.6768283088447
 30
0.0
 10
110.5434678543086
 20
-132.49923363658
 30
0.0
 10
110.5434678543086
 20
-132.49923363658
 30
0.0
 10
110.6578450244189
 20
-132.5118082351012
 30
0.0
 10
110.7763563091115
 20
-132.5118082351012
 30
0.0
 10
110.8924560269644
 20
-132.5118082351012
 30
0.0
 10
110.8693738872132
 20
-132.4167235997083
 30
0.0
 10
110.8418131233312
 20
-132.3342135628366
 30
0.0
 10
110.7784233664026
 20
-132.2008883675574
 30
0.0
 10
110.7339816346429
 20
-132.2029554248485
 30
0.0
 10
110.6512993429969
 20
-132.2072617942051
 30
0.0
 10
110.6134032926591
 20
-132.2093288514962
 30
0.0
 10
110.6134032926591
 20
-132.2093288514962
 30
0.0
 10
110.6134032926591
 20
-132.0294948671662
 30
0.0
 10
110.6134032926591
 20
-132.0294948671662
 30
0.0
 10
110.7381157492252
 20
-132.0379353511051
 30
0.0
 10
110.9117485616818
 20
-132.0422417204617
 30
0.0
 10
110.9940863437792
 20
-132.0422417204617
 30
0.0
 10
110.9940863437792
 20
-132.0422417204617
 30
0.0
 10
111.0767686354252
 20
-132.0422417204617
 30
0.0
 10
111.0767686354252
 20
-132.0422417204617
 30
0.0
 10
111.0767686354252
 20
-131.8792887040093
 30
0.0
 10
111.0767686354252
 20
-131.8687811627793
 30
0.0
 10
111.0743570685856
 20
-131.8138318897896
 30
0.0
 10
111.0743570685856
 20
-131.8138318897896
 30
0.0
 10
111.2986327846753
 20
-131.8391533416062
 30
0.0
 10
111.2986327846753
 20
-131.8391533416062
 30
0.0
 10
111.3031114088061
 20
-131.8391533416062
 30
0.0
 10
111.3241264912662
 20
-131.8412203988973
 30
0.0
 10
111.3241264912662
 20
-131.858101366775
 30
0.0
 10
111.3241264912662
 20
-131.8729152773616
 30
0.0
 10
111.3134466952619
 20
-131.8815280160747
 30
0.0
 10
111.2858859313799
 20
-131.8963419266613
 30
0.0
 10
111.2796847595064
 20
-131.961798740881
 30
0.0
 10
111.2776177022153
 20
-131.9829860781154
 30
0.0
 10
111.2776177022153
 20
-132.0422417204617
 30
0.0
 10
111.2776177022153
 20
-132.0422417204617
 30
0.0
 10
111.3727023376082
 20
-132.0422417204617
 30
0.0
 10
111.3727023376082
 20
-132.0422417204617
 30
0.0
 10
111.4553846292542
 20
-132.0422417204617
 30
0.0
 10
111.6286729321622
 20
-132.0379353511051
 30
0.0
 10
111.7537298982768
 20
-132.0294948671662
 30
0.0
 10
111.7537298982768
 20
-132.0294948671662
 30
0.0
 10
111.7537298982768
 20
-132.2093288514962
 30
0.0
 10
111.7537298982768
 20
-132.2093288514962
 30
0.0
 10
111.7241020771037
 20
-132.2072617942051
 30
0.0
 10
111.6055907924111
 20
-132.2029554248485
 30
0.0
 10
111.5652831752337
 20
-132.2008883675574
 30
0.0
 10
111.5504692646471
 20
-132.2517035259648
 30
0.0
 10
111.5167073288916
 20
-132.3638413840097
 30
0.0
 10
111.4509060051234
 20
-132.5033677511623
 30
0.0
 10
111.4932806795919
 20
-132.5033677511623
 30
0.0
 10
111.7706108661545
 20
-132.4844197259935
 30
0.0
 10
111.831933565792
 20
-132.482180413928
 30
0.0
 10
111.831933565792
 20
-132.482180413928
 30
0.0
 10
111.831933565792
 20
-132.6663207676147
 30
0.0
 10
111.831933565792
 20
-132.6663207676147
 30
0.0
 10
111.8023057446189
 20
-132.6663207676147
 30
0.0
 10
111.7854247767411
 20
-132.6620143982581
 30
0.0
 10
111.6224717602888
 20
-132.6620143982581
 30
0.0
  0
HATCH
  5
D7
330
D0
100
AcDbEntity
  8
レイヤー 1
 62
   250
420
  2299925
440
 33554687
100
AcDbHatch
 10
0.0
 20
0.0
 30
0.0
210
0.0
220
0.0
230
1.0
  2
SOLID
 70
     1
 71
     1
 91
        3
 92
        1
 93
        1
 72
     4
 94
        3
 73
     0
 74
     0
 95
       17
 96
       13
 40
0.0
 40
0.0
 40
0.0
 40
0.0
 40
1.0
 40
1.0
 40
1.0
 40
2.0
 40
2.0
 40
2.0
 40
3.0
 40
3.0
 40
3.0
 40
4.0
 40
4.0
 40
4.0
 40
4.0
 10
111.0574761007078
 20
-133.047176073509
 10
111.0405951328301
 20
-133.0766316399079
 10
110.9899522291969
 20
-133.1698214727839
 10
110.9792724331927
 20
-133.1887694979528
 10
111.169786213527
 20
-133.2480251402991
 10
111.190801295987
 20
-133.2543985669468
 10
111.2628037916287
 20
-133.2819593308288
 10
111.3179253193927
 20
-133.1951429246005
 10
111.3410074591439
 20
-133.1210733716676
 10
111.3558213697305
 20
-133.047176073509
 10
111.3558213697305
 20
-133.047176073509
 10
111.0574761007078
 20
-133.047176073509
 10
111.0574761007078
 20
-133.047176073509
 97
        0
 97
        1
330
D4
 92
        1
 93
        1
 72
     4
 94
        3
 73
     0
 74
     0
 95
       20
 96
       16
 40
0.0
 40
0.0
 40
0.0
 40
0.0
 40
1.0
 40
1.0
 40
1.0
 40
2.0
 40
2.0
 40
2.0
 40
3.0
 40
3.0
 40
3.0
 40
4.0
 40
4.0
 40
4.0
 40
5.0
 40
5.0
 40
5.0
 40
5.0
 10
110.9940863437792
 20
-132.1967542529751
 10
110.9940863437792
 20
-132.1967542529751
 10
110.9623914653149
 20
-132.1967542529751
 10
110.9623914653149
 20
-132.1967542529751
 10
111.0089002543658
 20
-132.2961452577246
 10
111.0405951328301
 20
-132.3764159825309
 10
111.0743570685856
 20
-132.5033677511623
 10
111.0743570685856
 20
-132.5033677511623
 10
111.2817518167976
 20
-132.5033677511623
 10
111.2817518167976
 20
-132.5033677511623
 10
111.3134466952619
 20
-132.4103501730606
 10
111.3368733445616
 20
-132.3257730788977
 10
111.3599554843128
 20
-132.1967542529751
 10
111.3599554843128
 20
-132.1967542529751
 10
110.9940863437792
 20
-132.1967542529751
 10
110.9940863437792
 20
-132.1967542529751
 97
        0
 97
        1
330
D5
 92
        1
 93
        1
 72
     4
 94
        3
 73
     0
 74
     0
 95
      242
 96
      238
 40
0.0
 40
0.0
 40
0.0
 40
0.0
 40
1.0
 40
1.0
 40
1.0
 40
2.0
 40
2.0
 40
2.0
 40
3.0
 40
3.0
 40
3.0
 40
4.0
 40
4.0
 40
4.0
 40
5.0
 40
5.0
 40
5.0
 40
6.0
 40
6.0
 40
6.0
 40
7.0
 40
7.0
 40
7.0
 40
8.0
 40
8.0
 40
8.0
 40
9.0
 40
9.0
 40
9.0
 40
10.0
 40
10.0
 40
10.0
 40
11.0
 40
11.0
 40
11.0
 40
12.0
 40
12.0
 40
12.0
 40
13.0
 40
13.0
 40
13.0
 40
14.0
 40
14.0
 40
14.0
 40
15.0
 40
15.0
 40
15.0
 40
16.0
 40
16.0
 40
16.0
 40
17.0
 40
17.0
 40
17.0
 40
18.0
 40
18.0
 40
18.0
 40
19.0
 40
19.0
 40
19.0
 40
20.0
 40
20.0
 40
20.0
 40
21.0
 40
21.0
 40
21.0
 40
22.0
 40
22.0
 40
22.0
 40
23.0
 40
23.0
 40
23.0
 40
24.0
 40
24.0
 40
24.0
 40
25.0
 40
25.0
 40
25.0
 40
26.0
 40
26.0
 40
26.0
 40
27.0
 40
27.0
 40
27.0
 40
28.0
 40
28.0
 40
28.0
 40
29.0
 40
29.0
 40
29.0
 40
30.0
 40
30.0
 40
30.0
 40
31.0
 40
31.0
 40
31.0
 40
32.0
 40
32.0
 40
32.0
 40
33.0
 40
33.0
 40
33.0
 40
34.0
 40
34.0
 40
34.0
 40
35.0
 40
35.0
 40
35.0
 40
36.0
 40
36.0
 40
36.0
 40
37.0
 40
37.0
 40
37.0
 40
38.0
 40
38.0
 40
38.0
 40
39.0
 40
39.0
 40
39.0
 40
40.0
 40
40.0
 40
40.0
 40
41.0
 40
41.0
 40
41.0
 40
42.0
 40
42.0
 40
42.0
 40
43.0
 40
43.0
 40
43.0
 40
44.0
 40
44.0
 40
44.0
 40
45.0
 40
45.0
 40
45.0
 40
46.0
 40
46.0
 40
46.0
 40
47.0
 40
47.0
 40
47.0
 40
48.0
 40
48.0
 40
48.0
 40
49.0
 40
49.0
 40
49.0
 40
50.0
 40
50.0
 40
50.0
 40
51.0
 40
51.0
 40
51.0
 40
52.0
 40
52.0
 40
52.0
 40
53.0
 40
53.0
 40
53.0
 40
54.0
 40
54.0
 40
54.0
 40
55.0
 40
55.0
 40
55.0
 40
56.0
 40
56.0
 40
56.0
 40
57.0
 40
57.0
 40
57.0
 40
58.0
 40
58.0
 40
58.0
 40
59.0
 40
59.0
 40
59.0
 40
60.0
 40
60.0
 40
60.0
 40
61.0
 40
61.0
 40
61.0
 40
62.0
 40
62.0
 40
62.0
 40
63.0
 40
63.0
 40
63.0
 40
64.0
 40
64.0
 40
64.0
 40
65.0
 40
65.0
 40
65.0
 40
66.0
 40
66.0
 40
66.0
 40
67.0
 40
67.0
 40
67.0
 40
68.0
 40
68.0
 40
68.0
 40
69.0
 40
69.0
 40
69.0
 40
70.0
 40
70.0
 40
70.0
 40
71.0
 40
71.0
 40
71.0
 40
72.0
 40
72.0
 40
72.0
 40
73.0
 40
73.0
 40
73.0
 40
74.0
 40
74.0
 40
74.0
 40
75.0
 40
75.0
 40
75.0
 40
76.0
 40
76.0
 40
76.0
 40
77.0
 40
77.0
 40
77.0
 40
78.0
 40
78.0
 40
78.0
 40
79.0
 40
79.0
 40
79.0
 40
79.0
 10
111.6224717602888
 20
-132.6620143982581
 10
111.6224717602888
 20
-132.6620143982581
 10
111.3685682230259
 20
-132.6620143982581
 10
111.3685682230259
 20
-132.6620143982581
 10
111.3685682230259
 20
-132.6620143982581
 10
111.0915825460118
 20
-132.6620143982581
 10
111.0915825460118
 20
-132.6620143982581
 10
111.0915825460118
 20
-132.6620143982581
 10
111.218362059869
 20
-132.7043890727267
 10
111.218362059869
 20
-132.7043890727267
 10
111.2290418558733
 20
-132.7086954420832
 10
111.2417887091687
 20
-132.7148966139567
 10
111.2417887091687
 20
-132.7276434672521
 10
111.2417887091687
 20
-132.7488308044864
 10
111.2097493211559
 20
-132.7552042311341
 10
111.1887342386959
 20
-132.7593383457164
 10
111.1780544426916
 20
-132.7825927402418
 10
111.1484266215184
 20
-132.8482218092359
 10
111.1294785963496
 20
-132.8926635409956
 10
111.1294785963496
 20
-132.8926635409956
 10
111.4002631014902
 20
-132.8926635409956
 10
111.4002631014902
 20
-132.8926635409956
 10
111.4912136223008
 20
-132.8926635409956
 10
111.6879285745085
 20
-132.888357171639
 10
111.8298665085008
 20
-132.8799166877001
 10
111.8298665085008
 20
-132.8799166877001
 10
111.8298665085008
 20
-133.057683614739
 10
111.8298665085008
 20
-133.057683614739
 10
111.7471842168549
 20
-133.0533772453825
 10
111.7261691343948
 20
-133.0533772453825
 10
111.5463351500648
 20
-133.0492431308002
 10
111.5146402716005
 20
-133.2035834085394
 10
111.4701985398408
 20
-133.28402638812
 10
111.425756808081
 20
-133.3537895716963
 10
111.5463351500648
 20
-133.4130452140426
 10
111.652099581462
 20
-133.4807413403277
 10
111.755796955568
 20
-133.5632513771994
 10
111.755796955568
 20
-133.5632513771994
 10
111.6372856708754
 20
-133.7303385082341
 10
111.6372856708754
 20
-133.7303385082341
 10
111.6138590215757
 20
-133.7113904830652
 10
111.6011121682803
 20
-133.7029499991263
 10
111.4891465650096
 20
-133.6182006501892
 10
111.4405707186676
 20
-133.5801323450772
 10
111.3813150763213
 20
-133.5443033520306
 10
111.3006998419665
 20
-133.4998616202708
 10
111.0891709791721
 20
-133.6860690312486
 10
110.8841877977998
 20
-133.7093234257741
 10
110.5941107579417
 20
-133.7389512469472
 10
110.5941107579417
 20
-133.7389512469472
 10
110.4907578933842
 20
-133.5591172626171
 10
110.4907578933842
 20
-133.5591172626171
 10
110.8080511875757
 20
-133.5548108932606
 10
110.983406547775
 20
-133.529489441444
 10
111.135679768223
 20
-133.4194186406903
 10
111.0175129930789
 20
-133.3686034822828
 10
110.9286295295595
 20
-133.3412149731751
 10
110.8924560269644
 20
-133.3284681198797
 10
110.8735080017955
 20
-133.3560288837617
 10
110.8586940912089
 20
-133.3749769089305
 10
110.8311333273269
 20
-133.4089110994603
 10
110.8311333273269
 20
-133.4089110994603
 10
110.6344183751192
 20
-133.3264010625885
 10
110.6344183751192
 20
-133.3264010625885
 10
110.7171006667652
 20
-133.2459580830079
 10
110.7784233664026
 20
-133.1507011928408
 10
110.8352674419092
 20
-133.0492431308002
 10
110.6450981711234
 20
-133.0533772453825
 10
110.6237385791149
 20
-133.0533772453825
 10
110.5414007970174
 20
-133.057683614739
 10
110.5414007970174
 20
-133.057683614739
 10
110.5414007970174
 20
-132.8799166877001
 10
110.5414007970174
 20
-132.8799166877001
 10
110.68092716417
 20
-132.8862901143478
 10
110.8903889696732
 20
-132.8905964837044
 10
110.9158826762641
 20
-132.8905964837044
 10
110.9327636441418
 20
-132.8566622931747
 10
110.9878851719058
 20
-132.736083951191
 10
111.0068331970747
 20
-132.6620143982581
 10
110.9878851719058
 20
-132.6620143982581
 10
110.8101182448669
 20
-132.6683878249058
 10
110.6154703499503
 20
-132.6811346782012
 10
110.6154703499503
 20
-132.6811346782012
 10
110.6154703499503
 20
-132.8144598734804
 10
110.6154703499503
 20
-132.8144598734804
 10
110.5668945036083
 20
-132.839781325297
 10
110.507638861262
 20
-132.8714762037613
 10
110.3743136659828
 20
-132.9371052727553
 10
110.3743136659828
 20
-132.9371052727553
 10
110.3743136659828
 20
-133.0830050665556
 10
110.3743136659828
 20
-133.0830050665556
 10
110.3743136659828
 20
-133.0830050665556
 10
110.3743136659828
 20
-133.5506767786783
 10
110.3743136659828
 20
-133.5506767786783
 10
110.3743136659828
 20
-133.6774562925355
 10
110.3381401633877
 20
-133.7367119348818
 10
110.0549533145001
 20
-133.7282714509429
 10
110.0549533145001
 20
-133.7282714509429
 10
109.9512559403941
 20
-133.5210489575052
 10
109.9512559403941
 20
-133.5210489575052
 10
110.0146456973227
 20
-133.5336235560263
 10
110.0632215436647
 20
-133.5379299253829
 10
110.1035291608422
 20
-133.5379299253829
 10
110.1796657710662
 20
-133.5379299253829
 10
110.1903455670705
 20
-133.5146755308574
 10
110.1903455670705
 20
-133.4490464618634
 10
110.1903455670705
 20
-133.4490464618634
 10
110.1903455670705
 20
-133.019615309627
 10
110.1903455670705
 20
-133.019615309627
 10
110.0928493648379
 20
-133.0597506720302
 10
110.0759683969602
 20
-133.0661240986779
 10
110.0294596079093
 20
-133.0852443786211
 10
110.025325493327
 20
-133.1062594610811
 10
110.0208468691961
 20
-133.1358872822542
 10
110.0018988440273
 20
-133.1358872822542
 10
109.9936306148627
 20
-133.1358872822542
 10
109.9829508188584
 20
-133.1317531676719
 10
109.9764051374364
 20
-133.1084987731465
 10
109.9764051374364
 20
-133.1084987731465
 10
109.9236951765121
 20
-132.915917935521
 10
109.9236951765121
 20
-132.915917935521
 10
110.0697672250867
 20
-132.8694091464701
 10
110.1352240393065
 20
-132.8461547519447
 10
110.1903455670705
 20
-132.8249674147104
 10
110.1903455670705
 20
-132.8249674147104
 10
110.1903455670705
 20
-132.4124172303517
 10
110.1903455670705
 20
-132.4124172303517
 10
110.1903455670705
 20
-132.4124172303517
 10
110.1372910965976
 20
-132.4124172303517
 10
110.1372910965976
 20
-132.4124172303517
 10
110.1372910965976
 20
-132.4124172303517
 10
110.0590874290824
 20
-132.4124172303517
 10
110.0590874290824
 20
-132.4124172303517
 10
109.991219048023
 20
-132.4124172303517
 10
109.9829508188584
 20
-132.4124172303517
 10
109.9467773162633
 20
-132.4187906569995
 10
109.9467773162633
 20
-132.4187906569995
 10
109.9467773162633
 20
-132.2241427620828
 10
109.9467773162633
 20
-132.2241427620828
 10
109.9743380801453
 20
-132.2305161887306
 10
109.9829508188584
 20
-132.2305161887306
 10
110.0525417476605
 20
-132.2305161887306
 10
110.0525417476605
 20
-132.2305161887306
 10
110.1858669429396
 20
-132.2305161887306
 10
110.1858669429396
 20
-132.2305161887306
 10
110.1858669429396
 20
-132.1607530051542
 10
110.1858669429396
 20
-132.0782429682825
 10
110.1837998856485
 20
-132.0739365989259
 10
110.1755316564839
 20
-131.8941026145959
 10
110.1755316564839
 20
-131.875154589427
 10
110.1731200896442
 20
-131.8286458003761
 10
110.1731200896442
 20
-131.8286458003761
 10
110.3891275765694
 20
-131.837086284315
 10
110.3891275765694
 20
-131.837086284315
 10
110.3998073725736
 20
-131.837086284315
 10
110.4208224550337
 20
-131.8391533416062
 10
110.4208224550337
 20
-131.8560343094839
 10
110.4208224550337
 20
-131.875154589427
 10
110.4060085444471
 20
-131.885662130657
 10
110.3805148378562
 20
-131.9047824106002
 10
110.3805148378562
 20
-131.9554253142333
 10
110.3743136659828
 20
-132.1840073996797
 10
110.376380723274
 20
-132.2305161887306
 10
110.5055718039708
 20
-132.2305161887306
 10
110.5179741477177
 20
-132.2305161887306
 10
110.6154703499503
 20
-132.2220757047917
 10
110.6154703499503
 20
-132.2220757047917
 10
110.6154703499503
 20
-132.4167235997083
 10
110.6154703499503
 20
-132.4167235997083
 10
110.577229790064
 20
-132.4144842876429
 10
110.5097059185531
 20
-132.4103501730606
 10
110.3743136659828
 20
-132.4124172303517
 10
110.3743136659828
 20
-132.4124172303517
 10
110.3743136659828
 20
-132.7508978617775
 10
110.3743136659828
 20
-132.7508978617775
 10
110.4294351937468
 20
-132.7276434672521
 10
110.4948920079665
 20
-132.7000827033701
 10
110.5434678543086
 20
-132.6768283088447
 10
110.5434678543086
 20
-132.6768283088447
 10
110.5434678543086
 20
-132.49923363658
 10
110.5434678543086
 20
-132.49923363658
 10
110.6578450244189
 20
-132.5118082351012
 10
110.7763563091115
 20
-132.5118082351012
 10
110.8924560269644
 20
-132.5118082351012
 10
110.8693738872132
 20
-132.4167235997083
 10
110.8418131233312
 20
-132.3342135628366
 10
110.7784233664026
 20
-132.2008883675574
 10
110.7339816346429
 20
-132.2029554248485
 10
110.6512993429969
 20
-132.2072617942051
 10
110.6134032926591
 20
-132.2093288514962
 10
110.6134032926591
 20
-132.2093288514962
 10
110.6134032926591
 20
-132.0294948671662
 10
110.6134032926591
 20
-132.0294948671662
 10
110.7381157492252
 20
-132.0379353511051
 10
110.9117485616818
 20
-132.0422417204617
 10
110.9940863437792
 20
-132.0422417204617
 10
110.9940863437792
 20
-132.0422417204617
 10
111.0767686354252
 20
-132.0422417204617
 10
111.0767686354252
 20
-132.0422417204617
 10
111.0767686354252
 20
-131.8792887040093
 10
111.0767686354252
 20
-131.8687811627793
 10
111.0743570685856
 20
-131.8138318897896
 10
111.0743570685856
 20
-131.8138318897896
 10
111.2986327846753
 20
-131.8391533416062
 10
111.2986327846753
 20
-131.8391533416062
 10
111.3031114088061
 20
-131.8391533416062
 10
111.3241264912662
 20
-131.8412203988973
 10
111.3241264912662
 20
-131.858101366775
 10
111.3241264912662
 20
-131.8729152773616
 10
111.3134466952619
 20
-131.8815280160747
 10
111.2858859313799
 20
-131.8963419266613
 10
111.2796847595064
 20
-131.961798740881
 10
111.2776177022153
 20
-131.9829860781154
 10
111.2776177022153
 20
-132.0422417204617
 10
111.2776177022153
 20
-132.0422417204617
 10
111.3727023376082
 20
-132.0422417204617
 10
111.3727023376082
 20
-132.0422417204617
 10
111.4553846292542
 20
-132.0422417204617
 10
111.6286729321622
 20
-132.0379353511051
 10
111.7537298982768
 20
-132.0294948671662
 10
111.7537298982768
 20
-132.0294948671662
 10
111.7537298982768
 20
-132.2093288514962
 10
111.7537298982768
 20
-132.2093288514962
 10
111.7241020771037
 20
-132.2072617942051
 10
111.6055907924111
 20
-132.2029554248485
 10
111.5652831752337
 20
-132.2008883675574
 10
111.5504692646471
 20
-132.2517035259648
 10
111.5167073288916
 20
-132.3638413840097
 10
111.4509060051234
 20
-132.5033677511623
 10
111.4932806795919
 20
-132.5033677511623
 10
111.7706108661545
 20
-132.4844197259935
 10
111.831933565792
 20
-132.482180413928
 10
111.831933565792
 20
-132.482180413928
 10
111.831933565792
 20
-132.6663207676147
 10
111.831933565792
 20
-132.6663207676147
 10
111.8023057446189
 20
-132.6663207676147
 10
111.7854247767411
 20
-132.6620143982581
 10
111.6224717602888
 20
-132.6620143982581
 97
        0
 97
        1
330
D6
 75
     2
 76
     1
 98
        1
 10
0.0
 20
0.0
450
        0
451
        0
460
0.0
461
0.0
452
        0
462
0.0
453
        0
470

  0
SPLINE
  5
D8
330
D0
100
AcDbEntity
  8
レイヤー 1
100
AcDbSpline
210
0.0
220
0.0
230
1.0
 70
    11
 71
     3
 72
    17
 73
    13
 74
     0
 42
0.0000000001
 43
0.0000000001
 40
0.0
 40
0.0
 40
0.0
 40
0.0
 40
1.0
 40
1.0
 40
1.0
 40
2.0
 40
2.0
 40
2.0
 40
3.0
 40
3.0
 40
3.0
 40
4.0
 40
4.0
 40
4.0
 40
4.0
 10
113.47903371729
 20
-133.4617933151589
 30
0.0
 10
113.47903371729
 20
-133.4617933151589
 30
0.0
 10
112.7724446332652
 20
-133.4617933151589
 30
0.0
 10
112.7724446332652
 20
-133.4617933151589
 30
0.0
 10
112.7724446332652
 20
-133.4617933151589
 30
0.0
 10
112.7724446332652
 20
-133.5759982304949
 30
0.0
 10
112.7724446332652
 20
-133.5759982304949
 30
0.0
 10
112.7724446332652
 20
-133.5759982304949
 30
0.0
 10
113.47903371729
 20
-133.5759982304949
 30
0.0
 10
113.47903371729
 20
-133.5759982304949
 30
0.0
 10
113.47903371729
 20
-133.5759982304949
 30
0.0
 10
113.47903371729
 20
-133.4617933151589
 30
0.0
 10
113.47903371729
 20
-133.4617933151589
 30
0.0
  0
SPLINE
  5
D9
330
D0
100
AcDbEntity
  8
レイヤー 1
100
AcDbSpline
210
0.0
220
0.0
230
1.0
 70
    11
 71
     3
 72
    17
 73
    13
 74
     0
 42
0.0000000001
 43
0.0000000001
 40
0.0
 40
0.0
 40
0.0
 40
0.0
 40
1.0
 40
1.0
 40
1.0
 40
2.0
 40
2.0
 40
2.0
 40
3.0
 40
3.0
 40
3.0
 40
4.0
 40
4.0
 40
4.0
 40
4.0
 10
113.47903371729
 20
-133.2183973191259
 30
0.0
 10
113.47903371729
 20
-133.2183973191259
 30
0.0
 10
112.7724446332652
 20
-133.2183973191259
 30
0.0
 10
112.7724446332652
 20
-133.2183973191259
 30
0.0
 10
112.7724446332652
 20
-133.2183973191259
 30
0.0
 10
112.7724446332652
 20
-133.3327744892362
 30
0.0
 10
112.7724446332652
 20
-133.3327744892362
 30
0.0
 10
112.7724446332652
 20
-133.3327744892362
 30
0.0
 10
113.47903371729
 20
-133.3327744892362
 30
0.0
 10
113.47903371729
 20
-133.3327744892362
 30
0.0
 10
113.47903371729
 20
-133.3327744892362
 30
0.0
 10
113.47903371729
 20
-133.2183973191259
 30
0.0
 10
113.47903371729
 20
-133.2183973191259
 30
0.0
  0
SPLINE
  5
DA
330
D0
100
AcDbEntity
  8
レイヤー 1
100
AcDbSpline
210
0.0
220
0.0
230
1.0
 70
    11
 71
     3
 72
    17
 73
    13
 74
     0
 42
0.0000000001
 43
0.0000000001
 40
0.0
 40
0.0
 40
0.0
 40
0.0
 40
1.0
 40
1.0
 40
1.0
 40
2.0
 40
2.0
 40
2.0
 40
3.0
 40
3.0
 40
3.0
 40
4.0
 40
4.0
 40
4.0
 40
4.0
 10
113.47903371729
 20
-132.9856811190973
 30
0.0
 10
113.47903371729
 20
-132.9856811190973
 30
0.0
 10
112.7724446332652
 20
-132.9856811190973
 30
0.0
 10
112.7724446332652
 20
-132.9856811190973
 30
0.0
 10
112.7724446332652
 20
-132.9856811190973
 30
0.0
 10
112.7724446332652
 20
-133.0936848625599
 30
0.0
 10
112.7724446332652
 20
-133.0936848625599
 30
0.0
 10
112.7724446332652
 20
-133.0936848625599
 30
0.0
 10
113.47903371729
 20
-133.0936848625599
 30
0.0
 10
113.47903371729
 20
-133.0936848625599
 30
0.0
 10
113.47903371729
 20
-133.0936848625599
 30
0.0
 10
113.47903371729
 20
-132.9856811190973
 30
0.0
 10
113.47903371729
 20
-132.9856811190973
 30
0.0
  0
SPLINE
  5
DB
330
D0
100
AcDbEntity
  8
レイヤー 1
100
AcDbSpline
210
0.0
220
0.0
230
1.0
 70
     9
 71
     3
 72
   203
 73
   199
 74
     0
 42
0.0000000001
 43
0.0000000001
 40
0.0
 40
0.0
 40
0.0
 40
0.0
 40
1.0
 40
1.0
 40
1.0
 40
2.0
 40
2.0
 40
2.0
 40
3.0
 40
3.0
 40
3.0
 40
4.0
 40
4.0
 40
4.0
 40
5.0
 40
5.0
 40
5.0
 40
6.0
 40
6.0
 40
6.0
 40
7.0
 40
7.0
 40
7.0
 40
8.0
 40
8.0
 40
8.0
 40
9.0
 40
9.0
 40
9.0
 40
10.0
 40
10.0
 40
10.0
 40
11.0
 40
11.0
 40
11.0
 40
12.0
 40
12.0
 40
12.0
 40
13.0
 40
13.0
 40
13.0
 40
14.0
 40
14.0
 40
14.0
 40
15.0
 40
15.0
 40
15.0
 40
16.0
 40
16.0
 40
16.0
 40
17.0
 40
17.0
 40
17.0
 40
18.0
 40
18.0
 40
18.0
 40
19.0
 40
19.0
 40
19.0
 40
20.0
 40
20.0
 40
20.0
 40
21.0
 40
21.0
 40
21.0
 40
22.0
 40
22.0
 40
22.0
 40
23.0
 40
23.0
 40
23.0
 40
24.0
 40
24.0
 40
24.0
 40
25.0
 40
25.0
 40
25.0
 40
26.0
 40
26.0
 40
26.0
 40
27.0
 40
27.0
 40
27.0
 40
28.0
 40
28.0
 40
28.0
 40
29.0
 40
29.0
 40
29.0
 40
30.0
 40
30.0
 40
30.0
 40
31.0
 40
31.0
 40
31.0
 40
32.0
 40
32.0
 40
32.0
 40
33.0
 40
33.0
 40
33.0
 40
34.0
 40
34.0
 40
34.0
 40
35.0
 40
35.0
 40
35.0
 40
36.0
 40
36.0
 40
36.0
 40
37.0
 40
37.0
 40
37.0
 40
38.0
 40
38.0
 40
38.0
 40
39.0
 40
39.0
 40
39.0
 40
40.0
 40
40.0
 40
40.0
 40
41.0
 40
41.0
 40
41.0
 40
42.0
 40
42.0
 40
42.0
 40
43.0
 40
43.0
 40
43.0
 40
44.0
 40
44.0
 40
44.0
 40
45.0
 40
45.0
 40
45.0
 40
46.0
 40
46.0
 40
46.0
 40
47.0
 40
47.0
 40
47.0
 40
48.0
 40
48.0
 40
48.0
 40
49.0
 40
49.0
 40
49.0
 40
50.0
 40
50.0
 40
50.0
 40
51.0
 40
51.0
 40
51.0
 40
52.0
 40
52.0
 40
52.0
 40
53.0
 40
53.0
 40
53.0
 40
54.0
 40
54.0
 40
54.0
 40
55.0
 40
55.0
 40
55.0
 40
56.0
 40
56.0
 40
56.0
 40
57.0
 40
57.0
 40
57.0
 40
58.0
 40
58.0
 40
58.0
 40
59.0
 40
59.0
 40
59.0
 40
60.0
 40
60.0
 40
60.0
 40
61.0
 40
61.0
 40
61.0
 40
62.0
 40
62.0
 40
62.0
 40
63.0
 40
63.0
 40
63.0
 40
64.0
 40
64.0
 40
64.0
 40
65.0
 40
65.0
 40
65.0
 40
66.0
 40
66.0
 40
66.0
 40
66.0
 10
113.3140136435465
 20
-132.7297105245432
 30
0.0
 10
113.3140136435465
 20
-132.7297105245432
 30
0.0
 10
112.7552191558389
 20
-132.7297105245432
 30
0.0
 10
112.7552191558389
 20
-132.7297105245432
 30
0.0
 10
112.7448838693832
 20
-132.774152256303
 30
0.0
 10
112.7362711306701
 20
-132.8058471347673
 30
0.0
 10
112.7235242773747
 20
-132.8440876946536
 30
0.0
 10
112.7490179839655
 20
-132.8440876946536
 30
0.0
 10
112.7638318945521
 20
-132.8461547519447
 30
0.0
 10
112.7700330664255
 20
-132.8461547519447
 30
0.0
 10
112.7700330664255
 20
-132.8461547519447
 30
0.0
 10
112.9584797894687
 20
-132.8461547519447
 30
0.0
 10
112.9584797894687
 20
-132.8461547519447
 30
0.0
 10
112.9584797894687
 20
-132.8461547519447
 30
0.0
 10
113.3329616687154
 20
-132.8461547519447
 30
0.0
 10
113.3329616687154
 20
-132.8461547519447
 30
0.0
 10
113.3836045723485
 20
-132.8461547519447
 30
0.0
 10
113.6671359307846
 20
-132.8334078986493
 30
0.0
 10
113.6988308092489
 20
-132.8334078986493
 30
0.0
 10
113.6967637519577
 20
-132.8609686625313
 30
0.0
 10
113.6946966946666
 20
-132.8799166877001
 30
0.0
 10
113.6946966946666
 20
-132.9095445088733
 30
0.0
 10
113.6926296373754
 20
-132.9412393873376
 30
0.0
 10
113.6926296373754
 20
-133.0766316399079
 30
0.0
 10
113.6926296373754
 20
-133.1041924037899
 30
0.0
 10
113.6926296373754
 20
-133.1041924037899
 30
0.0
 10
113.6926296373754
 20
-133.349655457114
 30
0.0
 10
113.6926296373754
 20
-133.349655457114
 30
0.0
 10
113.6926296373754
 20
-133.3940971888737
 30
0.0
 10
113.6967637519577
 20
-133.5908121410815
 30
0.0
 10
113.70089786654
 20
-133.7430853615295
 30
0.0
 10
113.70089786654
 20
-133.7430853615295
 30
0.0
 10
113.4745550931591
 20
-133.7430853615295
 30
0.0
 10
113.4745550931591
 20
-133.7430853615295
 30
0.0
 10
113.4745550931591
 20
-133.7430853615295
 30
0.0
 10
113.4766221504503
 20
-133.7093234257741
 30
0.0
 10
113.4766221504503
 20
-133.7093234257741
 30
0.0
 10
113.4766221504503
 20
-133.7093234257741
 30
0.0
 10
112.7745116905564
 20
-133.7093234257741
 30
0.0
 10
112.7745116905564
 20
-133.7093234257741
 30
0.0
 10
112.7745116905564
 20
-133.7093234257741
 30
0.0
 10
112.7765787478475
 20
-133.7430853615295
 30
0.0
 10
112.7765787478475
 20
-133.7430853615295
 30
0.0
 10
112.7765787478475
 20
-133.7430853615295
 30
0.0
 10
112.5585042036312
 20
-133.7430853615295
 30
0.0
 10
112.5585042036312
 20
-133.7430853615295
 30
0.0
 10
112.562982827762
 20
-133.6881360885397
 30
0.0
 10
112.562982827762
 20
-133.6753892352443
 30
0.0
 10
112.5691839996355
 20
-133.5611843199083
 30
0.0
 10
112.5712510569266
 20
-133.5336235560263
 30
0.0
 10
112.5733181142178
 20
-133.4004706155214
 30
0.0
 10
112.5733181142178
 20
-133.3813503355782
 30
0.0
 10
112.5733181142178
 20
-133.3813503355782
 30
0.0
 10
112.5733181142178
 20
-133.1782619567228
 30
0.0
 10
112.5733181142178
 20
-133.1782619567228
 30
0.0
 10
112.4337917470652
 20
-133.4278591246291
 30
0.0
 10
112.2646375587394
 20
-133.5591172626171
 30
0.0
 10
112.1588731273422
 20
-133.6245740768369
 30
0.0
 10
112.1588731273422
 20
-133.6245740768369
 30
0.0
 10
111.9852403148856
 20
-133.4850477096843
 30
0.0
 10
111.9852403148856
 20
-133.4850477096843
 30
0.0
 10
112.0741237784051
 20
-133.4342325512768
 30
0.0
 10
112.2181287696885
 20
-133.3474161450485
 30
0.0
 10
112.35558807955
 20
-133.1529405049062
 30
0.0
 10
112.4465386003606
 20
-133.0259887362748
 30
0.0
 10
112.5119954145803
 20
-132.8821559997656
 30
0.0
 10
112.5461018598843
 20
-132.7297105245432
 30
0.0
 10
112.3173475196637
 20
-132.7319498366087
 30
0.0
 10
112.1375135353336
 20
-132.7383232632564
 30
0.0
 10
112.0424288999408
 20
-132.7403903205475
 30
0.0
 10
112.0424288999408
 20
-132.7403903205475
 30
0.0
 10
112.0424288999408
 20
-132.5626233935086
 30
0.0
 10
112.0424288999408
 20
-132.5626233935086
 30
0.0
 10
112.2391438521485
 20
-132.5689968201563
 30
0.0
 10
112.5226752105846
 20
-132.5733031895129
 30
0.0
 10
112.6728813737415
 20
-132.5733031895129
 30
0.0
 10
112.6728813737415
 20
-132.5733031895129
 30
0.0
 10
112.886477293827
 20
-132.5733031895129
 30
0.0
 10
112.886477293827
 20
-132.5733031895129
 30
0.0
 10
112.886477293827
 20
-132.5733031895129
 30
0.0
 10
112.886477293827
 20
-132.4652994460503
 30
0.0
 10
112.886477293827
 20
-132.4652994460503
 30
0.0
 10
112.886477293827
 20
-132.4652994460503
 30
0.0
 10
112.7404052452524
 20
-132.4652994460503
 30
0.0
 10
112.7404052452524
 20
-132.4652994460503
 30
0.0
 10
112.5712510569266
 20
-132.4652994460503
 30
0.0
 10
112.4020968686008
 20
-132.4696058154069
 30
0.0
 10
112.2350097375662
 20
-132.4759792420546
 30
0.0
 10
112.2350097375662
 20
-132.4759792420546
 30
0.0
 10
112.2350097375662
 20
-132.3045857416634
 30
0.0
 10
112.2350097375662
 20
-132.3045857416634
 30
0.0
 10
112.3893500153054
 20
-132.3150932828934
 30
0.0
 10
112.5753851715089
 20
-132.3150932828934
 30
0.0
 10
112.7404052452524
 20
-132.3150932828934
 30
0.0
 10
112.7404052452524
 20
-132.3150932828934
 30
0.0
 10
112.886477293827
 20
-132.3150932828934
 30
0.0
 10
112.886477293827
 20
-132.3150932828934
 30
0.0
 10
112.886477293827
 20
-132.3150932828934
 30
0.0
 10
112.886477293827
 20
-132.1967542529751
 30
0.0
 10
112.886477293827
 20
-132.1967542529751
 30
0.0
 10
112.886477293827
 20
-132.1967542529751
 30
0.0
 10
112.7552191558389
 20
-132.1967542529751
 30
0.0
 10
112.7552191558389
 20
-132.1967542529751
 30
0.0
 10
112.7087103667881
 20
-132.1967542529751
 30
0.0
 10
112.5057942427069
 20
-132.205194736914
 30
0.0
 10
112.4634195682383
 20
-132.205194736914
 30
0.0
 10
112.2605034441571
 20
-132.2093288514962
 30
0.0
 10
112.1840223243845
 20
-132.2113959087874
 30
0.0
 10
112.1058186568694
 20
-132.2136352208528
 30
0.0
 10
112.1058186568694
 20
-132.2136352208528
 30
0.0
 10
112.1058186568694
 20
-132.0294948671662
 30
0.0
 10
112.1058186568694
 20
-132.0294948671662
 30
0.0
 10
112.2201958269797
 20
-132.0379353511051
 30
0.0
 10
112.2646375587394
 20
-132.0379353511051
 30
0.0
 10
112.6473876671506
 20
-132.0465480898182
 30
0.0
 10
112.583997910222
 20
-131.951291199651
 30
0.0
 10
112.55643714634
 20
-131.9237304357691
 30
0.0
 10
112.5206081532934
 20
-131.8877291879482
 30
0.0
 10
112.5206081532934
 20
-131.8877291879482
 30
0.0
 10
112.6959635134927
 20
-131.8052191510765
 30
0.0
 10
112.6959635134927
 20
-131.8052191510765
 30
0.0
 10
112.7362711306701
 20
-131.8412203988973
 30
0.0
 10
112.7807128624298
 20
-131.8835950733659
 30
0.0
 10
112.8547824153627
 20
-131.9934936193454
 30
0.0
 10
112.8547824153627
 20
-131.9934936193454
 30
0.0
 10
112.7404052452524
 20
-132.0486151471094
 30
0.0
 10
112.7404052452524
 20
-132.0486151471094
 30
0.0
 10
112.7404052452524
 20
-132.0486151471094
 30
0.0
 10
112.7510850412567
 20
-132.0486151471094
 30
0.0
 10
112.7510850412567
 20
-132.0486151471094
 30
0.0
 10
112.7510850412567
 20
-132.0486151471094
 30
0.0
 10
113.2737060263691
 20
-132.0486151471094
 30
0.0
 10
113.2737060263691
 20
-132.0486151471094
 30
0.0
 10
113.2737060263691
 20
-132.0486151471094
 30
0.0
 10
113.1786213909762
 20
-132.0041734153496
 30
0.0
 10
113.1786213909762
 20
-132.0041734153496
 30
0.0
 10
113.2058376453096
 20
-131.9661051102376
 30
0.0
 10
113.2630262303648
 20
-131.885662130657
 30
0.0
 10
113.2778401409514
 20
-131.8115925777242
 30
0.0
 10
113.2778401409514
 20
-131.8115925777242
 30
0.0
 10
113.4914360610368
 20
-131.875154589427
 30
0.0
 10
113.4914360610368
 20
-131.875154589427
 30
0.0
 10
113.50004879975
 20
-131.8772216467182
 30
0.0
 10
113.52106388221
 20
-131.8877291879482
 30
0.0
 10
113.52106388221
 20
-131.9089165251825
 30
0.0
 10
113.52106388221
 20
-131.9469848302945
 30
0.0
 10
113.4556070679902
 20
-131.9469848302945
 30
0.0
 10
113.4366590428214
 20
-131.9469848302945
 30
0.0
 10
113.4259792468171
 20
-131.9661051102376
 30
0.0
 10
113.4025525975174
 20
-132.0062404726408
 30
0.0
 10
113.3729247763443
 20
-132.0465480898182
 30
0.0
 10
113.7729003621818
 20
-132.0401746631705
 30
0.0
 10
113.8025281833549
 20
-132.0379353511051
 30
0.0
 10
113.8786647935789
 20
-132.0317341792316
 30
0.0
 10
113.8786647935789
 20
-132.0317341792316
 30
0.0
 10
113.8786647935789
 20
-132.2136352208528
 30
0.0
 10
113.8786647935789
 20
-132.2136352208528
 30
0.0
 10
113.8597167684101
 20
-132.2136352208528
 30
0.0
 10
113.8342230618192
 20
-132.2113959087874
 30
0.0
 10
113.6144259698603
 20
-132.2029554248485
 30
0.0
 10
113.5634385566786
 20
-132.2008883675574
 30
0.0
 10
113.3436414647196
 20
-132.1967542529751
 30
0.0
 10
113.2991997329599
 20
-132.1967542529751
 30
0.0
 10
113.2991997329599
 20
-132.1967542529751
 30
0.0
 10
113.0831922460347
 20
-132.1967542529751
 30
0.0
 10
113.0831922460347
 20
-132.1967542529751
 30
0.0
 10
113.0831922460347
 20
-132.1967542529751
 30
0.0
 10
113.0831922460347
 20
-132.3150932828934
 30
0.0
 10
113.0831922460347
 20
-132.3150932828934
 30
0.0
 10
113.0831922460347
 20
-132.3150932828934
 30
0.0
 10
113.2568250584913
 20
-132.3150932828934
 30
0.0
 10
113.2568250584913
 20
-132.3150932828934
 30
0.0
 10
113.4197780749437
 20
-132.3150932828934
 30
0.0
 10
113.6099473457294
 20
-132.3150932828934
 30
0.0
 10
113.7666991903083
 20
-132.3045857416634
 30
0.0
 10
113.7666991903083
 20
-132.3045857416634
 30
0.0
 10
113.7666991903083
 20
-132.4759792420546
 30
0.0
 10
113.7666991903083
 20
-132.4759792420546
 30
0.0
 10
113.5572373848051
 20
-132.4675387581157
 30
0.0
 10
113.3605224325973
 20
-132.4652994460503
 30
0.0
 10
113.2568250584913
 20
-132.4652994460503
 30
0.0
 10
113.2568250584913
 20
-132.4652994460503
 30
0.0
 10
113.0831922460347
 20
-132.4652994460503
 30
0.0
 10
113.0831922460347
 20
-132.4652994460503
 30
0.0
 10
113.0831922460347
 20
-132.4652994460503
 30
0.0
 10
113.0831922460347
 20
-132.5733031895129
 30
0.0
 10
113.0831922460347
 20
-132.5733031895129
 30
0.0
 10
113.0831922460347
 20
-132.5733031895129
 30
0.0
 10
113.3140136435465
 20
-132.5733031895129
 30
0.0
 10
113.3140136435465
 20
-132.5733031895129
 30
0.0
 10
113.4469943292771
 20
-132.5733031895129
 30
0.0
 10
113.735004311844
 20
-132.5689968201563
 30
0.0
 10
113.9441216077987
 20
-132.5626233935086
 30
0.0
 10
113.9441216077987
 20
-132.5626233935086
 30
0.0
 10
113.9441216077987
 20
-132.7403903205475
 30
0.0
 10
113.9441216077987
 20
-132.7403903205475
 30
0.0
 10
113.7518852797217
 20
-132.7340168938998
 30
0.0
 10
113.4387261001125
 20
-132.7297105245432
 30
0.0
 10
113.3140136435465
 20
-132.7297105245432
 30
0.0
  0
HATCH
  5
DC
330
D0
100
AcDbEntity
  8
レイヤー 1
 62
   250
420
  2299925
440
 33554687
100
AcDbHatch
 10
0.0
 20
0.0
 30
0.0
210
0.0
220
0.0
230
1.0
  2
SOLID
 70
     1
 71
     1
 91
        4
 92
        1
 93
        1
 72
     4
 94
        3
 73
     0
 74
     0
 95
       17
 96
       13
 40
0.0
 40
0.0
 40
0.0
 40
0.0
 40
1.0
 40
1.0
 40
1.0
 40
2.0
 40
2.0
 40
2.0
 40
3.0
 40
3.0
 40
3.0
 40
4.0
 40
4.0
 40
4.0
 40
4.0
 10
113.47903371729
 20
-133.4617933151589
 10
113.47903371729
 20
-133.4617933151589
 10
112.7724446332652
 20
-133.4617933151589
 10
112.7724446332652
 20
-133.4617933151589
 10
112.7724446332652
 20
-133.4617933151589
 10
112.7724446332652
 20
-133.5759982304949
 10
112.7724446332652
 20
-133.5759982304949
 10
112.7724446332652
 20
-133.5759982304949
 10
113.47903371729
 20
-133.5759982304949
 10
113.47903371729
 20
-133.5759982304949
 10
113.47903371729
 20
-133.5759982304949
 10
113.47903371729
 20
-133.4617933151589
 10
113.47903371729
 20
-133.4617933151589
 97
        0
 97
        1
330
D8
 92
        1
 93
        1
 72
     4
 94
        3
 73
     0
 74
     0
 95
       17
 96
       13
 40
0.0
 40
0.0
 40
0.0
 40
0.0
 40
1.0
 40
1.0
 40
1.0
 40
2.0
 40
2.0
 40
2.0
 40
3.0
 40
3.0
 40
3.0
 40
4.0
 40
4.0
 40
4.0
 40
4.0
 10
113.47903371729
 20
-133.2183973191259
 10
113.47903371729
 20
-133.2183973191259
 10
112.7724446332652
 20
-133.2183973191259
 10
112.7724446332652
 20
-133.2183973191259
 10
112.7724446332652
 20
-133.2183973191259
 10
112.7724446332652
 20
-133.3327744892362
 10
112.7724446332652
 20
-133.3327744892362
 10
112.7724446332652
 20
-133.3327744892362
 10
113.47903371729
 20
-133.3327744892362
 10
113.47903371729
 20
-133.3327744892362
 10
113.47903371729
 20
-133.3327744892362
 10
113.47903371729
 20
-133.2183973191259
 10
113.47903371729
 20
-133.2183973191259
 97
        0
 97
        1
330
D9
 92
        1
 93
        1
 72
     4
 94
        3
 73
     0
 74
     0
 95
       17
 96
       13
 40
0.0
 40
0.0
 40
0.0
 40
0.0
 40
1.0
 40
1.0
 40
1.0
 40
2.0
 40
2.0
 40
2.0
 40
3.0
 40
3.0
 40
3.0
 40
4.0
 40
4.0
 40
4.0
 40
4.0
 10
113.47903371729
 20
-132.9856811190973
 10
113.47903371729
 20
-132.9856811190973
 10
112.7724446332652
 20
-132.9856811190973
 10
112.7724446332652
 20
-132.9856811190973
 10
112.7724446332652
 20
-132.9856811190973
 10
112.7724446332652
 20
-133.0936848625599
 10
112.7724446332652
 20
-133.0936848625599
 10
112.7724446332652
 20
-133.0936848625599
 10
113.47903371729
 20
-133.0936848625599
 10
113.47903371729
 20
-133.0936848625599
 10
113.47903371729
 20
-133.0936848625599
 10
113.47903371729
 20
-132.9856811190973
 10
113.47903371729
 20
-132.9856811190973
 97
        0
 97
        1
330
DA
 92
        1
 93
        1
 72
     4
 94
        3
 73
     0
 74
     0
 95
      203
 96
      199
 40
0.0
 40
0.0
 40
0.0
 40
0.0
 40
1.0
 40
1.0
 40
1.0
 40
2.0
 40
2.0
 40
2.0
 40
3.0
 40
3.0
 40
3.0
 40
4.0
 40
4.0
 40
4.0
 40
5.0
 40
5.0
 40
5.0
 40
6.0
 40
6.0
 40
6.0
 40
7.0
 40
7.0
 40
7.0
 40
8.0
 40
8.0
 40
8.0
 40
9.0
 40
9.0
 40
9.0
 40
10.0
 40
10.0
 40
10.0
 40
11.0
 40
11.0
 40
11.0
 40
12.0
 40
12.0
 40
12.0
 40
13.0
 40
13.0
 40
13.0
 40
14.0
 40
14.0
 40
14.0
 40
15.0
 40
15.0
 40
15.0
 40
16.0
 40
16.0
 40
16.0
 40
17.0
 40
17.0
 40
17.0
 40
18.0
 40
18.0
 40
18.0
 40
19.0
 40
19.0
 40
19.0
 40
20.0
 40
20.0
 40
20.0
 40
21.0
 40
21.0
 40
21.0
 40
22.0
 40
22.0
 40
22.0
 40
23.0
 40
23.0
 40
23.0
 40
24.0
 40
24.0
 40
24.0
 40
25.0
 40
25.0
 40
25.0
 40
26.0
 40
26.0
 40
26.0
 40
27.0
 40
27.0
 40
27.0
 40
28.0
 40
28.0
 40
28.0
 40
29.0
 40
29.0
 40
29.0
 40
30.0
 40
30.0
 40
30.0
 40
31.0
 40
31.0
 40
31.0
 40
32.0
 40
32.0
 40
32.0
 40
33.0
 40
33.0
 40
33.0
 40
34.0
 40
34.0
 40
34.0
 40
35.0
 40
35.0
 40
35.0
 40
36.0
 40
36.0
 40
36.0
 40
37.0
 40
37.0
 40
37.0
 40
38.0
 40
38.0
 40
38.0
 40
39.0
 40
39.0
 40
39.0
 40
40.0
 40
40.0
 40
40.0
 40
41.0
 40
41.0
 40
41.0
 40
42.0
 40
42.0
 40
42.0
 40
43.0
 40
43.0
 40
43.0
 40
44.0
 40
44.0
 40
44.0
 40
45.0
 40
45.0
 40
45.0
 40
46.0
 40
46.0
 40
46.0
 40
47.0
 40
47.0
 40
47.0
 40
48.0
 40
48.0
 40
48.0
 40
49.0
 40
49.0
 40
49.0
 40
50.0
 40
50.0
 40
50.0
 40
51.0
 40
51.0
 40
51.0
 40
52.0
 40
52.0
 40
52.0
 40
53.0
 40
53.0
 40
53.0
 40
54.0
 40
54.0
 40
54.0
 40
55.0
 40
55.0
 40
55.0
 40
56.0
 40
56.0
 40
56.0
 40
57.0
 40
57.0
 40
57.0
 40
58.0
 40
58.0
 40
58.0
 40
59.0
 40
59.0
 40
59.0
 40
60.0
 40
60.0
 40
60.0
 40
61.0
 40
61.0
 40
61.0
 40
62.0
 40
62.0
 40
62.0
 40
63.0
 40
63.0
 40
63.0
 40
64.0
 40
64.0
 40
64.0
 40
65.0
 40
65.0
 40
65.0
 40
66.0
 40
66.0
 40
66.0
 40
66.0
 10
113.3140136435465
 20
-132.7297105245432
 10
113.3140136435465
 20
-132.7297105245432
 10
112.7552191558389
 20
-132.7297105245432
 10
112.7552191558389
 20
-132.7297105245432
 10
112.7448838693832
 20
-132.774152256303
 10
112.7362711306701
 20
-132.8058471347673
 10
112.7235242773747
 20
-132.8440876946536
 10
112.7490179839655
 20
-132.8440876946536
 10
112.7638318945521
 20
-132.8461547519447
 10
112.7700330664255
 20
-132.8461547519447
 10
112.7700330664255
 20
-132.8461547519447
 10
112.9584797894687
 20
-132.8461547519447
 10
112.9584797894687
 20
-132.8461547519447
 10
112.9584797894687
 20
-132.8461547519447
 10
113.3329616687154
 20
-132.8461547519447
 10
113.3329616687154
 20
-132.8461547519447
 10
113.3836045723485
 20
-132.8461547519447
 10
113.6671359307846
 20
-132.8334078986493
 10
113.6988308092489
 20
-132.8334078986493
 10
113.6967637519577
 20
-132.8609686625313
 10
113.6946966946666
 20
-132.8799166877001
 10
113.6946966946666
 20
-132.9095445088733
 10
113.6926296373754
 20
-132.9412393873376
 10
113.6926296373754
 20
-133.0766316399079
 10
113.6926296373754
 20
-133.1041924037899
 10
113.6926296373754
 20
-133.1041924037899
 10
113.6926296373754
 20
-133.349655457114
 10
113.6926296373754
 20
-133.349655457114
 10
113.6926296373754
 20
-133.3940971888737
 10
113.6967637519577
 20
-133.5908121410815
 10
113.70089786654
 20
-133.7430853615295
 10
113.70089786654
 20
-133.7430853615295
 10
113.4745550931591
 20
-133.7430853615295
 10
113.4745550931591
 20
-133.7430853615295
 10
113.4745550931591
 20
-133.7430853615295
 10
113.4766221504503
 20
-133.7093234257741
 10
113.4766221504503
 20
-133.7093234257741
 10
113.4766221504503
 20
-133.7093234257741
 10
112.7745116905564
 20
-133.7093234257741
 10
112.7745116905564
 20
-133.7093234257741
 10
112.7745116905564
 20
-133.7093234257741
 10
112.7765787478475
 20
-133.7430853615295
 10
112.7765787478475
 20
-133.7430853615295
 10
112.7765787478475
 20
-133.7430853615295
 10
112.5585042036312
 20
-133.7430853615295
 10
112.5585042036312
 20
-133.7430853615295
 10
112.562982827762
 20
-133.6881360885397
 10
112.562982827762
 20
-133.6753892352443
 10
112.5691839996355
 20
-133.5611843199083
 10
112.5712510569266
 20
-133.5336235560263
 10
112.5733181142178
 20
-133.4004706155214
 10
112.5733181142178
 20
-133.3813503355782
 10
112.5733181142178
 20
-133.3813503355782
 10
112.5733181142178
 20
-133.1782619567228
 10
112.5733181142178
 20
-133.1782619567228
 10
112.4337917470652
 20
-133.4278591246291
 10
112.2646375587394
 20
-133.5591172626171
 10
112.1588731273422
 20
-133.6245740768369
 10
112.1588731273422
 20
-133.6245740768369
 10
111.9852403148856
 20
-133.4850477096843
 10
111.9852403148856
 20
-133.4850477096843
 10
112.0741237784051
 20
-133.4342325512768
 10
112.2181287696885
 20
-133.3474161450485
 10
112.35558807955
 20
-133.1529405049062
 10
112.4465386003606
 20
-133.0259887362748
 10
112.5119954145803
 20
-132.8821559997656
 10
112.5461018598843
 20
-132.7297105245432
 10
112.3173475196637
 20
-132.7319498366087
 10
112.1375135353336
 20
-132.7383232632564
 10
112.0424288999408
 20
-132.7403903205475
 10
112.0424288999408
 20
-132.7403903205475
 10
112.0424288999408
 20
-132.5626233935086
 10
112.0424288999408
 20
-132.5626233935086
 10
112.2391438521485
 20
-132.5689968201563
 10
112.5226752105846
 20
-132.5733031895129
 10
112.6728813737415
 20
-132.5733031895129
 10
112.6728813737415
 20
-132.5733031895129
 10
112.886477293827
 20
-132.5733031895129
 10
112.886477293827
 20
-132.5733031895129
 10
112.886477293827
 20
-132.5733031895129
 10
112.886477293827
 20
-132.4652994460503
 10
112.886477293827
 20
-132.4652994460503
 10
112.886477293827
 20
-132.4652994460503
 10
112.7404052452524
 20
-132.4652994460503
 10
112.7404052452524
 20
-132.4652994460503
 10
112.5712510569266
 20
-132.4652994460503
 10
112.4020968686008
 20
-132.4696058154069
 10
112.2350097375662
 20
-132.4759792420546
 10
112.2350097375662
 20
-132.4759792420546
 10
112.2350097375662
 20
-132.3045857416634
 10
112.2350097375662
 20
-132.3045857416634
 10
112.3893500153054
 20
-132.3150932828934
 10
112.5753851715089
 20
-132.3150932828934
 10
112.7404052452524
 20
-132.3150932828934
 10
112.7404052452524
 20
-132.3150932828934
 10
112.886477293827
 20
-132.3150932828934
 10
112.886477293827
 20
-132.3150932828934
 10
112.886477293827
 20
-132.3150932828934
 10
112.886477293827
 20
-132.1967542529751
 10
112.886477293827
 20
-132.1967542529751
 10
112.886477293827
 20
-132.1967542529751
 10
112.7552191558389
 20
-132.1967542529751
 10
112.7552191558389
 20
-132.1967542529751
 10
112.7087103667881
 20
-132.1967542529751
 10
112.5057942427069
 20
-132.205194736914
 10
112.4634195682383
 20
-132.205194736914
 10
112.2605034441571
 20
-132.2093288514962
 10
112.1840223243845
 20
-132.2113959087874
 10
112.1058186568694
 20
-132.2136352208528
 10
112.1058186568694
 20
-132.2136352208528
 10
112.1058186568694
 20
-132.0294948671662
 10
112.1058186568694
 20
-132.0294948671662
 10
112.2201958269797
 20
-132.0379353511051
 10
112.2646375587394
 20
-132.0379353511051
 10
112.6473876671506
 20
-132.0465480898182
 10
112.583997910222
 20
-131.951291199651
 10
112.55643714634
 20
-131.9237304357691
 10
112.5206081532934
 20
-131.8877291879482
 10
112.5206081532934
 20
-131.8877291879482
 10
112.6959635134927
 20
-131.8052191510765
 10
112.6959635134927
 20
-131.8052191510765
 10
112.7362711306701
 20
-131.8412203988973
 10
112.7807128624298
 20
-131.8835950733659
 10
112.8547824153627
 20
-131.9934936193454
 10
112.8547824153627
 20
-131.9934936193454
 10
112.7404052452524
 20
-132.0486151471094
 10
112.7404052452524
 20
-132.0486151471094
 10
112.7404052452524
 20
-132.0486151471094
 10
112.7510850412567
 20
-132.0486151471094
 10
112.7510850412567
 20
-132.0486151471094
 10
112.7510850412567
 20
-132.0486151471094
 10
113.2737060263691
 20
-132.0486151471094
 10
113.2737060263691
 20
-132.0486151471094
 10
113.2737060263691
 20
-132.0486151471094
 10
113.1786213909762
 20
-132.0041734153496
 10
113.1786213909762
 20
-132.0041734153496
 10
113.2058376453096
 20
-131.9661051102376
 10
113.2630262303648
 20
-131.885662130657
 10
113.2778401409514
 20
-131.8115925777242
 10
113.2778401409514
 20
-131.8115925777242
 10
113.4914360610368
 20
-131.875154589427
 10
113.4914360610368
 20
-131.875154589427
 10
113.50004879975
 20
-131.8772216467182
 10
113.52106388221
 20
-131.8877291879482
 10
113.52106388221
 20
-131.9089165251825
 10
113.52106388221
 20
-131.9469848302945
 10
113.4556070679902
 20
-131.9469848302945
 10
113.4366590428214
 20
-131.9469848302945
 10
113.4259792468171
 20
-131.9661051102376
 10
113.4025525975174
 20
-132.0062404726408
 10
113.3729247763443
 20
-132.0465480898182
 10
113.7729003621818
 20
-132.0401746631705
 10
113.8025281833549
 20
-132.0379353511051
 10
113.8786647935789
 20
-132.0317341792316
 10
113.8786647935789
 20
-132.0317341792316
 10
113.8786647935789
 20
-132.2136352208528
 10
113.8786647935789
 20
-132.2136352208528
 10
113.8597167684101
 20
-132.2136352208528
 10
113.8342230618192
 20
-132.2113959087874
 10
113.6144259698603
 20
-132.2029554248485
 10
113.5634385566786
 20
-132.2008883675574
 10
113.3436414647196
 20
-132.1967542529751
 10
113.2991997329599
 20
-132.1967542529751
 10
113.2991997329599
 20
-132.1967542529751
 10
113.0831922460347
 20
-132.1967542529751
 10
113.0831922460347
 20
-132.1967542529751
 10
113.0831922460347
 20
-132.1967542529751
 10
113.0831922460347
 20
-132.3150932828934
 10
113.0831922460347
 20
-132.3150932828934
 10
113.0831922460347
 20
-132.3150932828934
 10
113.2568250584913
 20
-132.3150932828934
 10
113.2568250584913
 20
-132.3150932828934
 10
113.4197780749437
 20
-132.3150932828934
 10
113.6099473457294
 20
-132.3150932828934
 10
113.7666991903083
 20
-132.3045857416634
 10
113.7666991903083
 20
-132.3045857416634
 10
113.7666991903083
 20
-132.4759792420546
 10
113.7666991903083
 20
-132.4759792420546
 10
113.5572373848051
 20
-132.4675387581157
 10
113.3605224325973
 20
-132.4652994460503
 10
113.2568250584913
 20
-132.4652994460503
 10
113.2568250584913
 20
-132.4652994460503
 10
113.0831922460347
 20
-132.4652994460503
 10
113.0831922460347
 20
-132.4652994460503
 10
113.0831922460347
 20
-132.4652994460503
 10
113.0831922460347
 20
-132.5733031895129
 10
113.0831922460347
 20
-132.5733031895129
 10
113.0831922460347
 20
-132.5733031895129
 10
113.3140136435465
 20
-132.5733031895129
 10
113.3140136435465
 20
-132.5733031895129
 10
113.4469943292771
 20
-132.5733031895129
 10
113.735004311844
 20
-132.5689968201563
 10
113.9441216077987
 20
-132.5626233935086
 10
113.9441216077987
 20
-132.5626233935086
 10
113.9441216077987
 20
-132.7403903205475
 10
113.9441216077987
 20
-132.7403903205475
 10
113.7518852797217
 20
-132.7340168938998
 10
113.4387261001125
 20
-132.7297105245432
 10
113.3140136435465
 20
-132.7297105245432
 97
        0
 97
        1
330
DB
 75
     2
 76
     1
 98
        1
 10
0.0
 20
0.0
450
        0
451
        0
460
0.0
461
0.0
452
        0
462
0.0
453
        0
470

  0
SPLINE
  5
DD
330
D0
100
AcDbEntity
  8
レイヤー 1
100
AcDbSpline
210
0.0
220
0.0
230
1.0
 70
     9
 71
     3
 72
    29
 73
    25
 74
     0
 42
0.0000000001
 43
0.0000000001
 40
0.0
 40
0.0
 40
0.0
 40
0.0
 40
1.0
 40
1.0
 40
1.0
 40
2.0
 40
2.0
 40
2.0
 40
3.0
 40
3.0
 40
3.0
 40
4.0
 40
4.0
 40
4.0
 40
5.0
 40
5.0
 40
5.0
 40
6.0
 40
6.0
 40
6.0
 40
7.0
 40
7.0
 40
7.0
 40
8.0
 40
8.0
 40
8.0
 40
8.0
 10
115.189179116168
 20
-132.177633973032
 30
0.0
 10
115.189179116168
 20
-132.177633973032
 30
0.0
 10
114.8357123193813
 20
-132.177633973032
 30
0.0
 10
114.8357123193813
 20
-132.177633973032
 30
0.0
 10
114.7237467161107
 20
-132.177633973032
 30
0.0
 10
114.5842203489581
 20
-132.1840073996797
 30
0.0
 10
114.4763888602698
 20
-132.1967542529751
 30
0.0
 10
114.4763888602698
 20
-132.1967542529751
 30
0.0
 10
114.4763888602698
 20
-131.961798740881
 30
0.0
 10
114.4763888602698
 20
-131.961798740881
 30
0.0
 10
114.5945556354138
 20
-131.9766126514676
 30
0.0
 10
114.7788682438747
 20
-131.9809190208242
 30
0.0
 10
114.8357123193813
 20
-131.9809190208242
 30
0.0
 10
114.8357123193813
 20
-131.9809190208242
 30
0.0
 10
115.189179116168
 20
-131.9809190208242
 30
0.0
 10
115.189179116168
 20
-131.9809190208242
 30
0.0
 10
115.2081271413368
 20
-131.9809190208242
 30
0.0
 10
115.4113877749666
 20
-131.9809190208242
 30
0.0
 10
115.5529811994103
 20
-131.961798740881
 30
0.0
 10
115.5529811994103
 20
-131.961798740881
 30
0.0
 10
115.5529811994103
 20
-132.1967542529751
 30
0.0
 10
115.5529811994103
 20
-132.1967542529751
 30
0.0
 10
115.39657386438
 20
-132.177633973032
 30
0.0
 10
115.2060600840457
 20
-132.177633973032
 30
0.0
 10
115.189179116168
 20
-132.177633973032
 30
0.0
  0
SPLINE
  5
DE
330
D0
100
AcDbEntity
  8
レイヤー 1
100
AcDbSpline
210
0.0
220
0.0
230
1.0
 70
     9
 71
     3
 72
    47
 73
    43
 74
     0
 42
0.0000000001
 43
0.0000000001
 40
0.0
 40
0.0
 40
0.0
 40
0.0
 40
1.0
 40
1.0
 40
1.0
 40
2.0
 40
2.0
 40
2.0
 40
3.0
 40
3.0
 40
3.0
 40
4.0
 40
4.0
 40
4.0
 40
5.0
 40
5.0
 40
5.0
 40
6.0
 40
6.0
 40
6.0
 40
7.0
 40
7.0
 40
7.0
 40
8.0
 40
8.0
 40
8.0
 40
9.0
 40
9.0
 40
9.0
 40
10.0
 40
10.0
 40
10.0
 40
11.0
 40
11.0
 40
11.0
 40
12.0
 40
12.0
 40
12.0
 40
13.0
 40
13.0
 40
13.0
 40
14.0
 40
14.0
 40
14.0
 40
14.0
 10
115.2908094329828
 20
-132.7064561300178
 30
0.0
 10
115.2908094329828
 20
-132.7064561300178
 30
0.0
 10
115.189179116168
 20
-132.7064561300178
 30
0.0
 10
115.189179116168
 20
-132.7064561300178
 30
0.0
 10
115.189179116168
 20
-132.7932725362461
 30
0.0
 10
115.1681640337079
 20
-133.1825683260793
 30
0.0
 10
114.9714490815002
 20
-133.4025376728126
 30
0.0
 10
114.8188313515036
 20
-133.5716918611383
 30
0.0
 10
114.6117811128401
 20
-133.6416272994889
 30
0.0
 10
114.5270317639029
 20
-133.6690158085966
 30
0.0
 10
114.5270317639029
 20
-133.6690158085966
 30
0.0
 10
114.3323838689863
 20
-133.501928677562
 30
0.0
 10
114.3323838689863
 20
-133.501928677562
 30
0.0
 10
114.4298800712189
 20
-133.4891818242666
 30
0.0
 10
114.6052354314181
 20
-133.4659274297411
 30
0.0
 10
114.7936821544613
 20
-133.2776529614722
 30
0.0
 10
114.8677517073942
 20
-133.2058227206048
 30
0.0
 10
114.9714490815002
 20
-133.0661240986779
 30
0.0
 10
114.9714490815002
 20
-132.7064561300178
 30
0.0
 10
114.9714490815002
 20
-132.7064561300178
 30
0.0
 10
114.7406276839884
 20
-132.7064561300178
 30
0.0
 10
114.7406276839884
 20
-132.7064561300178
 30
0.0
 10
114.5545925277849
 20
-132.7064561300178
 30
0.0
 10
114.3682128620329
 20
-132.7107624993744
 30
0.0
 10
114.1821777058294
 20
-132.725576409961
 30
0.0
 10
114.1821777058294
 20
-132.725576409961
 30
0.0
 10
114.1821777058294
 20
-132.5056070632278
 30
0.0
 10
114.1821777058294
 20
-132.5056070632278
 30
0.0
 10
114.3706244288726
 20
-132.5204209738143
 30
0.0
 10
114.6562228445998
 20
-132.5245550883966
 30
0.0
 10
114.7406276839884
 20
-132.5245550883966
 30
0.0
 10
114.7406276839884
 20
-132.5245550883966
 30
0.0
 10
115.2908094329828
 20
-132.5245550883966
 30
0.0
 10
115.2908094329828
 20
-132.5245550883966
 30
0.0
 10
115.3097574581517
 20
-132.5245550883966
 30
0.0
 10
115.6270507523432
 20
-132.5245550883966
 30
0.0
 10
115.8554605830153
 20
-132.5056070632278
 30
0.0
 10
115.8554605830153
 20
-132.5056070632278
 30
0.0
 10
115.8554605830153
 20
-132.725576409961
 30
0.0
 10
115.8554605830153
 20
-132.725576409961
 30
0.0
 10
115.6673583695206
 20
-132.7107624993744
 30
0.0
 10
115.4789116464775
 20
-132.7064561300178
 30
0.0
 10
115.2908094329828
 20
-132.7064561300178
 30
0.0
  0
HATCH
  5
DF
330
D0
100
AcDbEntity
  8
レイヤー 1
 62
   250
420
  2299925
440
 33554687
100
AcDbHatch
 10
0.0
 20
0.0
 30
0.0
210
0.0
220
0.0
230
1.0
  2
SOLID
 70
     1
 71
     1
 91
        2
 92
        1
 93
        1
 72
     4
 94
        3
 73
     0
 74
     0
 95
       29
 96
       25
 40
0.0
 40
0.0
 40
0.0
 40
0.0
 40
1.0
 40
1.0
 40
1.0
 40
2.0
 40
2.0
 40
2.0
 40
3.0
 40
3.0
 40
3.0
 40
4.0
 40
4.0
 40
4.0
 40
5.0
 40
5.0
 40
5.0
 40
6.0
 40
6.0
 40
6.0
 40
7.0
 40
7.0
 40
7.0
 40
8.0
 40
8.0
 40
8.0
 40
8.0
 10
115.189179116168
 20
-132.177633973032
 10
115.189179116168
 20
-132.177633973032
 10
114.8357123193813
 20
-132.177633973032
 10
114.8357123193813
 20
-132.177633973032
 10
114.7237467161107
 20
-132.177633973032
 10
114.5842203489581
 20
-132.1840073996797
 10
114.4763888602698
 20
-132.1967542529751
 10
114.4763888602698
 20
-132.1967542529751
 10
114.4763888602698
 20
-131.961798740881
 10
114.4763888602698
 20
-131.961798740881
 10
114.5945556354138
 20
-131.9766126514676
 10
114.7788682438747
 20
-131.9809190208242
 10
114.8357123193813
 20
-131.9809190208242
 10
114.8357123193813
 20
-131.9809190208242
 10
115.189179116168
 20
-131.9809190208242
 10
115.189179116168
 20
-131.9809190208242
 10
115.2081271413368
 20
-131.9809190208242
 10
115.4113877749666
 20
-131.9809190208242
 10
115.5529811994103
 20
-131.961798740881
 10
115.5529811994103
 20
-131.961798740881
 10
115.5529811994103
 20
-132.1967542529751
 10
115.5529811994103
 20
-132.1967542529751
 10
115.39657386438
 20
-132.177633973032
 10
115.2060600840457
 20
-132.177633973032
 10
115.189179116168
 20
-132.177633973032
 97
        0
 97
        1
330
DD
 92
        1
 93
        1
 72
     4
 94
        3
 73
     0
 74
     0
 95
       47
 96
       43
 40
0.0
 40
0.0
 40
0.0
 40
0.0
 40
1.0
 40
1.0
 40
1.0
 40
2.0
 40
2.0
 40
2.0
 40
3.0
 40
3.0
 40
3.0
 40
4.0
 40
4.0
 40
4.0
 40
5.0
 40
5.0
 40
5.0
 40
6.0
 40
6.0
 40
6.0
 40
7.0
 40
7.0
 40
7.0
 40
8.0
 40
8.0
 40
8.0
 40
9.0
 40
9.0
 40
9.0
 40
10.0
 40
10.0
 40
10.0
 40
11.0
 40
11.0
 40
11.0
 40
12.0
 40
12.0
 40
12.0
 40
13.0
 40
13.0
 40
13.0
 40
14.0
 40
14.0
 40
14.0
 40
14.0
 10
115.2908094329828
 20
-132.7064561300178
 10
115.2908094329828
 20
-132.7064561300178
 10
115.189179116168
 20
-132.7064561300178
 10
115.189179116168
 20
-132.7064561300178
 10
115.189179116168
 20
-132.7932725362461
 10
115.1681640337079
 20
-133.1825683260793
 10
114.9714490815002
 20
-133.4025376728126
 10
114.8188313515036
 20
-133.5716918611383
 10
114.6117811128401
 20
-133.6416272994889
 10
114.5270317639029
 20
-133.6690158085966
 10
114.5270317639029
 20
-133.6690158085966
 10
114.3323838689863
 20
-133.501928677562
 10
114.3323838689863
 20
-133.501928677562
 10
114.4298800712189
 20
-133.4891818242666
 10
114.6052354314181
 20
-133.4659274297411
 10
114.7936821544613
 20
-133.2776529614722
 10
114.8677517073942
 20
-133.2058227206048
 10
114.9714490815002
 20
-133.0661240986779
 10
114.9714490815002
 20
-132.7064561300178
 10
114.9714490815002
 20
-132.7064561300178
 10
114.7406276839884
 20
-132.7064561300178
 10
114.7406276839884
 20
-132.7064561300178
 10
114.5545925277849
 20
-132.7064561300178
 10
114.3682128620329
 20
-132.7107624993744
 10
114.1821777058294
 20
-132.725576409961
 10
114.1821777058294
 20
-132.725576409961
 10
114.1821777058294
 20
-132.5056070632278
 10
114.1821777058294
 20
-132.5056070632278
 10
114.3706244288726
 20
-132.5204209738143
 10
114.6562228445998
 20
-132.5245550883966
 10
114.7406276839884
 20
-132.5245550883966
 10
114.7406276839884
 20
-132.5245550883966
 10
115.2908094329828
 20
-132.5245550883966
 10
115.2908094329828
 20
-132.5245550883966
 10
115.3097574581517
 20
-132.5245550883966
 10
115.6270507523432
 20
-132.5245550883966
 10
115.8554605830153
 20
-132.5056070632278
 10
115.8554605830153
 20
-132.5056070632278
 10
115.8554605830153
 20
-132.725576409961
 10
115.8554605830153
 20
-132.725576409961
 10
115.6673583695206
 20
-132.7107624993744
 10
115.4789116464775
 20
-132.7064561300178
 10
115.2908094329828
 20
-132.7064561300178
 97
        0
 97
        1
330
DE
 75
     2
 76
     1
 98
        1
 10
0.0
 20
0.0
450
        0
451
        0
460
0.0
461
0.0
452
        0
462
0.0
453
        0
470

  0
SPLINE
  5
E0
330
D0
100
AcDbEntity
  8
レイヤー 1
100
AcDbSpline
210
0.0
220
0.0
230
1.0
 70
     9
 71
     3
 72
    29
 73
    25
 74
     0
 42
0.0000000001
 43
0.0000000001
 40
0.0
 40
0.0
 40
0.0
 40
0.0
 40
1.0
 40
1.0
 40
1.0
 40
2.0
 40
2.0
 40
2.0
 40
3.0
 40
3.0
 40
3.0
 40
4.0
 40
4.0
 40
4.0
 40
5.0
 40
5.0
 40
5.0
 40
6.0
 40
6.0
 40
6.0
 40
7.0
 40
7.0
 40
7.0
 40
8.0
 40
8.0
 40
8.0
 40
8.0
 10
117.1366915939797
 20
-132.8694091464701
 30
0.0
 10
117.1366915939797
 20
-132.8694091464701
 30
0.0
 10
116.6523111687536
 20
-132.8694091464701
 30
0.0
 10
116.6523111687536
 20
-132.8694091464701
 30
0.0
 10
116.6247504048716
 20
-132.8694091464701
 30
0.0
 10
116.3074571106801
 20
-132.8694091464701
 30
0.0
 10
116.0959282478857
 20
-132.8947305982867
 30
0.0
 10
116.0959282478857
 20
-132.8947305982867
 30
0.0
 10
116.0959282478857
 20
-132.6642537103235
 30
0.0
 10
116.0959282478857
 20
-132.6642537103235
 30
0.0
 10
116.2544026402072
 20
-132.6875081048489
 30
0.0
 10
116.4449164205415
 20
-132.6895751621401
 30
0.0
 10
116.6523111687536
 20
-132.6895751621401
 30
0.0
 10
116.6523111687536
 20
-132.6895751621401
 30
0.0
 10
117.1366915939797
 20
-132.6895751621401
 30
0.0
 10
117.1366915939797
 20
-132.6895751621401
 30
0.0
 10
117.3227267501832
 20
-132.6895751621401
 30
0.0
 10
117.5091064159352
 20
-132.6875081048489
 30
0.0
 10
117.6930745148475
 20
-132.6642537103235
 30
0.0
 10
117.6930745148475
 20
-132.6642537103235
 30
0.0
 10
117.6930745148475
 20
-132.8947305982867
 30
0.0
 10
117.6930745148475
 20
-132.8947305982867
 30
0.0
 10
117.5091064159352
 20
-132.8714762037613
 30
0.0
 10
117.2614040505457
 20
-132.8694091464701
 30
0.0
 10
117.1366915939797
 20
-132.8694091464701
 30
0.0
  0
HATCH
  5
E1
330
D0
100
AcDbEntity
  8
レイヤー 1
 62
   250
420
  2299925
440
 33554687
100
AcDbHatch
 10
0.0
 20
0.0
 30
0.0
210
0.0
220
0.0
230
1.0
  2
SOLID
 70
     1
 71
     1
 91
        1
 92
        1
 93
        1
 72
     4
 94
        3
 73
     0
 74
     0
 95
       29
 96
       25
 40
0.0
 40
0.0
 40
0.0
 40
0.0
 40
1.0
 40
1.0
 40
1.0
 40
2.0
 40
2.0
 40
2.0
 40
3.0
 40
3.0
 40
3.0
 40
4.0
 40
4.0
 40
4.0
 40
5.0
 40
5.0
 40
5.0
 40
6.0
 40
6.0
 40
6.0
 40
7.0
 40
7.0
 40
7.0
 40
8.0
 40
8.0
 40
8.0
 40
8.0
 10
117.1366915939797
 20
-132.8694091464701
 10
117.1366915939797
 20
-132.8694091464701
 10
116.6523111687536
 20
-132.8694091464701
 10
116.6523111687536
 20
-132.8694091464701
 10
116.6247504048716
 20
-132.8694091464701
 10
116.3074571106801
 20
-132.8694091464701
 10
116.0959282478857
 20
-132.8947305982867
 10
116.0959282478857
 20
-132.8947305982867
 10
116.0959282478857
 20
-132.6642537103235
 10
116.0959282478857
 20
-132.6642537103235
 10
116.2544026402072
 20
-132.6875081048489
 10
116.4449164205415
 20
-132.6895751621401
 10
116.6523111687536
 20
-132.6895751621401
 10
116.6523111687536
 20
-132.6895751621401
 10
117.1366915939797
 20
-132.6895751621401
 10
117.1366915939797
 20
-132.6895751621401
 10
117.3227267501832
 20
-132.6895751621401
 10
117.5091064159352
 20
-132.6875081048489
 10
117.6930745148475
 20
-132.6642537103235
 10
117.6930745148475
 20
-132.6642537103235
 10
117.6930745148475
 20
-132.8947305982867
 10
117.6930745148475
 20
-132.8947305982867
 10
117.5091064159352
 20
-132.8714762037613
 10
117.2614040505457
 20
-132.8694091464701
 10
117.1366915939797
 20
-132.8694091464701
 97
        0
 97
        1
330
E0
 75
     2
 76
     1
 98
        1
 10
0.0
 20
0.0
450
        0
451
        0
460
0.0
461
0.0
452
        0
462
0.0
453
        0
470

  0
SPLINE
  5
E2
330
D0
100
AcDbEntity
  8
レイヤー 1
100
AcDbSpline
210
0.0
220
0.0
230
1.0
 70
     9
 71
     3
 72
    17
 73
    13
 74
     0
 42
0.0000000001
 43
0.0000000001
 40
0.0
 40
0.0
 40
0.0
 40
0.0
 40
1.0
 40
1.0
 40
1.0
 40
2.0
 40
2.0
 40
2.0
 40
3.0
 40
3.0
 40
3.0
 40
4.0
 40
4.0
 40
4.0
 40
4.0
 10
119.5554931341736
 20
-131.9025430985347
 30
0.0
 10
119.5007161159581
 20
-131.9025430985347
 30
0.0
 10
119.4562743841984
 20
-131.9469848302945
 30
0.0
 10
119.4562743841984
 20
-132.0021063580585
 30
0.0
 10
119.4562743841984
 20
-132.0591226883394
 30
0.0
 10
119.5007161159581
 20
-132.1078707894557
 30
0.0
 10
119.5596272487559
 20
-132.1078707894557
 30
0.0
 10
119.6188828911022
 20
-132.1078707894557
 30
0.0
 10
119.6591905082796
 20
-132.0570556310482
 30
0.0
 10
119.6591905082796
 20
-132.0041734153496
 30
0.0
 10
119.6591905082796
 20
-131.9469848302945
 30
0.0
 10
119.6126817192288
 20
-131.9025430985347
 30
0.0
 10
119.5554931341736
 20
-131.9025430985347
 30
0.0
  0
SPLINE
  5
E3
330
D0
100
AcDbEntity
  8
レイヤー 1
100
AcDbSpline
210
0.0
220
0.0
230
1.0
 70
     9
 71
     3
 72
    17
 73
    13
 74
     0
 42
0.0000000001
 43
0.0000000001
 40
0.0
 40
0.0
 40
0.0
 40
0.0
 40
1.0
 40
1.0
 40
1.0
 40
2.0
 40
2.0
 40
2.0
 40
3.0
 40
3.0
 40
3.0
 40
4.0
 40
4.0
 40
4.0
 40
4.0
 10
119.5575601914648
 20
-132.2325832460217
 30
0.0
 10
119.4307806776076
 20
-132.2325832460217
 30
0.0
 10
119.3291503607927
 20
-132.1311251839811
 30
0.0
 10
119.3291503607927
 20
-132.0041734153496
 30
0.0
 10
119.3291503607927
 20
-131.8772216467182
 30
0.0
 10
119.4307806776076
 20
-131.7735242726121
 30
0.0
 10
119.5575601914648
 20
-131.7735242726121
 30
0.0
 10
119.6846842148705
 20
-131.7735242726121
 30
0.0
 10
119.7883815889765
 20
-131.8772216467182
 30
0.0
 10
119.7883815889765
 20
-132.0041734153496
 30
0.0
 10
119.7883815889765
 20
-132.1311251839811
 30
0.0
 10
119.6846842148705
 20
-132.2325832460217
 30
0.0
 10
119.5575601914648
 20
-132.2325832460217
 30
0.0
  0
SPLINE
  5
E4
330
D0
100
AcDbEntity
  8
レイヤー 1
100
AcDbSpline
210
0.0
220
0.0
230
1.0
 70
     9
 71
     3
 72
    44
 73
    40
 74
     0
 42
0.0000000001
 43
0.0000000001
 40
0.0
 40
0.0
 40
0.0
 40
0.0
 40
1.0
 40
1.0
 40
1.0
 40
2.0
 40
2.0
 40
2.0
 40
3.0
 40
3.0
 40
3.0
 40
4.0
 40
4.0
 40
4.0
 40
5.0
 40
5.0
 40
5.0
 40
6.0
 40
6.0
 40
6.0
 40
7.0
 40
7.0
 40
7.0
 40
8.0
 40
8.0
 40
8.0
 40
9.0
 40
9.0
 40
9.0
 40
10.0
 40
10.0
 40
10.0
 40
11.0
 40
11.0
 40
11.0
 40
12.0
 40
12.0
 40
12.0
 40
13.0
 40
13.0
 40
13.0
 40
13.0
 10
119.3480983859616
 20
-132.4315375102949
 30
0.0
 10
119.236132782691
 20
-132.7996459628938
 30
0.0
 10
119.1854898790578
 20
-132.9582926099896
 30
0.0
 10
118.98877492685
 20
-133.2078897778959
 30
0.0
 10
118.8044623183891
 20
-133.4385389206334
 30
0.0
 10
118.5677842585525
 20
-133.6245740768369
 30
0.0
 10
118.2883870146987
 20
-133.7177639097129
 30
0.0
 10
118.2883870146987
 20
-133.7177639097129
 30
0.0
 10
118.0958061770732
 20
-133.5379299253829
 30
0.0
 10
118.0958061770732
 20
-133.5379299253829
 30
0.0
 10
118.7369384468782
 20
-133.3856567049348
 30
0.0
 10
119.0669785943652
 20
-132.829273784067
 30
0.0
 10
119.1303683512938
 20
-132.3891628358263
 30
0.0
 10
119.1303683512938
 20
-132.3891628358263
 30
0.0
 10
118.3645236249228
 20
-132.3891628358263
 30
0.0
 10
118.3645236249228
 20
-132.3891628358263
 30
0.0
 10
118.271506046821
 20
-132.3891628358263
 30
0.0
 10
118.0875379479086
 20
-132.3934692051829
 30
0.0
 10
117.9307861033298
 20
-132.4124172303517
 30
0.0
 10
117.9307861033298
 20
-132.4124172303517
 30
0.0
 10
117.9307861033298
 20
-132.1924478836185
 30
0.0
 10
117.9307861033298
 20
-132.1924478836185
 30
0.0
 10
118.0176025095581
 20
-132.2136352208528
 30
0.0
 10
118.2694389895299
 20
-132.2136352208528
 30
0.0
 10
118.368657739505
 20
-132.2136352208528
 30
0.0
 10
118.368657739505
 20
-132.2136352208528
 30
0.0
 10
118.8003282038069
 20
-132.2136352208528
 30
0.0
 10
118.8003282038069
 20
-132.2136352208528
 30
0.0
 10
118.8427028782754
 20
-132.2136352208528
 30
0.0
 10
119.0773138808209
 20
-132.2113959087874
 30
0.0
 10
119.1155544407072
 20
-132.205194736914
 30
0.0
 10
119.1579291151758
 20
-132.1988213102663
 30
0.0
 10
119.1599961724669
 20
-132.1967542529751
 30
0.0
 10
119.2213188721044
 20
-132.1564466357977
 30
0.0
 10
119.2213188721044
 20
-132.1564466357977
 30
0.0
 10
119.409421085599
 20
-132.3109591683111
 30
0.0
 10
119.409421085599
 20
-132.3109591683111
 30
0.0
 10
119.3801377739744
 20
-132.3405869894843
 30
0.0
 10
119.3653238633878
 20
-132.3722818679486
 30
0.0
 10
119.3480983859616
 20
-132.4315375102949
 30
0.0
  0
HATCH
  5
E5
330
D0
100
AcDbEntity
  8
レイヤー 1
 62
   250
420
  2299925
440
 33554687
100
AcDbHatch
 10
0.0
 20
0.0
 30
0.0
210
0.0
220
0.0
230
1.0
  2
SOLID
 70
     1
 71
     1
 91
        3
 92
        1
 93
        1
 72
     4
 94
        3
 73
     0
 74
     0
 95
       17
 96
       13
 40
0.0
 40
0.0
 40
0.0
 40
0.0
 40
1.0
 40
1.0
 40
1.0
 40
2.0
 40
2.0
 40
2.0
 40
3.0
 40
3.0
 40
3.0
 40
4.0
 40
4.0
 40
4.0
 40
4.0
 10
119.5554931341736
 20
-131.9025430985347
 10
119.5007161159581
 20
-131.9025430985347
 10
119.4562743841984
 20
-131.9469848302945
 10
119.4562743841984
 20
-132.0021063580585
 10
119.4562743841984
 20
-132.0591226883394
 10
119.5007161159581
 20
-132.1078707894557
 10
119.5596272487559
 20
-132.1078707894557
 10
119.6188828911022
 20
-132.1078707894557
 10
119.6591905082796
 20
-132.0570556310482
 10
119.6591905082796
 20
-132.0041734153496
 10
119.6591905082796
 20
-131.9469848302945
 10
119.6126817192288
 20
-131.9025430985347
 10
119.5554931341736
 20
-131.9025430985347
 97
        0
 97
        1
330
E2
 92
        1
 93
        1
 72
     4
 94
        3
 73
     0
 74
     0
 95
       17
 96
       13
 40
0.0
 40
0.0
 40
0.0
 40
0.0
 40
1.0
 40
1.0
 40
1.0
 40
2.0
 40
2.0
 40
2.0
 40
3.0
 40
3.0
 40
3.0
 40
4.0
 40
4.0
 40
4.0
 40
4.0
 10
119.5575601914648
 20
-132.2325832460217
 10
119.4307806776076
 20
-132.2325832460217
 10
119.3291503607927
 20
-132.1311251839811
 10
119.3291503607927
 20
-132.0041734153496
 10
119.3291503607927
 20
-131.8772216467182
 10
119.4307806776076
 20
-131.7735242726121
 10
119.5575601914648
 20
-131.7735242726121
 10
119.6846842148705
 20
-131.7735242726121
 10
119.7883815889765
 20
-131.8772216467182
 10
119.7883815889765
 20
-132.0041734153496
 10
119.7883815889765
 20
-132.1311251839811
 10
119.6846842148705
 20
-132.2325832460217
 10
119.5575601914648
 20
-132.2325832460217
 97
        0
 97
        1
330
E3
 92
        1
 93
        1
 72
     4
 94
        3
 73
     0
 74
     0
 95
       44
 96
       40
 40
0.0
 40
0.0
 40
0.0
 40
0.0
 40
1.0
 40
1.0
 40
1.0
 40
2.0
 40
2.0
 40
2.0
 40
3.0
 40
3.0
 40
3.0
 40
4.0
 40
4.0
 40
4.0
 40
5.0
 40
5.0
 40
5.0
 40
6.0
 40
6.0
 40
6.0
 40
7.0
 40
7.0
 40
7.0
 40
8.0
 40
8.0
 40
8.0
 40
9.0
 40
9.0
 40
9.0
 40
10.0
 40
10.0
 40
10.0
 40
11.0
 40
11.0
 40
11.0
 40
12.0
 40
12.0
 40
12.0
 40
13.0
 40
13.0
 40
13.0
 40
13.0
 10
119.3480983859616
 20
-132.4315375102949
 10
119.236132782691
 20
-132.7996459628938
 10
119.1854898790578
 20
-132.9582926099896
 10
118.98877492685
 20
-133.2078897778959
 10
118.8044623183891
 20
-133.4385389206334
 10
118.5677842585525
 20
-133.6245740768369
 10
118.2883870146987
 20
-133.7177639097129
 10
118.2883870146987
 20
-133.7177639097129
 10
118.0958061770732
 20
-133.5379299253829
 10
118.0958061770732
 20
-133.5379299253829
 10
118.7369384468782
 20
-133.3856567049348
 10
119.0669785943652
 20
-132.829273784067
 10
119.1303683512938
 20
-132.3891628358263
 10
119.1303683512938
 20
-132.3891628358263
 10
118.3645236249228
 20
-132.3891628358263
 10
118.3645236249228
 20
-132.3891628358263
 10
118.271506046821
 20
-132.3891628358263
 10
118.0875379479086
 20
-132.3934692051829
 10
117.9307861033298
 20
-132.4124172303517
 10
117.9307861033298
 20
-132.4124172303517
 10
117.9307861033298
 20
-132.1924478836185
 10
117.9307861033298
 20
-132.1924478836185
 10
118.0176025095581
 20
-132.2136352208528
 10
118.2694389895299
 20
-132.2136352208528
 10
118.368657739505
 20
-132.2136352208528
 10
118.368657739505
 20
-132.2136352208528
 10
118.8003282038069
 20
-132.2136352208528
 10
118.8003282038069
 20
-132.2136352208528
 10
118.8427028782754
 20
-132.2136352208528
 10
119.0773138808209
 20
-132.2113959087874
 10
119.1155544407072
 20
-132.205194736914
 10
119.1579291151758
 20
-132.1988213102663
 10
119.1599961724669
 20
-132.1967542529751
 10
119.2213188721044
 20
-132.1564466357977
 10
119.2213188721044
 20
-132.1564466357977
 10
119.409421085599
 20
-132.3109591683111
 10
119.409421085599
 20
-132.3109591683111
 10
119.3801377739744
 20
-132.3405869894843
 10
119.3653238633878
 20
-132.3722818679486
 10
119.3480983859616
 20
-132.4315375102949
 97
        0
 97
        1
330
E4
 75
     2
 76
     1
 98
        1
 10
0.0
 20
0.0
450
        0
451
        0
460
0.0
461
0.0
452
        0
462
0.0
453
        0
470

  0
ENDBLK
  5
D3
330
D0
100
AcDbEntity
  8
0
100
AcDbBlockEnd
  0
ENDSEC
  0
SECTION
  2
ENTITIES
  0
INSERT
  5
7A
330
70
100
AcDbEntity
  8
レイヤー 1
100
AcDbBlockReference
  2
Block_0
 10
0.0
 20
0.0
 30
0.0
  0
LINE
  5
C4
330
70
100
AcDbEntity
  8
レイヤー 1
  6
AI-Linetype-0
 62
   154
420
    23468
370
    25
100
AcDbLine
 10
112.0257436252143
 20
-135.3414990325444
 30
0.0
 11
102.3257436276392
 21
-135.3414990325444
 31
0.0
  0
INSERT
  5
C7
330
70
100
AcDbEntity
  8
レイヤー 1
100
AcDbBlockReference
  2
Block_8
 10
0.0
 20
0.0
 30
0.0
  0
INSERT
  5
CD
330
70
100
AcDbEntity
  8
レイヤー 1
100
AcDbBlockReference
  2
Block_9
 10
0.0
 20
0.0
 30
0.0
  0
ENDSEC
  0
SECTION
  2
OBJECTS
  0
DICTIONARY
  5
C
330
0
100
AcDbDictionary
281
     1
  3
ACAD_COLOR
350
63
  3
ACAD_DETAILVIEWSTYLE
350
6A
  3
ACAD_GROUP
350
D
  3
ACAD_LAYOUT
350
62
  3
ACAD_MATERIAL
350
10
  3
ACAD_MLEADERSTYLE
350
66
  3
ACAD_MLINESTYLE
350
5F
  3
ACAD_PLOTSETTINGS
350
61
  3
ACAD_PLOTSTYLENAME
350
E
  3
ACAD_SCALELIST
350
42
  3
ACAD_SECTIONVIEWSTYLE
350
68
  3
ACAD_TABLESTYLE
350
64
  3
ACAD_VISUALSTYLE
350
29
  3
ACDB_RECOMPOSE_DATA
350
EE
  3
AcDbVariableDictionary
350
E6
  0
DICTIONARY
  5
63
102
{ACAD_REACTORS
330
C
102
}
330
C
100
AcDbDictionary
281
     1
  0
DICTIONARY
  5
6A
102
{ACAD_REACTORS
330
C
102
}
330
C
100
AcDbDictionary
281
     1
  3
Imperial24
350
6B
  0
DICTIONARY
  5
D
102
{ACAD_REACTORS
330
C
102
}
330
C
100
AcDbDictionary
281
     1
  0
DICTIONARY
  5
62
102
{ACAD_REACTORS
330
C
102
}
330
C
100
AcDbDictionary
281
     1
  3
Layout1
350
6F
  3
Layout2
350
77
  3
Model
350
73
  0
DICTIONARY
  5
10
102
{ACAD_REACTORS
330
C
102
}
330
C
100
AcDbDictionary
281
     1
  3
ByBlock
350
19
  3
ByLayer
350
11
  3
Global
350
21
  0
DICTIONARY
  5
66
102
{ACAD_REACTORS
330
C
102
}
330
C
100
AcDbDictionary
281
     1
  3
Standard
350
67
  0
DICTIONARY
  5
5F
102
{ACAD_REACTORS
330
C
102
}
330
C
100
AcDbDictionary
281
     1
  3
Standard
350
60
  0
DICTIONARY
  5
61
102
{ACAD_REACTORS
330
C
102
}
330
C
100
AcDbDictionary
281
     1
  0
ACDBDICTIONARYWDFLT
  5
E
102
{ACAD_REACTORS
330
C
102
}
330
C
100
AcDbDictionary
281
     1
  3
Normal
350
F
100
AcDbDictionaryWithDefault
340
F
  0
DICTIONARY
  5
42
102
{ACAD_REACTORS
330
C
102
}
330
C
100
AcDbDictionary
281
     1
  3
A0
350
43
  3
A1
350
44
  3
A2
350
45
  3
A3
350
46
  3
A4
350
47
  3
A5
350
48
  3
A6
350
49
  3
A7
350
4A
  3
A8
350
4B
  3
A9
350
4C
  3
B0
350
4D
  3
B1
350
4E
  3
B2
350
4F
  3
B3
350
50
  3
B4
350
51
  3
B5
350
52
  3
B6
350
53
  0
DICTIONARY
  5
68
102
{ACAD_REACTORS
330
C
102
}
330
C
100
AcDbDictionary
281
     1
  3
Imperial24
350
69
  0
DICTIONARY
  5
64
102
{ACAD_REACTORS
330
C
102
}
330
C
100
AcDbDictionary
281
     1
  3
Standard
350
65
  0
DICTIONARY
  5
29
102
{ACAD_REACTORS
330
C
102
}
330
C
100
AcDbDictionary
281
     1
  3
2dWireframe
350
2F
  3
Basic
350
2E
  3
Brighten
350
35
  3
ColorChange
350
39
  3
Conceptual
350
32
  3
Dim
350
34
  3
EdgeColorOff
350
41
  3
Facepattern
350
38
  3
Flat
350
2A
  3
FlatWithEdges
350
2B
  3
Gouraud
350
2C
  3
GouraudWithEdges
350
2D
  3
Hidden
350
31
  3
JitterOff
350
3F
  3
Linepattern
350
37
  3
OverhangOff
350
40
  3
Realistic
350
33
  3
Shaded
350
3E
  3
Shaded with edges
350
3D
  3
Shades of Gray
350
3A
  3
Sketchy
350
3B
  3
Thicken
350
36
  3
Wireframe
350
30
  3
X-Ray
350
3C
  0
XRECORD
  5
EE
102
{ACAD_REACTORS
330
C
102
}
330
C
100
AcDbXrecord
280
     1
 90
        1
330
65
  0
DICTIONARY
  5
E6
102
{ACAD_REACTORS
330
C
102
}
330
C
100
AcDbDictionary
281
     1
  3
CANNOSCALE
350
EB
  3
CMLEADERSTYLE
350
E8
  3
CTABLESTYLE
350
E7
  3
CVIEWDETAILSTYLE
350
E9
  3
CVIEWSECTIONSTYLE
350
EA
  0
ACDBDETAILVIEWSTYLE
  5
6B
102
{ACAD_XDICTIONARY
360
123
102
}
102
{ACAD_REACTORS
330
6A
102
}
330
6A
100
AcDbModelDocViewStyle
 70
     0
  3
Imperial24
290
     0
100
AcDbDetailViewStyle
 70
     0
 71
     0
 90
        3
 71
     1
340
55
 62
   256
 40
0.24
340
0
 62
   256
 40
0.24
300

 40
0.36
280
     3
 71
     2
340
5D
 90
       25
 62
   256
 71
     3
340
55
 62
   256
 40
0.24
 90
        1
 40
0.75
 90
        1
300
%<\AcVar ViewType \f "%tc1">% %<\AcVar ViewDetailId>%\PSCALE %<\AcVar ViewScale \f "%sn">%
 71
     4
340
5D
 90
       25
 62
   256
340
5D
 90
       25
 62
   256
280
     0
  0
LAYOUT
  5
6F
102
{ACAD_REACTORS
330
62
102
}
330
62
100
AcDbPlotSettings
  1

  2

  4

  6

 40
0.0
 41
0.0
 42
0.0
 43
0.0
 44
0.0
 45
0.0
 46
0.0
 47
0.0
 48
0.0
 49
0.0
140
0.0
141
0.0
142
1.0
143
1.0
 70
   688
 72
     0
 73
     0
 74
     5
  7

 75
    16
147
1.0
 76
     0
 77
     2
 78
   300
148
0.0
149
0.0
100
AcDbLayout
  1
Layout1
 70
     1
 71
     1
 10
0.0
 20
0.0
 11
12.0
 21
9.0
 12
0.0
 22
0.0
 32
0.0
 14
0.0
 24
0.0
 34
0.0
 15
0.0
 25
0.0
 35
0.0
146
0.0
 13
0.0
 23
0.0
 33
0.0
 16
1.0
 26
0.0
 36
0.0
 17
0.0
 27
1.0
 37
0.0
 76
     0
330
6C
  0
LAYOUT
  5
77
102
{ACAD_REACTORS
330
62
102
}
330
62
100
AcDbPlotSettings
  1

  2

  4

  6

 40
0.0
 41
0.0
 42
0.0
 43
0.0
 44
0.0
 45
0.0
 46
0.0
 47
0.0
 48
0.0
 49
0.0
140
0.0
141
0.0
142
1.0
143
1.0
 70
   688
 72
     0
 73
     0
 74
     5
  7

 75
    16
147
1.0
 76
     0
 77
     2
 78
   300
148
0.0
149
0.0
100
AcDbLayout
  1
Layout2
 70
     1
 71
     2
 10
0.0
 20
0.0
 11
12.0
 21
9.0
 12
0.0
 22
0.0
 32
0.0
 14
0.0
 24
0.0
 34
0.0
 15
0.0
 25
0.0
 35
0.0
146
0.0
 13
0.0
 23
0.0
 33
0.0
 16
1.0
 26
0.0
 36
0.0
 17
0.0
 27
1.0
 37
0.0
 76
     0
330
74
  0
LAYOUT
  5
73
102
{ACAD_REACTORS
330
62
102
}
330
62
100
AcDbPlotSettings
  1

  2

  4

  6

 40
0.0
 41
0.0
 42
0.0
 43
0.0
 44
0.0
 45
0.0
 46
0.0
 47
0.0
 48
0.0
 49
0.0
140
0.0
141
0.0
142
1.0
143
1.0
 70
  1712
 72
     0
 73
     0
 74
     0
  7

 75
     0
147
1.0
 76
     0
 77
     2
 78
   300
148
0.0
149
0.0
100
AcDbLayout
  1
Model
 70
     1
 71
     0
 10
0.0
 20
0.0
 11
12.0
 21
9.0
 12
0.0
 22
0.0
 32
0.0
 14
0.0
 24
0.0
 34
0.0
 15
0.0
 25
0.0
 35
0.0
146
0.0
 13
0.0
 23
0.0
 33
0.0
 16
1.0
 26
0.0
 36
0.0
 17
0.0
 27
1.0
 37
0.0
 76
     0
330
70
  0
MATERIAL
  5
19
102
{ACAD_XDICTIONARY
360
1A
102
}
102
{ACAD_REACTORS
330
10
102
}
330
10
100
AcDbMaterial
  1
ByBlock
 72
     0
 43
0.0208333333333333
 43
0.0
 43
0.0
 43
0.0
 43
0.0
 43
0.0208333333333333
 43
0.0
 43
0.0
 43
0.0
 43
0.0
 43
1.0
 43
0.0
 43
0.0
 43
0.0
 43
0.0
 43
1.0
 77
     0
 47
0.0208333333333333
 47
0.0
 47
0.0
 47
0.0
 47
0.0
 47
0.0208333333333333
 47
0.0
 47
0.0
 47
0.0
 47
0.0
 47
1.0
 47
0.0
 47
0.0
 47
0.0
 47
0.0
 47
1.0
171
     0
 49
0.0208333333333333
 49
0.0
 49
0.0
 49
0.0
 49
0.0
 49
0.0208333333333333
 49
0.0
 49
0.0
 49
0.0
 49
0.0
 49
1.0
 49
0.0
 49
0.0
 49
0.0
 49
0.0
 49
1.0
175
     0
142
0.0208333333333333
142
0.0
142
0.0
142
0.0
142
0.0
142
0.0208333333333333
142
0.0
142
0.0
142
0.0
142
0.0
142
1.0
142
0.0
142
0.0
142
0.0
142
0.0
142
1.0
179
     0
144
0.0208333333333333
144
0.0
144
0.0
144
0.0
144
0.0
144
0.0208333333333333
144
0.0
144
0.0
144
0.0
144
0.0
144
1.0
144
0.0
144
0.0
144
0.0
144
0.0
144
1.0
147
0.0208333333333333
147
0.0
147
0.0
147
0.0
147
0.0
147
0.0208333333333333
147
0.0
147
0.0
147
0.0
147
0.0
147
1.0
147
0.0
147
0.0
147
0.0
147
0.0
147
1.0
  0
MATERIAL
  5
11
102
{ACAD_XDICTIONARY
360
12
102
}
102
{ACAD_REACTORS
330
10
102
}
330
10
100
AcDbMaterial
  1
ByLayer
 72
     0
 43
0.0208333333333333
 43
0.0
 43
0.0
 43
0.0
 43
0.0
 43
0.0208333333333333
 43
0.0
 43
0.0
 43
0.0
 43
0.0
 43
1.0
 43
0.0
 43
0.0
 43
0.0
 43
0.0
 43
1.0
 77
     0
 47
0.0208333333333333
 47
0.0
 47
0.0
 47
0.0
 47
0.0
 47
0.0208333333333333
 47
0.0
 47
0.0
 47
0.0
 47
0.0
 47
1.0
 47
0.0
 47
0.0
 47
0.0
 47
0.0
 47
1.0
171
     0
 49
0.0208333333333333
 49
0.0
 49
0.0
 49
0.0
 49
0.0
 49
0.0208333333333333
 49
0.0
 49
0.0
 49
0.0
 49
0.0
 49
1.0
 49
0.0
 49
0.0
 49
0.0
 49
0.0
 49
1.0
175
     0
142
0.0208333333333333
142
0.0
142
0.0
142
0.0
142
0.0
142
0.0208333333333333
142
0.0
142
0.0
142
0.0
142
0.0
142
1.0
142
0.0
142
0.0
142
0.0
142
0.0
142
1.0
179
     0
144
0.0208333333333333
144
0.0
144
0.0
144
0.0
144
0.0
144
0.0208333333333333
144
0.0
144
0.0
144
0.0
144
0.0
144
1.0
144
0.0
144
0.0
144
0.0
144
0.0
144
1.0
147
0.0208333333333333
147
0.0
147
0.0
147
0.0
147
0.0
147
0.0208333333333333
147
0.0
147
0.0
147
0.0
147
0.0
147
1.0
147
0.0
147
0.0
147
0.0
147
0.0
147
1.0
  0
MATERIAL
  5
21
102
{ACAD_XDICTIONARY
360
22
102
}
102
{ACAD_REACTORS
330
10
102
}
330
10
100
AcDbMaterial
  1
Global
 72
     0
 43
0.0208333333333333
 43
0.0
 43
0.0
 43
0.0
 43
0.0
 43
0.0208333333333333
 43
0.0
 43
0.0
 43
0.0
 43
0.0
 43
1.0
 43
0.0
 43
0.0
 43
0.0
 43
0.0
 43
1.0
 77
     0
 47
0.0208333333333333
 47
0.0
 47
0.0
 47
0.0
 47
0.0
 47
0.0208333333333333
 47
0.0
 47
0.0
 47
0.0
 47
0.0
 47
1.0
 47
0.0
 47
0.0
 47
0.0
 47
0.0
 47
1.0
171
     0
 49
0.0208333333333333
 49
0.0
 49
0.0
 49
0.0
 49
0.0
 49
0.0208333333333333
 49
0.0
 49
0.0
 49
0.0
 49
0.0
 49
1.0
 49
0.0
 49
0.0
 49
0.0
 49
0.0
 49
1.0
175
     0
142
0.0208333333333333
142
0.0
142
0.0
142
0.0
142
0.0
142
0.0208333333333333
142
0.0
142
0.0
142
0.0
142
0.0
142
1.0
142
0.0
142
0.0
142
0.0
142
0.0
142
1.0
179
     0
144
0.0208333333333333
144
0.0
144
0.0
144
0.0
144
0.0
144
0.0208333333333333
144
0.0
144
0.0
144
0.0
144
0.0
144
1.0
144
0.0
144
0.0
144
0.0
144
0.0
144
1.0
147
0.0208333333333333
147
0.0
147
0.0
147
0.0
147
0.0
147
0.0208333333333333
147
0.0
147
0.0
147
0.0
147
0.0
147
1.0
147
0.0
147
0.0
147
0.0
147
0.0
147
1.0
  0
MLEADERSTYLE
  5
67
102
{ACAD_XDICTIONARY
360
11F
102
}
102
{ACAD_REACTORS
330
66
102
}
330
66
100
AcDbMLeaderStyle
179
     2
170
     2
171
     1
172
     0
 90
        2
 40
0.0
 41
0.0
173
     1
 91
-1056964608
340
5B
 92
       -2
290
     1
 42
0.09
291
     1
 43
0.36
  3
Standard
 44
0.18
300

342
55
174
     1
178
     6
175
     1
176
     0
 93
-1056964608
 45
0.18
292
     0
297
     0
 46
0.18
 94
-1056964608
 47
1.0
 49
1.0
140
1.0
293
     1
141
0.0
294
     1
177
     0
142
1.0
295
     0
296
     0
143
0.125
271
     0
272
     9
273
     9
  0
MLINESTYLE
  5
60
102
{ACAD_REACTORS
330
5F
102
}
330
5F
100
AcDbMlineStyle
  2
STANDARD
 70
     0
  3

 62
   256
 51
90.0
 52
90.0
 71
     2
 49
0.5
 62
   256
  6
BYLAYER
 49
-0.5
 62
   256
  6
BYLAYER
  0
ACDBPLACEHOLDER
  5
F
102
{ACAD_REACTORS
330
E
102
}
330
E
  0
SCALE
  5
43
102
{ACAD_REACTORS
330
42
102
}
330
42
100
AcDbScale
 70
     0
300
1:1
140
1.0
141
1.0
290
     1
  0
SCALE
  5
44
102
{ACAD_REACTORS
330
42
102
}
330
42
100
AcDbScale
 70
     0
300
1/128" = 1'-0"
140
0.0078125
141
12.0
290
     0
  0
SCALE
  5
45
102
{ACAD_REACTORS
330
42
102
}
330
42
100
AcDbScale
 70
     0
300
1/64" = 1'-0"
140
0.015625
141
12.0
290
     0
  0
SCALE
  5
46
102
{ACAD_REACTORS
330
42
102
}
330
42
100
AcDbScale
 70
     0
300
1/32" = 1'-0"
140
0.03125
141
12.0
290
     0
  0
SCALE
  5
47
102
{ACAD_REACTORS
330
42
102
}
330
42
100
AcDbScale
 70
     0
300
1/16" = 1'-0"
140
0.0625
141
12.0
290
     0
  0
SCALE
  5
48
102
{ACAD_REACTORS
330
42
102
}
330
42
100
AcDbScale
 70
     0
300
3/32" = 1'-0"
140
0.09375
141
12.0
290
     0
  0
SCALE
  5
49
102
{ACAD_REACTORS
330
42
102
}
330
42
100
AcDbScale
 70
     0
300
1/8" = 1'-0"
140
0.125
141
12.0
290
     0
  0
SCALE
  5
4A
102
{ACAD_REACTORS
330
42
102
}
330
42
100
AcDbScale
 70
     0
300
3/16" = 1'-0"
140
0.1875
141
12.0
290
     0
  0
SCALE
  5
4B
102
{ACAD_REACTORS
330
42
102
}
330
42
100
AcDbScale
 70
     0
300
1/4" = 1'-0"
140
0.25
141
12.0
290
     0
  0
SCALE
  5
4C
102
{ACAD_REACTORS
330
42
102
}
330
42
100
AcDbScale
 70
     0
300
3/8" = 1'-0"
140
0.375
141
12.0
290
     0
  0
SCALE
  5
4D
102
{ACAD_REACTORS
330
42
102
}
330
42
100
AcDbScale
 70
     0
300
1/2" = 1'-0"
140
0.5
141
12.0
290
     0
  0
SCALE
  5
4E
102
{ACAD_REACTORS
330
42
102
}
330
42
100
AcDbScale
 70
     0
300
3/4" = 1'-0"
140
0.75
141
12.0
290
     0
  0
SCALE
  5
4F
102
{ACAD_REACTORS
330
42
102
}
330
42
100
AcDbScale
 70
     0
300
1" = 1'-0"
140
1.0
141
12.0
290
     0
  0
SCALE
  5
50
102
{ACAD_REACTORS
330
42
102
}
330
42
100
AcDbScale
 70
     0
300
1-1/2" = 1'-0"
140
1.5
141
12.0
290
     0
  0
SCALE
  5
51
102
{ACAD_REACTORS
330
42
102
}
330
42
100
AcDbScale
 70
     0
300
3" = 1'-0"
140
3.0
141
12.0
290
     0
  0
SCALE
  5
52
102
{ACAD_REACTORS
330
42
102
}
330
42
100
AcDbScale
 70
     0
300
6" = 1'-0"
140
6.0
141
12.0
290
     0
  0
SCALE
  5
53
102
{ACAD_REACTORS
330
42
102
}
330
42
100
AcDbScale
 70
     0
300
1'-0" = 1'-0"
140
12.0
141
12.0
290
     0
  0
ACDBSECTIONVIEWSTYLE
  5
69
102
{ACAD_XDICTIONARY
360
121
102
}
102
{ACAD_REACTORS
330
68
102
}
330
68
100
AcDbModelDocViewStyle
 70
     0
  3
Imperial24
290
     0
100
AcDbSectionViewStyle
 70
     0
 71
     0
 90
       78
 71
     1
340
55
 62
   256
 40
0.24
340
0
340
0
 62
   256
 40
0.24
300
I, O, Q, S, X, Z
 40
0.48
 90
        3
 40
0.18
 90
        1
 71
     2
340
5D
 90
       25
 62
   256
340
5D
 90
       50
 62
   256
 40
0.24
 40
0.0
 40
0.24
 71
     3
340
55
 62
   256
 40
0.24
 90
        1
 40
0.75
 90
        1
300
%<\AcVar ViewType \f "%tc1">% %<\AcVar ViewSectionStartId>%-%<\AcVar ViewSectionEndId>%\PSCALE %<\AcVar ViewScale \f "%sn">%
 71
     4
 62
   256
 62
   257
300
ANSI31
 40
1.0
 90
        0
290
     0
290
     0
 90
        6
 40
0.0
 40
1.570796326794896
 40
0.2617993877991494
 40
1.308996938995747
 40
-0.2617993877991494
 40
1.832595714594046
  0
TABLESTYLE
  5
65
102
{ACAD_XDICTIONARY
360
EC
102
}
102
{ACAD_REACTORS
330
64
102
}
330
64
100
AcDbTableStyle
280
     0
  3
Standard
 70
     0
 71
     0
 40
0.06
 41
0.06
280
     0
281
     0
  7
Standard
140
0.18
170
     2
 62
     0
 63
     7
283
     0
 90
      512
 91
        0
  1

274
    -2
284
     1
 64
     0
275
    -2
285
     1
 65
     0
276
    -2
286
     1
 66
     0
277
    -2
287
     1
 67
     0
278
    -2
288
     1
 68
     0
279
    -2
289
     1
 69
     0
  7
Standard
140
0.25
170
     5
 62
     0
 63
     7
283
     0
 90
      512
 91
        0
  1

274
    -2
284
     1
 64
     0
275
    -2
285
     1
 65
     0
276
    -2
286
     1
 66
     0
277
    -2
287
     1
 67
     0
278
    -2
288
     1
 68
     0
279
    -2
289
     1
 69
     0
  7
Standard
140
0.18
170
     5
 62
     0
 63
     7
283
     0
 90
      512
 91
        0
  1

274
    -2
284
     1
 64
     0
275
    -2
285
     1
 65
     0
276
    -2
286
     1
 66
     0
277
    -2
287
     1
 67
     0
278
    -2
288
     1
 68
     0
279
    -2
289
     1
 69
     0
  0
VISUALSTYLE
  5
2F
102
{ACAD_XDICTIONARY
360
F9
102
}
102
{ACAD_REACTORS
330
29
102
}
330
29
100
AcDbVisualStyle
  2
2dWireframe
 70
     4
177
     2
291
     0
 71
     0
176
     1
 72
     2
176
     1
 73
     0
176
     1
 90
        0
176
     1
 40
0.6
176
     1
 41
30.0
176
     1
 63
     7
421
 16777215
176
     1
 74
     1
176
     1
 91
        4
176
     1
 64
     7
176
     1
 65
   257
176
     1
 75
     1
176
     1
175
     1
176
     1
 42
1.0
176
     1
 92
        0
176
     1
 66
   257
176
     1
 43
1.0
176
     1
 76
     1
176
     1
 77
     6
176
     1
 78
     2
176
     1
 67
     7
176
     1
 79
     5
176
     1
170
     0
176
     1
171
     0
176
     1
290
     0
176
     1
 93
        1
176
     1
 44
0.0
176
     1
173
     0
176
     1
1001
ACAD
1000
AcDbSavedByObjectVersion
1070
     0
  0
VISUALSTYLE
  5
2E
102
{ACAD_XDICTIONARY
360
F7
102
}
102
{ACAD_REACTORS
330
29
102
}
330
29
100
AcDbVisualStyle
  2
Basic
 70
     7
177
     2
291
     1
 71
     1
176
     1
 72
     0
176
     1
 73
     1
176
     1
 90
        0
176
     1
 40
0.6
176
     1
 41
30.0
176
     1
 63
     7
421
 16777215
176
     1
 74
     0
176
     1
 91
        4
176
     1
 64
     7
176
     1
 65
   257
176
     1
 75
     1
176
     1
175
     1
176
     1
 42
1.0
176
     1
 92
        8
176
     1
 66
     7
176
     1
 43
1.0
176
     1
 76
     1
176
     1
 77
     6
176
     1
 78
     2
176
     1
 67
     7
176
     1
 79
     5
176
     1
170
     0
176
     1
171
     0
176
     1
290
     0
176
     1
 93
        1
176
     1
 44
0.0
176
     1
173
     0
176
     1
1001
ACAD
1000
AcDbSavedByObjectVersion
1070
     0
  0
VISUALSTYLE
  5
35
102
{ACAD_XDICTIONARY
360
105
102
}
102
{ACAD_REACTORS
330
29
102
}
330
29
100
AcDbVisualStyle
  2
Brighten
 70
    12
177
     2
291
     1
 71
     2
176
     1
 72
     2
176
     1
 73
     0
176
     1
 90
        0
176
     1
 40
0.6
176
     1
 41
30.0
176
     1
 63
     7
421
 16777215
176
     1
 74
     1
176
     1
 91
        4
176
     1
 64
     7
176
     1
 65
   257
176
     1
 75
     1
176
     1
175
     1
176
     1
 42
1.0
176
     1
 92
        8
176
     1
 66
     7
176
     1
 43
1.0
176
     1
 76
     1
176
     1
 77
     6
176
     1
 78
     2
176
     1
 67
     7
176
     1
 79
     5
176
     1
170
     0
176
     1
171
     0
176
     1
290
     0
176
     1
 93
        1
176
     1
 44
50.0
176
     1
173
     0
176
     1
1001
ACAD
1000
AcDbSavedByObjectVersion
1070
     0
  0
VISUALSTYLE
  5
39
102
{ACAD_XDICTIONARY
360
10D
102
}
102
{ACAD_REACTORS
330
29
102
}
330
29
100
AcDbVisualStyle
  2
ColorChange
 70
    16
177
     2
291
     1
 71
     2
176
     1
 72
     2
176
     1
 73
     3
176
     1
 90
        0
176
     1
 40
0.6
176
     1
 41
30.0
176
     1
 63
     8
421
  8421504
176
     1
 74
     1
176
     1
 91
        4
176
     1
 64
     7
176
     1
 65
   257
176
     1
 75
     1
176
     1
175
     1
176
     1
 42
1.0
176
     1
 92
        8
176
     1
 66
     8
424
  8421504
176
     1
 43
1.0
176
     1
 76
     1
176
     1
 77
     6
176
     1
 78
     2
176
     1
 67
     7
176
     1
 79
     5
176
     1
170
     0
176
     1
171
     0
176
     1
290
     0
176
     1
 93
        1
176
     1
 44
0.0
176
     1
173
     0
176
     1
1001
ACAD
1000
AcDbSavedByObjectVersion
1070
     0
  0
VISUALSTYLE
  5
32
102
{ACAD_XDICTIONARY
360
FF
102
}
102
{ACAD_REACTORS
330
29
102
}
330
29
100
AcDbVisualStyle
  2
Conceptual
 70
     9
177
     2
291
     0
 71
     3
176
     1
 72
     2
176
     1
 73
     0
176
     1
 90
        0
176
     1
 40
0.6
176
     1
 41
30.0
176
     1
 63
     7
421
 16777215
176
     1
 74
     2
176
     1
 91
        2
176
     1
 64
     7
176
     1
 65
   257
176
     1
 75
     1
176
     1
175
     1
176
     1
 42
179.0
176
     1
 92
        8
176
     1
 66
     7
176
     1
 43
1.0
176
     1
 76
     1
176
     1
 77
     6
176
     1
 78
     2
176
     1
 67
     7
176
     1
 79
     3
176
     1
170
     0
176
     1
171
     0
176
     1
290
     0
176
     1
 93
        1
176
     1
 44
0.0
176
     1
173
     0
176
     1
1001
ACAD
1000
AcDbSavedByObjectVersion
1070
     0
  0
VISUALSTYLE
  5
34
102
{ACAD_XDICTIONARY
360
103
102
}
102
{ACAD_REACTORS
330
29
102
}
330
29
100
AcDbVisualStyle
  2
Dim
 70
    11
177
     2
291
     1
 71
     2
176
     1
 72
     2
176
     1
 73
     0
176
     1
 90
        0
176
     1
 40
0.6
176
     1
 41
30.0
176
     1
 63
     7
421
 16777215
176
     1
 74
     1
176
     1
 91
        4
176
     1
 64
     7
176
     1
 65
   257
176
     1
 75
     1
176
     1
175
     1
176
     1
 42
1.0
176
     1
 92
        8
176
     1
 66
     7
176
     1
 43
1.0
176
     1
 76
     1
176
     1
 77
     6
176
     1
 78
     2
176
     1
 67
     7
176
     1
 79
     5
176
     1
170
     0
176
     1
171
     0
176
     1
290
     0
176
     1
 93
        1
176
     1
 44
-50.0
176
     1
173
     0
176
     1
1001
ACAD
1000
AcDbSavedByObjectVersion
1070
     0
  0
VISUALSTYLE
  5
41
102
{ACAD_XDICTIONARY
360
11D
102
}
102
{ACAD_REACTORS
330
29
102
}
330
29
100
AcDbVisualStyle
  2
EdgeColorOff
 70
    22
177
     2
291
     1
 71
     2
176
     0
 72
     2
176
     0
 73
     0
176
     0
 90
        0
176
     0
 40
0.6
176
     0
 41
30.0
176
     0
 63
     7
421
 16777215
176
     0
 74
     1
176
     0
 91
        4
176
     0
 64
     7
176
     0
 65
   257
176
     0
 75
     1
176
     0
175
     1
176
     0
 42
1.0
176
     0
 92
        8
176
     2
 66
     7
176
     0
 43
1.0
176
     0
 76
     1
176
     0
 77
     6
176
     0
 78
     2
176
     0
 67
     7
176
     0
 79
     5
176
     0
170
     0
176
     0
171
     0
176
     0
290
     0
176
     0
 93
        1
176
     0
 44
0.0
176
     0
173
     0
176
     0
1001
ACAD
1000
AcDbSavedByObjectVersion
1070
     0
  0
VISUALSTYLE
  5
38
102
{ACAD_XDICTIONARY
360
10B
102
}
102
{ACAD_REACTORS
330
29
102
}
330
29
100
AcDbVisualStyle
  2
Facepattern
 70
    15
177
     2
291
     1
 71
     2
176
     1
 72
     2
176
     1
 73
     0
176
     1
 90
        0
176
     1
 40
0.6
176
     1
 41
30.0
176
     1
 63
     7
421
 16777215
176
     1
 74
     1
176
     1
 91
        4
176
     1
 64
     7
176
     1
 65
   257
176
     1
 75
     1
176
     1
175
     1
176
     1
 42
1.0
176
     1
 92
        8
176
     1
 66
     7
176
     1
 43
1.0
176
     1
 76
     1
176
     1
 77
     6
176
     1
 78
     2
176
     1
 67
     7
176
     1
 79
     5
176
     1
170
     0
176
     1
171
     0
176
     1
290
     0
176
     1
 93
        1
176
     1
 44
0.0
176
     1
173
     0
176
     1
1001
ACAD
1000
AcDbSavedByObjectVersion
1070
     0
  0
VISUALSTYLE
  5
2A
102
{ACAD_XDICTIONARY
360
EF
102
}
102
{ACAD_REACTORS
330
29
102
}
330
29
100
AcDbVisualStyle
  2
Flat
 70
     0
177
     2
291
     1
 71
     2
176
     1
 72
     1
176
     1
 73
     1
176
     1
 90
        2
176
     1
 40
0.6
176
     1
 41
30.0
176
     1
 63
     7
421
 16777215
176
     1
 74
     0
176
     1
 91
        0
176
     1
 64
     7
176
     1
 65
   257
176
     1
 75
     1
176
     1
175
     1
176
     1
 42
1.0
176
     1
 92
        8
176
     1
 66
     7
176
     1
 43
1.0
176
     1
 76
     1
176
     1
 77
     6
176
     1
 78
     2
176
     1
 67
     7
176
     1
 79
     5
176
     1
170
     0
176
     1
171
     0
176
     1
290
     0
176
     1
 93
       13
176
     1
 44
0.0
176
     1
173
     0
176
     1
1001
ACAD
1000
AcDbSavedByObjectVersion
1070
     0
  0
VISUALSTYLE
  5
2B
102
{ACAD_XDICTIONARY
360
F1
102
}
102
{ACAD_REACTORS
330
29
102
}
330
29
100
AcDbVisualStyle
  2
FlatWithEdges
 70
     1
177
     2
291
     1
 71
     2
176
     1
 72
     1
176
     1
 73
     1
176
     1
 90
        2
176
     1
 40
0.6
176
     1
 41
30.0
176
     1
 63
     7
421
 16777215
176
     1
 74
     1
176
     1
 91
        0
176
     1
 64
     7
176
     1
 65
   257
176
     1
 75
     1
176
     1
175
     1
176
     1
 42
1.0
176
     1
 92
        0
176
     1
 66
   257
176
     1
 43
1.0
176
     1
 76
     1
176
     1
 77
     6
176
     1
 78
     2
176
     1
 67
     7
176
     1
 79
     5
176
     1
170
     0
176
     1
171
     0
176
     1
290
     0
176
     1
 93
       13
176
     1
 44
0.0
176
     1
173
     0
176
     1
1001
ACAD
1000
AcDbSavedByObjectVersion
1070
     0
  0
VISUALSTYLE
  5
2C
102
{ACAD_XDICTIONARY
360
F3
102
}
102
{ACAD_REACTORS
330
29
102
}
330
29
100
AcDbVisualStyle
  2
Gouraud
 70
     2
177
     2
291
     1
 71
     2
176
     1
 72
     2
176
     1
 73
     1
176
     1
 90
        2
176
     1
 40
0.6
176
     1
 41
30.0
176
     1
 63
     7
421
 16777215
176
     1
 74
     0
176
     1
 91
        0
176
     1
 64
     7
176
     1
 65
   257
176
     1
 75
     1
176
     1
175
     1
176
     1
 42
1.0
176
     1
 92
        0
176
     1
 66
     7
176
     1
 43
1.0
176
     1
 76
     1
176
     1
 77
     6
176
     1
 78
     2
176
     1
 67
     7
176
     1
 79
     5
176
     1
170
     0
176
     1
171
     0
176
     1
290
     0
176
     1
 93
       13
176
     1
 44
0.0
176
     1
173
     0
176
     1
1001
ACAD
1000
AcDbSavedByObjectVersion
1070
     0
  0
VISUALSTYLE
  5
2D
102
{ACAD_XDICTIONARY
360
F5
102
}
102
{ACAD_REACTORS
330
29
102
}
330
29
100
AcDbVisualStyle
  2
GouraudWithEdges
 70
     3
177
     2
291
     1
 71
     2
176
     1
 72
     2
176
     1
 73
     1
176
     1
 90
        2
176
     1
 40
0.6
176
     1
 41
30.0
176
     1
 63
     7
421
 16777215
176
     1
 74
     1
176
     1
 91
        0
176
     1
 64
     7
176
     1
 65
   257
176
     1
 75
     1
176
     1
175
     1
176
     1
 42
1.0
176
     1
 92
        0
176
     1
 66
   257
176
     1
 43
1.0
176
     1
 76
     1
176
     1
 77
     6
176
     1
 78
     2
176
     1
 67
     7
176
     1
 79
     5
176
     1
170
     0
176
     1
171
     0
176
     1
290
     0
176
     1
 93
       13
176
     1
 44
0.0
176
     1
173
     0
176
     1
1001
ACAD
1000
AcDbSavedByObjectVersion
1070
     0
  0
VISUALSTYLE
  5
31
102
{ACAD_XDICTIONARY
360
FD
102
}
102
{ACAD_REACTORS
330
29
102
}
330
29
100
AcDbVisualStyle
  2
Hidden
 70
     6
177
     2
291
     0
 71
     1
176
     1
 72
     2
176
     1
 73
     2
176
     1
 90
        0
176
     1
 40
0.6
176
     1
 41
30.0
176
     1
 63
     7
421
 16777215
176
     1
 74
     2
176
     1
 91
        2
176
     1
 64
     7
176
     1
 65
   257
176
     1
 75
     2
176
     1
175
     1
176
     1
 42
40.0
176
     1
 92
        0
176
     1
 66
   257
176
     1
 43
1.0
176
     1
 76
     1
176
     1
 77
     6
176
     1
 78
     2
176
     1
 67
     7
176
     1
 79
     3
176
     1
170
     0
176
     1
171
     0
176
     1
290
     0
176
     1
 93
        1
176
     1
 44
0.0
176
     1
173
     0
176
     1
1001
ACAD
1000
AcDbSavedByObjectVersion
1070
     0
  0
VISUALSTYLE
  5
3F
102
{ACAD_XDICTIONARY
360
119
102
}
102
{ACAD_REACTORS
330
29
102
}
330
29
100
AcDbVisualStyle
  2
JitterOff
 70
    20
177
     2
291
     1
 71
     2
176
     0
 72
     2
176
     0
 73
     0
176
     0
 90
        0
176
     0
 40
0.6
176
     0
 41
30.0
176
     0
 63
     7
421
 16777215
176
     0
 74
     1
176
     0
 91
        4
176
     0
 64
     7
176
     0
 65
   257
176
     0
 75
     1
176
     0
175
     1
176
     0
 42
1.0
176
     0
 92
       10
176
     2
 66
     7
176
     0
 43
1.0
176
     0
 76
     1
176
     0
 77
     6
176
     0
 78
     2
176
     0
 67
     7
176
     0
 79
     5
176
     0
170
     0
176
     0
171
     0
176
     0
290
     0
176
     0
 93
        1
176
     0
 44
0.0
176
     0
173
     0
176
     0
1001
ACAD
1000
AcDbSavedByObjectVersion
1070
     0
  0
VISUALSTYLE
  5
37
102
{ACAD_XDICTIONARY
360
109
102
}
102
{ACAD_REACTORS
330
29
102
}
330
29
100
AcDbVisualStyle
  2
Linepattern
 70
    14
177
     2
291
     1
 71
     2
176
     1
 72
     2
176
     1
 73
     0
176
     1
 90
        0
176
     1
 40
0.6
176
     1
 41
30.0
176
     1
 63
     7
421
 16777215
176
     1
 74
     1
176
     1
 91
        4
176
     1
 64
     7
176
     1
 65
   257
176
     1
 75
     7
176
     1
175
     7
176
     1
 42
1.0
176
     1
 92
        8
176
     1
 66
     7
176
     1
 43
1.0
176
     1
 76
     1
176
     1
 77
     6
176
     1
 78
     2
176
     1
 67
     7
176
     1
 79
     5
176
     1
170
     0
176
     1
171
     0
176
     1
290
     0
176
     1
 93
        1
176
     1
 44
0.0
176
     1
173
     0
176
     1
1001
ACAD
1000
AcDbSavedByObjectVersion
1070
     0
  0
VISUALSTYLE
  5
40
102
{ACAD_XDICTIONARY
360
11B
102
}
102
{ACAD_REACTORS
330
29
102
}
330
29
100
AcDbVisualStyle
  2
OverhangOff
 70
    21
177
     2
291
     1
 71
     2
176
     0
 72
     2
176
     0
 73
     0
176
     0
 90
        0
176
     0
 40
0.6
176
     0
 41
30.0
176
     0
 63
     7
421
 16777215
176
     0
 74
     1
176
     0
 91
        4
176
     0
 64
     7
176
     0
 65
   257
176
     0
 75
     1
176
     0
175
     1
176
     0
 42
1.0
176
     0
 92
        9
176
     2
 66
     7
176
     0
 43
1.0
176
     0
 76
     1
176
     0
 77
     6
176
     0
 78
     2
176
     0
 67
     7
176
     0
 79
     5
176
     0
170
     0
176
     0
171
     0
176
     0
290
     0
176
     0
 93
        1
176
     0
 44
0.0
176
     0
173
     0
176
     0
1001
ACAD
1000
AcDbSavedByObjectVersion
1070
     0
  0
VISUALSTYLE
  5
33
102
{ACAD_XDICTIONARY
360
101
102
}
102
{ACAD_REACTORS
330
29
102
}
330
29
100
AcDbVisualStyle
  2
Realistic
 70
     8
177
     2
291
     0
 71
     2
176
     1
 72
     3
176
     1
 73
     0
176
     1
 90
        2
176
     1
 40
0.6
176
     1
 41
30.0
176
     1
 63
     7
421
 16777215
176
     1
 74
     0
176
     1
 91
        0
176
     1
 64
     7
176
     1
 65
   257
176
     1
 75
     1
176
     1
175
     1
176
     1
 42
1.0
176
     1
 92
        8
176
     1
 66
   257
176
     1
 43
1.0
176
     1
 76
     1
176
     1
 77
     6
176
     1
 78
     2
176
     1
 67
     7
176
     1
 79
     3
176
     1
170
     0
176
     1
171
     0
176
     1
290
     0
176
     1
 93
       13
176
     1
 44
0.0
176
     1
173
     0
176
     1
1001
ACAD
1000
AcDbSavedByObjectVersion
1070
     0
  0
VISUALSTYLE
  5
3E
102
{ACAD_XDICTIONARY
360
117
102
}
102
{ACAD_REACTORS
330
29
102
}
330
29
100
AcDbVisualStyle
  2
Shaded
 70
    27
177
     2
291
     0
 71
     2
176
     1
 72
     2
176
     1
 73
     1
176
     1
 90
        2
176
     1
 40
0.6
176
     1
 41
30.0
176
     1
 63
     7
421
 16777215
176
     1
 74
     0
176
     1
 91
        4
176
     1
 64
     7
176
     1
 65
   257
176
     1
 75
     1
176
     1
175
     1
176
     1
 42
1.0
176
     1
 92
        8
176
     1
 66
   257
176
     1
 43
1.0
176
     1
 76
     1
176
     1
 77
     6
176
     1
 78
     2
176
     1
 67
     8
425
  7895160
176
     1
 79
     3
176
     1
170
     0
176
     1
171
     0
176
     1
290
     0
176
     1
 93
        5
176
     1
 44
0.0
176
     1
173
     0
176
     1
1001
ACAD
1000
AcDbSavedByObjectVersion
1070
     0
  0
VISUALSTYLE
  5
3D
102
{ACAD_XDICTIONARY
360
115
102
}
102
{ACAD_REACTORS
330
29
102
}
330
29
100
AcDbVisualStyle
  2
Shaded with edges
 70
    26
177
     2
291
     0
 71
     2
176
     1
 72
     2
176
     1
 73
     1
176
     1
 90
        2
176
     1
 40
0.6
176
     1
 41
30.0
176
     1
 63
     7
421
 16777215
176
     1
 74
     1
176
     1
 91
        2
176
     1
 64
     7
176
     1
 65
   257
176
     1
 75
     2
176
     1
175
     1
176
     1
 42
1.0
176
     1
 92
        8
176
     1
 66
   257
176
     1
 43
1.0
176
     1
 76
     1
176
     1
 77
     6
176
     1
 78
     2
176
     1
 67
     7
176
     1
 79
     3
176
     1
170
     0
176
     1
171
     0
176
     1
290
     0
176
     1
 93
        5
176
     1
 44
0.0
176
     1
173
     0
176
     1
1001
ACAD
1000
AcDbSavedByObjectVersion
1070
     0
  0
VISUALSTYLE
  5
3A
102
{ACAD_XDICTIONARY
360
10F
102
}
102
{ACAD_REACTORS
330
29
102
}
330
29
100
AcDbVisualStyle
  2
Shades of Gray
 70
    23
177
     2
291
     0
 71
     2
176
     1
 72
     2
176
     1
 73
     3
176
     1
 90
        0
176
     1
 40
0.6
176
     1
 41
30.0
176
     1
 63
     7
421
 16777215
176
     1
 74
     2
176
     1
 91
        2
176
     1
 64
     7
176
     1
 65
     7
176
     1
 75
     1
176
     1
175
     1
176
     1
 42
40.0
176
     1
 92
        8
176
     1
 66
     7
176
     1
 43
1.0
176
     1
 76
     1
176
     1
 77
     6
176
     1
 78
     2
176
     1
 67
     7
176
     1
 79
     3
176
     1
170
     0
176
     1
171
     0
176
     1
290
     0
176
     1
 93
        1
176
     1
 44
0.0
176
     1
173
     0
176
     1
1001
ACAD
1000
AcDbSavedByObjectVersion
1070
     0
  0
VISUALSTYLE
  5
3B
102
{ACAD_XDICTIONARY
360
111
102
}
102
{ACAD_REACTORS
330
29
102
}
330
29
100
AcDbVisualStyle
  2
Sketchy
 70
    24
177
     2
291
     0
 71
     1
176
     1
 72
     2
176
     1
 73
     2
176
     1
 90
        0
176
     1
 40
0.6
176
     1
 41
30.0
176
     1
 63
     7
421
 16777215
176
     1
 74
     2
176
     1
 91
        2
176
     1
 64
     7
176
     1
 65
     7
176
     1
 75
     1
176
     1
175
     1
176
     1
 42
40.0
176
     1
 92
       11
176
     1
 66
     7
176
     1
 43
1.0
176
     1
 76
     1
176
     1
 77
     6
176
     1
 78
     2
176
     1
 67
     7
176
     1
 79
     6
176
     1
170
     0
176
     1
171
     0
176
     1
290
     0
176
     1
 93
        1
176
     1
 44
0.0
176
     1
173
     0
176
     1
1001
ACAD
1000
AcDbSavedByObjectVersion
1070
     0
  0
VISUALSTYLE
  5
36
102
{ACAD_XDICTIONARY
360
107
102
}
102
{ACAD_REACTORS
330
29
102
}
330
29
100
AcDbVisualStyle
  2
Thicken
 70
    13
177
     2
291
     1
 71
     2
176
     1
 72
     2
176
     1
 73
     0
176
     1
 90
        0
176
     1
 40
0.6
176
     1
 41
30.0
176
     1
 63
     7
421
 16777215
176
     1
 74
     1
176
     1
 91
        4
176
     1
 64
     7
176
     1
 65
   257
176
     1
 75
     1
176
     1
175
     1
176
     1
 42
1.0
176
     1
 92
       12
176
     1
 66
     7
176
     1
 43
1.0
176
     1
 76
     1
176
     1
 77
     6
176
     1
 78
     2
176
     1
 67
     7
176
     1
 79
     5
176
     1
170
     0
176
     1
171
     0
176
     1
290
     0
176
     1
 93
        1
176
     1
 44
0.0
176
     1
173
     0
176
     1
1001
ACAD
1000
AcDbSavedByObjectVersion
1070
     0
  0
VISUALSTYLE
  5
30
102
{ACAD_XDICTIONARY
360
FB
102
}
102
{ACAD_REACTORS
330
29
102
}
330
29
100
AcDbVisualStyle
  2
Wireframe
 70
     5
177
     2
291
     0
 71
     0
176
     1
 72
     2
176
     1
 73
     0
176
     1
 90
        0
176
     1
 40
0.6
176
     1
 41
30.0
176
     1
 63
     7
421
 16777215
176
     1
 74
     1
176
     1
 91
        4
176
     1
 64
     7
176
     1
 65
   257
176
     1
 75
     1
176
     1
175
     1
176
     1
 42
1.0
176
     1
 92
        0
176
     1
 66
   257
176
     1
 43
1.0
176
     1
 76
     1
176
     1
 77
     6
176
     1
 78
     2
176
     1
 67
     7
176
     1
 79
     3
176
     1
170
     0
176
     1
171
     0
176
     1
290
     0
176
     1
 93
        1
176
     1
 44
0.0
176
     1
173
     0
176
     1
1001
ACAD
1000
AcDbSavedByObjectVersion
1070
     0
  0
VISUALSTYLE
  5
3C
102
{ACAD_XDICTIONARY
360
113
102
}
102
{ACAD_REACTORS
330
29
102
}
330
29
100
AcDbVisualStyle
  2
X-Ray
 70
    25
177
     2
291
     0
 71
     2
176
     1
 72
     2
176
     1
 73
     1
176
     1
 90
        1
176
     1
 40
0.5
176
     1
 41
30.0
176
     1
 63
     7
421
 16777215
176
     1
 74
     1
176
     1
 91
        0
176
     1
 64
     7
176
     1
 65
   257
176
     1
 75
     1
176
     1
175
     1
176
     1
 42
1.0
176
     1
 92
        8
176
     1
 66
     7
176
     1
 43
1.0
176
     1
 76
     1
176
     1
 77
     6
176
     1
 78
     2
176
     1
 67
     7
176
     1
 79
     3
176
     1
170
     0
176
     1
171
     0
176
     1
290
     0
176
     1
 93
       13
176
     1
 44
0.0
176
     1
173
     0
176
     1
1001
ACAD
1000
AcDbSavedByObjectVersion
1070
     0
  0
DICTIONARYVAR
  5
EB
102
{ACAD_REACTORS
330
E6
102
}
330
E6
100
DictionaryVariables
280
     0
  1
1:1
  0
DICTIONARYVAR
  5
E8
102
{ACAD_REACTORS
330
E6
102
}
330
E6
100
DictionaryVariables
280
     0
  1
STANDARD
  0
DICTIONARYVAR
  5
E7
102
{ACAD_REACTORS
330
E6
102
}
330
E6
100
DictionaryVariables
280
     0
  1
STANDARD
  0
DICTIONARYVAR
  5
E9
102
{ACAD_REACTORS
330
E6
102
}
330
E6
100
DictionaryVariables
280
     0
  1
Imperial24
  0
DICTIONARYVAR
  5
EA
102
{ACAD_REACTORS
330
E6
102
}
330
E6
100
DictionaryVariables
280
     0
  1
Imperial24
  0
DICTIONARY
  5
123
330
6B
100
AcDbDictionary
280
     1
281
     1
  3
ACAD_XREC_ROUNDTRIP
360
124
  0
DICTIONARY
  5
1A
330
19
100
AcDbDictionary
280
     1
281
     1
  3
BUMPTILE
360
1C
  3
DIFFUSETILE
360
1B
  3
OPACITYTILE
360
1F
  3
REFLECTIONTILE
360
1E
  3
REFRACTIONTILE
360
20
  3
SPECULARTILE
360
1D
  0
DICTIONARY
  5
12
330
11
100
AcDbDictionary
280
     1
281
     1
  3
BUMPTILE
360
14
  3
DIFFUSETILE
360
13
  3
OPACITYTILE
360
17
  3
REFLECTIONTILE
360
16
  3
REFRACTIONTILE
360
18
  3
SPECULARTILE
360
15
  0
DICTIONARY
  5
22
330
21
100
AcDbDictionary
280
     1
281
     1
  3
BUMPTILE
360
24
  3
DIFFUSETILE
360
23
  3
OPACITYTILE
360
27
  3
REFLECTIONTILE
360
26
  3
REFRACTIONTILE
360
28
  3
SPECULARTILE
360
25
  0
DICTIONARY
  5
11F
330
67
100
AcDbDictionary
280
     1
281
     1
  3
ACAD_XREC_ROUNDTRIP
360
120
  0
DICTIONARY
  5
121
330
69
100
AcDbDictionary
280
     1
281
     1
  3
ACAD_XREC_ROUNDTRIP
360
122
  0
DICTIONARY
  5
EC
330
65
100
AcDbDictionary
280
     1
281
     1
  3
ACAD_ROUNDTRIP_2008_TABLESTYLE_CELLSTYLEMAP
360
ED
  0
DICTIONARY
  5
F9
330
2F
100
AcDbDictionary
280
     1
281
     1
  3
ACAD_XREC_ROUNDTRIP
360
FA
  0
DICTIONARY
  5
F7
330
2E
100
AcDbDictionary
280
     1
281
     1
  3
ACAD_XREC_ROUNDTRIP
360
F8
  0
DICTIONARY
  5
105
330
35
100
AcDbDictionary
280
     1
281
     1
  3
ACAD_XREC_ROUNDTRIP
360
106
  0
DICTIONARY
  5
10D
330
39
100
AcDbDictionary
280
     1
281
     1
  3
ACAD_XREC_ROUNDTRIP
360
10E
  0
DICTIONARY
  5
FF
330
32
100
AcDbDictionary
280
     1
281
     1
  3
ACAD_XREC_ROUNDTRIP
360
100
  0
DICTIONARY
  5
103
330
34
100
AcDbDictionary
280
     1
281
     1
  3
ACAD_XREC_ROUNDTRIP
360
104
  0
DICTIONARY
  5
11D
330
41
100
AcDbDictionary
280
     1
281
     1
  3
ACAD_XREC_ROUNDTRIP
360
11E
  0
DICTIONARY
  5
10B
330
38
100
AcDbDictionary
280
     1
281
     1
  3
ACAD_XREC_ROUNDTRIP
360
10C
  0
DICTIONARY
  5
EF
330
2A
100
AcDbDictionary
280
     1
281
     1
  3
ACAD_XREC_ROUNDTRIP
360
F0
  0
DICTIONARY
  5
F1
330
2B
100
AcDbDictionary
280
     1
281
     1
  3
ACAD_XREC_ROUNDTRIP
360
F2
  0
DICTIONARY
  5
F3
330
2C
100
AcDbDictionary
280
     1
281
     1
  3
ACAD_XREC_ROUNDTRIP
360
F4
  0
DICTIONARY
  5
F5
330
2D
100
AcDbDictionary
280
     1
281
     1
  3
ACAD_XREC_ROUNDTRIP
360
F6
  0
DICTIONARY
  5
FD
330
31
100
AcDbDictionary
280
     1
281
     1
  3
ACAD_XREC_ROUNDTRIP
360
FE
  0
DICTIONARY
  5
119
330
3F
100
AcDbDictionary
280
     1
281
     1
  3
ACAD_XREC_ROUNDTRIP
360
11A
  0
DICTIONARY
  5
109
330
37
100
AcDbDictionary
280
     1
281
     1
  3
ACAD_XREC_ROUNDTRIP
360
10A
  0
DICTIONARY
  5
11B
330
40
100
AcDbDictionary
280
     1
281
     1
  3
ACAD_XREC_ROUNDTRIP
360
11C
  0
DICTIONARY
  5
101
330
33
100
AcDbDictionary
280
     1
281
     1
  3
ACAD_XREC_ROUNDTRIP
360
102
  0
DICTIONARY
  5
117
330
3E
100
AcDbDictionary
280
     1
281
     1
  3
ACAD_XREC_ROUNDTRIP
360
118
  0
DICTIONARY
  5
115
330
3D
100
AcDbDictionary
280
     1
281
     1
  3
ACAD_XREC_ROUNDTRIP
360
116
  0
DICTIONARY
  5
10F
330
3A
100
AcDbDictionary
280
     1
281
     1
  3
ACAD_XREC_ROUNDTRIP
360
110
  0
DICTIONARY
  5
111
330
3B
100
AcDbDictionary
280
     1
281
     1
  3
ACAD_XREC_ROUNDTRIP
360
112
  0
DICTIONARY
  5
107
330
36
100
AcDbDictionary
280
     1
281
     1
  3
ACAD_XREC_ROUNDTRIP
360
108
  0
DICTIONARY
  5
FB
330
30
100
AcDbDictionary
280
     1
281
     1
  3
ACAD_XREC_ROUNDTRIP
360
FC
  0
DICTIONARY
  5
113
330
3C
100
AcDbDictionary
280
     1
281
     1
  3
ACAD_XREC_ROUNDTRIP
360
114
  0
XRECORD
  5
124
102
{ACAD_REACTORS
330
123
102
}
330
123
100
AcDbXrecord
280
     1
102
DISPLAYNAME
  1
Imperial24
102
FLAGS
 90
        0
  0
XRECORD
  5
1C
102
{ACAD_REACTORS
330
1A
102
}
330
1A
100
AcDbXrecord
280
     1
270
     1
271
     1
  0
XRECORD
  5
1B
102
{ACAD_REACTORS
330
1A
102
}
330
1A
100
AcDbXrecord
280
     1
270
     1
271
     1
  0
XRECORD
  5
1F
102
{ACAD_REACTORS
330
1A
102
}
330
1A
100
AcDbXrecord
280
     1
270
     1
271
     1
  0
XRECORD
  5
1E
102
{ACAD_REACTORS
330
1A
102
}
330
1A
100
AcDbXrecord
280
     1
270
     1
271
     1
  0
XRECORD
  5
20
102
{ACAD_REACTORS
330
1A
102
}
330
1A
100
AcDbXrecord
280
     1
270
     1
271
     1
  0
XRECORD
  5
1D
102
{ACAD_REACTORS
330
1A
102
}
330
1A
100
AcDbXrecord
280
     1
270
     1
271
     1
  0
XRECORD
  5
14
102
{ACAD_REACTORS
330
12
102
}
330
12
100
AcDbXrecord
280
     1
270
     1
271
     1
  0
XRECORD
  5
13
102
{ACAD_REACTORS
330
12
102
}
330
12
100
AcDbXrecord
280
     1
270
     1
271
     1
  0
XRECORD
  5
17
102
{ACAD_REACTORS
330
12
102
}
330
12
100
AcDbXrecord
280
     1
270
     1
271
     1
  0
XRECORD
  5
16
102
{ACAD_REACTORS
330
12
102
}
330
12
100
AcDbXrecord
280
     1
270
     1
271
     1
  0
XRECORD
  5
18
102
{ACAD_REACTORS
330
12
102
}
330
12
100
AcDbXrecord
280
     1
270
     1
271
     1
  0
XRECORD
  5
15
102
{ACAD_REACTORS
330
12
102
}
330
12
100
AcDbXrecord
280
     1
270
     1
271
     1
  0
XRECORD
  5
24
102
{ACAD_REACTORS
330
22
102
}
330
22
100
AcDbXrecord
280
     1
270
     1
271
     1
  0
XRECORD
  5
23
102
{ACAD_REACTORS
330
22
102
}
330
22
100
AcDbXrecord
280
     1
270
     1
271
     1
  0
XRECORD
  5
27
102
{ACAD_REACTORS
330
22
102
}
330
22
100
AcDbXrecord
280
     1
270
     1
271
     1
  0
XRECORD
  5
26
102
{ACAD_REACTORS
330
22
102
}
330
22
100
AcDbXrecord
280
     1
270
     1
271
     1
  0
XRECORD
  5
28
102
{ACAD_REACTORS
330
22
102
}
330
22
100
AcDbXrecord
280
     1
270
     1
271
     1
  0
XRECORD
  5
25
102
{ACAD_REACTORS
330
22
102
}
330
22
100
AcDbXrecord
280
     1
270
     1
271
     1
  0
XRECORD
  5
120
102
{ACAD_REACTORS
330
11F
102
}
330
11F
100
AcDbXrecord
280
     1
102
ACAD_ROUNDTRIP_2012_MLEADER_STYLE
298
     1
  0
XRECORD
  5
122
102
{ACAD_REACTORS
330
121
102
}
330
121
100
AcDbXrecord
280
     1
102
DISPLAYNAME
  1
Imperial24
102
FLAGS
 90
        0
  0
CELLSTYLEMAP
  5
ED
102
{ACAD_REACTORS
330
EC
102
}
330
EC
100
AcDbCellStyleMap
 90
        3
300
CELLSTYLE
  1
TABLEFORMAT_BEGIN
 90
        5
170
     1
 91
        0
 92
    32768
 62
   257
 93
        1
300
CONTENTFORMAT
  1
CONTENTFORMAT_BEGIN
 90
        0
 91
        0
 92
      512
 93
        0
300

 40
0.0
140
1.0
 94
        5
 62
     0
340
55
144
0.25
309
CONTENTFORMAT_END
171
     0
 94
        0
309
TABLEFORMAT_END
  1
CELLSTYLE_BEGIN
 90
        1
 91
        1
300
_TITLE
309
CELLSTYLE_END
300
CELLSTYLE
  1
TABLEFORMAT_BEGIN
 90
        5
170
     1
 91
        0
 92
        0
 62
   257
 93
        1
300
CONTENTFORMAT
  1
CONTENTFORMAT_BEGIN
 90
        0
 91
        0
 92
      512
 93
        0
300

 40
0.0
140
1.0
 94
        5
 62
     0
340
55
144
0.18
309
CONTENTFORMAT_END
171
     0
 94
        0
309
TABLEFORMAT_END
  1
CELLSTYLE_BEGIN
 90
        2
 91
        1
300
_HEADER
309
CELLSTYLE_END
300
CELLSTYLE
  1
TABLEFORMAT_BEGIN
 90
        5
170
     1
 91
        0
 92
        0
 62
   257
 93
        1
300
CONTENTFORMAT
  1
CONTENTFORMAT_BEGIN
 90
        0
 91
        0
 92
      512
 93
        0
300

 40
0.0
140
1.0
 94
        2
 62
     0
340
55
144
0.18
309
CONTENTFORMAT_END
171
     0
 94
        0
309
TABLEFORMAT_END
  1
CELLSTYLE_BEGIN
 90
        3
 91
        2
300
_DATA
309
CELLSTYLE_END
  0
XRECORD
  5
FA
102
{ACAD_REACTORS
330
F9
102
}
330
F9
100
AcDbXrecord
280
     1
102
RTVSPost2010Prop28
280
     1
102
RTVSPost2010PropOp28
 70
     1
102
RTVSPost2010Prop29
280
     1
102
RTVSPost2010PropOp29
 70
     1
102
RTVSPost2010Prop30
280
     0
102
RTVSPost2010PropOp30
 70
     1
102
RTVSPost2010Prop31
280
     0
102
RTVSPost2010PropOp31
 70
     1
102
RTVSPost2010Prop32
280
     0
102
RTVSPost2010PropOp32
 70
     1
102
RTVSPost2010Prop33
280
     0
102
RTVSPost2010PropOp33
 70
     1
102
RTVSPost2010Prop34
280
     0
102
RTVSPost2010PropOp34
 70
     1
102
RTVSPost2010Prop35
280
     0
102
RTVSPost2010PropOp35
 70
     1
102
RTVSPost2010Prop36
280
     0
102
RTVSPost2010PropOp36
 70
     1
102
RTVSPost2010Prop37
 90
       50
102
RTVSPost2010PropOp37
 70
     1
102
RTVSPost2010Prop38
140
0.0
102
RTVSPost2010PropOp38
 70
     1
102
RTVSPost2010Prop39
140
1.0
102
RTVSPost2010PropOp39
 70
     1
102
RTVSPost2010Prop40
 90
        0
102
RTVSPost2010PropOp40
 70
     1
102
RTVSPost2010Prop41ColorIndex
 90
       18
102
RTVSPost2010Prop41ColorRGB
 90
        0
102
RTVSPost2010PropOp41
 70
     1
102
RTVSPost2010Prop42
 90
       50
102
RTVSPost2010PropOp42
 70
     1
102
RTVSPost2010Prop43
 90
        3
102
RTVSPost2010PropOp43
 70
     1
102
RTVSPost2010Prop44ColorIndex
 90
        5
102
RTVSPost2010Prop44ColorRGB
 90
      255
102
RTVSPost2010PropOp44
 70
     1
102
RTVSPost2010Prop45
280
     0
102
RTVSPost2010PropOp45
 70
     1
102
RTVSPost2010Prop46
 90
       50
102
RTVSPost2010PropOp46
 70
     1
102
RTVSPost2010Prop47
 90
       50
102
RTVSPost2010PropOp47
 70
     1
102
RTVSPost2010Prop48
 90
       50
102
RTVSPost2010PropOp48
 70
     1
102
RTVSPost2010Prop49
280
     0
102
RTVSPost2010PropOp49
 70
     1
102
RTVSPost2010Prop50
 90
       50
102
RTVSPost2010PropOp50
 70
     1
102
RTVSPost2010Prop51ColorIndex
 90
      256
102
RTVSPost2010Prop51ColorRGB
 90
-16777216
102
RTVSPost2010PropOp51
 70
     0
102
RTVSPost2010Prop52
140
1.0
102
RTVSPost2010PropOp52
 70
     0
102
RTVSPost2010Prop53
 90
        2
102
RTVSPost2010PropOp53
 70
     1
102
RTVSPost2010Prop54
  1
strokes_ogs.tif
102
RTVSPost2010PropOp54
 70
     1
102
RTVSPost2010Prop55
280
     0
102
RTVSPost2010PropOp55
 70
     1
102
RTVSPost2010Prop56
140
1.0
102
RTVSPost2010PropOp56
 70
     1
102
RTVSPost2010Prop57
140
1.0
102
RTVSPost2010PropOp57
 70
     1
  0
XRECORD
  5
F8
102
{ACAD_REACTORS
330
F7
102
}
330
F7
100
AcDbXrecord
280
     1
102
RTVSPost2010Prop28
280
     0
102
RTVSPost2010PropOp28
 70
     1
102
RTVSPost2010Prop29
280
     1
102
RTVSPost2010PropOp29
 70
     1
102
RTVSPost2010Prop30
280
     1
102
RTVSPost2010PropOp30
 70
     1
102
RTVSPost2010Prop31
280
     0
102
RTVSPost2010PropOp31
 70
     1
102
RTVSPost2010Prop32
280
     0
102
RTVSPost2010PropOp32
 70
     1
102
RTVSPost2010Prop33
280
     0
102
RTVSPost2010PropOp33
 70
     1
102
RTVSPost2010Prop34
280
     0
102
RTVSPost2010PropOp34
 70
     1
102
RTVSPost2010Prop35
280
     0
102
RTVSPost2010PropOp35
 70
     1
102
RTVSPost2010Prop36
280
     0
102
RTVSPost2010PropOp36
 70
     1
102
RTVSPost2010Prop37
 90
       50
102
RTVSPost2010PropOp37
 70
     1
102
RTVSPost2010Prop38
140
0.0
102
RTVSPost2010PropOp38
 70
     1
102
RTVSPost2010Prop39
140
1.0
102
RTVSPost2010PropOp39
 70
     1
102
RTVSPost2010Prop40
 90
        0
102
RTVSPost2010PropOp40
 70
     1
102
RTVSPost2010Prop41ColorIndex
 90
       18
102
RTVSPost2010Prop41ColorRGB
 90
        0
102
RTVSPost2010PropOp41
 70
     1
102
RTVSPost2010Prop42
 90
       50
102
RTVSPost2010PropOp42
 70
     1
102
RTVSPost2010Prop43
 90
        3
102
RTVSPost2010PropOp43
 70
     1
102
RTVSPost2010Prop44ColorIndex
 90
        5
102
RTVSPost2010Prop44ColorRGB
 90
      255
102
RTVSPost2010PropOp44
 70
     1
102
RTVSPost2010Prop45
280
     0
102
RTVSPost2010PropOp45
 70
     1
102
RTVSPost2010Prop46
 90
       50
102
RTVSPost2010PropOp46
 70
     1
102
RTVSPost2010Prop47
 90
       50
102
RTVSPost2010PropOp47
 70
     1
102
RTVSPost2010Prop48
 90
       50
102
RTVSPost2010PropOp48
 70
     1
102
RTVSPost2010Prop49
280
     0
102
RTVSPost2010PropOp49
 70
     1
102
RTVSPost2010Prop50
 90
       50
102
RTVSPost2010PropOp50
 70
     1
102
RTVSPost2010Prop51ColorIndex
 90
      256
102
RTVSPost2010Prop51ColorRGB
 90
-16777216
102
RTVSPost2010PropOp51
 70
     0
102
RTVSPost2010Prop52
140
1.0
102
RTVSPost2010PropOp52
 70
     0
102
RTVSPost2010Prop53
 90
        2
102
RTVSPost2010PropOp53
 70
     1
102
RTVSPost2010Prop54
  1
strokes_ogs.tif
102
RTVSPost2010PropOp54
 70
     1
102
RTVSPost2010Prop55
280
     0
102
RTVSPost2010PropOp55
 70
     1
102
RTVSPost2010Prop56
140
1.0
102
RTVSPost2010PropOp56
 70
     1
102
RTVSPost2010Prop57
140
1.0
102
RTVSPost2010PropOp57
 70
     1
  0
XRECORD
  5
106
102
{ACAD_REACTORS
330
105
102
}
330
105
100
AcDbXrecord
280
     1
102
RTVSPost2010Prop28
280
     0
102
RTVSPost2010PropOp28
 70
     1
102
RTVSPost2010Prop29
280
     1
102
RTVSPost2010PropOp29
 70
     1
102
RTVSPost2010Prop30
280
     1
102
RTVSPost2010PropOp30
 70
     1
102
RTVSPost2010Prop31
280
     0
102
RTVSPost2010PropOp31
 70
     1
102
RTVSPost2010Prop32
280
     0
102
RTVSPost2010PropOp32
 70
     1
102
RTVSPost2010Prop33
280
     0
102
RTVSPost2010PropOp33
 70
     1
102
RTVSPost2010Prop34
280
     0
102
RTVSPost2010PropOp34
 70
     1
102
RTVSPost2010Prop35
280
     0
102
RTVSPost2010PropOp35
 70
     1
102
RTVSPost2010Prop36
280
     0
102
RTVSPost2010PropOp36
 70
     1
102
RTVSPost2010Prop37
 90
       50
102
RTVSPost2010PropOp37
 70
     1
102
RTVSPost2010Prop38
140
0.0
102
RTVSPost2010PropOp38
 70
     1
102
RTVSPost2010Prop39
140
1.0
102
RTVSPost2010PropOp39
 70
     1
102
RTVSPost2010Prop40
 90
        0
102
RTVSPost2010PropOp40
 70
     1
102
RTVSPost2010Prop41ColorIndex
 90
       18
102
RTVSPost2010Prop41ColorRGB
 90
        0
102
RTVSPost2010PropOp41
 70
     1
102
RTVSPost2010Prop42
 90
       50
102
RTVSPost2010PropOp42
 70
     1
102
RTVSPost2010Prop43
 90
        3
102
RTVSPost2010PropOp43
 70
     1
102
RTVSPost2010Prop44ColorIndex
 90
        5
102
RTVSPost2010Prop44ColorRGB
 90
      255
102
RTVSPost2010PropOp44
 70
     1
102
RTVSPost2010Prop45
280
     0
102
RTVSPost2010PropOp45
 70
     1
102
RTVSPost2010Prop46
 90
       50
102
RTVSPost2010PropOp46
 70
     1
102
RTVSPost2010Prop47
 90
       50
102
RTVSPost2010PropOp47
 70
     1
102
RTVSPost2010Prop48
 90
       50
102
RTVSPost2010PropOp48
 70
     1
102
RTVSPost2010Prop49
280
     0
102
RTVSPost2010PropOp49
 70
     1
102
RTVSPost2010Prop50
 90
       50
102
RTVSPost2010PropOp50
 70
     1
102
RTVSPost2010Prop51ColorIndex
 90
      256
102
RTVSPost2010Prop51ColorRGB
 90
-16777216
102
RTVSPost2010PropOp51
 70
     0
102
RTVSPost2010Prop52
140
1.0
102
RTVSPost2010PropOp52
 70
     0
102
RTVSPost2010Prop53
 90
        2
102
RTVSPost2010PropOp53
 70
     1
102
RTVSPost2010Prop54
  1
strokes_ogs.tif
102
RTVSPost2010PropOp54
 70
     1
102
RTVSPost2010Prop55
280
     0
102
RTVSPost2010PropOp55
 70
     1
102
RTVSPost2010Prop56
140
1.0
102
RTVSPost2010PropOp56
 70
     1
102
RTVSPost2010Prop57
140
1.0
102
RTVSPost2010PropOp57
 70
     1
  0
XRECORD
  5
10E
102
{ACAD_REACTORS
330
10D
102
}
330
10D
100
AcDbXrecord
280
     1
102
RTVSPost2010Prop28
280
     0
102
RTVSPost2010PropOp28
 70
     1
102
RTVSPost2010Prop29
280
     1
102
RTVSPost2010PropOp29
 70
     1
102
RTVSPost2010Prop30
280
     1
102
RTVSPost2010PropOp30
 70
     1
102
RTVSPost2010Prop31
280
     0
102
RTVSPost2010PropOp31
 70
     1
102
RTVSPost2010Prop32
280
     0
102
RTVSPost2010PropOp32
 70
     1
102
RTVSPost2010Prop33
280
     0
102
RTVSPost2010PropOp33
 70
     1
102
RTVSPost2010Prop34
280
     0
102
RTVSPost2010PropOp34
 70
     1
102
RTVSPost2010Prop35
280
     0
102
RTVSPost2010PropOp35
 70
     1
102
RTVSPost2010Prop36
280
     0
102
RTVSPost2010PropOp36
 70
     1
102
RTVSPost2010Prop37
 90
       50
102
RTVSPost2010PropOp37
 70
     1
102
RTVSPost2010Prop38
140
0.0
102
RTVSPost2010PropOp38
 70
     1
102
RTVSPost2010Prop39
140
1.0
102
RTVSPost2010PropOp39
 70
     1
102
RTVSPost2010Prop40
 90
        0
102
RTVSPost2010PropOp40
 70
     1
102
RTVSPost2010Prop41ColorIndex
 90
       18
102
RTVSPost2010Prop41ColorRGB
 90
        0
102
RTVSPost2010PropOp41
 70
     1
102
RTVSPost2010Prop42
 90
       50
102
RTVSPost2010PropOp42
 70
     1
102
RTVSPost2010Prop43
 90
        3
102
RTVSPost2010PropOp43
 70
     1
102
RTVSPost2010Prop44ColorIndex
 90
        5
102
RTVSPost2010Prop44ColorRGB
 90
      255
102
RTVSPost2010PropOp44
 70
     1
102
RTVSPost2010Prop45
280
     0
102
RTVSPost2010PropOp45
 70
     1
102
RTVSPost2010Prop46
 90
       50
102
RTVSPost2010PropOp46
 70
     1
102
RTVSPost2010Prop47
 90
       50
102
RTVSPost2010PropOp47
 70
     1
102
RTVSPost2010Prop48
 90
       50
102
RTVSPost2010PropOp48
 70
     1
102
RTVSPost2010Prop49
280
     0
102
RTVSPost2010PropOp49
 70
     1
102
RTVSPost2010Prop50
 90
       50
102
RTVSPost2010PropOp50
 70
     1
102
RTVSPost2010Prop51ColorIndex
 90
      256
102
RTVSPost2010Prop51ColorRGB
 90
-16777216
102
RTVSPost2010PropOp51
 70
     0
102
RTVSPost2010Prop52
140
1.0
102
RTVSPost2010PropOp52
 70
     0
102
RTVSPost2010Prop53
 90
        2
102
RTVSPost2010PropOp53
 70
     1
102
RTVSPost2010Prop54
  1
strokes_ogs.tif
102
RTVSPost2010PropOp54
 70
     1
102
RTVSPost2010Prop55
280
     0
102
RTVSPost2010PropOp55
 70
     1
102
RTVSPost2010Prop56
140
1.0
102
RTVSPost2010PropOp56
 70
     1
102
RTVSPost2010Prop57
140
1.0
102
RTVSPost2010PropOp57
 70
     1
  0
XRECORD
  5
100
102
{ACAD_REACTORS
330
FF
102
}
330
FF
100
AcDbXrecord
280
     1
102
RTVSPost2010Prop28
280
     0
102
RTVSPost2010PropOp28
 70
     1
102
RTVSPost2010Prop29
280
     1
102
RTVSPost2010PropOp29
 70
     1
102
RTVSPost2010Prop30
280
     1
102
RTVSPost2010PropOp30
 70
     1
102
RTVSPost2010Prop31
280
     0
102
RTVSPost2010PropOp31
 70
     1
102
RTVSPost2010Prop32
280
     0
102
RTVSPost2010PropOp32
 70
     1
102
RTVSPost2010Prop33
280
     0
102
RTVSPost2010PropOp33
 70
     1
102
RTVSPost2010Prop34
280
     0
102
RTVSPost2010PropOp34
 70
     1
102
RTVSPost2010Prop35
280
     0
102
RTVSPost2010PropOp35
 70
     1
102
RTVSPost2010Prop36
280
     0
102
RTVSPost2010PropOp36
 70
     1
102
RTVSPost2010Prop37
 90
       50
102
RTVSPost2010PropOp37
 70
     1
102
RTVSPost2010Prop38
140
0.0
102
RTVSPost2010PropOp38
 70
     1
102
RTVSPost2010Prop39
140
1.0
102
RTVSPost2010PropOp39
 70
     1
102
RTVSPost2010Prop40
 90
        0
102
RTVSPost2010PropOp40
 70
     1
102
RTVSPost2010Prop41ColorIndex
 90
       18
102
RTVSPost2010Prop41ColorRGB
 90
        0
102
RTVSPost2010PropOp41
 70
     1
102
RTVSPost2010Prop42
 90
       50
102
RTVSPost2010PropOp42
 70
     1
102
RTVSPost2010Prop43
 90
        3
102
RTVSPost2010PropOp43
 70
     1
102
RTVSPost2010Prop44ColorIndex
 90
        5
102
RTVSPost2010Prop44ColorRGB
 90
      255
102
RTVSPost2010PropOp44
 70
     1
102
RTVSPost2010Prop45
280
     0
102
RTVSPost2010PropOp45
 70
     1
102
RTVSPost2010Prop46
 90
       50
102
RTVSPost2010PropOp46
 70
     1
102
RTVSPost2010Prop47
 90
       50
102
RTVSPost2010PropOp47
 70
     1
102
RTVSPost2010Prop48
 90
       50
102
RTVSPost2010PropOp48
 70
     1
102
RTVSPost2010Prop49
280
     0
102
RTVSPost2010PropOp49
 70
     1
102
RTVSPost2010Prop50
 90
       50
102
RTVSPost2010PropOp50
 70
     1
102
RTVSPost2010Prop51ColorIndex
 90
      256
102
RTVSPost2010Prop51ColorRGB
 90
-16777216
102
RTVSPost2010PropOp51
 70
     0
102
RTVSPost2010Prop52
140
1.0
102
RTVSPost2010PropOp52
 70
     0
102
RTVSPost2010Prop53
 90
        2
102
RTVSPost2010PropOp53
 70
     1
102
RTVSPost2010Prop54
  1
strokes_ogs.tif
102
RTVSPost2010PropOp54
 70
     1
102
RTVSPost2010Prop55
280
     0
102
RTVSPost2010PropOp55
 70
     1
102
RTVSPost2010Prop56
140
1.0
102
RTVSPost2010PropOp56
 70
     1
102
RTVSPost2010Prop57
140
1.0
102
RTVSPost2010PropOp57
 70
     1
  0
XRECORD
  5
104
102
{ACAD_REACTORS
330
103
102
}
330
103
100
AcDbXrecord
280
     1
102
RTVSPost2010Prop28
280
     0
102
RTVSPost2010PropOp28
 70
     1
102
RTVSPost2010Prop29
280
     1
102
RTVSPost2010PropOp29
 70
     1
102
RTVSPost2010Prop30
280
     1
102
RTVSPost2010PropOp30
 70
     1
102
RTVSPost2010Prop31
280
     0
102
RTVSPost2010PropOp31
 70
     1
102
RTVSPost2010Prop32
280
     0
102
RTVSPost2010PropOp32
 70
     1
102
RTVSPost2010Prop33
280
     0
102
RTVSPost2010PropOp33
 70
     1
102
RTVSPost2010Prop34
280
     0
102
RTVSPost2010PropOp34
 70
     1
102
RTVSPost2010Prop35
280
     0
102
RTVSPost2010PropOp35
 70
     1
102
RTVSPost2010Prop36
280
     0
102
RTVSPost2010PropOp36
 70
     1
102
RTVSPost2010Prop37
 90
       50
102
RTVSPost2010PropOp37
 70
     1
102
RTVSPost2010Prop38
140
0.0
102
RTVSPost2010PropOp38
 70
     1
102
RTVSPost2010Prop39
140
1.0
102
RTVSPost2010PropOp39
 70
     1
102
RTVSPost2010Prop40
 90
        0
102
RTVSPost2010PropOp40
 70
     1
102
RTVSPost2010Prop41ColorIndex
 90
       18
102
RTVSPost2010Prop41ColorRGB
 90
        0
102
RTVSPost2010PropOp41
 70
     1
102
RTVSPost2010Prop42
 90
       50
102
RTVSPost2010PropOp42
 70
     1
102
RTVSPost2010Prop43
 90
        3
102
RTVSPost2010PropOp43
 70
     1
102
RTVSPost2010Prop44ColorIndex
 90
        5
102
RTVSPost2010Prop44ColorRGB
 90
      255
102
RTVSPost2010PropOp44
 70
     1
102
RTVSPost2010Prop45
280
     0
102
RTVSPost2010PropOp45
 70
     1
102
RTVSPost2010Prop46
 90
       50
102
RTVSPost2010PropOp46
 70
     1
102
RTVSPost2010Prop47
 90
       50
102
RTVSPost2010PropOp47
 70
     1
102
RTVSPost2010Prop48
 90
       50
102
RTVSPost2010PropOp48
 70
     1
102
RTVSPost2010Prop49
280
     0
102
RTVSPost2010PropOp49
 70
     1
102
RTVSPost2010Prop50
 90
       50
102
RTVSPost2010PropOp50
 70
     1
102
RTVSPost2010Prop51ColorIndex
 90
      256
102
RTVSPost2010Prop51ColorRGB
 90
-16777216
102
RTVSPost2010PropOp51
 70
     0
102
RTVSPost2010Prop52
140
1.0
102
RTVSPost2010PropOp52
 70
     0
102
RTVSPost2010Prop53
 90
        2
102
RTVSPost2010PropOp53
 70
     1
102
RTVSPost2010Prop54
  1
strokes_ogs.tif
102
RTVSPost2010PropOp54
 70
     1
102
RTVSPost2010Prop55
280
     0
102
RTVSPost2010PropOp55
 70
     1
102
RTVSPost2010Prop56
140
1.0
102
RTVSPost2010PropOp56
 70
     1
102
RTVSPost2010Prop57
140
1.0
102
RTVSPost2010PropOp57
 70
     1
  0
XRECORD
  5
11E
102
{ACAD_REACTORS
330
11D
102
}
330
11D
100
AcDbXrecord
280
     1
102
RTVSPost2010Prop28
280
     0
102
RTVSPost2010PropOp28
 70
     0
102
RTVSPost2010Prop29
280
     1
102
RTVSPost2010PropOp29
 70
     0
102
RTVSPost2010Prop30
280
     1
102
RTVSPost2010PropOp30
 70
     0
102
RTVSPost2010Prop31
280
     0
102
RTVSPost2010PropOp31
 70
     0
102
RTVSPost2010Prop32
280
     0
102
RTVSPost2010PropOp32
 70
     0
102
RTVSPost2010Prop33
280
     0
102
RTVSPost2010PropOp33
 70
     0
102
RTVSPost2010Prop34
280
     0
102
RTVSPost2010PropOp34
 70
     0
102
RTVSPost2010Prop35
280
     0
102
RTVSPost2010PropOp35
 70
     0
102
RTVSPost2010Prop36
280
     0
102
RTVSPost2010PropOp36
 70
     0
102
RTVSPost2010Prop37
 90
       50
102
RTVSPost2010PropOp37
 70
     0
102
RTVSPost2010Prop38
140
0.0
102
RTVSPost2010PropOp38
 70
     0
102
RTVSPost2010Prop39
140
1.0
102
RTVSPost2010PropOp39
 70
     0
102
RTVSPost2010Prop40
 90
        0
102
RTVSPost2010PropOp40
 70
     0
102
RTVSPost2010Prop41ColorIndex
 90
       18
102
RTVSPost2010Prop41ColorRGB
 90
        0
102
RTVSPost2010PropOp41
 70
     0
102
RTVSPost2010Prop42
 90
       50
102
RTVSPost2010PropOp42
 70
     0
102
RTVSPost2010Prop43
 90
        3
102
RTVSPost2010PropOp43
 70
     0
102
RTVSPost2010Prop44ColorIndex
 90
        5
102
RTVSPost2010Prop44ColorRGB
 90
      255
102
RTVSPost2010PropOp44
 70
     0
102
RTVSPost2010Prop45
280
     0
102
RTVSPost2010PropOp45
 70
     0
102
RTVSPost2010Prop46
 90
       50
102
RTVSPost2010PropOp46
 70
     0
102
RTVSPost2010Prop47
 90
       50
102
RTVSPost2010PropOp47
 70
     0
102
RTVSPost2010Prop48
 90
       50
102
RTVSPost2010PropOp48
 70
     0
102
RTVSPost2010Prop49
280
     0
102
RTVSPost2010PropOp49
 70
     0
102
RTVSPost2010Prop50
 90
       50
102
RTVSPost2010PropOp50
 70
     0
102
RTVSPost2010Prop51ColorIndex
 90
      256
102
RTVSPost2010Prop51ColorRGB
 90
-16777216
102
RTVSPost2010PropOp51
 70
     0
102
RTVSPost2010Prop52
140
1.0
102
RTVSPost2010PropOp52
 70
     0
102
RTVSPost2010Prop53
 90
        2
102
RTVSPost2010PropOp53
 70
     0
102
RTVSPost2010Prop54
  1
strokes_ogs.tif
102
RTVSPost2010PropOp54
 70
     0
102
RTVSPost2010Prop55
280
     0
102
RTVSPost2010PropOp55
 70
     0
102
RTVSPost2010Prop56
140
1.0
102
RTVSPost2010PropOp56
 70
     0
102
RTVSPost2010Prop57
140
1.0
102
RTVSPost2010PropOp57
 70
     0
  0
XRECORD
  5
10C
102
{ACAD_REACTORS
330
10B
102
}
330
10B
100
AcDbXrecord
280
     1
102
RTVSPost2010Prop28
280
     0
102
RTVSPost2010PropOp28
 70
     1
102
RTVSPost2010Prop29
280
     1
102
RTVSPost2010PropOp29
 70
     1
102
RTVSPost2010Prop30
280
     1
102
RTVSPost2010PropOp30
 70
     1
102
RTVSPost2010Prop31
280
     0
102
RTVSPost2010PropOp31
 70
     1
102
RTVSPost2010Prop32
280
     0
102
RTVSPost2010PropOp32
 70
     1
102
RTVSPost2010Prop33
280
     0
102
RTVSPost2010PropOp33
 70
     1
102
RTVSPost2010Prop34
280
     0
102
RTVSPost2010PropOp34
 70
     1
102
RTVSPost2010Prop35
280
     0
102
RTVSPost2010PropOp35
 70
     1
102
RTVSPost2010Prop36
280
     0
102
RTVSPost2010PropOp36
 70
     1
102
RTVSPost2010Prop37
 90
       50
102
RTVSPost2010PropOp37
 70
     1
102
RTVSPost2010Prop38
140
0.0
102
RTVSPost2010PropOp38
 70
     1
102
RTVSPost2010Prop39
140
1.0
102
RTVSPost2010PropOp39
 70
     1
102
RTVSPost2010Prop40
 90
        0
102
RTVSPost2010PropOp40
 70
     1
102
RTVSPost2010Prop41ColorIndex
 90
       18
102
RTVSPost2010Prop41ColorRGB
 90
        0
102
RTVSPost2010PropOp41
 70
     1
102
RTVSPost2010Prop42
 90
       50
102
RTVSPost2010PropOp42
 70
     1
102
RTVSPost2010Prop43
 90
        3
102
RTVSPost2010PropOp43
 70
     1
102
RTVSPost2010Prop44ColorIndex
 90
        5
102
RTVSPost2010Prop44ColorRGB
 90
      255
102
RTVSPost2010PropOp44
 70
     1
102
RTVSPost2010Prop45
280
     0
102
RTVSPost2010PropOp45
 70
     1
102
RTVSPost2010Prop46
 90
       50
102
RTVSPost2010PropOp46
 70
     1
102
RTVSPost2010Prop47
 90
       50
102
RTVSPost2010PropOp47
 70
     1
102
RTVSPost2010Prop48
 90
       50
102
RTVSPost2010PropOp48
 70
     1
102
RTVSPost2010Prop49
280
     0
102
RTVSPost2010PropOp49
 70
     1
102
RTVSPost2010Prop50
 90
       50
102
RTVSPost2010PropOp50
 70
     1
102
RTVSPost2010Prop51ColorIndex
 90
      256
102
RTVSPost2010Prop51ColorRGB
 90
-16777216
102
RTVSPost2010PropOp51
 70
     0
102
RTVSPost2010Prop52
140
1.0
102
RTVSPost2010PropOp52
 70
     0
102
RTVSPost2010Prop53
 90
        2
102
RTVSPost2010PropOp53
 70
     1
102
RTVSPost2010Prop54
  1
strokes_ogs.tif
102
RTVSPost2010PropOp54
 70
     1
102
RTVSPost2010Prop55
280
     0
102
RTVSPost2010PropOp55
 70
     1
102
RTVSPost2010Prop56
140
1.0
102
RTVSPost2010PropOp56
 70
     1
102
RTVSPost2010Prop57
140
1.0
102
RTVSPost2010PropOp57
 70
     1
  0
XRECORD
  5
F0
102
{ACAD_REACTORS
330
EF
102
}
330
EF
100
AcDbXrecord
280
     1
102
RTVSPost2010Prop28
280
     0
102
RTVSPost2010PropOp28
 70
     1
102
RTVSPost2010Prop29
280
     1
102
RTVSPost2010PropOp29
 70
     1
102
RTVSPost2010Prop30
280
     1
102
RTVSPost2010PropOp30
 70
     1
102
RTVSPost2010Prop31
280
     0
102
RTVSPost2010PropOp31
 70
     1
102
RTVSPost2010Prop32
280
     0
102
RTVSPost2010PropOp32
 70
     1
102
RTVSPost2010Prop33
280
     0
102
RTVSPost2010PropOp33
 70
     1
102
RTVSPost2010Prop34
280
     0
102
RTVSPost2010PropOp34
 70
     1
102
RTVSPost2010Prop35
280
     0
102
RTVSPost2010PropOp35
 70
     1
102
RTVSPost2010Prop36
280
     0
102
RTVSPost2010PropOp36
 70
     1
102
RTVSPost2010Prop37
 90
       50
102
RTVSPost2010PropOp37
 70
     1
102
RTVSPost2010Prop38
140
0.0
102
RTVSPost2010PropOp38
 70
     1
102
RTVSPost2010Prop39
140
1.0
102
RTVSPost2010PropOp39
 70
     1
102
RTVSPost2010Prop40
 90
        0
102
RTVSPost2010PropOp40
 70
     1
102
RTVSPost2010Prop41ColorIndex
 90
       18
102
RTVSPost2010Prop41ColorRGB
 90
        0
102
RTVSPost2010PropOp41
 70
     1
102
RTVSPost2010Prop42
 90
       50
102
RTVSPost2010PropOp42
 70
     1
102
RTVSPost2010Prop43
 90
        3
102
RTVSPost2010PropOp43
 70
     1
102
RTVSPost2010Prop44ColorIndex
 90
        5
102
RTVSPost2010Prop44ColorRGB
 90
      255
102
RTVSPost2010PropOp44
 70
     1
102
RTVSPost2010Prop45
280
     0
102
RTVSPost2010PropOp45
 70
     1
102
RTVSPost2010Prop46
 90
       50
102
RTVSPost2010PropOp46
 70
     1
102
RTVSPost2010Prop47
 90
       50
102
RTVSPost2010PropOp47
 70
     1
102
RTVSPost2010Prop48
 90
       50
102
RTVSPost2010PropOp48
 70
     1
102
RTVSPost2010Prop49
280
     0
102
RTVSPost2010PropOp49
 70
     1
102
RTVSPost2010Prop50
 90
       50
102
RTVSPost2010PropOp50
 70
     1
102
RTVSPost2010Prop51ColorIndex
 90
      256
102
RTVSPost2010Prop51ColorRGB
 90
-16777216
102
RTVSPost2010PropOp51
 70
     0
102
RTVSPost2010Prop52
140
1.0
102
RTVSPost2010PropOp52
 70
     0
102
RTVSPost2010Prop53
 90
        2
102
RTVSPost2010PropOp53
 70
     1
102
RTVSPost2010Prop54
  1
strokes_ogs.tif
102
RTVSPost2010PropOp54
 70
     1
102
RTVSPost2010Prop55
280
     0
102
RTVSPost2010PropOp55
 70
     1
102
RTVSPost2010Prop56
140
1.0
102
RTVSPost2010PropOp56
 70
     1
102
RTVSPost2010Prop57
140
1.0
102
RTVSPost2010PropOp57
 70
     1
  0
XRECORD
  5
F2
102
{ACAD_REACTORS
330
F1
102
}
330
F1
100
AcDbXrecord
280
     1
102
RTVSPost2010Prop28
280
     0
102
RTVSPost2010PropOp28
 70
     1
102
RTVSPost2010Prop29
280
     1
102
RTVSPost2010PropOp29
 70
     1
102
RTVSPost2010Prop30
280
     1
102
RTVSPost2010PropOp30
 70
     1
102
RTVSPost2010Prop31
280
     0
102
RTVSPost2010PropOp31
 70
     1
102
RTVSPost2010Prop32
280
     0
102
RTVSPost2010PropOp32
 70
     1
102
RTVSPost2010Prop33
280
     0
102
RTVSPost2010PropOp33
 70
     1
102
RTVSPost2010Prop34
280
     0
102
RTVSPost2010PropOp34
 70
     1
102
RTVSPost2010Prop35
280
     0
102
RTVSPost2010PropOp35
 70
     1
102
RTVSPost2010Prop36
280
     0
102
RTVSPost2010PropOp36
 70
     1
102
RTVSPost2010Prop37
 90
       50
102
RTVSPost2010PropOp37
 70
     1
102
RTVSPost2010Prop38
140
0.0
102
RTVSPost2010PropOp38
 70
     1
102
RTVSPost2010Prop39
140
1.0
102
RTVSPost2010PropOp39
 70
     1
102
RTVSPost2010Prop40
 90
        0
102
RTVSPost2010PropOp40
 70
     1
102
RTVSPost2010Prop41ColorIndex
 90
       18
102
RTVSPost2010Prop41ColorRGB
 90
        0
102
RTVSPost2010PropOp41
 70
     1
102
RTVSPost2010Prop42
 90
       50
102
RTVSPost2010PropOp42
 70
     1
102
RTVSPost2010Prop43
 90
        3
102
RTVSPost2010PropOp43
 70
     1
102
RTVSPost2010Prop44ColorIndex
 90
        5
102
RTVSPost2010Prop44ColorRGB
 90
      255
102
RTVSPost2010PropOp44
 70
     1
102
RTVSPost2010Prop45
280
     0
102
RTVSPost2010PropOp45
 70
     1
102
RTVSPost2010Prop46
 90
       50
102
RTVSPost2010PropOp46
 70
     1
102
RTVSPost2010Prop47
 90
       50
102
RTVSPost2010PropOp47
 70
     1
102
RTVSPost2010Prop48
 90
       50
102
RTVSPost2010PropOp48
 70
     1
102
RTVSPost2010Prop49
280
     0
102
RTVSPost2010PropOp49
 70
     1
102
RTVSPost2010Prop50
 90
       50
102
RTVSPost2010PropOp50
 70
     1
102
RTVSPost2010Prop51ColorIndex
 90
      256
102
RTVSPost2010Prop51ColorRGB
 90
-16777216
102
RTVSPost2010PropOp51
 70
     0
102
RTVSPost2010Prop52
140
1.0
102
RTVSPost2010PropOp52
 70
     0
102
RTVSPost2010Prop53
 90
        2
102
RTVSPost2010PropOp53
 70
     1
102
RTVSPost2010Prop54
  1
strokes_ogs.tif
102
RTVSPost2010PropOp54
 70
     1
102
RTVSPost2010Prop55
280
     0
102
RTVSPost2010PropOp55
 70
     1
102
RTVSPost2010Prop56
140
1.0
102
RTVSPost2010PropOp56
 70
     1
102
RTVSPost2010Prop57
140
1.0
102
RTVSPost2010PropOp57
 70
     1
  0
XRECORD
  5
F4
102
{ACAD_REACTORS
330
F3
102
}
330
F3
100
AcDbXrecord
280
     1
102
RTVSPost2010Prop28
280
     0
102
RTVSPost2010PropOp28
 70
     1
102
RTVSPost2010Prop29
280
     1
102
RTVSPost2010PropOp29
 70
     1
102
RTVSPost2010Prop30
280
     1
102
RTVSPost2010PropOp30
 70
     1
102
RTVSPost2010Prop31
280
     0
102
RTVSPost2010PropOp31
 70
     1
102
RTVSPost2010Prop32
280
     0
102
RTVSPost2010PropOp32
 70
     1
102
RTVSPost2010Prop33
280
     0
102
RTVSPost2010PropOp33
 70
     1
102
RTVSPost2010Prop34
280
     0
102
RTVSPost2010PropOp34
 70
     1
102
RTVSPost2010Prop35
280
     0
102
RTVSPost2010PropOp35
 70
     1
102
RTVSPost2010Prop36
280
     0
102
RTVSPost2010PropOp36
 70
     1
102
RTVSPost2010Prop37
 90
       50
102
RTVSPost2010PropOp37
 70
     1
102
RTVSPost2010Prop38
140
0.0
102
RTVSPost2010PropOp38
 70
     1
102
RTVSPost2010Prop39
140
1.0
102
RTVSPost2010PropOp39
 70
     1
102
RTVSPost2010Prop40
 90
        0
102
RTVSPost2010PropOp40
 70
     1
102
RTVSPost2010Prop41ColorIndex
 90
       18
102
RTVSPost2010Prop41ColorRGB
 90
        0
102
RTVSPost2010PropOp41
 70
     1
102
RTVSPost2010Prop42
 90
       50
102
RTVSPost2010PropOp42
 70
     1
102
RTVSPost2010Prop43
 90
        3
102
RTVSPost2010PropOp43
 70
     1
102
RTVSPost2010Prop44ColorIndex
 90
        5
102
RTVSPost2010Prop44ColorRGB
 90
      255
102
RTVSPost2010PropOp44
 70
     1
102
RTVSPost2010Prop45
280
     0
102
RTVSPost2010PropOp45
 70
     1
102
RTVSPost2010Prop46
 90
       50
102
RTVSPost2010PropOp46
 70
     1
102
RTVSPost2010Prop47
 90
       50
102
RTVSPost2010PropOp47
 70
     1
102
RTVSPost2010Prop48
 90
       50
102
RTVSPost2010PropOp48
 70
     1
102
RTVSPost2010Prop49
280
     0
102
RTVSPost2010PropOp49
 70
     1
102
RTVSPost2010Prop50
 90
       50
102
RTVSPost2010PropOp50
 70
     1
102
RTVSPost2010Prop51ColorIndex
 90
      256
102
RTVSPost2010Prop51ColorRGB
 90
-16777216
102
RTVSPost2010PropOp51
 70
     0
102
RTVSPost2010Prop52
140
1.0
102
RTVSPost2010PropOp52
 70
     0
102
RTVSPost2010Prop53
 90
        2
102
RTVSPost2010PropOp53
 70
     1
102
RTVSPost2010Prop54
  1
strokes_ogs.tif
102
RTVSPost2010PropOp54
 70
     1
102
RTVSPost2010Prop55
280
     0
102
RTVSPost2010PropOp55
 70
     1
102
RTVSPost2010Prop56
140
1.0
102
RTVSPost2010PropOp56
 70
     1
102
RTVSPost2010Prop57
140
1.0
102
RTVSPost2010PropOp57
 70
     1
  0
XRECORD
  5
F6
102
{ACAD_REACTORS
330
F5
102
}
330
F5
100
AcDbXrecord
280
     1
102
RTVSPost2010Prop28
280
     0
102
RTVSPost2010PropOp28
 70
     1
102
RTVSPost2010Prop29
280
     1
102
RTVSPost2010PropOp29
 70
     1
102
RTVSPost2010Prop30
280
     1
102
RTVSPost2010PropOp30
 70
     1
102
RTVSPost2010Prop31
280
     0
102
RTVSPost2010PropOp31
 70
     1
102
RTVSPost2010Prop32
280
     0
102
RTVSPost2010PropOp32
 70
     1
102
RTVSPost2010Prop33
280
     0
102
RTVSPost2010PropOp33
 70
     1
102
RTVSPost2010Prop34
280
     0
102
RTVSPost2010PropOp34
 70
     1
102
RTVSPost2010Prop35
280
     0
102
RTVSPost2010PropOp35
 70
     1
102
RTVSPost2010Prop36
280
     0
102
RTVSPost2010PropOp36
 70
     1
102
RTVSPost2010Prop37
 90
       50
102
RTVSPost2010PropOp37
 70
     1
102
RTVSPost2010Prop38
140
0.0
102
RTVSPost2010PropOp38
 70
     1
102
RTVSPost2010Prop39
140
1.0
102
RTVSPost2010PropOp39
 70
     1
102
RTVSPost2010Prop40
 90
        0
102
RTVSPost2010PropOp40
 70
     1
102
RTVSPost2010Prop41ColorIndex
 90
       18
102
RTVSPost2010Prop41ColorRGB
 90
        0
102
RTVSPost2010PropOp41
 70
     1
102
RTVSPost2010Prop42
 90
       50
102
RTVSPost2010PropOp42
 70
     1
102
RTVSPost2010Prop43
 90
        3
102
RTVSPost2010PropOp43
 70
     1
102
RTVSPost2010Prop44ColorIndex
 90
        5
102
RTVSPost2010Prop44ColorRGB
 90
      255
102
RTVSPost2010PropOp44
 70
     1
102
RTVSPost2010Prop45
280
     0
102
RTVSPost2010PropOp45
 70
     1
102
RTVSPost2010Prop46
 90
       50
102
RTVSPost2010PropOp46
 70
     1
102
RTVSPost2010Prop47
 90
       50
102
RTVSPost2010PropOp47
 70
     1
102
RTVSPost2010Prop48
 90
       50
102
RTVSPost2010PropOp48
 70
     1
102
RTVSPost2010Prop49
280
     0
102
RTVSPost2010PropOp49
 70
     1
102
RTVSPost2010Prop50
 90
       50
102
RTVSPost2010PropOp50
 70
     1
102
RTVSPost2010Prop51ColorIndex
 90
      256
102
RTVSPost2010Prop51ColorRGB
 90
-16777216
102
RTVSPost2010PropOp51
 70
     0
102
RTVSPost2010Prop52
140
1.0
102
RTVSPost2010PropOp52
 70
     0
102
RTVSPost2010Prop53
 90
        2
102
RTVSPost2010PropOp53
 70
     1
102
RTVSPost2010Prop54
  1
strokes_ogs.tif
102
RTVSPost2010PropOp54
 70
     1
102
RTVSPost2010Prop55
280
     0
102
RTVSPost2010PropOp55
 70
     1
102
RTVSPost2010Prop56
140
1.0
102
RTVSPost2010PropOp56
 70
     1
102
RTVSPost2010Prop57
140
1.0
102
RTVSPost2010PropOp57
 70
     1
  0
XRECORD
  5
FE
102
{ACAD_REACTORS
330
FD
102
}
330
FD
100
AcDbXrecord
280
     1
102
RTVSPost2010Prop28
280
     0
102
RTVSPost2010PropOp28
 70
     1
102
RTVSPost2010Prop29
280
     1
102
RTVSPost2010PropOp29
 70
     1
102
RTVSPost2010Prop30
280
     1
102
RTVSPost2010PropOp30
 70
     1
102
RTVSPost2010Prop31
280
     0
102
RTVSPost2010PropOp31
 70
     1
102
RTVSPost2010Prop32
280
     0
102
RTVSPost2010PropOp32
 70
     1
102
RTVSPost2010Prop33
280
     0
102
RTVSPost2010PropOp33
 70
     1
102
RTVSPost2010Prop34
280
     0
102
RTVSPost2010PropOp34
 70
     1
102
RTVSPost2010Prop35
280
     0
102
RTVSPost2010PropOp35
 70
     1
102
RTVSPost2010Prop36
280
     0
102
RTVSPost2010PropOp36
 70
     1
102
RTVSPost2010Prop37
 90
       50
102
RTVSPost2010PropOp37
 70
     1
102
RTVSPost2010Prop38
140
0.0
102
RTVSPost2010PropOp38
 70
     1
102
RTVSPost2010Prop39
140
1.0
102
RTVSPost2010PropOp39
 70
     1
102
RTVSPost2010Prop40
 90
        0
102
RTVSPost2010PropOp40
 70
     1
102
RTVSPost2010Prop41ColorIndex
 90
       18
102
RTVSPost2010Prop41ColorRGB
 90
        0
102
RTVSPost2010PropOp41
 70
     1
102
RTVSPost2010Prop42
 90
       50
102
RTVSPost2010PropOp42
 70
     1
102
RTVSPost2010Prop43
 90
        3
102
RTVSPost2010PropOp43
 70
     1
102
RTVSPost2010Prop44ColorIndex
 90
        5
102
RTVSPost2010Prop44ColorRGB
 90
      255
102
RTVSPost2010PropOp44
 70
     1
102
RTVSPost2010Prop45
280
     0
102
RTVSPost2010PropOp45
 70
     1
102
RTVSPost2010Prop46
 90
       50
102
RTVSPost2010PropOp46
 70
     1
102
RTVSPost2010Prop47
 90
       50
102
RTVSPost2010PropOp47
 70
     1
102
RTVSPost2010Prop48
 90
       50
102
RTVSPost2010PropOp48
 70
     1
102
RTVSPost2010Prop49
280
     0
102
RTVSPost2010PropOp49
 70
     1
102
RTVSPost2010Prop50
 90
       50
102
RTVSPost2010PropOp50
 70
     1
102
RTVSPost2010Prop51ColorIndex
 90
      256
102
RTVSPost2010Prop51ColorRGB
 90
-16777216
102
RTVSPost2010PropOp51
 70
     0
102
RTVSPost2010Prop52
140
1.0
102
RTVSPost2010PropOp52
 70
     0
102
RTVSPost2010Prop53
 90
        2
102
RTVSPost2010PropOp53
 70
     1
102
RTVSPost2010Prop54
  1
strokes_ogs.tif
102
RTVSPost2010PropOp54
 70
     1
102
RTVSPost2010Prop55
280
     0
102
RTVSPost2010PropOp55
 70
     1
102
RTVSPost2010Prop56
140
1.0
102
RTVSPost2010PropOp56
 70
     1
102
RTVSPost2010Prop57
140
1.0
102
RTVSPost2010PropOp57
 70
     1
  0
XRECORD
  5
11A
102
{ACAD_REACTORS
330
119
102
}
330
119
100
AcDbXrecord
280
     1
102
RTVSPost2010Prop28
280
     0
102
RTVSPost2010PropOp28
 70
     0
102
RTVSPost2010Prop29
280
     1
102
RTVSPost2010PropOp29
 70
     0
102
RTVSPost2010Prop30
280
     1
102
RTVSPost2010PropOp30
 70
     0
102
RTVSPost2010Prop31
280
     0
102
RTVSPost2010PropOp31
 70
     0
102
RTVSPost2010Prop32
280
     0
102
RTVSPost2010PropOp32
 70
     0
102
RTVSPost2010Prop33
280
     0
102
RTVSPost2010PropOp33
 70
     0
102
RTVSPost2010Prop34
280
     0
102
RTVSPost2010PropOp34
 70
     0
102
RTVSPost2010Prop35
280
     0
102
RTVSPost2010PropOp35
 70
     0
102
RTVSPost2010Prop36
280
     0
102
RTVSPost2010PropOp36
 70
     0
102
RTVSPost2010Prop37
 90
       50
102
RTVSPost2010PropOp37
 70
     0
102
RTVSPost2010Prop38
140
0.0
102
RTVSPost2010PropOp38
 70
     0
102
RTVSPost2010Prop39
140
1.0
102
RTVSPost2010PropOp39
 70
     0
102
RTVSPost2010Prop40
 90
        0
102
RTVSPost2010PropOp40
 70
     0
102
RTVSPost2010Prop41ColorIndex
 90
       18
102
RTVSPost2010Prop41ColorRGB
 90
        0
102
RTVSPost2010PropOp41
 70
     0
102
RTVSPost2010Prop42
 90
       50
102
RTVSPost2010PropOp42
 70
     0
102
RTVSPost2010Prop43
 90
        3
102
RTVSPost2010PropOp43
 70
     0
102
RTVSPost2010Prop44ColorIndex
 90
        5
102
RTVSPost2010Prop44ColorRGB
 90
      255
102
RTVSPost2010PropOp44
 70
     0
102
RTVSPost2010Prop45
280
     0
102
RTVSPost2010PropOp45
 70
     0
102
RTVSPost2010Prop46
 90
       50
102
RTVSPost2010PropOp46
 70
     0
102
RTVSPost2010Prop47
 90
       50
102
RTVSPost2010PropOp47
 70
     0
102
RTVSPost2010Prop48
 90
       50
102
RTVSPost2010PropOp48
 70
     0
102
RTVSPost2010Prop49
280
     0
102
RTVSPost2010PropOp49
 70
     0
102
RTVSPost2010Prop50
 90
       50
102
RTVSPost2010PropOp50
 70
     0
102
RTVSPost2010Prop51ColorIndex
 90
      256
102
RTVSPost2010Prop51ColorRGB
 90
-16777216
102
RTVSPost2010PropOp51
 70
     0
102
RTVSPost2010Prop52
140
1.0
102
RTVSPost2010PropOp52
 70
     0
102
RTVSPost2010Prop53
 90
        2
102
RTVSPost2010PropOp53
 70
     0
102
RTVSPost2010Prop54
  1
strokes_ogs.tif
102
RTVSPost2010PropOp54
 70
     0
102
RTVSPost2010Prop55
280
     0
102
RTVSPost2010PropOp55
 70
     0
102
RTVSPost2010Prop56
140
1.0
102
RTVSPost2010PropOp56
 70
     0
102
RTVSPost2010Prop57
140
1.0
102
RTVSPost2010PropOp57
 70
     0
  0
XRECORD
  5
10A
102
{ACAD_REACTORS
330
109
102
}
330
109
100
AcDbXrecord
280
     1
102
RTVSPost2010Prop28
280
     0
102
RTVSPost2010PropOp28
 70
     1
102
RTVSPost2010Prop29
280
     1
102
RTVSPost2010PropOp29
 70
     1
102
RTVSPost2010Prop30
280
     1
102
RTVSPost2010PropOp30
 70
     1
102
RTVSPost2010Prop31
280
     0
102
RTVSPost2010PropOp31
 70
     1
102
RTVSPost2010Prop32
280
     0
102
RTVSPost2010PropOp32
 70
     1
102
RTVSPost2010Prop33
280
     0
102
RTVSPost2010PropOp33
 70
     1
102
RTVSPost2010Prop34
280
     0
102
RTVSPost2010PropOp34
 70
     1
102
RTVSPost2010Prop35
280
     0
102
RTVSPost2010PropOp35
 70
     1
102
RTVSPost2010Prop36
280
     0
102
RTVSPost2010PropOp36
 70
     1
102
RTVSPost2010Prop37
 90
       50
102
RTVSPost2010PropOp37
 70
     1
102
RTVSPost2010Prop38
140
0.0
102
RTVSPost2010PropOp38
 70
     1
102
RTVSPost2010Prop39
140
1.0
102
RTVSPost2010PropOp39
 70
     1
102
RTVSPost2010Prop40
 90
        0
102
RTVSPost2010PropOp40
 70
     1
102
RTVSPost2010Prop41ColorIndex
 90
       18
102
RTVSPost2010Prop41ColorRGB
 90
        0
102
RTVSPost2010PropOp41
 70
     1
102
RTVSPost2010Prop42
 90
       50
102
RTVSPost2010PropOp42
 70
     1
102
RTVSPost2010Prop43
 90
        3
102
RTVSPost2010PropOp43
 70
     1
102
RTVSPost2010Prop44ColorIndex
 90
        5
102
RTVSPost2010Prop44ColorRGB
 90
      255
102
RTVSPost2010PropOp44
 70
     1
102
RTVSPost2010Prop45
280
     0
102
RTVSPost2010PropOp45
 70
     1
102
RTVSPost2010Prop46
 90
       50
102
RTVSPost2010PropOp46
 70
     1
102
RTVSPost2010Prop47
 90
       50
102
RTVSPost2010PropOp47
 70
     1
102
RTVSPost2010Prop48
 90
       50
102
RTVSPost2010PropOp48
 70
     1
102
RTVSPost2010Prop49
280
     0
102
RTVSPost2010PropOp49
 70
     1
102
RTVSPost2010Prop50
 90
       50
102
RTVSPost2010PropOp50
 70
     1
102
RTVSPost2010Prop51ColorIndex
 90
      256
102
RTVSPost2010Prop51ColorRGB
 90
-16777216
102
RTVSPost2010PropOp51
 70
     0
102
RTVSPost2010Prop52
140
1.0
102
RTVSPost2010PropOp52
 70
     0
102
RTVSPost2010Prop53
 90
        2
102
RTVSPost2010PropOp53
 70
     1
102
RTVSPost2010Prop54
  1
strokes_ogs.tif
102
RTVSPost2010PropOp54
 70
     1
102
RTVSPost2010Prop55
280
     0
102
RTVSPost2010PropOp55
 70
     1
102
RTVSPost2010Prop56
140
1.0
102
RTVSPost2010PropOp56
 70
     1
102
RTVSPost2010Prop57
140
1.0
102
RTVSPost2010PropOp57
 70
     1
  0
XRECORD
  5
11C
102
{ACAD_REACTORS
330
11B
102
}
330
11B
100
AcDbXrecord
280
     1
102
RTVSPost2010Prop28
280
     0
102
RTVSPost2010PropOp28
 70
     0
102
RTVSPost2010Prop29
280
     1
102
RTVSPost2010PropOp29
 70
     0
102
RTVSPost2010Prop30
280
     1
102
RTVSPost2010PropOp30
 70
     0
102
RTVSPost2010Prop31
280
     0
102
RTVSPost2010PropOp31
 70
     0
102
RTVSPost2010Prop32
280
     0
102
RTVSPost2010PropOp32
 70
     0
102
RTVSPost2010Prop33
280
     0
102
RTVSPost2010PropOp33
 70
     0
102
RTVSPost2010Prop34
280
     0
102
RTVSPost2010PropOp34
 70
     0
102
RTVSPost2010Prop35
280
     0
102
RTVSPost2010PropOp35
 70
     0
102
RTVSPost2010Prop36
280
     0
102
RTVSPost2010PropOp36
 70
     0
102
RTVSPost2010Prop37
 90
       50
102
RTVSPost2010PropOp37
 70
     0
102
RTVSPost2010Prop38
140
0.0
102
RTVSPost2010PropOp38
 70
     0
102
RTVSPost2010Prop39
140
1.0
102
RTVSPost2010PropOp39
 70
     0
102
RTVSPost2010Prop40
 90
        0
102
RTVSPost2010PropOp40
 70
     0
102
RTVSPost2010Prop41ColorIndex
 90
       18
102
RTVSPost2010Prop41ColorRGB
 90
        0
102
RTVSPost2010PropOp41
 70
     0
102
RTVSPost2010Prop42
 90
       50
102
RTVSPost2010PropOp42
 70
     0
102
RTVSPost2010Prop43
 90
        3
102
RTVSPost2010PropOp43
 70
     0
102
RTVSPost2010Prop44ColorIndex
 90
        5
102
RTVSPost2010Prop44ColorRGB
 90
      255
102
RTVSPost2010PropOp44
 70
     0
102
RTVSPost2010Prop45
280
     0
102
RTVSPost2010PropOp45
 70
     0
102
RTVSPost2010Prop46
 90
       50
102
RTVSPost2010PropOp46
 70
     0
102
RTVSPost2010Prop47
 90
       50
102
RTVSPost2010PropOp47
 70
     0
102
RTVSPost2010Prop48
 90
       50
102
RTVSPost2010PropOp48
 70
     0
102
RTVSPost2010Prop49
280
     0
102
RTVSPost2010PropOp49
 70
     0
102
RTVSPost2010Prop50
 90
       50
102
RTVSPost2010PropOp50
 70
     0
102
RTVSPost2010Prop51ColorIndex
 90
      256
102
RTVSPost2010Prop51ColorRGB
 90
-16777216
102
RTVSPost2010PropOp51
 70
     0
102
RTVSPost2010Prop52
140
1.0
102
RTVSPost2010PropOp52
 70
     0
102
RTVSPost2010Prop53
 90
        2
102
RTVSPost2010PropOp53
 70
     0
102
RTVSPost2010Prop54
  1
strokes_ogs.tif
102
RTVSPost2010PropOp54
 70
     0
102
RTVSPost2010Prop55
280
     0
102
RTVSPost2010PropOp55
 70
     0
102
RTVSPost2010Prop56
140
1.0
102
RTVSPost2010PropOp56
 70
     0
102
RTVSPost2010Prop57
140
1.0
102
RTVSPost2010PropOp57
 70
     0
  0
XRECORD
  5
102
102
{ACAD_REACTORS
330
101
102
}
330
101
100
AcDbXrecord
280
     1
102
RTVSPost2010Prop28
280
     0
102
RTVSPost2010PropOp28
 70
     1
102
RTVSPost2010Prop29
280
     1
102
RTVSPost2010PropOp29
 70
     1
102
RTVSPost2010Prop30
280
     1
102
RTVSPost2010PropOp30
 70
     1
102
RTVSPost2010Prop31
280
     0
102
RTVSPost2010PropOp31
 70
     1
102
RTVSPost2010Prop32
280
     0
102
RTVSPost2010PropOp32
 70
     1
102
RTVSPost2010Prop33
280
     0
102
RTVSPost2010PropOp33
 70
     1
102
RTVSPost2010Prop34
280
     0
102
RTVSPost2010PropOp34
 70
     1
102
RTVSPost2010Prop35
280
     0
102
RTVSPost2010PropOp35
 70
     1
102
RTVSPost2010Prop36
280
     0
102
RTVSPost2010PropOp36
 70
     1
102
RTVSPost2010Prop37
 90
       50
102
RTVSPost2010PropOp37
 70
     1
102
RTVSPost2010Prop38
140
0.0
102
RTVSPost2010PropOp38
 70
     1
102
RTVSPost2010Prop39
140
1.0
102
RTVSPost2010PropOp39
 70
     1
102
RTVSPost2010Prop40
 90
        0
102
RTVSPost2010PropOp40
 70
     1
102
RTVSPost2010Prop41ColorIndex
 90
       18
102
RTVSPost2010Prop41ColorRGB
 90
        0
102
RTVSPost2010PropOp41
 70
     1
102
RTVSPost2010Prop42
 90
       50
102
RTVSPost2010PropOp42
 70
     1
102
RTVSPost2010Prop43
 90
        3
102
RTVSPost2010PropOp43
 70
     1
102
RTVSPost2010Prop44ColorIndex
 90
        5
102
RTVSPost2010Prop44ColorRGB
 90
      255
102
RTVSPost2010PropOp44
 70
     1
102
RTVSPost2010Prop45
280
     0
102
RTVSPost2010PropOp45
 70
     1
102
RTVSPost2010Prop46
 90
       50
102
RTVSPost2010PropOp46
 70
     1
102
RTVSPost2010Prop47
 90
       50
102
RTVSPost2010PropOp47
 70
     1
102
RTVSPost2010Prop48
 90
       50
102
RTVSPost2010PropOp48
 70
     1
102
RTVSPost2010Prop49
280
     0
102
RTVSPost2010PropOp49
 70
     1
102
RTVSPost2010Prop50
 90
       50
102
RTVSPost2010PropOp50
 70
     1
102
RTVSPost2010Prop51ColorIndex
 90
      256
102
RTVSPost2010Prop51ColorRGB
 90
-16777216
102
RTVSPost2010PropOp51
 70
     0
102
RTVSPost2010Prop52
140
1.0
102
RTVSPost2010PropOp52
 70
     0
102
RTVSPost2010Prop53
 90
        2
102
RTVSPost2010PropOp53
 70
     1
102
RTVSPost2010Prop54
  1
strokes_ogs.tif
102
RTVSPost2010PropOp54
 70
     1
102
RTVSPost2010Prop55
280
     0
102
RTVSPost2010PropOp55
 70
     1
102
RTVSPost2010Prop56
140
1.0
102
RTVSPost2010PropOp56
 70
     1
102
RTVSPost2010Prop57
140
1.0
102
RTVSPost2010PropOp57
 70
     1
  0
XRECORD
  5
118
102
{ACAD_REACTORS
330
117
102
}
330
117
100
AcDbXrecord
280
     1
102
RTVSPost2010Prop28
280
     0
102
RTVSPost2010PropOp28
 70
     1
102
RTVSPost2010Prop29
280
     1
102
RTVSPost2010PropOp29
 70
     1
102
RTVSPost2010Prop30
280
     1
102
RTVSPost2010PropOp30
 70
     1
102
RTVSPost2010Prop31
280
     0
102
RTVSPost2010PropOp31
 70
     1
102
RTVSPost2010Prop32
280
     0
102
RTVSPost2010PropOp32
 70
     1
102
RTVSPost2010Prop33
280
     0
102
RTVSPost2010PropOp33
 70
     1
102
RTVSPost2010Prop34
280
     0
102
RTVSPost2010PropOp34
 70
     1
102
RTVSPost2010Prop35
280
     0
102
RTVSPost2010PropOp35
 70
     1
102
RTVSPost2010Prop36
280
     0
102
RTVSPost2010PropOp36
 70
     1
102
RTVSPost2010Prop37
 90
       50
102
RTVSPost2010PropOp37
 70
     1
102
RTVSPost2010Prop38
140
0.0
102
RTVSPost2010PropOp38
 70
     1
102
RTVSPost2010Prop39
140
1.0
102
RTVSPost2010PropOp39
 70
     1
102
RTVSPost2010Prop40
 90
        0
102
RTVSPost2010PropOp40
 70
     1
102
RTVSPost2010Prop41ColorIndex
 90
       18
102
RTVSPost2010Prop41ColorRGB
 90
        0
102
RTVSPost2010PropOp41
 70
     1
102
RTVSPost2010Prop42
 90
       50
102
RTVSPost2010PropOp42
 70
     1
102
RTVSPost2010Prop43
 90
        3
102
RTVSPost2010PropOp43
 70
     1
102
RTVSPost2010Prop44ColorIndex
 90
        5
102
RTVSPost2010Prop44ColorRGB
 90
      255
102
RTVSPost2010PropOp44
 70
     1
102
RTVSPost2010Prop45
280
     0
102
RTVSPost2010PropOp45
 70
     1
102
RTVSPost2010Prop46
 90
       50
102
RTVSPost2010PropOp46
 70
     1
102
RTVSPost2010Prop47
 90
       50
102
RTVSPost2010PropOp47
 70
     1
102
RTVSPost2010Prop48
 90
       50
102
RTVSPost2010PropOp48
 70
     1
102
RTVSPost2010Prop49
280
     0
102
RTVSPost2010PropOp49
 70
     1
102
RTVSPost2010Prop50
 90
       50
102
RTVSPost2010PropOp50
 70
     1
102
RTVSPost2010Prop51ColorIndex
 90
      256
102
RTVSPost2010Prop51ColorRGB
 90
-16777216
102
RTVSPost2010PropOp51
 70
     0
102
RTVSPost2010Prop52
140
1.0
102
RTVSPost2010PropOp52
 70
     0
102
RTVSPost2010Prop53
 90
        2
102
RTVSPost2010PropOp53
 70
     1
102
RTVSPost2010Prop54
  1
strokes_ogs.tif
102
RTVSPost2010PropOp54
 70
     1
102
RTVSPost2010Prop55
280
     0
102
RTVSPost2010PropOp55
 70
     1
102
RTVSPost2010Prop56
140
1.0
102
RTVSPost2010PropOp56
 70
     1
102
RTVSPost2010Prop57
140
1.0
102
RTVSPost2010PropOp57
 70
     1
  0
XRECORD
  5
116
102
{ACAD_REACTORS
330
115
102
}
330
115
100
AcDbXrecord
280
     1
102
RTVSPost2010Prop28
280
     0
102
RTVSPost2010PropOp28
 70
     1
102
RTVSPost2010Prop29
280
     1
102
RTVSPost2010PropOp29
 70
     1
102
RTVSPost2010Prop30
280
     1
102
RTVSPost2010PropOp30
 70
     1
102
RTVSPost2010Prop31
280
     0
102
RTVSPost2010PropOp31
 70
     1
102
RTVSPost2010Prop32
280
     0
102
RTVSPost2010PropOp32
 70
     1
102
RTVSPost2010Prop33
280
     0
102
RTVSPost2010PropOp33
 70
     1
102
RTVSPost2010Prop34
280
     0
102
RTVSPost2010PropOp34
 70
     1
102
RTVSPost2010Prop35
280
     0
102
RTVSPost2010PropOp35
 70
     1
102
RTVSPost2010Prop36
280
     0
102
RTVSPost2010PropOp36
 70
     1
102
RTVSPost2010Prop37
 90
       50
102
RTVSPost2010PropOp37
 70
     1
102
RTVSPost2010Prop38
140
0.0
102
RTVSPost2010PropOp38
 70
     1
102
RTVSPost2010Prop39
140
1.0
102
RTVSPost2010PropOp39
 70
     1
102
RTVSPost2010Prop40
 90
        0
102
RTVSPost2010PropOp40
 70
     1
102
RTVSPost2010Prop41ColorIndex
 90
       18
102
RTVSPost2010Prop41ColorRGB
 90
        0
102
RTVSPost2010PropOp41
 70
     1
102
RTVSPost2010Prop42
 90
       50
102
RTVSPost2010PropOp42
 70
     1
102
RTVSPost2010Prop43
 90
        3
102
RTVSPost2010PropOp43
 70
     1
102
RTVSPost2010Prop44ColorIndex
 90
        5
102
RTVSPost2010Prop44ColorRGB
 90
      255
102
RTVSPost2010PropOp44
 70
     1
102
RTVSPost2010Prop45
280
     0
102
RTVSPost2010PropOp45
 70
     1
102
RTVSPost2010Prop46
 90
       50
102
RTVSPost2010PropOp46
 70
     1
102
RTVSPost2010Prop47
 90
       50
102
RTVSPost2010PropOp47
 70
     1
102
RTVSPost2010Prop48
 90
       50
102
RTVSPost2010PropOp48
 70
     1
102
RTVSPost2010Prop49
280
     0
102
RTVSPost2010PropOp49
 70
     1
102
RTVSPost2010Prop50
 90
       50
102
RTVSPost2010PropOp50
 70
     1
102
RTVSPost2010Prop51ColorIndex
 90
      256
102
RTVSPost2010Prop51ColorRGB
 90
-16777216
102
RTVSPost2010PropOp51
 70
     0
102
RTVSPost2010Prop52
140
1.0
102
RTVSPost2010PropOp52
 70
     0
102
RTVSPost2010Prop53
 90
        2
102
RTVSPost2010PropOp53
 70
     1
102
RTVSPost2010Prop54
  1
strokes_ogs.tif
102
RTVSPost2010PropOp54
 70
     1
102
RTVSPost2010Prop55
280
     0
102
RTVSPost2010PropOp55
 70
     1
102
RTVSPost2010Prop56
140
1.0
102
RTVSPost2010PropOp56
 70
     1
102
RTVSPost2010Prop57
140
1.0
102
RTVSPost2010PropOp57
 70
     1
  0
XRECORD
  5
110
102
{ACAD_REACTORS
330
10F
102
}
330
10F
100
AcDbXrecord
280
     1
102
RTVSPost2010Prop28
280
     0
102
RTVSPost2010PropOp28
 70
     1
102
RTVSPost2010Prop29
280
     1
102
RTVSPost2010PropOp29
 70
     1
102
RTVSPost2010Prop30
280
     1
102
RTVSPost2010PropOp30
 70
     1
102
RTVSPost2010Prop31
280
     0
102
RTVSPost2010PropOp31
 70
     1
102
RTVSPost2010Prop32
280
     0
102
RTVSPost2010PropOp32
 70
     1
102
RTVSPost2010Prop33
280
     0
102
RTVSPost2010PropOp33
 70
     1
102
RTVSPost2010Prop34
280
     0
102
RTVSPost2010PropOp34
 70
     1
102
RTVSPost2010Prop35
280
     0
102
RTVSPost2010PropOp35
 70
     1
102
RTVSPost2010Prop36
280
     0
102
RTVSPost2010PropOp36
 70
     1
102
RTVSPost2010Prop37
 90
       50
102
RTVSPost2010PropOp37
 70
     1
102
RTVSPost2010Prop38
140
0.0
102
RTVSPost2010PropOp38
 70
     1
102
RTVSPost2010Prop39
140
1.0
102
RTVSPost2010PropOp39
 70
     1
102
RTVSPost2010Prop40
 90
        0
102
RTVSPost2010PropOp40
 70
     1
102
RTVSPost2010Prop41ColorIndex
 90
       18
102
RTVSPost2010Prop41ColorRGB
 90
        0
102
RTVSPost2010PropOp41
 70
     1
102
RTVSPost2010Prop42
 90
       50
102
RTVSPost2010PropOp42
 70
     1
102
RTVSPost2010Prop43
 90
        3
102
RTVSPost2010PropOp43
 70
     1
102
RTVSPost2010Prop44ColorIndex
 90
        5
102
RTVSPost2010Prop44ColorRGB
 90
      255
102
RTVSPost2010PropOp44
 70
     1
102
RTVSPost2010Prop45
280
     0
102
RTVSPost2010PropOp45
 70
     1
102
RTVSPost2010Prop46
 90
       50
102
RTVSPost2010PropOp46
 70
     1
102
RTVSPost2010Prop47
 90
       50
102
RTVSPost2010PropOp47
 70
     1
102
RTVSPost2010Prop48
 90
       50
102
RTVSPost2010PropOp48
 70
     1
102
RTVSPost2010Prop49
280
     0
102
RTVSPost2010PropOp49
 70
     1
102
RTVSPost2010Prop50
 90
       50
102
RTVSPost2010PropOp50
 70
     1
102
RTVSPost2010Prop51ColorIndex
 90
      256
102
RTVSPost2010Prop51ColorRGB
 90
-16777216
102
RTVSPost2010PropOp51
 70
     0
102
RTVSPost2010Prop52
140
1.0
102
RTVSPost2010PropOp52
 70
     0
102
RTVSPost2010Prop53
 90
        2
102
RTVSPost2010PropOp53
 70
     1
102
RTVSPost2010Prop54
  1
strokes_ogs.tif
102
RTVSPost2010PropOp54
 70
     1
102
RTVSPost2010Prop55
280
     0
102
RTVSPost2010PropOp55
 70
     1
102
RTVSPost2010Prop56
140
1.0
102
RTVSPost2010PropOp56
 70
     1
102
RTVSPost2010Prop57
140
1.0
102
RTVSPost2010PropOp57
 70
     1
  0
XRECORD
  5
112
102
{ACAD_REACTORS
330
111
102
}
330
111
100
AcDbXrecord
280
     1
102
RTVSPost2010Prop28
280
     0
102
RTVSPost2010PropOp28
 70
     1
102
RTVSPost2010Prop29
280
     1
102
RTVSPost2010PropOp29
 70
     1
102
RTVSPost2010Prop30
280
     1
102
RTVSPost2010PropOp30
 70
     1
102
RTVSPost2010Prop31
280
     0
102
RTVSPost2010PropOp31
 70
     1
102
RTVSPost2010Prop32
280
     0
102
RTVSPost2010PropOp32
 70
     1
102
RTVSPost2010Prop33
280
     0
102
RTVSPost2010PropOp33
 70
     1
102
RTVSPost2010Prop34
280
     0
102
RTVSPost2010PropOp34
 70
     1
102
RTVSPost2010Prop35
280
     0
102
RTVSPost2010PropOp35
 70
     1
102
RTVSPost2010Prop36
280
     0
102
RTVSPost2010PropOp36
 70
     1
102
RTVSPost2010Prop37
 90
       50
102
RTVSPost2010PropOp37
 70
     1
102
RTVSPost2010Prop38
140
0.0
102
RTVSPost2010PropOp38
 70
     1
102
RTVSPost2010Prop39
140
1.0
102
RTVSPost2010PropOp39
 70
     1
102
RTVSPost2010Prop40
 90
        0
102
RTVSPost2010PropOp40
 70
     1
102
RTVSPost2010Prop41ColorIndex
 90
       18
102
RTVSPost2010Prop41ColorRGB
 90
        0
102
RTVSPost2010PropOp41
 70
     1
102
RTVSPost2010Prop42
 90
       50
102
RTVSPost2010PropOp42
 70
     1
102
RTVSPost2010Prop43
 90
        3
102
RTVSPost2010PropOp43
 70
     1
102
RTVSPost2010Prop44ColorIndex
 90
        5
102
RTVSPost2010Prop44ColorRGB
 90
      255
102
RTVSPost2010PropOp44
 70
     1
102
RTVSPost2010Prop45
280
     0
102
RTVSPost2010PropOp45
 70
     1
102
RTVSPost2010Prop46
 90
       50
102
RTVSPost2010PropOp46
 70
     1
102
RTVSPost2010Prop47
 90
       50
102
RTVSPost2010PropOp47
 70
     1
102
RTVSPost2010Prop48
 90
       50
102
RTVSPost2010PropOp48
 70
     1
102
RTVSPost2010Prop49
280
     0
102
RTVSPost2010PropOp49
 70
     1
102
RTVSPost2010Prop50
 90
       50
102
RTVSPost2010PropOp50
 70
     1
102
RTVSPost2010Prop51ColorIndex
 90
      256
102
RTVSPost2010Prop51ColorRGB
 90
-16777216
102
RTVSPost2010PropOp51
 70
     0
102
RTVSPost2010Prop52
140
1.0
102
RTVSPost2010PropOp52
 70
     0
102
RTVSPost2010Prop53
 90
        2
102
RTVSPost2010PropOp53
 70
     1
102
RTVSPost2010Prop54
  1
strokes_ogs.tif
102
RTVSPost2010PropOp54
 70
     1
102
RTVSPost2010Prop55
280
     0
102
RTVSPost2010PropOp55
 70
     1
102
RTVSPost2010Prop56
140
1.0
102
RTVSPost2010PropOp56
 70
     1
102
RTVSPost2010Prop57
140
1.0
102
RTVSPost2010PropOp57
 70
     1
  0
XRECORD
  5
108
102
{ACAD_REACTORS
330
107
102
}
330
107
100
AcDbXrecord
280
     1
102
RTVSPost2010Prop28
280
     0
102
RTVSPost2010PropOp28
 70
     1
102
RTVSPost2010Prop29
280
     1
102
RTVSPost2010PropOp29
 70
     1
102
RTVSPost2010Prop30
280
     1
102
RTVSPost2010PropOp30
 70
     1
102
RTVSPost2010Prop31
280
     0
102
RTVSPost2010PropOp31
 70
     1
102
RTVSPost2010Prop32
280
     0
102
RTVSPost2010PropOp32
 70
     1
102
RTVSPost2010Prop33
280
     0
102
RTVSPost2010PropOp33
 70
     1
102
RTVSPost2010Prop34
280
     0
102
RTVSPost2010PropOp34
 70
     1
102
RTVSPost2010Prop35
280
     0
102
RTVSPost2010PropOp35
 70
     1
102
RTVSPost2010Prop36
280
     0
102
RTVSPost2010PropOp36
 70
     1
102
RTVSPost2010Prop37
 90
       50
102
RTVSPost2010PropOp37
 70
     1
102
RTVSPost2010Prop38
140
0.0
102
RTVSPost2010PropOp38
 70
     1
102
RTVSPost2010Prop39
140
1.0
102
RTVSPost2010PropOp39
 70
     1
102
RTVSPost2010Prop40
 90
        0
102
RTVSPost2010PropOp40
 70
     1
102
RTVSPost2010Prop41ColorIndex
 90
       18
102
RTVSPost2010Prop41ColorRGB
 90
        0
102
RTVSPost2010PropOp41
 70
     1
102
RTVSPost2010Prop42
 90
       50
102
RTVSPost2010PropOp42
 70
     1
102
RTVSPost2010Prop43
 90
        3
102
RTVSPost2010PropOp43
 70
     1
102
RTVSPost2010Prop44ColorIndex
 90
        5
102
RTVSPost2010Prop44ColorRGB
 90
      255
102
RTVSPost2010PropOp44
 70
     1
102
RTVSPost2010Prop45
280
     0
102
RTVSPost2010PropOp45
 70
     1
102
RTVSPost2010Prop46
 90
       50
102
RTVSPost2010PropOp46
 70
     1
102
RTVSPost2010Prop47
 90
       50
102
RTVSPost2010PropOp47
 70
     1
102
RTVSPost2010Prop48
 90
       50
102
RTVSPost2010PropOp48
 70
     1
102
RTVSPost2010Prop49
280
     0
102
RTVSPost2010PropOp49
 70
     1
102
RTVSPost2010Prop50
 90
       50
102
RTVSPost2010PropOp50
 70
     1
102
RTVSPost2010Prop51ColorIndex
 90
      256
102
RTVSPost2010Prop51ColorRGB
 90
-16777216
102
RTVSPost2010PropOp51
 70
     0
102
RTVSPost2010Prop52
140
1.0
102
RTVSPost2010PropOp52
 70
     0
102
RTVSPost2010Prop53
 90
        2
102
RTVSPost2010PropOp53
 70
     1
102
RTVSPost2010Prop54
  1
strokes_ogs.tif
102
RTVSPost2010PropOp54
 70
     1
102
RTVSPost2010Prop55
280
     0
102
RTVSPost2010PropOp55
 70
     1
102
RTVSPost2010Prop56
140
1.0
102
RTVSPost2010PropOp56
 70
     1
102
RTVSPost2010Prop57
140
1.0
102
RTVSPost2010PropOp57
 70
     1
  0
XRECORD
  5
FC
102
{ACAD_REACTORS
330
FB
102
}
330
FB
100
AcDbXrecord
280
     1
102
RTVSPost2010Prop28
280
     0
102
RTVSPost2010PropOp28
 70
     1
102
RTVSPost2010Prop29
280
     1
102
RTVSPost2010PropOp29
 70
     1
102
RTVSPost2010Prop30
280
     1
102
RTVSPost2010PropOp30
 70
     1
102
RTVSPost2010Prop31
280
     0
102
RTVSPost2010PropOp31
 70
     1
102
RTVSPost2010Prop32
280
     0
102
RTVSPost2010PropOp32
 70
     1
102
RTVSPost2010Prop33
280
     0
102
RTVSPost2010PropOp33
 70
     1
102
RTVSPost2010Prop34
280
     0
102
RTVSPost2010PropOp34
 70
     1
102
RTVSPost2010Prop35
280
     0
102
RTVSPost2010PropOp35
 70
     1
102
RTVSPost2010Prop36
280
     0
102
RTVSPost2010PropOp36
 70
     1
102
RTVSPost2010Prop37
 90
       50
102
RTVSPost2010PropOp37
 70
     1
102
RTVSPost2010Prop38
140
0.0
102
RTVSPost2010PropOp38
 70
     1
102
RTVSPost2010Prop39
140
1.0
102
RTVSPost2010PropOp39
 70
     1
102
RTVSPost2010Prop40
 90
        0
102
RTVSPost2010PropOp40
 70
     1
102
RTVSPost2010Prop41ColorIndex
 90
       18
102
RTVSPost2010Prop41ColorRGB
 90
        0
102
RTVSPost2010PropOp41
 70
     1
102
RTVSPost2010Prop42
 90
       50
102
RTVSPost2010PropOp42
 70
     1
102
RTVSPost2010Prop43
 90
        3
102
RTVSPost2010PropOp43
 70
     1
102
RTVSPost2010Prop44ColorIndex
 90
        5
102
RTVSPost2010Prop44ColorRGB
 90
      255
102
RTVSPost2010PropOp44
 70
     1
102
RTVSPost2010Prop45
280
     0
102
RTVSPost2010PropOp45
 70
     1
102
RTVSPost2010Prop46
 90
       50
102
RTVSPost2010PropOp46
 70
     1
102
RTVSPost2010Prop47
 90
       50
102
RTVSPost2010PropOp47
 70
     1
102
RTVSPost2010Prop48
 90
       50
102
RTVSPost2010PropOp48
 70
     1
102
RTVSPost2010Prop49
280
     0
102
RTVSPost2010PropOp49
 70
     1
102
RTVSPost2010Prop50
 90
       50
102
RTVSPost2010PropOp50
 70
     1
102
RTVSPost2010Prop51ColorIndex
 90
      256
102
RTVSPost2010Prop51ColorRGB
 90
-16777216
102
RTVSPost2010PropOp51
 70
     0
102
RTVSPost2010Prop52
140
1.0
102
RTVSPost2010PropOp52
 70
     0
102
RTVSPost2010Prop53
 90
        2
102
RTVSPost2010PropOp53
 70
     1
102
RTVSPost2010Prop54
  1
strokes_ogs.tif
102
RTVSPost2010PropOp54
 70
     1
102
RTVSPost2010Prop55
280
     0
102
RTVSPost2010PropOp55
 70
     1
102
RTVSPost2010Prop56
140
1.0
102
RTVSPost2010PropOp56
 70
     1
102
RTVSPost2010Prop57
140
1.0
102
RTVSPost2010PropOp57
 70
     1
  0
XRECORD
  5
114
102
{ACAD_REACTORS
330
113
102
}
330
113
100
AcDbXrecord
280
     1
102
RTVSPost2010Prop28
280
     0
102
RTVSPost2010PropOp28
 70
     1
102
RTVSPost2010Prop29
280
     1
102
RTVSPost2010PropOp29
 70
     1
102
RTVSPost2010Prop30
280
     1
102
RTVSPost2010PropOp30
 70
     1
102
RTVSPost2010Prop31
280
     0
102
RTVSPost2010PropOp31
 70
     1
102
RTVSPost2010Prop32
280
     0
102
RTVSPost2010PropOp32
 70
     1
102
RTVSPost2010Prop33
280
     0
102
RTVSPost2010PropOp33
 70
     1
102
RTVSPost2010Prop34
280
     0
102
RTVSPost2010PropOp34
 70
     1
102
RTVSPost2010Prop35
280
     0
102
RTVSPost2010PropOp35
 70
     1
102
RTVSPost2010Prop36
280
     0
102
RTVSPost2010PropOp36
 70
     1
102
RTVSPost2010Prop37
 90
       50
102
RTVSPost2010PropOp37
 70
     1
102
RTVSPost2010Prop38
140
0.0
102
RTVSPost2010PropOp38
 70
     1
102
RTVSPost2010Prop39
140
1.0
102
RTVSPost2010PropOp39
 70
     1
102
RTVSPost2010Prop40
 90
        0
102
RTVSPost2010PropOp40
 70
     1
102
RTVSPost2010Prop41ColorIndex
 90
       18
102
RTVSPost2010Prop41ColorRGB
 90
        0
102
RTVSPost2010PropOp41
 70
     1
102
RTVSPost2010Prop42
 90
       50
102
RTVSPost2010PropOp42
 70
     1
102
RTVSPost2010Prop43
 90
        3
102
RTVSPost2010PropOp43
 70
     1
102
RTVSPost2010Prop44ColorIndex
 90
        5
102
RTVSPost2010Prop44ColorRGB
 90
      255
102
RTVSPost2010PropOp44
 70
     1
102
RTVSPost2010Prop45
280
     0
102
RTVSPost2010PropOp45
 70
     1
102
RTVSPost2010Prop46
 90
       50
102
RTVSPost2010PropOp46
 70
     1
102
RTVSPost2010Prop47
 90
       50
102
RTVSPost2010PropOp47
 70
     1
102
RTVSPost2010Prop48
 90
       50
102
RTVSPost2010PropOp48
 70
     1
102
RTVSPost2010Prop49
280
     0
102
RTVSPost2010PropOp49
 70
     1
102
RTVSPost2010Prop50
 90
       50
102
RTVSPost2010PropOp50
 70
     1
102
RTVSPost2010Prop51ColorIndex
 90
      256
102
RTVSPost2010Prop51ColorRGB
 90
-16777216
102
RTVSPost2010PropOp51
 70
     0
102
RTVSPost2010Prop52
140
1.0
102
RTVSPost2010PropOp52
 70
     0
102
RTVSPost2010Prop53
 90
        2
102
RTVSPost2010PropOp53
 70
     1
102
RTVSPost2010Prop54
  1
strokes_ogs.tif
102
RTVSPost2010PropOp54
 70
     1
102
RTVSPost2010Prop55
280
     0
102
RTVSPost2010PropOp55
 70
     1
102
RTVSPost2010Prop56
140
1.0
102
RTVSPost2010PropOp56
 70
     1
102
RTVSPost2010Prop57
140
1.0
102
RTVSPost2010PropOp57
 70
     1
  0
ENDSEC
  0
EOF
