  0
SECTION
  2
HEADER
  9
$ACADVER
  1
AC1024
  9
$ACADMAINTVER
 70
     6
  9
$DWGCODEPAGE
  3
UNDEFINED
  9
$INSBASE
 10
0.0
 20
0.0
 30
0.0
  9
$EXTMIN
 10
1.000000000000000E+20
 20
1.000000000000000E+20
 30
1.000000000000000E+20
  9
$EXTMAX
 10
-1.000000000000000E+20
 20
-1.000000000000000E+20
 30
-1.000000000000000E+20
  9
$LIMMIN
 10
0.0
 20
0.0
  9
$LIMMAX
 10
12.0
 20
9.0
  9
$ORTHOMODE
 70
     0
  9
$REGENMODE
 70
     1
  9
$FILLMODE
 70
     1
  9
$QTEXTMODE
 70
     0
  9
$MIRRTEXT
 70
     1
  9
$LTSCALE
 40
1.0
  9
$ATTMODE
 70
     1
  9
$TEXTSIZE
 40
0.2
  9
$TRACEWID
 40
0.05
  9
$TEXTSTYLE
  7
Standard
  9
$CLAYER
  8
0
  9
$CELTYPE
  6
ByLayer
  9
$CECOLOR
 62
   256
  9
$CELTSCALE
 40
1.0
  9
$DISPSILH
 70
     0
  9
$DIMSCALE
 40
1.0
  9
$DIMASZ
 40
0.18
  9
$DIMEXO
 40
0.0625
  9
$DIMDLI
 40
0.38
  9
$DIMRND
 40
0.0
  9
$DIMDLE
 40
0.0
  9
$DIMEXE
 40
0.18
  9
$DIMTP
 40
0.0
  9
$DIMTM
 40
0.0
  9
$DIMTXT
 40
0.18
  9
$DIMCEN
 40
0.09
  9
$DIMTSZ
 40
0.0
  9
$DIMTOL
 70
     0
  9
$DIMLIM
 70
     0
  9
$DIMTIH
 70
     1
  9
$DIMTOH
 70
     1
  9
$DIMSE1
 70
     0
  9
$DIMSE2
 70
     0
  9
$DIMTAD
 70
     0
  9
$DIMZIN
 70
     0
  9
$DIMBLK
  1

  9
$DIMASO
 70
     1
  9
$DIMSHO
 70
     1
  9
$DIMPOST
  1

  9
$DIMAPOST
  1

  9
$DIMALT
 70
     0
  9
$DIMALTD
 70
     2
  9
$DIMALTF
 40
25.4
  9
$DIMLFAC
 40
1.0
  9
$DIMTOFL
 70
     0
  9
$DIMTVP
 40
0.0
  9
$DIMTIX
 70
     0
  9
$DIMSOXD
 70
     0
  9
$DIMSAH
 70
     0
  9
$DIMBLK1
  1

  9
$DIMBLK2
  1

  9
$DIMSTYLE
  2
Standard
  9
$DIMCLRD
 70
     0
  9
$DIMCLRE
 70
     0
  9
$DIMCLRT
 70
     0
  9
$DIMTFAC
 40
1.0
  9
$DIMGAP
 40
0.09
  9
$DIMJUST
 70
     0
  9
$DIMSD1
 70
     0
  9
$DIMSD2
 70
     0
  9
$DIMTOLJ
 70
     1
  9
$DIMTZIN
 70
     0
  9
$DIMALTZ
 70
     0
  9
$DIMALTTZ
 70
     0
  9
$DIMUPT
 70
     0
  9
$DIMDEC
 70
     4
  9
$DIMTDEC
 70
     4
  9
$DIMALTU
 70
     2
  9
$DIMALTTD
 70
     2
  9
$DIMTXSTY
  7
Standard
  9
$DIMAUNIT
 70
     0
  9
$DIMADEC
 70
     0
  9
$DIMALTRND
 40
0.0
  9
$DIMAZIN
 70
     0
  9
$DIMDSEP
 70
    46
  9
$DIMATFIT
 70
     3
  9
$DIMFRAC
 70
     0
  9
$DIMLDRBLK
  1

  9
$DIMLUNIT
 70
     2
  9
$DIMLWD
 70
    -2
  9
$DIMLWE
 70
    -2
  9
$DIMTMOVE
 70
     0
  9
$DIMFXL
 40
1.0
  9
$DIMFXLON
 70
     0
  9
$DIMJOGANG
 40
0.7853981633974483
  9
$DIMTFILL
 70
     0
  9
$DIMTFILLCLR
 70
     0
  9
$DIMARCSYM
 70
     0
  9
$DIMLTYPE
  6

  9
$DIMLTEX1
  6

  9
$DIMLTEX2
  6

  9
$DIMTXTDIRECTION
 70
     0
  9
$LUNITS
 70
     2
  9
$LUPREC
 70
     4
  9
$SKETCHINC
 40
0.1
  9
$FILLETRAD
 40
0.5
  9
$AUNITS
 70
     0
  9
$AUPREC
 70
     0
  9
$MENU
  1
.
  9
$ELEVATION
 40
0.0
  9
$PELEVATION
 40
0.0
  9
$THICKNESS
 40
0.0
  9
$LIMCHECK
 70
     0
  9
$CHAMFERA
 40
0.5
  9
$CHAMFERB
 40
0.5
  9
$CHAMFERC
 40
1.0
  9
$CHAMFERD
 40
0.0
  9
$SKPOLY
 70
     0
  9
$TDCREATE
 40
2457917.588252315
  9
$TDUCREATE
 40
2457917.213252315
  9
$TDUPDATE
 40
2457917.588252315
  9
$TDUUPDATE
 40
2457917.213252315
  9
$TDINDWG
 40
0.0000000116
  9
$TDUSRTIMER
 40
0.0000000116
  9
$USRTIMER
 70
     1
  9
$ANGBASE
 50
0.0
  9
$ANGDIR
 70
     0
  9
$PDMODE
 70
     0
  9
$PDSIZE
 40
0.0
  9
$PLINEWID
 40
0.0
  9
$SPLFRAME
 70
     0
  9
$SPLINETYPE
 70
     6
  9
$SPLINESEGS
 70
     8
  9
$HANDSEED
  5
CC
  9
$SURFTAB1
 70
     6
  9
$SURFTAB2
 70
     6
  9
$SURFTYPE
 70
     6
  9
$SURFU
 70
     6
  9
$SURFV
 70
     6
  9
$UCSBASE
  2

  9
$UCSNAME
  2

  9
$UCSORG
 10
0.0
 20
0.0
 30
0.0
  9
$UCSXDIR
 10
1.0
 20
0.0
 30
0.0
  9
$UCSYDIR
 10
0.0
 20
1.0
 30
0.0
  9
$UCSORTHOREF
  2

  9
$UCSORTHOVIEW
 70
     0
  9
$UCSORGTOP
 10
0.0
 20
0.0
 30
0.0
  9
$UCSORGBOTTOM
 10
0.0
 20
0.0
 30
0.0
  9
$UCSORGLEFT
 10
0.0
 20
0.0
 30
0.0
  9
$UCSORGRIGHT
 10
0.0
 20
0.0
 30
0.0
  9
$UCSORGFRONT
 10
0.0
 20
0.0
 30
0.0
  9
$UCSORGBACK
 10
0.0
 20
0.0
 30
0.0
  9
$PUCSBASE
  2

  9
$PUCSNAME
  2

  9
$PUCSORG
 10
0.0
 20
0.0
 30
0.0
  9
$PUCSXDIR
 10
1.0
 20
0.0
 30
0.0
  9
$PUCSYDIR
 10
0.0
 20
1.0
 30
0.0
  9
$PUCSORTHOREF
  2

  9
$PUCSORTHOVIEW
 70
     0
  9
$PUCSORGTOP
 10
0.0
 20
0.0
 30
0.0
  9
$PUCSORGBOTTOM
 10
0.0
 20
0.0
 30
0.0
  9
$PUCSORGLEFT
 10
0.0
 20
0.0
 30
0.0
  9
$PUCSORGRIGHT
 10
0.0
 20
0.0
 30
0.0
  9
$PUCSORGFRONT
 10
0.0
 20
0.0
 30
0.0
  9
$PUCSORGBACK
 10
0.0
 20
0.0
 30
0.0
  9
$USERI1
 70
     0
  9
$USERI2
 70
     0
  9
$USERI3
 70
     0
  9
$USERI4
 70
     0
  9
$USERI5
 70
     0
  9
$USERR1
 40
0.0
  9
$USERR2
 40
0.0
  9
$USERR3
 40
0.0
  9
$USERR4
 40
0.0
  9
$USERR5
 40
0.0
  9
$WORLDVIEW
 70
     1
  9
$SHADEDGE
 70
     3
  9
$SHADEDIF
 70
    70
  9
$TILEMODE
 70
     1
  9
$MAXACTVP
 70
    64
  9
$PINSBASE
 10
0.0
 20
0.0
 30
0.0
  9
$PLIMCHECK
 70
     0
  9
$PEXTMIN
 10
1.000000000000000E+20
 20
1.000000000000000E+20
 30
1.000000000000000E+20
  9
$PEXTMAX
 10
-1.000000000000000E+20
 20
-1.000000000000000E+20
 30
-1.000000000000000E+20
  9
$PLIMMIN
 10
0.0
 20
0.0
  9
$PLIMMAX
 10
12.0
 20
9.0
  9
$UNITMODE
 70
     0
  9
$VISRETAIN
 70
     1
  9
$PLINEGEN
 70
     0
  9
$PSLTSCALE
 70
     1
  9
$TREEDEPTH
 70
  3020
  9
$CMLSTYLE
  2
Standard
  9
$CMLJUST
 70
     0
  9
$CMLSCALE
 40
1.0
  9
$PROXYGRAPHICS
 70
     1
  9
$MEASUREMENT
 70
     0
  9
$CELWEIGHT
370
    -1
  9
$ENDCAPS
280
     0
  9
$JOINSTYLE
280
     0
  9
$LWDISPLAY
290
     1
  9
$INSUNITS
 70
     1
  9
$HYPERLINKBASE
  1

  9
$STYLESHEET
  1

  9
$XEDIT
290
     1
  9
$CEPSNTYPE
380
     0
  9
$PSTYLEMODE
290
     1
  9
$FINGERPRINTGUID
  2
{1978D4FB-C69D-6C89-EC56-88CBD262998B}
  9
$VERSIONGUID
  2
{FAEB1C32-E019-11D5-929B-00C0DF256EC4}
  9
$EXTNAMES
290
     1
  9
$PSVPSCALE
 40
0.0
  9
$OLESTARTUP
290
     0
  9
$SORTENTS
280
   127
  9
$INDEXCTL
280
     0
  9
$HIDETEXT
280
     1
  9
$XCLIPFRAME
280
     2
  9
$HALOGAP
280
     0
  9
$OBSCOLOR
 70
   257
  9
$OBSLTYPE
280
     0
  9
$INTERSECTIONDISPLAY
280
     0
  9
$INTERSECTIONCOLOR
 70
   257
  9
$DIMASSOC
280
     2
  9
$PROJECTNAME
  1

  9
$CAMERADISPLAY
290
     0
  9
$LENSLENGTH
 40
50.0
  9
$CAMERAHEIGHT
 40
0.0
  9
$STEPSPERSEC
 40
2.0
  9
$STEPSIZE
 40
6.0
  9
$3DDWFPREC
 40
2.0
  9
$PSOLWIDTH
 40
0.25
  9
$PSOLHEIGHT
 40
4.0
  9
$LOFTANG1
 40
1.570796326794897
  9
$LOFTANG2
 40
1.570796326794897
  9
$LOFTMAG1
 40
0.0
  9
$LOFTMAG2
 40
0.0
  9
$LOFTPARAM
 70
     7
  9
$LOFTNORMALS
280
     1
  9
$LATITUDE
 40
37.795
  9
$LONGITUDE
 40
-122.394
  9
$NORTHDIRECTION
 40
0.0
  9
$TIMEZONE
 70
 -8000
  9
$LIGHTGLYPHDISPLAY
280
     1
  9
$TILEMODELIGHTSYNCH
280
     1
  9
$CMATERIAL
347
3C
  9
$SOLIDHIST
280
     1
  9
$SHOWHIST
280
     1
  9
$DWFFRAME
280
     2
  9
$DGNFRAME
280
     2
  9
$REALWORLDSCALE
290
     1
  9
$INTERFERECOLOR
 62
   256
  9
$CSHADOW
280
     0
  9
$SHADOWPLANELOCATION
 40
0.0
  0
ENDSEC
  0
SECTION
  2
CLASSES
  0
CLASS
  1
ACDBDICTIONARYWDFLT
  2
AcDbDictionaryWithDefault
  3
ObjectDBX Classes
 90
        0
 91
        4
280
     0
281
     0
  0
CLASS
  1
VISUALSTYLE
  2
AcDbVisualStyle
  3
ObjectDBX Classes
 90
     4095
 91
        4
280
     0
281
     0
  0
CLASS
  1
MATERIAL
  2
AcDbMaterial
  3
ObjectDBX Classes
 90
     1153
 91
        4
280
     0
281
     0
  0
CLASS
  1
SUN
  2
AcDbSun
  3
SCENEOE
 90
     1024
 91
        4
280
     0
281
     0
  0
ENDSEC
  0
SECTION
  2
TABLES
  0
TABLE
  2
VPORT
  5
8
330
0
100
AcDbSymbolTable
 70
     1
  0
VPORT
  5
29
330
8
100
AcDbSymbolTableRecord
100
AcDbViewportTableRecord
  2
*Active
 70
     0
 10
0.0
 20
0.0
 11
1.0
 21
1.0
 12
0.0
 22
0.0
 13
0.0
 23
0.0
 14
0.5
 24
0.5
 15
0.5
 25
0.5
 16
0.0
 26
0.0
 36
1.0
 17
105.0008280156501
 27
-148.4999710739862
 37
0.0
 40
296.9999421479724
 41
0.7070764206636528
 42
50.0
 43
0.0
 44
0.0
 50
0.0
 51
0.0
 71
     0
 72
   100
 73
     1
 74
     3
 75
     0
 76
     0
 77
     0
 78
     0
281
     0
 65
     1
110
0.0
120
0.0
130
0.0
111
1.0
121
0.0
131
0.0
112
0.0
122
1.0
132
0.0
 79
     0
146
0.0
 60
     3
 61
     5
292
     1
282
     1
141
0.0
142
0.0
 63
   250
361
3F
  0
ENDTAB
  0
TABLE
  2
LTYPE
  5
5
330
0
100
AcDbSymbolTable
 70
     1
  0
LTYPE
  5
14
330
5
100
AcDbSymbolTableRecord
100
AcDbLinetypeTableRecord
  2
ByBlock
 70
     0
  3

 72
    65
 73
     0
 40
0.0
  0
LTYPE
  5
15
330
5
100
AcDbSymbolTableRecord
100
AcDbLinetypeTableRecord
  2
ByLayer
 70
     0
  3

 72
    65
 73
     0
 40
0.0
  0
LTYPE
  5
16
330
5
100
AcDbSymbolTableRecord
100
AcDbLinetypeTableRecord
  2
Continuous
 70
     0
  3
Solid line
 72
    65
 73
     0
 40
0.0
  0
ENDTAB
  0
TABLE
  2
LAYER
  5
2
330
0
100
AcDbSymbolTable
 70
     2
  0
LAYER
  5
10
330
2
100
AcDbSymbolTableRecord
100
AcDbLayerTableRecord
  2
0
 70
     0
 62
     7
  6
Continuous
370
    -3
390
F
347
3E
  0
LAYER
  5
40
330
2
100
AcDbSymbolTableRecord
100
AcDbLayerTableRecord
  2
_U+30EC_U+30A4_U+30E4_U+30FC 1
 70
     0
 62
     7
  6
Continuous
370
    -3
390
F
347
3E
  0
ENDTAB
  0
TABLE
  2
STYLE
  5
3
330
0
100
AcDbSymbolTable
 70
     1
  0
STYLE
  5
11
330
3
100
AcDbSymbolTableRecord
100
AcDbTextStyleTableRecord
  2
Standard
 70
     0
 40
0.0
 41
1.0
 50
0.0
 71
     0
 42
0.2
  3
txt
  4

  0
ENDTAB
  0
TABLE
  2
VIEW
  5
6
330
0
100
AcDbSymbolTable
 70
     0
  0
ENDTAB
  0
TABLE
  2
UCS
  5
7
330
0
100
AcDbSymbolTable
 70
     0
  0
ENDTAB
  0
TABLE
  2
APPID
  5
9
330
0
100
AcDbSymbolTable
 70
     1
  0
APPID
  5
12
330
9
100
AcDbSymbolTableRecord
100
AcDbRegAppTableRecord
  2
ACAD
 70
     0
  0
ENDTAB
  0
TABLE
  2
DIMSTYLE
  5
A
330
0
100
AcDbSymbolTable
 70
     1
100
AcDbDimStyleTable
  0
DIMSTYLE
105
27
330
A
100
AcDbSymbolTableRecord
100
AcDbDimStyleTableRecord
  2
Standard
 70
     0
178
     0
340
11
  0
ENDTAB
  0
TABLE
  2
BLOCK_RECORD
  5
1
330
0
100
AcDbSymbolTable
 70
     6
  0
BLOCK_RECORD
  5
1F
330
1
100
AcDbSymbolTableRecord
100
AcDbBlockTableRecord
  2
*Model_Space
340
22
 70
     0
280
     1
281
     0
  0
BLOCK_RECORD
  5
1B
330
1
100
AcDbSymbolTableRecord
100
AcDbBlockTableRecord
  2
*Paper_Space
340
1E
 70
     0
280
     1
281
     0
  0
BLOCK_RECORD
  5
23
330
1
100
AcDbSymbolTableRecord
100
AcDbBlockTableRecord
  2
*Paper_Space0
340
26
 70
     0
280
     1
281
     0
  0
BLOCK_RECORD
  5
61
330
1
100
AcDbSymbolTableRecord
100
AcDbBlockTableRecord
  2
block 2
340
0
102
{BLKREFS
331
62
102
}
 70
     0
280
     1
281
     0
  0
BLOCK_RECORD
  5
75
330
1
100
AcDbSymbolTableRecord
100
AcDbBlockTableRecord
  2
block 3
340
0
102
{BLKREFS
331
76
102
}
 70
     0
280
     1
281
     0
  0
BLOCK_RECORD
  5
9A
330
1
100
AcDbSymbolTableRecord
100
AcDbBlockTableRecord
  2
block 4
340
0
102
{BLKREFS
331
9B
102
}
 70
     0
280
     1
281
     0
  0
BLOCK_RECORD
  5
AC
330
1
100
AcDbSymbolTableRecord
100
AcDbBlockTableRecord
  2
block 5
340
0
102
{BLKREFS
331
AD
102
}
 70
     0
280
     1
281
     0
  0
BLOCK_RECORD
  5
B9
330
1
100
AcDbSymbolTableRecord
100
AcDbBlockTableRecord
  2
block 6
340
0
102
{BLKREFS
331
BA
102
}
 70
     0
280
     1
281
     0
  0
ENDTAB
  0
ENDSEC
  0
SECTION
  2
BLOCKS
  0
BLOCK
  5
20
330
1F
100
AcDbEntity
  8
0
100
AcDbBlockBegin
  2
*Model_Space
 70
     0
 10
0.0
 20
0.0
 30
0.0
  3
*Model_Space
  1

  0
ENDBLK
  5
21
330
1F
100
AcDbEntity
  8
0
100
AcDbBlockEnd
  0
BLOCK
  5
1C
330
1B
100
AcDbEntity
 67
     1
  8
0
100
AcDbBlockBegin
  2
*Paper_Space
 70
     0
 10
0.0
 20
0.0
 30
0.0
  3
*Paper_Space
  1

  0
ENDBLK
  5
1D
330
1B
100
AcDbEntity
 67
     1
  8
0
100
AcDbBlockEnd
  0
BLOCK
  5
24
330
23
100
AcDbEntity
  8
0
100
AcDbBlockBegin
  2
*Paper_Space0
 70
     0
 10
0.0
 20
0.0
 30
0.0
  3
*Paper_Space0
  1

  0
ENDBLK
  5
25
330
23
100
AcDbEntity
  8
0
100
AcDbBlockEnd
  0
BLOCK
  5
63
330
61
100
AcDbEntity
  8
0
100
AcDbBlockBegin
  2
block 2
 70
     0
 10
0.0
 20
0.0
 30
0.0
  3
block 2
  1

  0
SPLINE
  5
65
330
61
100
AcDbEntity
  8
_U+30EC_U+30A4_U+30E4_U+30FC 1
370
     0
100
AcDbSpline
210
0.0
220
0.0
230
1.0
 70
    11
 71
     3
 72
    44
 73
    40
 74
     0
 42
0.0000000001
 43
0.0000000001
 12
1.0
 22
0.0
 32
0.0
 13
1.0
 23
0.0
 33
0.0
 40
0.0
 40
0.0
 40
0.0
 40
0.0
 40
1.0
 40
1.0
 40
1.0
 40
2.0
 40
2.0
 40
2.0
 40
3.0
 40
3.0
 40
3.0
 40
4.0
 40
4.0
 40
4.0
 40
5.0
 40
5.0
 40
5.0
 40
6.0
 40
6.0
 40
6.0
 40
7.0
 40
7.0
 40
7.0
 40
8.0
 40
8.0
 40
8.0
 40
9.0
 40
9.0
 40
9.0
 40
10.0
 40
10.0
 40
10.0
 40
11.0
 40
11.0
 40
11.0
 40
12.0
 40
12.0
 40
12.0
 40
13.0
 40
13.0
 40
13.0
 40
13.0
 10
102.1686129844405
 20
-138.1548746399405
 30
0.0
 10
101.9508829497727
 20
-138.3136935418105
 30
0.0
 10
101.857865371671
 20
-138.3877630947433
 30
0.0
 10
101.8089450157804
 20
-138.5314235764783
 30
0.0
 10
101.8089450157804
 20
-138.5314235764783
 30
0.0
 10
102.5875365954469
 20
-138.5314235764783
 30
0.0
 10
102.5875365954469
 20
-138.5314235764783
 30
0.0
 10
102.5875365954469
 20
-138.5314235764783
 30
0.0
 10
102.5875365954469
 20
-138.7367512673991
 30
0.0
 10
102.5875365954469
 20
-138.7367512673991
 30
0.0
 10
102.5875365954469
 20
-138.7367512673991
 30
0.0
 10
101.5595201026483
 20
-138.7367512673991
 30
0.0
 10
101.5595201026483
 20
-138.7367512673991
 30
0.0
 10
101.5912149811126
 20
-138.3791503560302
 30
0.0
 10
101.6566717953324
 20
-138.300946688515
 30
0.0
 10
102.0418334705833
 20
-138.0026014194924
 30
0.0
 10
102.2978040651374
 20
-137.8038194099935
 30
0.0
 10
102.3632608793571
 20
-137.7359510289341
 30
0.0
 10
102.3632608793571
 20
-137.5984917190726
 30
0.0
 10
102.3632608793571
 20
-137.47998043438
 30
0.0
 10
102.2912583837154
 20
-137.3490668059405
 30
0.0
 10
102.0945434315076
 20
-137.3490668059405
 30
0.0
 10
101.8344387223713
 20
-137.3490668059405
 30
0.0
 10
101.8261704932067
 20
-137.5795436939037
 30
0.0
 10
101.8216918690758
 20
-137.6959879213052
 30
0.0
 10
101.8216918690758
 20
-137.6959879213052
 30
0.0
 10
101.5974161529861
 20
-137.6959879213052
 30
0.0
 10
101.5974161529861
 20
-137.6959879213052
 30
0.0
 10
101.6060288916992
 20
-137.5688638978995
 30
0.0
 10
101.6167086877035
 20
-137.4568982946288
 30
0.0
 10
101.6969794125098
 20
-137.3383870099362
 30
0.0
 10
101.8068779584893
 20
-137.1775010507751
 30
0.0
 10
101.9932576242413
 20
-137.1437391150196
 30
0.0
 10
102.1093573420942
 20
-137.1437391150196
 30
0.0
 10
102.3866875286568
 20
-137.1437391150196
 30
0.0
 10
102.5940822768688
 20
-137.327707213932
 30
0.0
 10
102.5940822768688
 20
-137.6005587763638
 30
0.0
 10
102.5940822768688
 20
-137.8293131165843
 30
0.0
 10
102.4776380494674
 20
-137.9285318665596
 30
0.0
 10
102.1686129844405
 20
-138.1548746399405
 30
0.0
  0
HATCH
  5
66
330
61
100
AcDbEntity
  8
_U+30EC_U+30A4_U+30E4_U+30FC 1
 62
     7
420
 16777215
100
AcDbHatch
 10
0.0
 20
0.0
 30
0.0
210
0.0
220
0.0
230
1.0
  2
SOLID
 70
     1
 71
     0
 91
        1
 92
        1
 93
        1
 72
     4
 94
        3
 73
     0
 74
     1
 95
       44
 96
       40
 40
0.0
 40
0.0
 40
0.0
 40
0.0
 40
1.0
 40
1.0
 40
1.0
 40
2.0
 40
2.0
 40
2.0
 40
3.0
 40
3.0
 40
3.0
 40
4.0
 40
4.0
 40
4.0
 40
5.0
 40
5.0
 40
5.0
 40
6.0
 40
6.0
 40
6.0
 40
7.0
 40
7.0
 40
7.0
 40
8.0
 40
8.0
 40
8.0
 40
9.0
 40
9.0
 40
9.0
 40
10.0
 40
10.0
 40
10.0
 40
11.0
 40
11.0
 40
11.0
 40
12.0
 40
12.0
 40
12.0
 40
13.0
 40
13.0
 40
13.0
 40
13.0
 10
102.1686129844405
 20
-138.1548746399405
 10
101.9508829497727
 20
-138.3136935418105
 10
101.857865371671
 20
-138.3877630947433
 10
101.8089450157804
 20
-138.5314235764783
 10
101.8089450157804
 20
-138.5314235764783
 10
102.5875365954469
 20
-138.5314235764783
 10
102.5875365954469
 20
-138.5314235764783
 10
102.5875365954469
 20
-138.5314235764783
 10
102.5875365954469
 20
-138.7367512673991
 10
102.5875365954469
 20
-138.7367512673991
 10
102.5875365954469
 20
-138.7367512673991
 10
101.5595201026483
 20
-138.7367512673991
 10
101.5595201026483
 20
-138.7367512673991
 10
101.5912149811126
 20
-138.3791503560302
 10
101.6566717953324
 20
-138.300946688515
 10
102.0418334705833
 20
-138.0026014194924
 10
102.2978040651374
 20
-137.8038194099935
 10
102.3632608793571
 20
-137.7359510289341
 10
102.3632608793571
 20
-137.5984917190726
 10
102.3632608793571
 20
-137.47998043438
 10
102.2912583837154
 20
-137.3490668059405
 10
102.0945434315076
 20
-137.3490668059405
 10
101.8344387223713
 20
-137.3490668059405
 10
101.8261704932067
 20
-137.5795436939037
 10
101.8216918690758
 20
-137.6959879213052
 10
101.8216918690758
 20
-137.6959879213052
 10
101.5974161529861
 20
-137.6959879213052
 10
101.5974161529861
 20
-137.6959879213052
 10
101.6060288916992
 20
-137.5688638978995
 10
101.6167086877035
 20
-137.4568982946288
 10
101.6969794125098
 20
-137.3383870099362
 10
101.8068779584893
 20
-137.1775010507751
 10
101.9932576242413
 20
-137.1437391150196
 10
102.1093573420942
 20
-137.1437391150196
 10
102.3866875286568
 20
-137.1437391150196
 10
102.5940822768688
 20
-137.327707213932
 10
102.5940822768688
 20
-137.6005587763638
 10
102.5940822768688
 20
-137.8293131165843
 10
102.4776380494674
 20
-137.9285318665596
 10
102.1686129844405
 20
-138.1548746399405
 97
        0
 97
        0
 75
     2
 76
     1
 98
        0
  0
SPLINE
  5
67
330
61
100
AcDbEntity
  8
_U+30EC_U+30A4_U+30E4_U+30FC 1
370
     0
100
AcDbSpline
210
0.0
220
0.0
230
1.0
 70
    11
 71
     3
 72
    53
 73
    49
 74
     0
 42
0.0000000001
 43
0.0000000001
 12
1.0
 22
0.0
 32
0.0
 13
1.0
 23
0.0
 33
0.0
 40
0.0
 40
0.0
 40
0.0
 40
0.0
 40
1.0
 40
1.0
 40
1.0
 40
2.0
 40
2.0
 40
2.0
 40
3.0
 40
3.0
 40
3.0
 40
4.0
 40
4.0
 40
4.0
 40
5.0
 40
5.0
 40
5.0
 40
6.0
 40
6.0
 40
6.0
 40
7.0
 40
7.0
 40
7.0
 40
8.0
 40
8.0
 40
8.0
 40
9.0
 40
9.0
 40
9.0
 40
10.0
 40
10.0
 40
10.0
 40
11.0
 40
11.0
 40
11.0
 40
12.0
 40
12.0
 40
12.0
 40
13.0
 40
13.0
 40
13.0
 40
14.0
 40
14.0
 40
14.0
 40
15.0
 40
15.0
 40
15.0
 40
16.0
 40
16.0
 40
16.0
 40
16.0
 10
103.2334919989312
 20
-138.7873941710323
 30
0.0
 10
103.155288331416
 20
-138.7873941710323
 30
0.0
 10
103.0536580146012
 20
-138.7705132031546
 30
0.0
 10
102.9520276977863
 20
-138.707123446226
 30
0.0
 10
102.7787393948782
 20
-138.5972249002465
 30
0.0
 10
102.7573798028697
 20
-138.4659667622585
 30
0.0
 10
102.7384317777008
 20
-138.3581352735702
 30
0.0
 10
102.7384317777008
 20
-138.3581352735702
 30
0.0
 10
102.9606404364994
 20
-138.3581352735702
 30
0.0
 10
102.9606404364994
 20
-138.3581352735702
 30
0.0
 10
103.0154174547149
 20
-138.5569172830691
 30
0.0
 10
103.1425414781206
 20
-138.5865451042422
 30
0.0
 10
103.2355590562224
 20
-138.5865451042422
 30
0.0
 10
103.375085423375
 20
-138.5865451042422
 30
0.0
 10
103.527358643823
 20
-138.4869818447185
 30
0.0
 10
103.527358643823
 20
-138.2544378994642
 30
0.0
 10
103.527358643823
 20
-137.9984673049101
 30
0.0
 10
103.347524659493
 20
-137.9285318665596
 30
0.0
 10
103.2269463175092
 20
-137.9285318665596
 30
0.0
 10
103.1952514390449
 20
-137.9285318665596
 30
0.0
 10
103.0536580146012
 20
-137.9285318665596
 30
0.0
 10
102.9647745510817
 20
-138.0577229472564
 30
0.0
 10
102.9647745510817
 20
-138.0577229472564
 30
0.0
 10
102.789074681334
 20
-138.0387749220875
 30
0.0
 10
102.789074681334
 20
-138.0387749220875
 30
0.0
 10
102.789074681334
 20
-138.0387749220875
 30
0.0
 10
102.9096530233177
 20
-137.1923149613617
 30
0.0
 10
102.9096530233177
 20
-137.1923149613617
 30
0.0
 10
102.9096530233177
 20
-137.1923149613617
 30
0.0
 10
103.6882446029842
 20
-137.1923149613617
 30
0.0
 10
103.6882446029842
 20
-137.1923149613617
 30
0.0
 10
103.6882446029842
 20
-137.1923149613617
 30
0.0
 10
103.6882446029842
 20
-137.3869628562783
 30
0.0
 10
103.6882446029842
 20
-137.3869628562783
 30
0.0
 10
103.6882446029842
 20
-137.3869628562783
 30
0.0
 10
103.0726060397701
 20
-137.3869628562783
 30
0.0
 10
103.0726060397701
 20
-137.3869628562783
 30
0.0
 10
103.0726060397701
 20
-137.3869628562783
 30
0.0
 10
103.0071492255503
 20
-137.810020581867
 30
0.0
 10
103.0071492255503
 20
-137.810020581867
 30
0.0
 10
103.0684719251878
 20
-137.7762586461115
 30
0.0
 10
103.1508097072852
 20
-137.7359510289341
 30
0.0
 10
103.2693209919778
 20
-137.7359510289341
 30
0.0
 10
103.5232245292407
 20
-137.7359510289341
 30
0.0
 10
103.7602470986259
 20
-137.9223306946861
 30
0.0
 10
103.7602470986259
 20
-138.2354898742953
 30
0.0
 10
103.7602470986259
 20
-138.5527831684868
 30
0.0
 10
103.5359713825361
 20
-138.7873941710323
 30
0.0
 10
103.2334919989312
 20
-138.7873941710323
 30
0.0
  0
HATCH
  5
68
330
61
100
AcDbEntity
  8
_U+30EC_U+30A4_U+30E4_U+30FC 1
 62
     7
420
 16777215
100
AcDbHatch
 10
0.0
 20
0.0
 30
0.0
210
0.0
220
0.0
230
1.0
  2
SOLID
 70
     1
 71
     0
 91
        1
 92
        1
 93
        1
 72
     4
 94
        3
 73
     0
 74
     1
 95
       53
 96
       49
 40
0.0
 40
0.0
 40
0.0
 40
0.0
 40
1.0
 40
1.0
 40
1.0
 40
2.0
 40
2.0
 40
2.0
 40
3.0
 40
3.0
 40
3.0
 40
4.0
 40
4.0
 40
4.0
 40
5.0
 40
5.0
 40
5.0
 40
6.0
 40
6.0
 40
6.0
 40
7.0
 40
7.0
 40
7.0
 40
8.0
 40
8.0
 40
8.0
 40
9.0
 40
9.0
 40
9.0
 40
10.0
 40
10.0
 40
10.0
 40
11.0
 40
11.0
 40
11.0
 40
12.0
 40
12.0
 40
12.0
 40
13.0
 40
13.0
 40
13.0
 40
14.0
 40
14.0
 40
14.0
 40
15.0
 40
15.0
 40
15.0
 40
16.0
 40
16.0
 40
16.0
 40
16.0
 10
103.2334919989312
 20
-138.7873941710323
 10
103.155288331416
 20
-138.7873941710323
 10
103.0536580146012
 20
-138.7705132031546
 10
102.9520276977863
 20
-138.707123446226
 10
102.7787393948782
 20
-138.5972249002465
 10
102.7573798028697
 20
-138.4659667622585
 10
102.7384317777008
 20
-138.3581352735702
 10
102.7384317777008
 20
-138.3581352735702
 10
102.9606404364994
 20
-138.3581352735702
 10
102.9606404364994
 20
-138.3581352735702
 10
103.0154174547149
 20
-138.5569172830691
 10
103.1425414781206
 20
-138.5865451042422
 10
103.2355590562224
 20
-138.5865451042422
 10
103.375085423375
 20
-138.5865451042422
 10
103.527358643823
 20
-138.4869818447185
 10
103.527358643823
 20
-138.2544378994642
 10
103.527358643823
 20
-137.9984673049101
 10
103.347524659493
 20
-137.9285318665596
 10
103.2269463175092
 20
-137.9285318665596
 10
103.1952514390449
 20
-137.9285318665596
 10
103.0536580146012
 20
-137.9285318665596
 10
102.9647745510817
 20
-138.0577229472564
 10
102.9647745510817
 20
-138.0577229472564
 10
102.789074681334
 20
-138.0387749220875
 10
102.789074681334
 20
-138.0387749220875
 10
102.789074681334
 20
-138.0387749220875
 10
102.9096530233177
 20
-137.1923149613617
 10
102.9096530233177
 20
-137.1923149613617
 10
102.9096530233177
 20
-137.1923149613617
 10
103.6882446029842
 20
-137.1923149613617
 10
103.6882446029842
 20
-137.1923149613617
 10
103.6882446029842
 20
-137.1923149613617
 10
103.6882446029842
 20
-137.3869628562783
 10
103.6882446029842
 20
-137.3869628562783
 10
103.6882446029842
 20
-137.3869628562783
 10
103.0726060397701
 20
-137.3869628562783
 10
103.0726060397701
 20
-137.3869628562783
 10
103.0726060397701
 20
-137.3869628562783
 10
103.0071492255503
 20
-137.810020581867
 10
103.0071492255503
 20
-137.810020581867
 10
103.0684719251878
 20
-137.7762586461115
 10
103.1508097072852
 20
-137.7359510289341
 10
103.2693209919778
 20
-137.7359510289341
 10
103.5232245292407
 20
-137.7359510289341
 10
103.7602470986259
 20
-137.9223306946861
 10
103.7602470986259
 20
-138.2354898742953
 10
103.7602470986259
 20
-138.5527831684868
 10
103.5359713825361
 20
-138.7873941710323
 10
103.2334919989312
 20
-138.7873941710323
 97
        0
 97
        0
 75
     2
 76
     1
 98
        0
  0
ENDBLK
  5
64
330
61
100
AcDbEntity
  8
0
100
AcDbBlockEnd
  0
BLOCK
  5
77
330
75
100
AcDbEntity
  8
0
100
AcDbBlockBegin
  2
block 3
 70
     0
 10
0.0
 20
0.0
 30
0.0
  3
block 3
  1

  0
SPLINE
  5
79
330
75
100
AcDbEntity
  8
_U+30EC_U+30A4_U+30E4_U+30FC 1
370
     0
100
AcDbSpline
210
0.0
220
0.0
230
1.0
 70
    11
 71
     3
 72
    26
 73
    22
 74
     0
 42
0.0000000001
 43
0.0000000001
 12
1.0
 22
0.0
 32
0.0
 13
1.0
 23
0.0
 33
0.0
 40
0.0
 40
0.0
 40
0.0
 40
0.0
 40
1.0
 40
1.0
 40
1.0
 40
2.0
 40
2.0
 40
2.0
 40
3.0
 40
3.0
 40
3.0
 40
4.0
 40
4.0
 40
4.0
 40
5.0
 40
5.0
 40
5.0
 40
6.0
 40
6.0
 40
6.0
 40
7.0
 40
7.0
 40
7.0
 40
7.0
 10
94.52997501977029
 20
-158.7369085974686
 30
0.0
 10
94.52997501977029
 20
-158.7369085974686
 30
0.0
 10
94.52997501977029
 20
-157.632755494446
 30
0.0
 10
94.52997501977029
 20
-157.632755494446
 30
0.0
 10
94.52997501977029
 20
-157.632755494446
 30
0.0
 10
94.19993487228335
 20
-157.632755494446
 30
0.0
 10
94.19993487228335
 20
-157.632755494446
 30
0.0
 10
94.19993487228335
 20
-157.632755494446
 30
0.0
 10
94.19993487228335
 20
-157.4846163885802
 30
0.0
 10
94.19993487228335
 20
-157.4846163885802
 30
0.0
 10
94.53204207706143
 20
-157.4698024779937
 30
0.0
 10
94.57855086611231
 20
-157.3068494615414
 30
0.0
 10
94.60817868728546
 20
-157.192472291431
 30
0.0
 10
94.60817868728546
 20
-157.192472291431
 30
0.0
 10
94.75407848108578
 20
-157.192472291431
 30
0.0
 10
94.75407848108578
 20
-157.192472291431
 30
0.0
 10
94.75407848108578
 20
-157.192472291431
 30
0.0
 10
94.75407848108578
 20
-158.7369085974686
 30
0.0
 10
94.75407848108578
 20
-158.7369085974686
 30
0.0
 10
94.75407848108578
 20
-158.7369085974686
 30
0.0
 10
94.52997501977029
 20
-158.7369085974686
 30
0.0
 10
94.52997501977029
 20
-158.7369085974686
 30
0.0
  0
HATCH
  5
7A
330
75
100
AcDbEntity
  8
_U+30EC_U+30A4_U+30E4_U+30FC 1
 62
     7
420
 16777215
100
AcDbHatch
 10
0.0
 20
0.0
 30
0.0
210
0.0
220
0.0
230
1.0
  2
SOLID
 70
     1
 71
     0
 91
        1
 92
        1
 93
        1
 72
     4
 94
        3
 73
     0
 74
     1
 95
       26
 96
       22
 40
0.0
 40
0.0
 40
0.0
 40
0.0
 40
1.0
 40
1.0
 40
1.0
 40
2.0
 40
2.0
 40
2.0
 40
3.0
 40
3.0
 40
3.0
 40
4.0
 40
4.0
 40
4.0
 40
5.0
 40
5.0
 40
5.0
 40
6.0
 40
6.0
 40
6.0
 40
7.0
 40
7.0
 40
7.0
 40
7.0
 10
94.52997501977029
 20
-158.7369085974686
 10
94.52997501977029
 20
-158.7369085974686
 10
94.52997501977029
 20
-157.632755494446
 10
94.52997501977029
 20
-157.632755494446
 10
94.52997501977029
 20
-157.632755494446
 10
94.19993487228335
 20
-157.632755494446
 10
94.19993487228335
 20
-157.632755494446
 10
94.19993487228335
 20
-157.632755494446
 10
94.19993487228335
 20
-157.4846163885802
 10
94.19993487228335
 20
-157.4846163885802
 10
94.53204207706143
 20
-157.4698024779937
 10
94.57855086611231
 20
-157.3068494615414
 10
94.60817868728546
 20
-157.192472291431
 10
94.60817868728546
 20
-157.192472291431
 10
94.75407848108578
 20
-157.192472291431
 10
94.75407848108578
 20
-157.192472291431
 10
94.75407848108578
 20
-157.192472291431
 10
94.75407848108578
 20
-158.7369085974686
 10
94.75407848108578
 20
-158.7369085974686
 10
94.75407848108578
 20
-158.7369085974686
 10
94.52997501977029
 20
-158.7369085974686
 10
94.52997501977029
 20
-158.7369085974686
 97
        0
 97
        0
 75
     2
 76
     1
 98
        0
  0
SPLINE
  5
7B
330
75
100
AcDbEntity
  8
_U+30EC_U+30A4_U+30E4_U+30FC 1
370
     0
100
AcDbSpline
210
0.0
220
0.0
230
1.0
 70
    11
 71
     3
 72
    29
 73
    25
 74
     0
 42
0.0000000001
 43
0.0000000001
 12
1.0
 22
0.0
 32
0.0
 13
1.0
 23
0.0
 33
0.0
 40
0.0
 40
0.0
 40
0.0
 40
0.0
 40
1.0
 40
1.0
 40
1.0
 40
2.0
 40
2.0
 40
2.0
 40
3.0
 40
3.0
 40
3.0
 40
4.0
 40
4.0
 40
4.0
 40
5.0
 40
5.0
 40
5.0
 40
6.0
 40
6.0
 40
6.0
 40
7.0
 40
7.0
 40
7.0
 40
8.0
 40
8.0
 40
8.0
 40
8.0
 10
96.15313175764575
 20
-158.5591416704297
 30
0.0
 10
96.04530026895743
 20
-158.7686034759328
 30
0.0
 10
95.8718397112751
 20
-158.7875515011017
 30
0.0
 10
95.75539548387366
 20
-158.7875515011017
 30
0.0
 10
95.59468177948675
 20
-158.7875515011017
 30
0.0
 10
95.45291610026872
 20
-158.7410427120509
 30
0.0
 10
95.35765921010156
 20
-158.5591416704297
 30
0.0
 10
95.25413409076981
 20
-158.364493775513
 30
0.0
 10
95.23501381082667
 20
-158.1278157156764
 30
0.0
 10
95.23501381082667
 20
-157.9648626992241
 30
0.0
 10
95.23501381082667
 20
-157.8208577079406
 30
0.0
 10
95.2518947787044
 20
-157.5690212279689
 30
0.0
 10
95.35765921010156
 20
-157.3702392184699
 30
0.0
 10
95.46566295356415
 20
-157.1673230943887
 30
0.0
 10
95.62637665795106
 20
-157.143896445089
 30
0.0
 10
95.75539548387366
 20
-157.143896445089
 30
0.0
 10
95.9140421309694
 20
-157.143896445089
 30
0.0
 10
96.05787486747859
 20
-157.1883381768488
 30
0.0
 10
96.15313175764575
 20
-157.3702392184699
 30
0.0
 10
96.2525227623952
 20
-157.5628200560954
 30
0.0
 10
96.27577715692064
 20
-157.7912298867675
 30
0.0
 10
96.27577715692064
 20
-157.9648626992241
 30
0.0
 10
96.27577715692064
 20
-158.136083944841
 30
0.0
 10
96.25476207446061
 20
-158.3665608328042
 30
0.0
 10
96.15313175764575
 20
-158.5591416704297
 30
0.0
  0
SPLINE
  5
7C
330
75
100
AcDbEntity
  8
_U+30EC_U+30A4_U+30E4_U+30FC 1
370
     0
100
AcDbSpline
210
0.0
220
0.0
230
1.0
 70
    11
 71
     3
 72
    17
 73
    13
 74
     0
 42
0.0000000001
 43
0.0000000001
 12
1.0
 22
0.0
 32
0.0
 13
1.0
 23
0.0
 33
0.0
 40
0.0
 40
0.0
 40
0.0
 40
0.0
 40
1.0
 40
1.0
 40
1.0
 40
2.0
 40
2.0
 40
2.0
 40
3.0
 40
3.0
 40
3.0
 40
4.0
 40
4.0
 40
4.0
 40
4.0
 10
95.75539548387366
 20
-157.3364772827145
 30
0.0
 10
95.50579831596731
 20
-157.3364772827145
 30
0.0
 10
95.45928952691644
 20
-157.6200086411505
 30
0.0
 10
95.45928952691644
 20
-157.9648626992241
 30
0.0
 10
95.45928952691644
 20
-158.2842230507067
 30
0.0
 10
95.4952907747373
 20
-158.5929036061851
 30
0.0
 10
95.75539548387366
 20
-158.5929036061851
 30
0.0
 10
96.00292559448886
 20
-158.5929036061851
 30
0.0
 10
96.05167369560515
 20
-158.3117838145887
 30
0.0
 10
96.05167369560515
 20
-157.9648626992241
 30
0.0
 10
96.05167369560515
 20
-157.6451578381929
 30
0.0
 10
96.01343313571887
 20
-157.3364772827145
 30
0.0
 10
95.75539548387366
 20
-157.3364772827145
 30
0.0
  0
HATCH
  5
7D
330
75
100
AcDbEntity
  8
_U+30EC_U+30A4_U+30E4_U+30FC 1
 62
     7
420
 16777215
100
AcDbHatch
 10
0.0
 20
0.0
 30
0.0
210
0.0
220
0.0
230
1.0
  2
SOLID
 70
     1
 71
     0
 91
        2
 92
        1
 93
        1
 72
     4
 94
        3
 73
     0
 74
     1
 95
       29
 96
       25
 40
0.0
 40
0.0
 40
0.0
 40
0.0
 40
1.0
 40
1.0
 40
1.0
 40
2.0
 40
2.0
 40
2.0
 40
3.0
 40
3.0
 40
3.0
 40
4.0
 40
4.0
 40
4.0
 40
5.0
 40
5.0
 40
5.0
 40
6.0
 40
6.0
 40
6.0
 40
7.0
 40
7.0
 40
7.0
 40
8.0
 40
8.0
 40
8.0
 40
8.0
 10
96.15313175764575
 20
-158.5591416704297
 10
96.04530026895743
 20
-158.7686034759328
 10
95.8718397112751
 20
-158.7875515011017
 10
95.75539548387366
 20
-158.7875515011017
 10
95.59468177948675
 20
-158.7875515011017
 10
95.45291610026872
 20
-158.7410427120509
 10
95.35765921010156
 20
-158.5591416704297
 10
95.25413409076981
 20
-158.364493775513
 10
95.23501381082667
 20
-158.1278157156764
 10
95.23501381082667
 20
-157.9648626992241
 10
95.23501381082667
 20
-157.8208577079406
 10
95.2518947787044
 20
-157.5690212279689
 10
95.35765921010156
 20
-157.3702392184699
 10
95.46566295356415
 20
-157.1673230943887
 10
95.62637665795106
 20
-157.143896445089
 10
95.75539548387366
 20
-157.143896445089
 10
95.9140421309694
 20
-157.143896445089
 10
96.05787486747859
 20
-157.1883381768488
 10
96.15313175764575
 20
-157.3702392184699
 10
96.2525227623952
 20
-157.5628200560954
 10
96.27577715692064
 20
-157.7912298867675
 10
96.27577715692064
 20
-157.9648626992241
 10
96.27577715692064
 20
-158.136083944841
 10
96.25476207446061
 20
-158.3665608328042
 10
96.15313175764575
 20
-158.5591416704297
 97
        0
 97
        0
 92
        1
 93
        1
 72
     4
 94
        3
 73
     0
 74
     1
 95
       17
 96
       13
 40
0.0
 40
0.0
 40
0.0
 40
0.0
 40
1.0
 40
1.0
 40
1.0
 40
2.0
 40
2.0
 40
2.0
 40
3.0
 40
3.0
 40
3.0
 40
4.0
 40
4.0
 40
4.0
 40
4.0
 10
95.75539548387366
 20
-157.3364772827145
 10
95.50579831596731
 20
-157.3364772827145
 10
95.45928952691644
 20
-157.6200086411505
 10
95.45928952691644
 20
-157.9648626992241
 10
95.45928952691644
 20
-158.2842230507067
 10
95.4952907747373
 20
-158.5929036061851
 10
95.75539548387366
 20
-158.5929036061851
 10
96.00292559448886
 20
-158.5929036061851
 10
96.05167369560515
 20
-158.3117838145887
 10
96.05167369560515
 20
-157.9648626992241
 10
96.05167369560515
 20
-157.6451578381929
 10
96.01343313571887
 20
-157.3364772827145
 10
95.75539548387366
 20
-157.3364772827145
 97
        0
 97
        0
 75
     2
 76
     1
 98
        0
  0
ENDBLK
  5
78
330
75
100
AcDbEntity
  8
0
100
AcDbBlockEnd
  0
BLOCK
  5
9C
330
9A
100
AcDbEntity
  8
0
100
AcDbBlockBegin
  2
block 4
 70
     0
 10
0.0
 20
0.0
 30
0.0
  3
block 4
  1

  0
SPLINE
  5
9E
330
9A
100
AcDbEntity
  8
_U+30EC_U+30A4_U+30E4_U+30FC 1
370
     0
100
AcDbSpline
210
0.0
220
0.0
230
1.0
 70
    11
 71
     3
 72
    26
 73
    22
 74
     0
 42
0.0000000001
 43
0.0000000001
 12
1.0
 22
0.0
 32
0.0
 13
1.0
 23
0.0
 33
0.0
 40
0.0
 40
0.0
 40
0.0
 40
0.0
 40
1.0
 40
1.0
 40
1.0
 40
2.0
 40
2.0
 40
2.0
 40
3.0
 40
3.0
 40
3.0
 40
4.0
 40
4.0
 40
4.0
 40
5.0
 40
5.0
 40
5.0
 40
6.0
 40
6.0
 40
6.0
 40
7.0
 40
7.0
 40
7.0
 40
7.0
 10
118.568128768101
 20
-142.2938123559196
 30
0.0
 10
118.568128768101
 20
-142.2938123559196
 30
0.0
 10
117.4639756650785
 20
-142.2938123559196
 30
0.0
 10
117.4639756650785
 20
-142.2938123559196
 30
0.0
 10
117.4639756650785
 20
-142.2938123559196
 30
0.0
 10
117.4639756650785
 20
-142.6238525034065
 30
0.0
 10
117.4639756650785
 20
-142.6238525034065
 30
0.0
 10
117.4639756650785
 20
-142.6238525034065
 30
0.0
 10
117.3158365592127
 20
-142.6238525034065
 30
0.0
 10
117.3158365592127
 20
-142.6238525034065
 30
0.0
 10
117.3010226486261
 20
-142.2917452986285
 30
0.0
 10
117.1380696321738
 20
-142.2452365095776
 30
0.0
 10
117.0236924620635
 20
-142.2156086884044
 30
0.0
 10
117.0236924620635
 20
-142.2156086884044
 30
0.0
 10
117.0236924620635
 20
-142.0695366398298
 30
0.0
 10
117.0236924620635
 20
-142.0695366398298
 30
0.0
 10
117.0236924620635
 20
-142.0695366398298
 30
0.0
 10
118.568128768101
 20
-142.0695366398298
 30
0.0
 10
118.568128768101
 20
-142.0695366398298
 30
0.0
 10
118.568128768101
 20
-142.0695366398298
 30
0.0
 10
118.568128768101
 20
-142.2938123559196
 30
0.0
 10
118.568128768101
 20
-142.2938123559196
 30
0.0
  0
HATCH
  5
9F
330
9A
100
AcDbEntity
  8
_U+30EC_U+30A4_U+30E4_U+30FC 1
 62
     7
420
 16777215
100
AcDbHatch
 10
0.0
 20
0.0
 30
0.0
210
0.0
220
0.0
230
1.0
  2
SOLID
 70
     1
 71
     0
 91
        1
 92
        1
 93
        1
 72
     4
 94
        3
 73
     0
 74
     1
 95
       26
 96
       22
 40
0.0
 40
0.0
 40
0.0
 40
0.0
 40
1.0
 40
1.0
 40
1.0
 40
2.0
 40
2.0
 40
2.0
 40
3.0
 40
3.0
 40
3.0
 40
4.0
 40
4.0
 40
4.0
 40
5.0
 40
5.0
 40
5.0
 40
6.0
 40
6.0
 40
6.0
 40
7.0
 40
7.0
 40
7.0
 40
7.0
 10
118.568128768101
 20
-142.2938123559196
 10
118.568128768101
 20
-142.2938123559196
 10
117.4639756650785
 20
-142.2938123559196
 10
117.4639756650785
 20
-142.2938123559196
 10
117.4639756650785
 20
-142.2938123559196
 10
117.4639756650785
 20
-142.6238525034065
 10
117.4639756650785
 20
-142.6238525034065
 10
117.4639756650785
 20
-142.6238525034065
 10
117.3158365592127
 20
-142.6238525034065
 10
117.3158365592127
 20
-142.6238525034065
 10
117.3010226486261
 20
-142.2917452986285
 10
117.1380696321738
 20
-142.2452365095776
 10
117.0236924620635
 20
-142.2156086884044
 10
117.0236924620635
 20
-142.2156086884044
 10
117.0236924620635
 20
-142.0695366398298
 10
117.0236924620635
 20
-142.0695366398298
 10
117.0236924620635
 20
-142.0695366398298
 10
118.568128768101
 20
-142.0695366398298
 10
118.568128768101
 20
-142.0695366398298
 10
118.568128768101
 20
-142.0695366398298
 10
118.568128768101
 20
-142.2938123559196
 10
118.568128768101
 20
-142.2938123559196
 97
        0
 97
        0
 75
     2
 76
     1
 98
        0
  0
ENDBLK
  5
9D
330
9A
100
AcDbEntity
  8
0
100
AcDbBlockEnd
  0
BLOCK
  5
AE
330
AC
100
AcDbEntity
  8
0
100
AcDbBlockBegin
  2
block 5
 70
     0
 10
0.0
 20
0.0
 30
0.0
  3
block 5
  1

  0
SPLINE
  5
B0
330
AC
100
AcDbEntity
  8
_U+30EC_U+30A4_U+30E4_U+30FC 1
370
     0
100
AcDbSpline
210
0.0
220
0.0
230
1.0
 70
    11
 71
     3
 72
    26
 73
    22
 74
     0
 42
0.0000000001
 43
0.0000000001
 12
1.0
 22
0.0
 32
0.0
 13
1.0
 23
0.0
 33
0.0
 40
0.0
 40
0.0
 40
0.0
 40
0.0
 40
1.0
 40
1.0
 40
1.0
 40
2.0
 40
2.0
 40
2.0
 40
3.0
 40
3.0
 40
3.0
 40
4.0
 40
4.0
 40
4.0
 40
5.0
 40
5.0
 40
5.0
 40
6.0
 40
6.0
 40
6.0
 40
7.0
 40
7.0
 40
7.0
 40
7.0
 10
118.568128768101
 20
-149.9708631352503
 30
0.0
 10
118.568128768101
 20
-149.9708631352503
 30
0.0
 10
117.4639756650785
 20
-149.9708631352503
 30
0.0
 10
117.4639756650785
 20
-149.9708631352503
 30
0.0
 10
117.4639756650785
 20
-149.9708631352503
 30
0.0
 10
117.4639756650785
 20
-150.3009032827373
 30
0.0
 10
117.4639756650785
 20
-150.3009032827373
 30
0.0
 10
117.4639756650785
 20
-150.3009032827373
 30
0.0
 10
117.3158365592127
 20
-150.3009032827373
 30
0.0
 10
117.3158365592127
 20
-150.3009032827373
 30
0.0
 10
117.3010226486261
 20
-149.9687960779592
 30
0.0
 10
117.1380696321738
 20
-149.9222872889083
 30
0.0
 10
117.0236924620635
 20
-149.8926594677352
 30
0.0
 10
117.0236924620635
 20
-149.8926594677352
 30
0.0
 10
117.0236924620635
 20
-149.7465874191606
 30
0.0
 10
117.0236924620635
 20
-149.7465874191606
 30
0.0
 10
117.0236924620635
 20
-149.7465874191606
 30
0.0
 10
118.568128768101
 20
-149.7465874191606
 30
0.0
 10
118.568128768101
 20
-149.7465874191606
 30
0.0
 10
118.568128768101
 20
-149.7465874191606
 30
0.0
 10
118.568128768101
 20
-149.9708631352503
 30
0.0
 10
118.568128768101
 20
-149.9708631352503
 30
0.0
  0
HATCH
  5
B1
330
AC
100
AcDbEntity
  8
_U+30EC_U+30A4_U+30E4_U+30FC 1
 62
     7
420
 16777215
100
AcDbHatch
 10
0.0
 20
0.0
 30
0.0
210
0.0
220
0.0
230
1.0
  2
SOLID
 70
     1
 71
     0
 91
        1
 92
        1
 93
        1
 72
     4
 94
        3
 73
     0
 74
     1
 95
       26
 96
       22
 40
0.0
 40
0.0
 40
0.0
 40
0.0
 40
1.0
 40
1.0
 40
1.0
 40
2.0
 40
2.0
 40
2.0
 40
3.0
 40
3.0
 40
3.0
 40
4.0
 40
4.0
 40
4.0
 40
5.0
 40
5.0
 40
5.0
 40
6.0
 40
6.0
 40
6.0
 40
7.0
 40
7.0
 40
7.0
 40
7.0
 10
118.568128768101
 20
-149.9708631352503
 10
118.568128768101
 20
-149.9708631352503
 10
117.4639756650785
 20
-149.9708631352503
 10
117.4639756650785
 20
-149.9708631352503
 10
117.4639756650785
 20
-149.9708631352503
 10
117.4639756650785
 20
-150.3009032827373
 10
117.4639756650785
 20
-150.3009032827373
 10
117.4639756650785
 20
-150.3009032827373
 10
117.3158365592127
 20
-150.3009032827373
 10
117.3158365592127
 20
-150.3009032827373
 10
117.3010226486261
 20
-149.9687960779592
 10
117.1380696321738
 20
-149.9222872889083
 10
117.0236924620635
 20
-149.8926594677352
 10
117.0236924620635
 20
-149.8926594677352
 10
117.0236924620635
 20
-149.7465874191606
 10
117.0236924620635
 20
-149.7465874191606
 10
117.0236924620635
 20
-149.7465874191606
 10
118.568128768101
 20
-149.7465874191606
 10
118.568128768101
 20
-149.7465874191606
 10
118.568128768101
 20
-149.7465874191606
 10
118.568128768101
 20
-149.9708631352503
 10
118.568128768101
 20
-149.9708631352503
 97
        0
 97
        0
 75
     2
 76
     1
 98
        0
  0
SPLINE
  5
B2
330
AC
100
AcDbEntity
  8
_U+30EC_U+30A4_U+30E4_U+30FC 1
370
     0
100
AcDbSpline
210
0.0
220
0.0
230
1.0
 70
    11
 71
     3
 72
    29
 73
    25
 74
     0
 42
0.0000000001
 43
0.0000000001
 12
1.0
 22
0.0
 32
0.0
 13
1.0
 23
0.0
 33
0.0
 40
0.0
 40
0.0
 40
0.0
 40
0.0
 40
1.0
 40
1.0
 40
1.0
 40
2.0
 40
2.0
 40
2.0
 40
3.0
 40
3.0
 40
3.0
 40
4.0
 40
4.0
 40
4.0
 40
5.0
 40
5.0
 40
5.0
 40
6.0
 40
6.0
 40
6.0
 40
7.0
 40
7.0
 40
7.0
 40
8.0
 40
8.0
 40
8.0
 40
8.0
 10
118.3903618410621
 20
-148.3475341426006
 30
0.0
 10
118.5998236465653
 20
-148.4557101408375
 30
0.0
 10
118.6187716717342
 20
-148.6289984437455
 30
0.0
 10
118.6187716717342
 20
-148.745442671147
 30
0.0
 10
118.6187716717342
 20
-148.9063286303081
 30
0.0
 10
118.5722628826833
 20
-149.0479220547519
 30
0.0
 10
118.3903618410621
 20
-149.1430066901448
 30
0.0
 10
118.1957139461455
 20
-149.2467040642508
 30
0.0
 10
117.9590358863089
 20
-149.2656520894197
 30
0.0
 10
117.7960828698565
 20
-149.2656520894197
 30
0.0
 10
117.6520778785731
 20
-149.2656520894197
 30
0.0
 10
117.4002413986013
 20
-149.248771121542
 30
0.0
 10
117.2014593891024
 20
-149.1430066901448
 30
0.0
 10
116.9985432650212
 20
-149.0351752014565
 30
0.0
 10
116.9751166157215
 20
-148.8742892422953
 30
0.0
 10
116.9751166157215
 20
-148.745442671147
 30
0.0
 10
116.9751166157215
 20
-148.586623769277
 30
0.0
 10
117.0195583474812
 20
-148.4429632875421
 30
0.0
 10
117.2014593891024
 20
-148.3475341426006
 30
0.0
 10
117.3940402267279
 20
-148.2483153926254
 30
0.0
 10
117.6224500573999
 20
-148.2248887433257
 30
0.0
 10
117.7960828698565
 20
-148.2248887433257
 30
0.0
 10
117.9673041154735
 20
-148.2248887433257
 30
0.0
 10
118.1977810034367
 20
-148.2462483353343
 30
0.0
 10
118.3903618410621
 20
-148.3475341426006
 30
0.0
  0
SPLINE
  5
B3
330
AC
100
AcDbEntity
  8
_U+30EC_U+30A4_U+30E4_U+30FC 1
370
     0
100
AcDbSpline
210
0.0
220
0.0
230
1.0
 70
    11
 71
     3
 72
    17
 73
    13
 74
     0
 42
0.0000000001
 43
0.0000000001
 12
1.0
 22
0.0
 32
0.0
 13
1.0
 23
0.0
 33
0.0
 40
0.0
 40
0.0
 40
0.0
 40
0.0
 40
1.0
 40
1.0
 40
1.0
 40
2.0
 40
2.0
 40
2.0
 40
3.0
 40
3.0
 40
3.0
 40
4.0
 40
4.0
 40
4.0
 40
4.0
 10
117.167697453347
 20
-148.745442671147
 30
0.0
 10
117.167697453347
 20
-148.9948675842791
 30
0.0
 10
117.451228811783
 20
-149.0417208828785
 30
0.0
 10
117.7960828698565
 20
-149.0417208828785
 30
0.0
 10
118.1154432213392
 20
-149.0417208828785
 30
0.0
 10
118.4241237768176
 20
-149.0055473802833
 30
0.0
 10
118.4241237768176
 20
-148.745442671147
 30
0.0
 10
118.4241237768176
 20
-148.4977403057575
 30
0.0
 10
118.1430039852212
 20
-148.4491644594155
 30
0.0
 10
117.7960828698565
 20
-148.4491644594155
 30
0.0
 10
117.4763780088253
 20
-148.4491644594155
 30
0.0
 10
117.167697453347
 20
-148.4874050193018
 30
0.0
 10
117.167697453347
 20
-148.745442671147
 30
0.0
  0
HATCH
  5
B4
330
AC
100
AcDbEntity
  8
_U+30EC_U+30A4_U+30E4_U+30FC 1
 62
     7
420
 16777215
100
AcDbHatch
 10
0.0
 20
0.0
 30
0.0
210
0.0
220
0.0
230
1.0
  2
SOLID
 70
     1
 71
     0
 91
        2
 92
        1
 93
        1
 72
     4
 94
        3
 73
     0
 74
     1
 95
       29
 96
       25
 40
0.0
 40
0.0
 40
0.0
 40
0.0
 40
1.0
 40
1.0
 40
1.0
 40
2.0
 40
2.0
 40
2.0
 40
3.0
 40
3.0
 40
3.0
 40
4.0
 40
4.0
 40
4.0
 40
5.0
 40
5.0
 40
5.0
 40
6.0
 40
6.0
 40
6.0
 40
7.0
 40
7.0
 40
7.0
 40
8.0
 40
8.0
 40
8.0
 40
8.0
 10
118.3903618410621
 20
-148.3475341426006
 10
118.5998236465653
 20
-148.4557101408375
 10
118.6187716717342
 20
-148.6289984437455
 10
118.6187716717342
 20
-148.745442671147
 10
118.6187716717342
 20
-148.9063286303081
 10
118.5722628826833
 20
-149.0479220547519
 10
118.3903618410621
 20
-149.1430066901448
 10
118.1957139461455
 20
-149.2467040642508
 10
117.9590358863089
 20
-149.2656520894197
 10
117.7960828698565
 20
-149.2656520894197
 10
117.6520778785731
 20
-149.2656520894197
 10
117.4002413986013
 20
-149.248771121542
 10
117.2014593891024
 20
-149.1430066901448
 10
116.9985432650212
 20
-149.0351752014565
 10
116.9751166157215
 20
-148.8742892422953
 10
116.9751166157215
 20
-148.745442671147
 10
116.9751166157215
 20
-148.586623769277
 10
117.0195583474812
 20
-148.4429632875421
 10
117.2014593891024
 20
-148.3475341426006
 10
117.3940402267279
 20
-148.2483153926254
 10
117.6224500573999
 20
-148.2248887433257
 10
117.7960828698565
 20
-148.2248887433257
 10
117.9673041154735
 20
-148.2248887433257
 10
118.1977810034367
 20
-148.2462483353343
 10
118.3903618410621
 20
-148.3475341426006
 97
        0
 97
        0
 92
        1
 93
        1
 72
     4
 94
        3
 73
     0
 74
     1
 95
       17
 96
       13
 40
0.0
 40
0.0
 40
0.0
 40
0.0
 40
1.0
 40
1.0
 40
1.0
 40
2.0
 40
2.0
 40
2.0
 40
3.0
 40
3.0
 40
3.0
 40
4.0
 40
4.0
 40
4.0
 40
4.0
 10
117.167697453347
 20
-148.745442671147
 10
117.167697453347
 20
-148.9948675842791
 10
117.451228811783
 20
-149.0417208828785
 10
117.7960828698565
 20
-149.0417208828785
 10
118.1154432213392
 20
-149.0417208828785
 10
118.4241237768176
 20
-149.0055473802833
 10
118.4241237768176
 20
-148.745442671147
 10
118.4241237768176
 20
-148.4977403057575
 10
118.1430039852212
 20
-148.4491644594155
 10
117.7960828698565
 20
-148.4491644594155
 10
117.4763780088253
 20
-148.4491644594155
 10
117.167697453347
 20
-148.4874050193018
 10
117.167697453347
 20
-148.745442671147
 97
        0
 97
        0
 75
     2
 76
     1
 98
        0
  0
ENDBLK
  5
AF
330
AC
100
AcDbEntity
  8
0
100
AcDbBlockEnd
  0
BLOCK
  5
BB
330
B9
100
AcDbEntity
  8
0
100
AcDbBlockBegin
  2
block 6
 70
     0
 10
0.0
 20
0.0
 30
0.0
  3
block 6
  1

  0
SPLINE
  5
BD
330
B9
100
AcDbEntity
  8
_U+30EC_U+30A4_U+30E4_U+30FC 1
370
     0
100
AcDbSpline
210
0.0
220
0.0
230
1.0
 70
    11
 71
     3
 72
    29
 73
    25
 74
     0
 42
0.0000000001
 43
0.0000000001
 12
1.0
 22
0.0
 32
0.0
 13
1.0
 23
0.0
 33
0.0
 40
0.0
 40
0.0
 40
0.0
 40
0.0
 40
1.0
 40
1.0
 40
1.0
 40
2.0
 40
2.0
 40
2.0
 40
3.0
 40
3.0
 40
3.0
 40
4.0
 40
4.0
 40
4.0
 40
5.0
 40
5.0
 40
5.0
 40
6.0
 40
6.0
 40
6.0
 40
7.0
 40
7.0
 40
7.0
 40
8.0
 40
8.0
 40
8.0
 40
8.0
 10
103.3955837415122
 20
-152.1870930609116
 30
0.0
 10
103.6050455470154
 20
-152.2952690591484
 30
0.0
 10
103.6239935721843
 20
-152.4685573620565
 30
0.0
 10
103.6239935721843
 20
-152.5850015894579
 30
0.0
 10
103.6239935721843
 20
-152.7458875486191
 30
0.0
 10
103.5774847831334
 20
-152.8874809730628
 30
0.0
 10
103.3955837415122
 20
-152.9825656084558
 30
0.0
 10
103.2009358465956
 20
-153.0862629825618
 30
0.0
 10
102.9642577867589
 20
-153.1055555172792
 30
0.0
 10
102.8013047703066
 20
-153.1055555172792
 30
0.0
 10
102.6572997790232
 20
-153.1055555172792
 30
0.0
 10
102.4054632990514
 20
-153.0883300398529
 30
0.0
 10
102.2066812895525
 20
-152.9825656084558
 30
0.0
 10
102.0037651654713
 20
-152.8747341197674
 30
0.0
 10
101.9803385161716
 20
-152.7138481606063
 30
0.0
 10
101.9803385161716
 20
-152.5850015894579
 30
0.0
 10
101.9803385161716
 20
-152.4261826875879
 30
0.0
 10
102.0247802479313
 20
-152.282522205853
 30
0.0
 10
102.2066812895525
 20
-152.1870930609116
 30
0.0
 10
102.399262127178
 20
-152.0878743109364
 30
0.0
 10
102.62767195785
 20
-152.0644476616367
 30
0.0
 10
102.8013047703066
 20
-152.0644476616367
 30
0.0
 10
102.9725260159235
 20
-152.0644476616367
 30
0.0
 10
103.2030029038868
 20
-152.0858072536452
 30
0.0
 10
103.3955837415122
 20
-152.1870930609116
 30
0.0
  0
SPLINE
  5
BE
330
B9
100
AcDbEntity
  8
_U+30EC_U+30A4_U+30E4_U+30FC 1
370
     0
100
AcDbSpline
210
0.0
220
0.0
230
1.0
 70
    11
 71
     3
 72
    17
 73
    13
 74
     0
 42
0.0000000001
 43
0.0000000001
 12
1.0
 22
0.0
 32
0.0
 13
1.0
 23
0.0
 33
0.0
 40
0.0
 40
0.0
 40
0.0
 40
0.0
 40
1.0
 40
1.0
 40
1.0
 40
2.0
 40
2.0
 40
2.0
 40
3.0
 40
3.0
 40
3.0
 40
4.0
 40
4.0
 40
4.0
 40
4.0
 10
102.1729193537971
 20
-152.5850015894579
 30
0.0
 10
102.1729193537971
 20
-152.8347710121385
 30
0.0
 10
102.4564507122331
 20
-152.8812798011894
 30
0.0
 10
102.8013047703066
 20
-152.8812798011894
 30
0.0
 10
103.1206651217893
 20
-152.8812798011894
 30
0.0
 10
103.4293456772677
 20
-152.8451062985943
 30
0.0
 10
103.4293456772677
 20
-152.5850015894579
 30
0.0
 10
103.4293456772677
 20
-152.3372992240685
 30
0.0
 10
103.1482258856713
 20
-152.2887233777264
 30
0.0
 10
102.8013047703066
 20
-152.2887233777264
 30
0.0
 10
102.4815999092754
 20
-152.2887233777264
 30
0.0
 10
102.1729193537971
 20
-152.3269639376127
 30
0.0
 10
102.1729193537971
 20
-152.5850015894579
 30
0.0
  0
HATCH
  5
BF
330
B9
100
AcDbEntity
  8
_U+30EC_U+30A4_U+30E4_U+30FC 1
 62
     7
420
 16777215
100
AcDbHatch
 10
0.0
 20
0.0
 30
0.0
210
0.0
220
0.0
230
1.0
  2
SOLID
 70
     1
 71
     0
 91
        2
 92
        1
 93
        1
 72
     4
 94
        3
 73
     0
 74
     1
 95
       29
 96
       25
 40
0.0
 40
0.0
 40
0.0
 40
0.0
 40
1.0
 40
1.0
 40
1.0
 40
2.0
 40
2.0
 40
2.0
 40
3.0
 40
3.0
 40
3.0
 40
4.0
 40
4.0
 40
4.0
 40
5.0
 40
5.0
 40
5.0
 40
6.0
 40
6.0
 40
6.0
 40
7.0
 40
7.0
 40
7.0
 40
8.0
 40
8.0
 40
8.0
 40
8.0
 10
103.3955837415122
 20
-152.1870930609116
 10
103.6050455470154
 20
-152.2952690591484
 10
103.6239935721843
 20
-152.4685573620565
 10
103.6239935721843
 20
-152.5850015894579
 10
103.6239935721843
 20
-152.7458875486191
 10
103.5774847831334
 20
-152.8874809730628
 10
103.3955837415122
 20
-152.9825656084558
 10
103.2009358465956
 20
-153.0862629825618
 10
102.9642577867589
 20
-153.1055555172792
 10
102.8013047703066
 20
-153.1055555172792
 10
102.6572997790232
 20
-153.1055555172792
 10
102.4054632990514
 20
-153.0883300398529
 10
102.2066812895525
 20
-152.9825656084558
 10
102.0037651654713
 20
-152.8747341197674
 10
101.9803385161716
 20
-152.7138481606063
 10
101.9803385161716
 20
-152.5850015894579
 10
101.9803385161716
 20
-152.4261826875879
 10
102.0247802479313
 20
-152.282522205853
 10
102.2066812895525
 20
-152.1870930609116
 10
102.399262127178
 20
-152.0878743109364
 10
102.62767195785
 20
-152.0644476616367
 10
102.8013047703066
 20
-152.0644476616367
 10
102.9725260159235
 20
-152.0644476616367
 10
103.2030029038868
 20
-152.0858072536452
 10
103.3955837415122
 20
-152.1870930609116
 97
        0
 97
        0
 92
        1
 93
        1
 72
     4
 94
        3
 73
     0
 74
     1
 95
       17
 96
       13
 40
0.0
 40
0.0
 40
0.0
 40
0.0
 40
1.0
 40
1.0
 40
1.0
 40
2.0
 40
2.0
 40
2.0
 40
3.0
 40
3.0
 40
3.0
 40
4.0
 40
4.0
 40
4.0
 40
4.0
 10
102.1729193537971
 20
-152.5850015894579
 10
102.1729193537971
 20
-152.8347710121385
 10
102.4564507122331
 20
-152.8812798011894
 10
102.8013047703066
 20
-152.8812798011894
 10
103.1206651217893
 20
-152.8812798011894
 10
103.4293456772677
 20
-152.8451062985943
 10
103.4293456772677
 20
-152.5850015894579
 10
103.4293456772677
 20
-152.3372992240685
 10
103.1482258856713
 20
-152.2887233777264
 10
102.8013047703066
 20
-152.2887233777264
 10
102.4815999092754
 20
-152.2887233777264
 10
102.1729193537971
 20
-152.3269639376127
 10
102.1729193537971
 20
-152.5850015894579
 97
        0
 97
        0
 75
     2
 76
     1
 98
        0
  0
POLYLINE
  5
C0
330
B9
100
AcDbEntity
  8
_U+30EC_U+30A4_U+30E4_U+30FC 1
370
     0
100
AcDb2dPolyline
 66
     1
 10
0.0
 20
0.0
 30
0.0
  0
VERTEX
  5
C1
330
C0
100
AcDbEntity
  8
_U+30EC_U+30A4_U+30E4_U+30FC 1
370
     0
100
AcDbVertex
100
AcDb2dVertex
 10
103.5733506685511
 20
-151.848095665163
 30
0.0
  0
VERTEX
  5
C2
330
C0
100
AcDbEntity
  8
_U+30EC_U+30A4_U+30E4_U+30FC 1
370
     0
100
AcDbVertex
100
AcDb2dVertex
 10
103.3215141885793
 20
-151.848095665163
 30
0.0
  0
VERTEX
  5
C3
330
C0
100
AcDbEntity
  8
_U+30EC_U+30A4_U+30E4_U+30FC 1
370
     0
100
AcDbVertex
100
AcDb2dVertex
 10
103.3215141885793
 20
-151.5962591851912
 30
0.0
  0
VERTEX
  5
C4
330
C0
100
AcDbEntity
  8
_U+30EC_U+30A4_U+30E4_U+30FC 1
370
     0
100
AcDbVertex
100
AcDb2dVertex
 10
103.5733506685511
 20
-151.5962591851912
 30
0.0
  0
VERTEX
  5
C5
330
C0
100
AcDbEntity
  8
_U+30EC_U+30A4_U+30E4_U+30FC 1
370
     0
100
AcDbVertex
100
AcDb2dVertex
 10
103.5733506685511
 20
-151.848095665163
 30
0.0
  0
SEQEND
  5
C6
330
C0
100
AcDbEntity
  8
_U+30EC_U+30A4_U+30E4_U+30FC 1
370
     0
  0
HATCH
  5
C7
330
B9
100
AcDbEntity
  8
_U+30EC_U+30A4_U+30E4_U+30FC 1
 62
     7
420
 16777215
100
AcDbHatch
 10
0.0
 20
0.0
 30
0.0
210
0.0
220
0.0
230
1.0
  2
SOLID
 70
     1
 71
     0
 91
        1
 92
        1
 93
        4
 72
     1
 10
103.5733506685511
 20
-151.848095665163
 11
103.3215141885793
 21
-151.848095665163
 72
     1
 10
103.3215141885793
 20
-151.848095665163
 11
103.3215141885793
 21
-151.5962591851912
 72
     1
 10
103.3215141885793
 20
-151.5962591851912
 11
103.5733506685511
 21
-151.5962591851912
 72
     1
 10
103.5733506685511
 20
-151.5962591851912
 11
103.5733506685511
 21
-151.848095665163
 97
        0
 75
     2
 76
     1
 98
        0
  0
SPLINE
  5
C8
330
B9
100
AcDbEntity
  8
_U+30EC_U+30A4_U+30E4_U+30FC 1
370
     0
100
AcDbSpline
210
0.0
220
0.0
230
1.0
 70
    11
 71
     3
 72
    53
 73
    49
 74
     0
 42
0.0000000001
 43
0.0000000001
 12
1.0
 22
0.0
 32
0.0
 13
1.0
 23
0.0
 33
0.0
 40
0.0
 40
0.0
 40
0.0
 40
0.0
 40
1.0
 40
1.0
 40
1.0
 40
2.0
 40
2.0
 40
2.0
 40
3.0
 40
3.0
 40
3.0
 40
4.0
 40
4.0
 40
4.0
 40
5.0
 40
5.0
 40
5.0
 40
6.0
 40
6.0
 40
6.0
 40
7.0
 40
7.0
 40
7.0
 40
8.0
 40
8.0
 40
8.0
 40
9.0
 40
9.0
 40
9.0
 40
10.0
 40
10.0
 40
10.0
 40
11.0
 40
11.0
 40
11.0
 40
12.0
 40
12.0
 40
12.0
 40
13.0
 40
13.0
 40
13.0
 40
14.0
 40
14.0
 40
14.0
 40
15.0
 40
15.0
 40
15.0
 40
16.0
 40
16.0
 40
16.0
 40
16.0
 10
103.6239935721843
 20
-150.8789903051622
 30
0.0
 10
103.6239935721843
 20
-150.9571939726774
 30
0.0
 10
103.6071126043066
 20
-151.0588242894922
 30
0.0
 10
103.543722847378
 20
-151.1604546063071
 30
0.0
 10
103.4338243013985
 20
-151.3337429092152
 30
0.0
 10
103.3025661634105
 20
-151.3551025012237
 30
0.0
 10
103.1947346747222
 20
-151.3740505263926
 30
0.0
 10
103.1947346747222
 20
-151.3740505263926
 30
0.0
 10
103.1947346747222
 20
-151.151841867594
 30
0.0
 10
103.1947346747222
 20
-151.151841867594
 30
0.0
 10
103.3935166842211
 20
-151.0970648493785
 30
0.0
 10
103.4231445053942
 20
-150.9699408259728
 30
0.0
 10
103.4231445053942
 20
-150.876923247871
 30
0.0
 10
103.4231445053942
 20
-150.7373968807184
 30
0.0
 10
103.3235812458705
 20
-150.5851236602704
 30
0.0
 10
103.0910373006161
 20
-150.5851236602704
 30
0.0
 10
102.8350667060621
 20
-150.5851236602704
 30
0.0
 10
102.7651312677115
 20
-150.7649576446004
 30
0.0
 10
102.7651312677115
 20
-150.8855359865842
 30
0.0
 10
102.7651312677115
 20
-150.9172308650485
 30
0.0
 10
102.7651312677115
 20
-151.0588242894922
 30
0.0
 10
102.8943223484084
 20
-151.1477077530117
 30
0.0
 10
102.8943223484084
 20
-151.1477077530117
 30
0.0
 10
102.8753743232395
 20
-151.3234076227594
 30
0.0
 10
102.8753743232395
 20
-151.3234076227594
 30
0.0
 10
102.8753743232395
 20
-151.3234076227594
 30
0.0
 10
102.0289143625136
 20
-151.2028292807757
 30
0.0
 10
102.0289143625136
 20
-151.2028292807757
 30
0.0
 10
102.0289143625136
 20
-151.2028292807757
 30
0.0
 10
102.0289143625136
 20
-150.4242377011092
 30
0.0
 10
102.0289143625136
 20
-150.4242377011092
 30
0.0
 10
102.0289143625136
 20
-150.4242377011092
 30
0.0
 10
102.2235622574302
 20
-150.4242377011092
 30
0.0
 10
102.2235622574302
 20
-150.4242377011092
 30
0.0
 10
102.2235622574302
 20
-150.4242377011092
 30
0.0
 10
102.2235622574302
 20
-151.0398762643234
 30
0.0
 10
102.2235622574302
 20
-151.0398762643234
 30
0.0
 10
102.2235622574302
 20
-151.0398762643234
 30
0.0
 10
102.6466199830189
 20
-151.1053330785431
 30
0.0
 10
102.6466199830189
 20
-151.1053330785431
 30
0.0
 10
102.6128580472635
 20
-151.0440103789057
 30
0.0
 10
102.572550430086
 20
-150.9616725968082
 30
0.0
 10
102.572550430086
 20
-150.8431613121156
 30
0.0
 10
102.572550430086
 20
-150.5892577748527
 30
0.0
 10
102.7589300958381
 20
-150.3522352054675
 30
0.0
 10
103.0720892754473
 20
-150.3522352054675
 30
0.0
 10
103.3893825696388
 20
-150.3522352054675
 30
0.0
 10
103.6239935721843
 20
-150.5765109215573
 30
0.0
 10
103.6239935721843
 20
-150.8789903051622
 30
0.0
  0
HATCH
  5
C9
330
B9
100
AcDbEntity
  8
_U+30EC_U+30A4_U+30E4_U+30FC 1
 62
     7
420
 16777215
100
AcDbHatch
 10
0.0
 20
0.0
 30
0.0
210
0.0
220
0.0
230
1.0
  2
SOLID
 70
     1
 71
     0
 91
        1
 92
        1
 93
        1
 72
     4
 94
        3
 73
     0
 74
     1
 95
       53
 96
       49
 40
0.0
 40
0.0
 40
0.0
 40
0.0
 40
1.0
 40
1.0
 40
1.0
 40
2.0
 40
2.0
 40
2.0
 40
3.0
 40
3.0
 40
3.0
 40
4.0
 40
4.0
 40
4.0
 40
5.0
 40
5.0
 40
5.0
 40
6.0
 40
6.0
 40
6.0
 40
7.0
 40
7.0
 40
7.0
 40
8.0
 40
8.0
 40
8.0
 40
9.0
 40
9.0
 40
9.0
 40
10.0
 40
10.0
 40
10.0
 40
11.0
 40
11.0
 40
11.0
 40
12.0
 40
12.0
 40
12.0
 40
13.0
 40
13.0
 40
13.0
 40
14.0
 40
14.0
 40
14.0
 40
15.0
 40
15.0
 40
15.0
 40
16.0
 40
16.0
 40
16.0
 40
16.0
 10
103.6239935721843
 20
-150.8789903051622
 10
103.6239935721843
 20
-150.9571939726774
 10
103.6071126043066
 20
-151.0588242894922
 10
103.543722847378
 20
-151.1604546063071
 10
103.4338243013985
 20
-151.3337429092152
 10
103.3025661634105
 20
-151.3551025012237
 10
103.1947346747222
 20
-151.3740505263926
 10
103.1947346747222
 20
-151.3740505263926
 10
103.1947346747222
 20
-151.151841867594
 10
103.1947346747222
 20
-151.151841867594
 10
103.3935166842211
 20
-151.0970648493785
 10
103.4231445053942
 20
-150.9699408259728
 10
103.4231445053942
 20
-150.876923247871
 10
103.4231445053942
 20
-150.7373968807184
 10
103.3235812458705
 20
-150.5851236602704
 10
103.0910373006161
 20
-150.5851236602704
 10
102.8350667060621
 20
-150.5851236602704
 10
102.7651312677115
 20
-150.7649576446004
 10
102.7651312677115
 20
-150.8855359865842
 10
102.7651312677115
 20
-150.9172308650485
 10
102.7651312677115
 20
-151.0588242894922
 10
102.8943223484084
 20
-151.1477077530117
 10
102.8943223484084
 20
-151.1477077530117
 10
102.8753743232395
 20
-151.3234076227594
 10
102.8753743232395
 20
-151.3234076227594
 10
102.8753743232395
 20
-151.3234076227594
 10
102.0289143625136
 20
-151.2028292807757
 10
102.0289143625136
 20
-151.2028292807757
 10
102.0289143625136
 20
-151.2028292807757
 10
102.0289143625136
 20
-150.4242377011092
 10
102.0289143625136
 20
-150.4242377011092
 10
102.0289143625136
 20
-150.4242377011092
 10
102.2235622574302
 20
-150.4242377011092
 10
102.2235622574302
 20
-150.4242377011092
 10
102.2235622574302
 20
-150.4242377011092
 10
102.2235622574302
 20
-151.0398762643234
 10
102.2235622574302
 20
-151.0398762643234
 10
102.2235622574302
 20
-151.0398762643234
 10
102.6466199830189
 20
-151.1053330785431
 10
102.6466199830189
 20
-151.1053330785431
 10
102.6128580472635
 20
-151.0440103789057
 10
102.572550430086
 20
-150.9616725968082
 10
102.572550430086
 20
-150.8431613121156
 10
102.572550430086
 20
-150.5892577748527
 10
102.7589300958381
 20
-150.3522352054675
 10
103.0720892754473
 20
-150.3522352054675
 10
103.3893825696388
 20
-150.3522352054675
 10
103.6239935721843
 20
-150.5765109215573
 10
103.6239935721843
 20
-150.8789903051622
 97
        0
 97
        0
 75
     2
 76
     1
 98
        0
  0
ENDBLK
  5
BC
330
B9
100
AcDbEntity
  8
0
100
AcDbBlockEnd
  0
ENDSEC
  0
SECTION
  2
ENTITIES
  0
POLYLINE
  5
41
330
1F
100
AcDbEntity
  8
_U+30EC_U+30A4_U+30E4_U+30FC 1
 62
     7
420
 16777215
370
    25
100
AcDb2dPolyline
 66
     1
 10
0.0
 20
0.0
 30
0.0
  0
VERTEX
  5
42
330
41
100
AcDbEntity
  8
_U+30EC_U+30A4_U+30E4_U+30FC 1
 62
     7
420
 16777215
370
    25
100
AcDbVertex
100
AcDb2dVertex
 10
115.1640203952544
 20
-143.3335405197221
 30
0.0
  0
VERTEX
  5
43
330
41
100
AcDbEntity
  8
_U+30EC_U+30A4_U+30E4_U+30FC 1
 62
     7
420
 16777215
370
    25
100
AcDbVertex
100
AcDb2dVertex
 10
90.16400275523665
 20
-143.3335405197221
 30
0.0
  0
VERTEX
  5
44
330
41
100
AcDbEntity
  8
_U+30EC_U+30A4_U+30E4_U+30FC 1
 62
     7
420
 16777215
370
    25
100
AcDbVertex
100
AcDb2dVertex
 10
90.16400275523665
 20
-155.3331707945002
 30
0.0
  0
VERTEX
  5
45
330
41
100
AcDbEntity
  8
_U+30EC_U+30A4_U+30E4_U+30FC 1
 62
     7
420
 16777215
370
    25
100
AcDbVertex
100
AcDb2dVertex
 10
100.1697657777897
 20
-154.8332846835136
 30
0.0
  0
VERTEX
  5
46
330
41
100
AcDbEntity
  8
_U+30EC_U+30A4_U+30E4_U+30FC 1
 62
     7
420
 16777215
370
    25
100
AcDbVertex
100
AcDb2dVertex
 10
100.1697657777897
 20
-154.3333985725276
 30
0.0
  0
VERTEX
  5
47
330
41
100
AcDbEntity
  8
_U+30EC_U+30A4_U+30E4_U+30FC 1
 62
     7
420
 16777215
370
    25
100
AcDbVertex
100
AcDb2dVertex
 10
91.16412775498664
 20
-154.3333985725276
 30
0.0
  0
VERTEX
  5
48
330
41
100
AcDbEntity
  8
_U+30EC_U+30A4_U+30E4_U+30FC 1
 62
     7
420
 16777215
370
    25
100
AcDbVertex
100
AcDb2dVertex
 10
91.16412775498664
 20
-144.3333127416943
 30
0.0
  0
VERTEX
  5
49
330
41
100
AcDbEntity
  8
_U+30EC_U+30A4_U+30E4_U+30FC 1
 62
     7
420
 16777215
370
    25
100
AcDbVertex
100
AcDb2dVertex
 10
115.1640203952544
 20
-144.3333127416943
 30
0.0
  0
VERTEX
  5
4A
330
41
100
AcDbEntity
  8
_U+30EC_U+30A4_U+30E4_U+30FC 1
 62
     7
420
 16777215
370
    25
100
AcDbVertex
100
AcDb2dVertex
 10
115.1640203952544
 20
-143.3335405197221
 30
0.0
  0
SEQEND
  5
4B
330
41
100
AcDbEntity
  8
_U+30EC_U+30A4_U+30E4_U+30FC 1
 62
     7
420
 16777215
370
    25
  0
SPLINE
  5
4C
330
1F
100
AcDbEntity
  8
_U+30EC_U+30A4_U+30E4_U+30FC 1
 62
     7
420
 16777215
370
     9
100
AcDbSpline
210
0.0
220
0.0
230
1.0
 70
    11
 71
     3
 72
    17
 73
    13
 74
     0
 42
0.0000000001
 43
0.0000000001
 12
1.0
 22
0.0
 32
0.0
 13
1.0
 23
0.0
 33
0.0
 40
0.0
 40
0.0
 40
0.0
 40
0.0
 40
1.0
 40
1.0
 40
1.0
 40
2.0
 40
2.0
 40
2.0
 40
3.0
 40
3.0
 40
3.0
 40
4.0
 40
4.0
 40
4.0
 40
4.0
 10
90.26390714162032
 20
-139.3331110762778
 30
0.0
 10
90.26390714162032
 20
-139.2779719096251
 30
0.0
 10
90.21913964276244
 20
-139.2332044096362
 30
0.0
 10
90.16400275523665
 20
-139.2332044096362
 30
0.0
 10
90.10889659001941
 20
-139.2332044096362
 30
0.0
 10
90.06409381338466
 20
-139.2779719096251
 30
0.0
 10
90.06409381338466
 20
-139.3331110762778
 30
0.0
 10
90.06409381338466
 20
-139.3885677429305
 30
0.0
 10
90.10889659001941
 20
-139.4333352429194
 30
0.0
 10
90.16400275523665
 20
-139.4333352429194
 30
0.0
 10
90.21913964276244
 20
-139.4333352429194
 30
0.0
 10
90.26390714162032
 20
-139.3885677429305
 30
0.0
 10
90.26390714162032
 20
-139.3331110762778
 30
0.0
  0
SPLINE
  5
4D
330
1F
100
AcDbEntity
  8
_U+30EC_U+30A4_U+30E4_U+30FC 1
 62
     7
420
 16777215
370
     9
100
AcDbSpline
210
0.0
220
0.0
230
1.0
 70
    11
 71
     3
 72
    17
 73
    13
 74
     0
 42
0.0000000001
 43
0.0000000001
 12
1.0
 22
0.0
 32
0.0
 13
1.0
 23
0.0
 33
0.0
 40
0.0
 40
0.0
 40
0.0
 40
0.0
 40
1.0
 40
1.0
 40
1.0
 40
2.0
 40
2.0
 40
2.0
 40
3.0
 40
3.0
 40
3.0
 40
4.0
 40
4.0
 40
4.0
 40
4.0
 10
115.2639270593722
 20
-139.3331110762778
 30
0.0
 10
115.2639270593722
 20
-139.2779719096251
 30
0.0
 10
115.2191595605143
 20
-139.2332044096362
 30
0.0
 10
115.1640203952544
 20
-139.2332044096362
 30
0.0
 10
115.1089194156671
 20
-139.2332044096362
 30
0.0
 10
115.0641166379004
 20
-139.2779719096251
 30
0.0
 10
115.0641166379004
 20
-139.3331110762778
 30
0.0
 10
115.0641166379004
 20
-139.3885677429305
 30
0.0
 10
115.1089194156671
 20
-139.4333352429194
 30
0.0
 10
115.1640203952544
 20
-139.4333352429194
 30
0.0
 10
115.2191595605143
 20
-139.4333352429194
 30
0.0
 10
115.2639270593722
 20
-139.3885677429305
 30
0.0
 10
115.2639270593722
 20
-139.3331110762778
 30
0.0
  0
SPLINE
  5
4E
330
1F
100
AcDbEntity
  8
_U+30EC_U+30A4_U+30E4_U+30FC 1
 62
     7
420
 16777215
370
     9
100
AcDbSpline
210
0.0
220
0.0
230
1.0
 70
    11
 71
     3
 72
    17
 73
    13
 74
     0
 42
0.0000000001
 43
0.0000000001
 12
1.0
 22
0.0
 32
0.0
 13
1.0
 23
0.0
 33
0.0
 40
0.0
 40
0.0
 40
0.0
 40
0.0
 40
1.0
 40
1.0
 40
1.0
 40
2.0
 40
2.0
 40
2.0
 40
3.0
 40
3.0
 40
3.0
 40
4.0
 40
4.0
 40
4.0
 40
4.0
 10
119.2640389017653
 20
-143.3335405197221
 30
0.0
 10
119.2640389017653
 20
-143.2780838530694
 30
0.0
 10
119.2192361251306
 20
-143.2332810753027
 30
0.0
 10
119.1641322376475
 20
-143.2332810753027
 30
0.0
 10
119.1086755723956
 20
-143.2332810753027
 30
0.0
 10
119.0638727957609
 20
-143.2780838530694
 30
0.0
 10
119.0638727957609
 20
-143.3335405197221
 30
0.0
 10
119.0638727957609
 20
-143.3886796863752
 30
0.0
 10
119.1086755723956
 20
-143.4334471863637
 30
0.0
 10
119.1641322376475
 20
-143.4334471863637
 30
0.0
 10
119.2192361251306
 20
-143.4334471863637
 30
0.0
 10
119.2640389017653
 20
-143.3886796863752
 30
0.0
 10
119.2640389017653
 20
-143.3335405197221
 30
0.0
  0
SPLINE
  5
4F
330
1F
100
AcDbEntity
  8
_U+30EC_U+30A4_U+30E4_U+30FC 1
 62
     7
420
 16777215
370
     9
100
AcDbSpline
210
0.0
220
0.0
230
1.0
 70
    11
 71
     3
 72
    17
 73
    13
 74
     0
 42
0.0000000001
 43
0.0000000001
 12
1.0
 22
0.0
 32
0.0
 13
1.0
 23
0.0
 33
0.0
 40
0.0
 40
0.0
 40
0.0
 40
0.0
 40
1.0
 40
1.0
 40
1.0
 40
2.0
 40
2.0
 40
2.0
 40
3.0
 40
3.0
 40
3.0
 40
4.0
 40
4.0
 40
4.0
 40
4.0
 10
119.2640389017653
 20
-144.3333127416943
 30
0.0
 10
119.2640389017653
 20
-144.2781735750416
 30
0.0
 10
119.2192361251306
 20
-144.2334060750527
 30
0.0
 10
119.1641322376475
 20
-144.2334060750527
 30
0.0
 10
119.1086755723956
 20
-144.2334060750527
 30
0.0
 10
119.0638727957609
 20
-144.2781735750416
 30
0.0
 10
119.0638727957609
 20
-144.3333127416943
 30
0.0
 10
119.0638727957609
 20
-144.3884166305696
 30
0.0
 10
119.1086755723956
 20
-144.4332194083363
 30
0.0
 10
119.1641322376475
 20
-144.4332194083363
 30
0.0
 10
119.2192361251306
 20
-144.4332194083363
 30
0.0
 10
119.2640389017653
 20
-144.3884166305696
 30
0.0
 10
119.2640389017653
 20
-144.3333127416943
 30
0.0
  0
SPLINE
  5
50
330
1F
100
AcDbEntity
  8
_U+30EC_U+30A4_U+30E4_U+30FC 1
 62
     7
420
 16777215
370
     9
100
AcDbSpline
210
0.0
220
0.0
230
1.0
 70
    11
 71
     3
 72
    17
 73
    13
 74
     0
 42
0.0000000001
 43
0.0000000001
 12
1.0
 22
0.0
 32
0.0
 13
1.0
 23
0.0
 33
0.0
 40
0.0
 40
0.0
 40
0.0
 40
0.0
 40
1.0
 40
1.0
 40
1.0
 40
2.0
 40
2.0
 40
2.0
 40
3.0
 40
3.0
 40
3.0
 40
4.0
 40
4.0
 40
4.0
 40
4.0
 10
119.2640389017653
 20
-154.3333985725276
 30
0.0
 10
119.2640389017653
 20
-154.2779066280974
 30
0.0
 10
119.2192361251306
 20
-154.2331391281083
 30
0.0
 10
119.1641322376475
 20
-154.2331391281083
 30
0.0
 10
119.1086755723956
 20
-154.2331391281083
 30
0.0
 10
119.0638727957609
 20
-154.2779066280974
 30
0.0
 10
119.0638727957609
 20
-154.3333985725276
 30
0.0
 10
119.0638727957609
 20
-154.3885024614026
 30
0.0
 10
119.1086755723956
 20
-154.4333052391693
 30
0.0
 10
119.1641322376475
 20
-154.4333052391693
 30
0.0
 10
119.2192361251306
 20
-154.4333052391693
 30
0.0
 10
119.2640389017653
 20
-154.3885024614026
 30
0.0
 10
119.2640389017653
 20
-154.3333985725276
 30
0.0
  0
SPLINE
  5
51
330
1F
100
AcDbEntity
  8
_U+30EC_U+30A4_U+30E4_U+30FC 1
 62
     7
420
 16777215
370
     9
100
AcDbSpline
210
0.0
220
0.0
230
1.0
 70
    11
 71
     3
 72
    17
 73
    13
 74
     0
 42
0.0000000001
 43
0.0000000001
 12
1.0
 22
0.0
 32
0.0
 13
1.0
 23
0.0
 33
0.0
 40
0.0
 40
0.0
 40
0.0
 40
0.0
 40
1.0
 40
1.0
 40
1.0
 40
2.0
 40
2.0
 40
2.0
 40
3.0
 40
3.0
 40
3.0
 40
4.0
 40
4.0
 40
4.0
 40
4.0
 10
104.2696078954162
 20
-154.3333985725276
 30
0.0
 10
104.2696078954162
 20
-154.2779066280974
 30
0.0
 10
104.2248051187815
 20
-154.2331391281083
 30
0.0
 10
104.1697012312984
 20
-154.2331391281083
 30
0.0
 10
104.1145620660385
 20
-154.2331391281083
 30
0.0
 10
104.0697971962048
 20
-154.2779066280974
 30
0.0
 10
104.0697971962048
 20
-154.3333985725276
 30
0.0
 10
104.0697971962048
 20
-154.3885024614026
 30
0.0
 10
104.1145620660385
 20
-154.4333052391693
 30
0.0
 10
104.1697012312984
 20
-154.4333052391693
 30
0.0
 10
104.2248051187815
 20
-154.4333052391693
 30
0.0
 10
104.2696078954162
 20
-154.3885024614026
 30
0.0
 10
104.2696078954162
 20
-154.3333985725276
 30
0.0
  0
SPLINE
  5
52
330
1F
100
AcDbEntity
  8
_U+30EC_U+30A4_U+30E4_U+30FC 1
 62
     7
420
 16777215
370
     9
100
AcDbSpline
210
0.0
220
0.0
230
1.0
 70
    11
 71
     3
 72
    17
 73
    13
 74
     0
 42
0.0000000001
 43
0.0000000001
 12
1.0
 22
0.0
 32
0.0
 13
1.0
 23
0.0
 33
0.0
 40
0.0
 40
0.0
 40
0.0
 40
0.0
 40
1.0
 40
1.0
 40
1.0
 40
2.0
 40
2.0
 40
2.0
 40
3.0
 40
3.0
 40
3.0
 40
4.0
 40
4.0
 40
4.0
 40
4.0
 10
104.2696078954162
 20
-154.8332846835136
 30
0.0
 10
104.2696078954162
 20
-154.7781455168612
 30
0.0
 10
104.2248051187815
 20
-154.733378016872
 30
0.0
 10
104.1697012312984
 20
-154.733378016872
 30
0.0
 10
104.1145620660385
 20
-154.733378016872
 30
0.0
 10
104.0697971962048
 20
-154.7781455168612
 30
0.0
 10
104.0697971962048
 20
-154.8332846835136
 30
0.0
 10
104.0697971962048
 20
-154.8883885723891
 30
0.0
 10
104.1145620660385
 20
-154.9331913501559
 30
0.0
 10
104.1697012312984
 20
-154.9331913501559
 30
0.0
 10
104.2248051187815
 20
-154.9331913501559
 30
0.0
 10
104.2696078954162
 20
-154.8883885723891
 30
0.0
 10
104.2696078954162
 20
-154.8332846835136
 30
0.0
  0
SPLINE
  5
53
330
1F
100
AcDbEntity
  8
_U+30EC_U+30A4_U+30E4_U+30FC 1
 62
     7
420
 16777215
370
     9
100
AcDbSpline
210
0.0
220
0.0
230
1.0
 70
    11
 71
     3
 72
    17
 73
    13
 74
     0
 42
0.0000000001
 43
0.0000000001
 12
1.0
 22
0.0
 32
0.0
 13
1.0
 23
0.0
 33
0.0
 40
0.0
 40
0.0
 40
0.0
 40
0.0
 40
1.0
 40
1.0
 40
1.0
 40
2.0
 40
2.0
 40
2.0
 40
3.0
 40
3.0
 40
3.0
 40
4.0
 40
4.0
 40
4.0
 40
4.0
 10
100.2700277527101
 20
-159.3332474601667
 30
0.0
 10
100.2700277527101
 20
-159.2781435712918
 30
0.0
 10
100.2252249749437
 20
-159.233340793525
 30
0.0
 10
100.1697657777897
 20
-159.233340793525
 30
0.0
 10
100.1143091125379
 20
-159.233340793525
 30
0.0
 10
100.0698591136719
 20
-159.2781435712918
 30
0.0
 10
100.0698591136719
 20
-159.3332474601667
 30
0.0
 10
100.0698591136719
 20
-159.3883866268198
 30
0.0
 10
100.1143091125379
 20
-159.4331541268083
 30
0.0
 10
100.1697657777897
 20
-159.4331541268083
 30
0.0
 10
100.2252249749437
 20
-159.4331541268083
 30
0.0
 10
100.2700277527101
 20
-159.3883866268198
 30
0.0
 10
100.2700277527101
 20
-159.3332474601667
 30
0.0
  0
SPLINE
  5
54
330
1F
100
AcDbEntity
  8
_U+30EC_U+30A4_U+30E4_U+30FC 1
 62
     7
420
 16777215
370
     9
100
AcDbSpline
210
0.0
220
0.0
230
1.0
 70
    11
 71
     3
 72
    17
 73
    13
 74
     0
 42
0.0000000001
 43
0.0000000001
 12
1.0
 22
0.0
 32
0.0
 13
1.0
 23
0.0
 33
0.0
 40
0.0
 40
0.0
 40
0.0
 40
0.0
 40
1.0
 40
1.0
 40
1.0
 40
2.0
 40
2.0
 40
2.0
 40
3.0
 40
3.0
 40
3.0
 40
4.0
 40
4.0
 40
4.0
 40
4.0
 10
90.26390714162032
 20
-159.3332474601667
 30
0.0
 10
90.26390714162032
 20
-159.2781435712918
 30
0.0
 10
90.21913964276244
 20
-159.233340793525
 30
0.0
 10
90.16400275523665
 20
-159.233340793525
 30
0.0
 10
90.10889659001941
 20
-159.233340793525
 30
0.0
 10
90.06409381338466
 20
-159.2781435712918
 30
0.0
 10
90.06409381338466
 20
-159.3332474601667
 30
0.0
 10
90.06409381338466
 20
-159.3883866268198
 30
0.0
 10
90.10889659001941
 20
-159.4331541268083
 30
0.0
 10
90.16400275523665
 20
-159.4331541268083
 30
0.0
 10
90.21913964276244
 20
-159.4331541268083
 30
0.0
 10
90.26390714162032
 20
-159.3883866268198
 30
0.0
 10
90.26390714162032
 20
-159.3332474601667
 30
0.0
  0
POLYLINE
  5
55
330
1F
100
AcDbEntity
  8
_U+30EC_U+30A4_U+30E4_U+30FC 1
 62
     7
420
 16777215
370
     9
100
AcDb2dPolyline
 66
     1
 10
0.0
 20
0.0
 30
0.0
  0
VERTEX
  5
56
330
55
100
AcDbEntity
  8
_U+30EC_U+30A4_U+30E4_U+30FC 1
 62
     7
420
 16777215
370
     9
100
AcDbVertex
100
AcDb2dVertex
 10
90.16400275523665
 20
-139.3331110762778
 30
0.0
  0
VERTEX
  5
57
330
55
100
AcDbEntity
  8
_U+30EC_U+30A4_U+30E4_U+30FC 1
 62
     7
420
 16777215
370
     9
100
AcDbVertex
100
AcDb2dVertex
 10
115.1640203952544
 20
-139.3331110762778
 30
0.0
  0
SEQEND
  5
58
330
55
100
AcDbEntity
  8
_U+30EC_U+30A4_U+30E4_U+30FC 1
 62
     7
420
 16777215
370
     9
  0
POLYLINE
  5
59
330
1F
100
AcDbEntity
  8
_U+30EC_U+30A4_U+30E4_U+30FC 1
 62
     7
420
 16777215
370
     9
100
AcDb2dPolyline
 66
     1
 10
0.0
 20
0.0
 30
0.0
  0
VERTEX
  5
5A
330
59
100
AcDbEntity
  8
_U+30EC_U+30A4_U+30E4_U+30FC 1
 62
     7
420
 16777215
370
     9
100
AcDbVertex
100
AcDb2dVertex
 10
90.16400275523665
 20
-140.7931171870241
 30
0.0
  0
VERTEX
  5
5B
330
59
100
AcDbEntity
  8
_U+30EC_U+30A4_U+30E4_U+30FC 1
 62
     7
420
 16777215
370
     9
100
AcDbVertex
100
AcDb2dVertex
 10
90.16400275523665
 20
-138.3333388543056
 30
0.0
  0
SEQEND
  5
5C
330
59
100
AcDbEntity
  8
_U+30EC_U+30A4_U+30E4_U+30FC 1
 62
     7
420
 16777215
370
     9
  0
POLYLINE
  5
5D
330
1F
100
AcDbEntity
  8
_U+30EC_U+30A4_U+30E4_U+30FC 1
 62
     7
420
 16777215
370
     9
100
AcDb2dPolyline
 66
     1
 10
0.0
 20
0.0
 30
0.0
  0
VERTEX
  5
5E
330
5D
100
AcDbEntity
  8
_U+30EC_U+30A4_U+30E4_U+30FC 1
 62
     7
420
 16777215
370
     9
100
AcDbVertex
100
AcDb2dVertex
 10
115.1640203952544
 20
-140.7931171870241
 30
0.0
  0
VERTEX
  5
5F
330
5D
100
AcDbEntity
  8
_U+30EC_U+30A4_U+30E4_U+30FC 1
 62
     7
420
 16777215
370
     9
100
AcDbVertex
100
AcDb2dVertex
 10
115.1640203952544
 20
-138.3333388543056
 30
0.0
  0
SEQEND
  5
60
330
5D
100
AcDbEntity
  8
_U+30EC_U+30A4_U+30E4_U+30FC 1
 62
     7
420
 16777215
370
     9
  0
INSERT
  5
62
330
1F
100
AcDbEntity
  8
_U+30EC_U+30A4_U+30E4_U+30FC 1
100
AcDbBlockReference
  2
block 2
 10
0.0
 20
0.0
 30
0.0
  0
POLYLINE
  5
69
330
1F
100
AcDbEntity
  8
_U+30EC_U+30A4_U+30E4_U+30FC 1
 62
     7
420
 16777215
370
     9
100
AcDb2dPolyline
 66
     1
 10
0.0
 20
0.0
 30
0.0
  0
VERTEX
  5
6A
330
69
100
AcDbEntity
  8
_U+30EC_U+30A4_U+30E4_U+30FC 1
 62
     7
420
 16777215
370
     9
100
AcDbVertex
100
AcDb2dVertex
 10
90.16400275523665
 20
-159.3332474601667
 30
0.0
  0
VERTEX
  5
6B
330
69
100
AcDbEntity
  8
_U+30EC_U+30A4_U+30E4_U+30FC 1
 62
     7
420
 16777215
370
     9
100
AcDbVertex
100
AcDb2dVertex
 10
100.1697657777897
 20
-159.3332474601667
 30
0.0
  0
SEQEND
  5
6C
330
69
100
AcDbEntity
  8
_U+30EC_U+30A4_U+30E4_U+30FC 1
 62
     7
420
 16777215
370
     9
  0
POLYLINE
  5
6D
330
1F
100
AcDbEntity
  8
_U+30EC_U+30A4_U+30E4_U+30FC 1
 62
     7
420
 16777215
370
     9
100
AcDb2dPolyline
 66
     1
 10
0.0
 20
0.0
 30
0.0
  0
VERTEX
  5
6E
330
6D
100
AcDbEntity
  8
_U+30EC_U+30A4_U+30E4_U+30FC 1
 62
     7
420
 16777215
370
     9
100
AcDbVertex
100
AcDb2dVertex
 10
90.16400275523665
 20
-157.873206071643
 30
0.0
  0
VERTEX
  5
6F
330
6D
100
AcDbEntity
  8
_U+30EC_U+30A4_U+30E4_U+30FC 1
 62
     7
420
 16777215
370
     9
100
AcDbVertex
100
AcDb2dVertex
 10
90.16400275523665
 20
-160.333372459917
 30
0.0
  0
SEQEND
  5
70
330
6D
100
AcDbEntity
  8
_U+30EC_U+30A4_U+30E4_U+30FC 1
 62
     7
420
 16777215
370
     9
  0
POLYLINE
  5
71
330
1F
100
AcDbEntity
  8
_U+30EC_U+30A4_U+30E4_U+30FC 1
 62
     7
420
 16777215
370
     9
100
AcDb2dPolyline
 66
     1
 10
0.0
 20
0.0
 30
0.0
  0
VERTEX
  5
72
330
71
100
AcDbEntity
  8
_U+30EC_U+30A4_U+30E4_U+30FC 1
 62
     7
420
 16777215
370
     9
100
AcDbVertex
100
AcDb2dVertex
 10
100.1697657777897
 20
-157.3733552384345
 30
0.0
  0
VERTEX
  5
73
330
71
100
AcDbEntity
  8
_U+30EC_U+30A4_U+30E4_U+30FC 1
 62
     7
420
 16777215
370
     9
100
AcDbVertex
100
AcDb2dVertex
 10
100.1697657777897
 20
-160.333372459917
 30
0.0
  0
SEQEND
  5
74
330
71
100
AcDbEntity
  8
_U+30EC_U+30A4_U+30E4_U+30FC 1
 62
     7
420
 16777215
370
     9
  0
INSERT
  5
76
330
1F
100
AcDbEntity
  8
_U+30EC_U+30A4_U+30E4_U+30FC 1
100
AcDbBlockReference
  2
block 3
 10
0.0
 20
0.0
 30
0.0
  0
POLYLINE
  5
7E
330
1F
100
AcDbEntity
  8
_U+30EC_U+30A4_U+30E4_U+30FC 1
 62
     7
420
 16777215
370
     9
100
AcDb2dPolyline
 66
     1
 10
0.0
 20
0.0
 30
0.0
  0
VERTEX
  5
7F
330
7E
100
AcDbEntity
  8
_U+30EC_U+30A4_U+30E4_U+30FC 1
 62
     7
420
 16777215
370
     9
100
AcDbVertex
100
AcDb2dVertex
 10
104.1697012312984
 20
-154.3333985725276
 30
0.0
  0
VERTEX
  5
80
330
7E
100
AcDbEntity
  8
_U+30EC_U+30A4_U+30E4_U+30FC 1
 62
     7
420
 16777215
370
     9
100
AcDbVertex
100
AcDb2dVertex
 10
104.1697012312984
 20
-155.8333744054864
 30
0.0
  0
SEQEND
  5
81
330
7E
100
AcDbEntity
  8
_U+30EC_U+30A4_U+30E4_U+30FC 1
 62
     7
420
 16777215
370
     9
  0
POLYLINE
  5
82
330
1F
100
AcDbEntity
  8
_U+30EC_U+30A4_U+30E4_U+30FC 1
 62
     7
420
 16777215
370
     9
100
AcDb2dPolyline
 66
     1
 10
0.0
 20
0.0
 30
0.0
  0
VERTEX
  5
83
330
82
100
AcDbEntity
  8
_U+30EC_U+30A4_U+30E4_U+30FC 1
 62
     7
420
 16777215
370
     9
100
AcDbVertex
100
AcDb2dVertex
 10
102.7096598796583
 20
-154.3333985725276
 30
0.0
  0
VERTEX
  5
84
330
82
100
AcDbEntity
  8
_U+30EC_U+30A4_U+30E4_U+30FC 1
 62
     7
420
 16777215
370
     9
100
AcDbVertex
100
AcDb2dVertex
 10
105.1694734280143
 20
-154.3333985725276
 30
0.0
  0
SEQEND
  5
85
330
82
100
AcDbEntity
  8
_U+30EC_U+30A4_U+30E4_U+30FC 1
 62
     7
420
 16777215
370
     9
  0
POLYLINE
  5
86
330
1F
100
AcDbEntity
  8
_U+30EC_U+30A4_U+30E4_U+30FC 1
 62
     7
420
 16777215
370
     9
100
AcDb2dPolyline
 66
     1
 10
0.0
 20
0.0
 30
0.0
  0
VERTEX
  5
87
330
86
100
AcDbEntity
  8
_U+30EC_U+30A4_U+30E4_U+30FC 1
 62
     7
420
 16777215
370
     9
100
AcDbVertex
100
AcDb2dVertex
 10
102.7096598796583
 20
-154.8332846835136
 30
0.0
  0
VERTEX
  5
88
330
86
100
AcDbEntity
  8
_U+30EC_U+30A4_U+30E4_U+30FC 1
 62
     7
420
 16777215
370
     9
100
AcDbVertex
100
AcDb2dVertex
 10
105.1694734280143
 20
-154.8332846835136
 30
0.0
  0
SEQEND
  5
89
330
86
100
AcDbEntity
  8
_U+30EC_U+30A4_U+30E4_U+30FC 1
 62
     7
420
 16777215
370
     9
  0
POLYLINE
  5
8A
330
1F
100
AcDbEntity
  8
_U+30EC_U+30A4_U+30E4_U+30FC 1
 62
     7
420
 16777215
370
     9
100
AcDb2dPolyline
 66
     1
 10
0.0
 20
0.0
 30
0.0
  0
VERTEX
  5
8B
330
8A
100
AcDbEntity
  8
_U+30EC_U+30A4_U+30E4_U+30FC 1
 62
     7
420
 16777215
370
     9
100
AcDbVertex
100
AcDb2dVertex
 10
119.1641322376475
 20
-143.3335405197221
 30
0.0
  0
VERTEX
  5
8C
330
8A
100
AcDbEntity
  8
_U+30EC_U+30A4_U+30E4_U+30FC 1
 62
     7
420
 16777215
370
     9
100
AcDbVertex
100
AcDb2dVertex
 10
119.1641322376475
 20
-139.5632280206647
 30
0.0
  0
SEQEND
  5
8D
330
8A
100
AcDbEntity
  8
_U+30EC_U+30A4_U+30E4_U+30FC 1
 62
     7
420
 16777215
370
     9
  0
POLYLINE
  5
8E
330
1F
100
AcDbEntity
  8
_U+30EC_U+30A4_U+30E4_U+30FC 1
 62
     7
420
 16777215
370
     9
100
AcDb2dPolyline
 66
     1
 10
0.0
 20
0.0
 30
0.0
  0
VERTEX
  5
8F
330
8E
100
AcDbEntity
  8
_U+30EC_U+30A4_U+30E4_U+30FC 1
 62
     7
420
 16777215
370
     9
100
AcDbVertex
100
AcDb2dVertex
 10
119.1641322376475
 20
-143.3335405197221
 30
0.0
  0
VERTEX
  5
90
330
8E
100
AcDbEntity
  8
_U+30EC_U+30A4_U+30E4_U+30FC 1
 62
     7
420
 16777215
370
     9
100
AcDbVertex
100
AcDb2dVertex
 10
119.1641322376475
 20
-144.3333127416943
 30
0.0
  0
SEQEND
  5
91
330
8E
100
AcDbEntity
  8
_U+30EC_U+30A4_U+30E4_U+30FC 1
 62
     7
420
 16777215
370
     9
  0
POLYLINE
  5
92
330
1F
100
AcDbEntity
  8
_U+30EC_U+30A4_U+30E4_U+30FC 1
 62
     7
420
 16777215
370
     9
100
AcDb2dPolyline
 66
     1
 10
0.0
 20
0.0
 30
0.0
  0
VERTEX
  5
93
330
92
100
AcDbEntity
  8
_U+30EC_U+30A4_U+30E4_U+30FC 1
 62
     7
420
 16777215
370
     9
100
AcDbVertex
100
AcDb2dVertex
 10
117.7040908860074
 20
-143.3335405197221
 30
0.0
  0
VERTEX
  5
94
330
92
100
AcDbEntity
  8
_U+30EC_U+30A4_U+30E4_U+30FC 1
 62
     7
420
 16777215
370
     9
100
AcDbVertex
100
AcDb2dVertex
 10
120.1639044343634
 20
-143.3335405197221
 30
0.0
  0
SEQEND
  5
95
330
92
100
AcDbEntity
  8
_U+30EC_U+30A4_U+30E4_U+30FC 1
 62
     7
420
 16777215
370
     9
  0
POLYLINE
  5
96
330
1F
100
AcDbEntity
  8
_U+30EC_U+30A4_U+30E4_U+30FC 1
 62
     7
420
 16777215
370
     9
100
AcDb2dPolyline
 66
     1
 10
0.0
 20
0.0
 30
0.0
  0
VERTEX
  5
97
330
96
100
AcDbEntity
  8
_U+30EC_U+30A4_U+30E4_U+30FC 1
 62
     7
420
 16777215
370
     9
100
AcDbVertex
100
AcDb2dVertex
 10
117.7040908860074
 20
-144.3333127416943
 30
0.0
  0
VERTEX
  5
98
330
96
100
AcDbEntity
  8
_U+30EC_U+30A4_U+30E4_U+30FC 1
 62
     7
420
 16777215
370
     9
100
AcDbVertex
100
AcDb2dVertex
 10
120.1639044343634
 20
-144.3333127416943
 30
0.0
  0
SEQEND
  5
99
330
96
100
AcDbEntity
  8
_U+30EC_U+30A4_U+30E4_U+30FC 1
 62
     7
420
 16777215
370
     9
  0
INSERT
  5
9B
330
1F
100
AcDbEntity
  8
_U+30EC_U+30A4_U+30E4_U+30FC 1
100
AcDbBlockReference
  2
block 4
 10
0.0
 20
0.0
 30
0.0
  0
POLYLINE
  5
A0
330
1F
100
AcDbEntity
  8
_U+30EC_U+30A4_U+30E4_U+30FC 1
 62
     7
420
 16777215
370
     9
100
AcDb2dPolyline
 66
     1
 10
0.0
 20
0.0
 30
0.0
  0
VERTEX
  5
A1
330
A0
100
AcDbEntity
  8
_U+30EC_U+30A4_U+30E4_U+30FC 1
 62
     7
420
 16777215
370
     9
100
AcDbVertex
100
AcDb2dVertex
 10
119.1641322376475
 20
-144.3333127416943
 30
0.0
  0
VERTEX
  5
A2
330
A0
100
AcDbEntity
  8
_U+30EC_U+30A4_U+30E4_U+30FC 1
 62
     7
420
 16777215
370
     9
100
AcDbVertex
100
AcDb2dVertex
 10
119.1641322376475
 20
-154.3333985725276
 30
0.0
  0
SEQEND
  5
A3
330
A0
100
AcDbEntity
  8
_U+30EC_U+30A4_U+30E4_U+30FC 1
 62
     7
420
 16777215
370
     9
  0
POLYLINE
  5
A4
330
1F
100
AcDbEntity
  8
_U+30EC_U+30A4_U+30E4_U+30FC 1
 62
     7
420
 16777215
370
     9
100
AcDb2dPolyline
 66
     1
 10
0.0
 20
0.0
 30
0.0
  0
VERTEX
  5
A5
330
A4
100
AcDbEntity
  8
_U+30EC_U+30A4_U+30E4_U+30FC 1
 62
     7
420
 16777215
370
     9
100
AcDbVertex
100
AcDb2dVertex
 10
117.7040908860074
 20
-144.3333127416943
 30
0.0
  0
VERTEX
  5
A6
330
A4
100
AcDbEntity
  8
_U+30EC_U+30A4_U+30E4_U+30FC 1
 62
     7
420
 16777215
370
     9
100
AcDbVertex
100
AcDb2dVertex
 10
120.1639044343634
 20
-144.3333127416943
 30
0.0
  0
SEQEND
  5
A7
330
A4
100
AcDbEntity
  8
_U+30EC_U+30A4_U+30E4_U+30FC 1
 62
     7
420
 16777215
370
     9
  0
POLYLINE
  5
A8
330
1F
100
AcDbEntity
  8
_U+30EC_U+30A4_U+30E4_U+30FC 1
 62
     7
420
 16777215
370
     9
100
AcDb2dPolyline
 66
     1
 10
0.0
 20
0.0
 30
0.0
  0
VERTEX
  5
A9
330
A8
100
AcDbEntity
  8
_U+30EC_U+30A4_U+30E4_U+30FC 1
 62
     7
420
 16777215
370
     9
100
AcDbVertex
100
AcDb2dVertex
 10
102.7096598796583
 20
-154.3333985725276
 30
0.0
  0
VERTEX
  5
AA
330
A8
100
AcDbEntity
  8
_U+30EC_U+30A4_U+30E4_U+30FC 1
 62
     7
420
 16777215
370
     9
100
AcDbVertex
100
AcDb2dVertex
 10
120.1639044343634
 20
-154.3333985725276
 30
0.0
  0
SEQEND
  5
AB
330
A8
100
AcDbEntity
  8
_U+30EC_U+30A4_U+30E4_U+30FC 1
 62
     7
420
 16777215
370
     9
  0
INSERT
  5
AD
330
1F
100
AcDbEntity
  8
_U+30EC_U+30A4_U+30E4_U+30FC 1
100
AcDbBlockReference
  2
block 5
 10
0.0
 20
0.0
 30
0.0
  0
POLYLINE
  5
B5
330
1F
100
AcDbEntity
  8
_U+30EC_U+30A4_U+30E4_U+30FC 1
 62
     7
420
 16777215
370
     9
100
AcDb2dPolyline
 66
     1
 10
0.0
 20
0.0
 30
0.0
  0
VERTEX
  5
B6
330
B5
100
AcDbEntity
  8
_U+30EC_U+30A4_U+30E4_U+30FC 1
 62
     7
420
 16777215
370
     9
100
AcDbVertex
100
AcDb2dVertex
 10
104.1697012312984
 20
-154.3333985725276
 30
0.0
  0
VERTEX
  5
B7
330
B5
100
AcDbEntity
  8
_U+30EC_U+30A4_U+30E4_U+30FC 1
 62
     7
420
 16777215
370
     9
100
AcDbVertex
100
AcDb2dVertex
 10
104.1697012312984
 20
-149.8723471847538
 30
0.0
  0
SEQEND
  5
B8
330
B5
100
AcDbEntity
  8
_U+30EC_U+30A4_U+30E4_U+30FC 1
 62
     7
420
 16777215
370
     9
  0
INSERT
  5
BA
330
1F
100
AcDbEntity
  8
_U+30EC_U+30A4_U+30E4_U+30FC 1
100
AcDbBlockReference
  2
block 6
 10
0.0
 20
0.0
 30
0.0
  0
ENDSEC
  0
SECTION
  2
OBJECTS
  0
DICTIONARY
  5
C
330
0
100
AcDbDictionary
281
     1
  3
ACAD_GROUP
350
D
  3
ACAD_LAYOUT
350
1A
  3
ACAD_MATERIAL
350
3B
  3
ACAD_MLEADERSTYLE
350
CB
  3
ACAD_MLINESTYLE
350
17
  3
ACAD_PLOTSETTINGS
350
19
  3
ACAD_PLOTSTYLENAME
350
E
  3
ACAD_TABLESTYLE
350
CA
  3
ACAD_VISUALSTYLE
350
2A
  0
SUN
  5
3F
330
29
100
AcDbSun
 90
        1
290
     0
 63
     7
421
 16777215
 40
1.0
291
     1
 91
  2455826
 92
 54000000
292
     0
 70
     2
 71
   256
280
     1
  0
DICTIONARY
  5
D
102
{ACAD_REACTORS
330
C
102
}
330
C
100
AcDbDictionary
281
     1
  0
DICTIONARY
  5
1A
102
{ACAD_REACTORS
330
C
102
}
330
C
100
AcDbDictionary
281
     1
  3
Layout1
350
1E
  3
Layout2
350
26
  3
Model
350
22
  0
DICTIONARY
  5
3B
102
{ACAD_REACTORS
330
C
102
}
330
C
100
AcDbDictionary
281
     1
  3
ByBlock
350
3D
  3
ByLayer
350
3C
  3
Global
350
3E
  0
DICTIONARY
  5
CB
102
{ACAD_REACTORS
330
C
102
}
330
C
100
AcDbDictionary
281
     1
  0
DICTIONARY
  5
17
102
{ACAD_REACTORS
330
C
102
}
330
C
100
AcDbDictionary
281
     1
  3
Standard
350
18
  0
DICTIONARY
  5
19
102
{ACAD_REACTORS
330
C
102
}
330
C
100
AcDbDictionary
281
     1
  0
ACDBDICTIONARYWDFLT
  5
E
102
{ACAD_REACTORS
330
C
102
}
330
C
100
AcDbDictionary
281
     1
  3
Normal
350
F
100
AcDbDictionaryWithDefault
340
F
  0
DICTIONARY
  5
CA
102
{ACAD_REACTORS
330
C
102
}
330
C
100
AcDbDictionary
281
     1
  0
DICTIONARY
  5
2A
102
{ACAD_REACTORS
330
C
102
}
330
C
100
AcDbDictionary
281
     1
  3
2dWireframe
350
2F
  3
3D Hidden
350
31
  3
3dWireframe
350
30
  3
Basic
350
32
  3
Brighten
350
36
  3
ColorChange
350
3A
  3
Conceptual
350
34
  3
Dim
350
35
  3
Facepattern
350
39
  3
Flat
350
2B
  3
FlatWithEdges
350
2C
  3
Gouraud
350
2D
  3
GouraudWithEdges
350
2E
  3
Linepattern
350
38
  3
Realistic
350
33
  3
Thicken
350
37
  0
LAYOUT
  5
1E
102
{ACAD_REACTORS
330
1A
102
}
330
1A
100
AcDbPlotSettings
  1

  2
none_device
  4

  6

 40
0.0
 41
0.0
 42
0.0
 43
0.0
 44
0.0
 45
0.0
 46
0.0
 47
0.0
 48
0.0
 49
0.0
140
0.0
141
0.0
142
1.0
143
1.0
 70
   688
 72
     0
 73
     0
 74
     5
  7

 75
    16
 76
     0
 77
     2
 78
   300
147
1.0
148
0.0
149
0.0
100
AcDbLayout
  1
Layout1
 70
     1
 71
     1
 10
0.0
 20
0.0
 11
12.0
 21
9.0
 12
0.0
 22
0.0
 32
0.0
 14
1.000000000000000E+20
 24
1.000000000000000E+20
 34
1.000000000000000E+20
 15
-1.000000000000000E+20
 25
-1.000000000000000E+20
 35
-1.000000000000000E+20
146
0.0
 13
0.0
 23
0.0
 33
0.0
 16
1.0
 26
0.0
 36
0.0
 17
0.0
 27
1.0
 37
0.0
 76
     0
330
1B
  0
LAYOUT
  5
26
102
{ACAD_REACTORS
330
1A
102
}
330
1A
100
AcDbPlotSettings
  1

  2
none_device
  4

  6

 40
0.0
 41
0.0
 42
0.0
 43
0.0
 44
0.0
 45
0.0
 46
0.0
 47
0.0
 48
0.0
 49
0.0
140
0.0
141
0.0
142
1.0
143
1.0
 70
   688
 72
     0
 73
     0
 74
     5
  7

 75
    16
 76
     0
 77
     2
 78
   300
147
1.0
148
0.0
149
0.0
100
AcDbLayout
  1
Layout2
 70
     1
 71
     2
 10
0.0
 20
0.0
 11
0.0
 21
0.0
 12
0.0
 22
0.0
 32
0.0
 14
0.0
 24
0.0
 34
0.0
 15
0.0
 25
0.0
 35
0.0
146
0.0
 13
0.0
 23
0.0
 33
0.0
 16
1.0
 26
0.0
 36
0.0
 17
0.0
 27
1.0
 37
0.0
 76
     0
330
23
  0
LAYOUT
  5
22
102
{ACAD_REACTORS
330
1A
102
}
330
1A
100
AcDbPlotSettings
  1

  2
none_device
  4

  6

 40
0.0
 41
0.0
 42
0.0
 43
0.0
 44
0.0
 45
0.0
 46
0.0
 47
0.0
 48
0.0
 49
0.0
140
0.0
141
0.0
142
1.0
143
1.0
 70
  1712
 72
     0
 73
     0
 74
     0
  7

 75
     0
 76
     0
 77
     2
 78
   300
147
1.0
148
0.0
149
0.0
100
AcDbLayout
  1
Model
 70
     1
 71
     0
 10
0.0
 20
0.0
 11
12.0
 21
9.0
 12
0.0
 22
0.0
 32
0.0
 14
1.000000000000000E+20
 24
1.000000000000000E+20
 34
1.000000000000000E+20
 15
-1.000000000000000E+20
 25
-1.000000000000000E+20
 35
-1.000000000000000E+20
146
0.0
 13
0.0
 23
0.0
 33
0.0
 16
1.0
 26
0.0
 36
0.0
 17
0.0
 27
1.0
 37
0.0
 76
     0
330
1F
331
29
  0
MATERIAL
  5
3D
102
{ACAD_REACTORS
330
3B
102
}
330
3B
100
AcDbMaterial
  1
ByBlock
 72
     1
 94
      127
  0
MATERIAL
  5
3C
102
{ACAD_REACTORS
330
3B
102
}
330
3B
100
AcDbMaterial
  1
ByLayer
 72
     1
 94
      127
  0
MATERIAL
  5
3E
102
{ACAD_REACTORS
330
3B
102
}
330
3B
100
AcDbMaterial
  1
Global
 72
     1
 94
      127
  0
MLINESTYLE
  5
18
102
{ACAD_REACTORS
330
17
102
}
330
17
100
AcDbMlineStyle
  2
Standard
 70
     0
  3

 62
   256
 51
90.0
 52
90.0
 71
     2
 49
0.5
 62
   256
  6
BYLAYER
 49
-0.5
 62
   256
  6
BYLAYER
  0
ACDBPLACEHOLDER
  5
F
102
{ACAD_REACTORS
330
E
102
}
330
E
  0
VISUALSTYLE
  5
2F
102
{ACAD_REACTORS
330
2A
102
}
330
2A
100
AcDbVisualStyle
  2
2dWireframe
 70
     4
177
     2
291
     0
 71
     0
176
     1
 72
     2
176
     1
 73
     0
176
     1
 90
        0
176
     1
 40
-0.6
176
     1
 41
-30.0
176
     1
 62
     5
 63
     7
421
 16777215
176
     1
 74
     1
176
     1
 91
        4
176
     1
 64
     7
176
     1
 65
   257
176
     1
 75
     1
176
     1
175
     1
176
     1
 42
1.0
176
     1
 92
        0
176
     1
 66
   257
176
     1
 43
1.0
176
     1
 76
     1
176
     1
 77
     6
176
     1
 78
     2
176
     1
 67
     7
176
     1
 79
     5
176
     1
170
     0
176
     1
171
     0
176
     1
290
     0
176
     1
 93
        1
176
     1
 44
0.0
176
     1
173
     0
176
     1
  0
VISUALSTYLE
  5
31
102
{ACAD_REACTORS
330
2A
102
}
330
2A
100
AcDbVisualStyle
  2
3D Hidden
 70
     6
177
     2
291
     0
 71
     1
176
     1
 72
     2
176
     1
 73
     2
176
     1
 90
        0
176
     1
 40
-0.6
176
     1
 41
-30.0
176
     1
 62
     5
 63
     7
421
 16777215
176
     1
 74
     2
176
     1
 91
        2
176
     1
 64
     7
176
     1
 65
   257
176
     1
 75
     2
176
     1
175
     1
176
     1
 42
40.0
176
     1
 92
        0
176
     1
 66
   257
176
     1
 43
1.0
176
     1
 76
     1
176
     1
 77
     6
176
     1
 78
     2
176
     1
 67
     7
176
     1
 79
     3
176
     1
170
     0
176
     1
171
     0
176
     1
290
     0
176
     1
 93
        1
176
     1
 44
0.0
176
     1
173
     0
176
     1
  0
VISUALSTYLE
  5
30
102
{ACAD_REACTORS
330
2A
102
}
330
2A
100
AcDbVisualStyle
  2
3dWireframe
 70
     5
177
     2
291
     0
 71
     0
176
     1
 72
     2
176
     1
 73
     0
176
     1
 90
        0
176
     1
 40
-0.6
176
     1
 41
-30.0
176
     1
 62
     5
 63
     7
421
 16777215
176
     1
 74
     1
176
     1
 91
        4
176
     1
 64
     7
176
     1
 65
   257
176
     1
 75
     1
176
     1
175
     1
176
     1
 42
1.0
176
     1
 92
        0
176
     1
 66
   257
176
     1
 43
1.0
176
     1
 76
     1
176
     1
 77
     6
176
     1
 78
     2
176
     1
 67
     7
176
     1
 79
     5
176
     1
170
     0
176
     1
171
     0
176
     1
290
     0
176
     1
 93
        1
176
     1
 44
0.0
176
     1
173
     0
176
     1
  0
VISUALSTYLE
  5
32
102
{ACAD_REACTORS
330
2A
102
}
330
2A
100
AcDbVisualStyle
  2
Basic
 70
     7
177
     2
291
     1
 71
     1
176
     1
 72
     0
176
     1
 73
     1
176
     1
 90
        0
176
     1
 40
-0.6
176
     1
 41
-30.0
176
     1
 62
     5
 63
     7
421
 16777215
176
     1
 74
     0
176
     1
 91
        4
176
     1
 64
     7
176
     1
 65
   257
176
     1
 75
     1
176
     1
175
     1
176
     1
 42
1.0
176
     1
 92
        8
176
     1
 66
     7
176
     1
 43
1.0
176
     1
 76
     1
176
     1
 77
     6
176
     1
 78
     2
176
     1
 67
     7
176
     1
 79
     5
176
     1
170
     0
176
     1
171
     0
176
     1
290
     0
176
     1
 93
        1
176
     1
 44
0.0
176
     1
173
     0
176
     1
  0
VISUALSTYLE
  5
36
102
{ACAD_REACTORS
330
2A
102
}
330
2A
100
AcDbVisualStyle
  2
Brighten
 70
    12
177
     2
291
     1
 71
     2
176
     1
 72
     2
176
     1
 73
     0
176
     1
 90
        0
176
     1
 40
-0.6
176
     1
 41
-30.0
176
     1
 62
     5
 63
     7
421
 16777215
176
     1
 74
     1
176
     1
 91
        4
176
     1
 64
     7
176
     1
 65
   257
176
     1
 75
     1
176
     1
175
     1
176
     1
 42
1.0
176
     1
 92
        8
176
     1
 66
     7
176
     1
 43
1.0
176
     1
 76
     1
176
     1
 77
     6
176
     1
 78
     2
176
     1
 67
     7
176
     1
 79
     5
176
     1
170
     0
176
     1
171
     0
176
     1
290
     0
176
     1
 93
        1
176
     1
 44
50.0
176
     1
173
     0
176
     1
  0
VISUALSTYLE
  5
3A
102
{ACAD_REACTORS
330
2A
102
}
330
2A
100
AcDbVisualStyle
  2
ColorChange
 70
    16
177
     2
291
     1
 71
     2
176
     1
 72
     2
176
     1
 73
     3
176
     1
 90
        0
176
     1
 40
-0.6
176
     1
 41
-30.0
176
     1
 62
     5
 63
     8
421
  8421504
176
     1
 74
     1
176
     1
 91
        4
176
     1
 64
     7
176
     1
 65
   257
176
     1
 75
     1
176
     1
175
     1
176
     1
 42
1.0
176
     1
 92
        8
176
     1
 66
     8
424
  8421504
176
     1
 43
1.0
176
     1
 76
     1
176
     1
 77
     6
176
     1
 78
     2
176
     1
 67
     7
176
     1
 79
     5
176
     1
170
     0
176
     1
171
     0
176
     1
290
     0
176
     1
 93
        1
176
     1
 44
0.0
176
     1
173
     0
176
     1
  0
VISUALSTYLE
  5
34
102
{ACAD_REACTORS
330
2A
102
}
330
2A
100
AcDbVisualStyle
  2
Conceptual
 70
     9
177
     2
291
     0
 71
     3
176
     1
 72
     2
176
     1
 73
     0
176
     1
 90
        0
176
     1
 40
-0.6
176
     1
 41
-30.0
176
     1
 62
     5
 63
     7
421
 16777215
176
     1
 74
     2
176
     1
 91
        2
176
     1
 64
     7
176
     1
 65
   257
176
     1
 75
     1
176
     1
175
     1
176
     1
 42
40.0
176
     1
 92
        8
176
     1
 66
     7
176
     1
 43
1.0
176
     1
 76
     1
176
     1
 77
     6
176
     1
 78
     2
176
     1
 67
     7
176
     1
 79
     3
176
     1
170
     0
176
     1
171
     0
176
     1
290
     0
176
     1
 93
        1
176
     1
 44
0.0
176
     1
173
     0
176
     1
  0
VISUALSTYLE
  5
35
102
{ACAD_REACTORS
330
2A
102
}
330
2A
100
AcDbVisualStyle
  2
Dim
 70
    11
177
     2
291
     1
 71
     2
176
     1
 72
     2
176
     1
 73
     0
176
     1
 90
        0
176
     1
 40
-0.6
176
     1
 41
-30.0
176
     1
 62
     5
 63
     7
421
 16777215
176
     1
 74
     1
176
     1
 91
        4
176
     1
 64
     7
176
     1
 65
   257
176
     1
 75
     1
176
     1
175
     1
176
     1
 42
1.0
176
     1
 92
        8
176
     1
 66
     7
176
     1
 43
1.0
176
     1
 76
     1
176
     1
 77
     6
176
     1
 78
     2
176
     1
 67
     7
176
     1
 79
     5
176
     1
170
     0
176
     1
171
     0
176
     1
290
     0
176
     1
 93
        1
176
     1
 44
-50.0
176
     1
173
     0
176
     1
  0
VISUALSTYLE
  5
39
102
{ACAD_REACTORS
330
2A
102
}
330
2A
100
AcDbVisualStyle
  2
Facepattern
 70
    15
177
     2
291
     1
 71
     2
176
     1
 72
     2
176
     1
 73
     0
176
     1
 90
        0
176
     1
 40
-0.6
176
     1
 41
-30.0
176
     1
 62
     5
 63
     7
421
 16777215
176
     1
 74
     1
176
     1
 91
        4
176
     1
 64
     7
176
     1
 65
   257
176
     1
 75
     1
176
     1
175
     1
176
     1
 42
1.0
176
     1
 92
        8
176
     1
 66
     7
176
     1
 43
1.0
176
     1
 76
     1
176
     1
 77
     6
176
     1
 78
     2
176
     1
 67
     7
176
     1
 79
     5
176
     1
170
     0
176
     1
171
     0
176
     1
290
     0
176
     1
 93
        1
176
     1
 44
0.0
176
     1
173
     0
176
     1
  0
VISUALSTYLE
  5
2B
102
{ACAD_REACTORS
330
2A
102
}
330
2A
100
AcDbVisualStyle
  2
Flat
 70
     0
177
     2
291
     1
 71
     2
176
     1
 72
     1
176
     1
 73
     1
176
     1
 90
        2
176
     1
 40
-0.6
176
     1
 41
30.0
176
     1
 62
     5
 63
     7
421
 16777215
176
     1
 74
     0
176
     1
 91
        4
176
     1
 64
     7
176
     1
 65
   257
176
     1
 75
     1
176
     1
175
     1
176
     1
 42
1.0
176
     1
 92
        8
176
     1
 66
     7
176
     1
 43
1.0
176
     1
 76
     1
176
     1
 77
     6
176
     1
 78
     2
176
     1
 67
     7
176
     1
 79
     5
176
     1
170
     0
176
     1
171
     0
176
     1
290
     0
176
     1
 93
       13
176
     1
 44
0.0
176
     1
173
     0
176
     1
  0
VISUALSTYLE
  5
2C
102
{ACAD_REACTORS
330
2A
102
}
330
2A
100
AcDbVisualStyle
  2
FlatWithEdges
 70
     1
177
     2
291
     1
 71
     2
176
     1
 72
     1
176
     1
 73
     1
176
     1
 90
        2
176
     1
 40
-0.6
176
     1
 41
30.0
176
     1
 62
     5
 63
     7
421
 16777215
176
     1
 74
     1
176
     1
 91
        4
176
     1
 64
     7
176
     1
 65
   257
176
     1
 75
     1
176
     1
175
     1
176
     1
 42
1.0
176
     1
 92
        0
176
     1
 66
   257
176
     1
 43
1.0
176
     1
 76
     1
176
     1
 77
     6
176
     1
 78
     2
176
     1
 67
     7
176
     1
 79
     5
176
     1
170
     0
176
     1
171
     0
176
     1
290
     0
176
     1
 93
       13
176
     1
 44
0.0
176
     1
173
     0
176
     1
  0
VISUALSTYLE
  5
2D
102
{ACAD_REACTORS
330
2A
102
}
330
2A
100
AcDbVisualStyle
  2
Gouraud
 70
     2
177
     2
291
     1
 71
     2
176
     1
 72
     2
176
     1
 73
     1
176
     1
 90
        2
176
     1
 40
-0.6
176
     1
 41
30.0
176
     1
 62
     5
 63
     7
421
 16777215
176
     1
 74
     0
176
     1
 91
        4
176
     1
 64
     7
176
     1
 65
   257
176
     1
 75
     1
176
     1
175
     1
176
     1
 42
1.0
176
     1
 92
        0
176
     1
 66
     7
176
     1
 43
1.0
176
     1
 76
     1
176
     1
 77
     6
176
     1
 78
     2
176
     1
 67
     7
176
     1
 79
     5
176
     1
170
     0
176
     1
171
     0
176
     1
290
     0
176
     1
 93
       13
176
     1
 44
0.0
176
     1
173
     0
176
     1
  0
VISUALSTYLE
  5
2E
102
{ACAD_REACTORS
330
2A
102
}
330
2A
100
AcDbVisualStyle
  2
GouraudWithEdges
 70
     3
177
     2
291
     1
 71
     2
176
     1
 72
     2
176
     1
 73
     1
176
     1
 90
        2
176
     1
 40
-0.6
176
     1
 41
30.0
176
     1
 62
     5
 63
     7
421
 16777215
176
     1
 74
     1
176
     1
 91
        4
176
     1
 64
     7
176
     1
 65
   257
176
     1
 75
     1
176
     1
175
     1
176
     1
 42
1.0
176
     1
 92
        0
176
     1
 66
   257
176
     1
 43
1.0
176
     1
 76
     1
176
     1
 77
     6
176
     1
 78
     2
176
     1
 67
     7
176
     1
 79
     5
176
     1
170
     0
176
     1
171
     0
176
     1
290
     0
176
     1
 93
       13
176
     1
 44
0.0
176
     1
173
     0
176
     1
  0
VISUALSTYLE
  5
38
102
{ACAD_REACTORS
330
2A
102
}
330
2A
100
AcDbVisualStyle
  2
Linepattern
 70
    14
177
     2
291
     1
 71
     2
176
     1
 72
     2
176
     1
 73
     0
176
     1
 90
        0
176
     1
 40
-0.6
176
     1
 41
-30.0
176
     1
 62
     5
 63
     7
421
 16777215
176
     1
 74
     1
176
     1
 91
        4
176
     1
 64
     7
176
     1
 65
   257
176
     1
 75
     7
176
     1
175
     7
176
     1
 42
1.0
176
     1
 92
        8
176
     1
 66
     7
176
     1
 43
1.0
176
     1
 76
     1
176
     1
 77
     6
176
     1
 78
     2
176
     1
 67
     7
176
     1
 79
     5
176
     1
170
     0
176
     1
171
     0
176
     1
290
     0
176
     1
 93
        1
176
     1
 44
0.0
176
     1
173
     0
176
     1
  0
VISUALSTYLE
  5
33
102
{ACAD_REACTORS
330
2A
102
}
330
2A
100
AcDbVisualStyle
  2
Realistic
 70
     8
177
     2
291
     0
 71
     2
176
     1
 72
     2
176
     1
 73
     0
176
     1
 90
        0
176
     1
 40
-0.6
176
     1
 41
-30.0
176
     1
 62
     5
 63
     7
421
 16777215
176
     1
 74
     1
176
     1
 91
        0
176
     1
 64
     7
176
     1
 65
   257
176
     1
 75
     1
176
     1
175
     1
176
     1
 42
1.0
176
     1
 92
        8
176
     1
 66
     8
424
  7895160
176
     1
 43
1.0
176
     1
 76
     1
176
     1
 77
     6
176
     1
 78
     2
176
     1
 67
     7
176
     1
 79
     5
176
     1
170
     0
176
     1
171
     0
176
     1
290
     0
176
     1
 93
       13
176
     1
 44
0.0
176
     1
173
     0
176
     1
  0
VISUALSTYLE
  5
37
102
{ACAD_REACTORS
330
2A
102
}
330
2A
100
AcDbVisualStyle
  2
Thicken
 70
    13
177
     2
291
     1
 71
     2
176
     1
 72
     2
176
     1
 73
     0
176
     1
 90
        0
176
     1
 40
-0.6
176
     1
 41
-30.0
176
     1
 62
     5
 63
     7
421
 16777215
176
     1
 74
     1
176
     1
 91
        4
176
     1
 64
     7
176
     1
 65
   257
176
     1
 75
     1
176
     1
175
     1
176
     1
 42
1.0
176
     1
 92
       12
176
     1
 66
     7
176
     1
 43
1.0
176
     1
 76
     1
176
     1
 77
     6
176
     1
 78
     2
176
     1
 67
     7
176
     1
 79
     5
176
     1
170
     0
176
     1
171
     0
176
     1
290
     0
176
     1
 93
        1
176
     1
 44
0.0
176
     1
173
     0
176
     1
  0
ENDSEC
  0
EOF
