  0
SECTION
  2
HEADER
  9
$ACADVER
  1
AC1024
  9
$ACADMAINTVER
 70
     6
  9
$DWGCODEPAGE
  3
UNDEFINED
  9
$INSBASE
 10
0.0
 20
0.0
 30
0.0
  9
$EXTMIN
 10
1.000000000000000E+20
 20
1.000000000000000E+20
 30
1.000000000000000E+20
  9
$EXTMAX
 10
-1.000000000000000E+20
 20
-1.000000000000000E+20
 30
-1.000000000000000E+20
  9
$LIMMIN
 10
0.0
 20
0.0
  9
$LIMMAX
 10
12.0
 20
9.0
  9
$ORTHOMODE
 70
     0
  9
$REGENMODE
 70
     1
  9
$FILLMODE
 70
     1
  9
$QTEXTMODE
 70
     0
  9
$MIRRTEXT
 70
     1
  9
$LTSCALE
 40
1.0
  9
$ATTMODE
 70
     1
  9
$TEXTSIZE
 40
0.2
  9
$TRACEWID
 40
0.05
  9
$TEXTSTYLE
  7
Standard
  9
$CLAYER
  8
0
  9
$CELTYPE
  6
ByLayer
  9
$CECOLOR
 62
   256
  9
$CELTSCALE
 40
1.0
  9
$DISPSILH
 70
     0
  9
$DIMSCALE
 40
1.0
  9
$DIMASZ
 40
0.18
  9
$DIMEXO
 40
0.0625
  9
$DIMDLI
 40
0.38
  9
$DIMRND
 40
0.0
  9
$DIMDLE
 40
0.0
  9
$DIMEXE
 40
0.18
  9
$DIMTP
 40
0.0
  9
$DIMTM
 40
0.0
  9
$DIMTXT
 40
0.18
  9
$DIMCEN
 40
0.09
  9
$DIMTSZ
 40
0.0
  9
$DIMTOL
 70
     0
  9
$DIMLIM
 70
     0
  9
$DIMTIH
 70
     1
  9
$DIMTOH
 70
     1
  9
$DIMSE1
 70
     0
  9
$DIMSE2
 70
     0
  9
$DIMTAD
 70
     0
  9
$DIMZIN
 70
     0
  9
$DIMBLK
  1

  9
$DIMASO
 70
     1
  9
$DIMSHO
 70
     1
  9
$DIMPOST
  1

  9
$DIMAPOST
  1

  9
$DIMALT
 70
     0
  9
$DIMALTD
 70
     2
  9
$DIMALTF
 40
25.4
  9
$DIMLFAC
 40
1.0
  9
$DIMTOFL
 70
     0
  9
$DIMTVP
 40
0.0
  9
$DIMTIX
 70
     0
  9
$DIMSOXD
 70
     0
  9
$DIMSAH
 70
     0
  9
$DIMBLK1
  1

  9
$DIMBLK2
  1

  9
$DIMSTYLE
  2
Standard
  9
$DIMCLRD
 70
     0
  9
$DIMCLRE
 70
     0
  9
$DIMCLRT
 70
     0
  9
$DIMTFAC
 40
1.0
  9
$DIMGAP
 40
0.09
  9
$DIMJUST
 70
     0
  9
$DIMSD1
 70
     0
  9
$DIMSD2
 70
     0
  9
$DIMTOLJ
 70
     1
  9
$DIMTZIN
 70
     0
  9
$DIMALTZ
 70
     0
  9
$DIMALTTZ
 70
     0
  9
$DIMUPT
 70
     0
  9
$DIMDEC
 70
     4
  9
$DIMTDEC
 70
     4
  9
$DIMALTU
 70
     2
  9
$DIMALTTD
 70
     2
  9
$DIMTXSTY
  7
Standard
  9
$DIMAUNIT
 70
     0
  9
$DIMADEC
 70
     0
  9
$DIMALTRND
 40
0.0
  9
$DIMAZIN
 70
     0
  9
$DIMDSEP
 70
    46
  9
$DIMATFIT
 70
     3
  9
$DIMFRAC
 70
     0
  9
$DIMLDRBLK
  1

  9
$DIMLUNIT
 70
     2
  9
$DIMLWD
 70
    -2
  9
$DIMLWE
 70
    -2
  9
$DIMTMOVE
 70
     0
  9
$DIMFXL
 40
1.0
  9
$DIMFXLON
 70
     0
  9
$DIMJOGANG
 40
0.7853981633974483
  9
$DIMTFILL
 70
     0
  9
$DIMTFILLCLR
 70
     0
  9
$DIMARCSYM
 70
     0
  9
$DIMLTYPE
  6

  9
$DIMLTEX1
  6

  9
$DIMLTEX2
  6

  9
$DIMTXTDIRECTION
 70
     0
  9
$LUNITS
 70
     2
  9
$LUPREC
 70
     4
  9
$SKETCHINC
 40
0.1
  9
$FILLETRAD
 40
0.5
  9
$AUNITS
 70
     0
  9
$AUPREC
 70
     0
  9
$MENU
  1
.
  9
$ELEVATION
 40
0.0
  9
$PELEVATION
 40
0.0
  9
$THICKNESS
 40
0.0
  9
$LIMCHECK
 70
     0
  9
$CHAMFERA
 40
0.5
  9
$CHAMFERB
 40
0.5
  9
$CHAMFERC
 40
1.0
  9
$CHAMFERD
 40
0.0
  9
$SKPOLY
 70
     0
  9
$TDCREATE
 40
2457917.588217593
  9
$TDUCREATE
 40
2457917.213217593
  9
$TDUPDATE
 40
2457917.588217593
  9
$TDUUPDATE
 40
2457917.213217593
  9
$TDINDWG
 40
0.0000000116
  9
$TDUSRTIMER
 40
0.0000000116
  9
$USRTIMER
 70
     1
  9
$ANGBASE
 50
0.0
  9
$ANGDIR
 70
     0
  9
$PDMODE
 70
     0
  9
$PDSIZE
 40
0.0
  9
$PLINEWID
 40
0.0
  9
$SPLFRAME
 70
     0
  9
$SPLINETYPE
 70
     6
  9
$SPLINESEGS
 70
     8
  9
$HANDSEED
  5
DE
  9
$SURFTAB1
 70
     6
  9
$SURFTAB2
 70
     6
  9
$SURFTYPE
 70
     6
  9
$SURFU
 70
     6
  9
$SURFV
 70
     6
  9
$UCSBASE
  2

  9
$UCSNAME
  2

  9
$UCSORG
 10
0.0
 20
0.0
 30
0.0
  9
$UCSXDIR
 10
1.0
 20
0.0
 30
0.0
  9
$UCSYDIR
 10
0.0
 20
1.0
 30
0.0
  9
$UCSORTHOREF
  2

  9
$UCSORTHOVIEW
 70
     0
  9
$UCSORGTOP
 10
0.0
 20
0.0
 30
0.0
  9
$UCSORGBOTTOM
 10
0.0
 20
0.0
 30
0.0
  9
$UCSORGLEFT
 10
0.0
 20
0.0
 30
0.0
  9
$UCSORGRIGHT
 10
0.0
 20
0.0
 30
0.0
  9
$UCSORGFRONT
 10
0.0
 20
0.0
 30
0.0
  9
$UCSORGBACK
 10
0.0
 20
0.0
 30
0.0
  9
$PUCSBASE
  2

  9
$PUCSNAME
  2

  9
$PUCSORG
 10
0.0
 20
0.0
 30
0.0
  9
$PUCSXDIR
 10
1.0
 20
0.0
 30
0.0
  9
$PUCSYDIR
 10
0.0
 20
1.0
 30
0.0
  9
$PUCSORTHOREF
  2

  9
$PUCSORTHOVIEW
 70
     0
  9
$PUCSORGTOP
 10
0.0
 20
0.0
 30
0.0
  9
$PUCSORGBOTTOM
 10
0.0
 20
0.0
 30
0.0
  9
$PUCSORGLEFT
 10
0.0
 20
0.0
 30
0.0
  9
$PUCSORGRIGHT
 10
0.0
 20
0.0
 30
0.0
  9
$PUCSORGFRONT
 10
0.0
 20
0.0
 30
0.0
  9
$PUCSORGBACK
 10
0.0
 20
0.0
 30
0.0
  9
$USERI1
 70
     0
  9
$USERI2
 70
     0
  9
$USERI3
 70
     0
  9
$USERI4
 70
     0
  9
$USERI5
 70
     0
  9
$USERR1
 40
0.0
  9
$USERR2
 40
0.0
  9
$USERR3
 40
0.0
  9
$USERR4
 40
0.0
  9
$USERR5
 40
0.0
  9
$WORLDVIEW
 70
     1
  9
$SHADEDGE
 70
     3
  9
$SHADEDIF
 70
    70
  9
$TILEMODE
 70
     1
  9
$MAXACTVP
 70
    64
  9
$PINSBASE
 10
0.0
 20
0.0
 30
0.0
  9
$PLIMCHECK
 70
     0
  9
$PEXTMIN
 10
1.000000000000000E+20
 20
1.000000000000000E+20
 30
1.000000000000000E+20
  9
$PEXTMAX
 10
-1.000000000000000E+20
 20
-1.000000000000000E+20
 30
-1.000000000000000E+20
  9
$PLIMMIN
 10
0.0
 20
0.0
  9
$PLIMMAX
 10
12.0
 20
9.0
  9
$UNITMODE
 70
     0
  9
$VISRETAIN
 70
     1
  9
$PLINEGEN
 70
     0
  9
$PSLTSCALE
 70
     1
  9
$TREEDEPTH
 70
  3020
  9
$CMLSTYLE
  2
Standard
  9
$CMLJUST
 70
     0
  9
$CMLSCALE
 40
1.0
  9
$PROXYGRAPHICS
 70
     1
  9
$MEASUREMENT
 70
     0
  9
$CELWEIGHT
370
    -1
  9
$ENDCAPS
280
     0
  9
$JOINSTYLE
280
     0
  9
$LWDISPLAY
290
     1
  9
$INSUNITS
 70
     1
  9
$HYPERLINKBASE
  1

  9
$STYLESHEET
  1

  9
$XEDIT
290
     1
  9
$CEPSNTYPE
380
     0
  9
$PSTYLEMODE
290
     1
  9
$FINGERPRINTGUID
  2
{5B084184-8DDA-194A-9308-DDA8F3B759AE}
  9
$VERSIONGUID
  2
{FAEB1C32-E019-11D5-929B-00C0DF256EC4}
  9
$EXTNAMES
290
     1
  9
$PSVPSCALE
 40
0.0
  9
$OLESTARTUP
290
     0
  9
$SORTENTS
280
   127
  9
$INDEXCTL
280
     0
  9
$HIDETEXT
280
     1
  9
$XCLIPFRAME
280
     2
  9
$HALOGAP
280
     0
  9
$OBSCOLOR
 70
   257
  9
$OBSLTYPE
280
     0
  9
$INTERSECTIONDISPLAY
280
     0
  9
$INTERSECTIONCOLOR
 70
   257
  9
$DIMASSOC
280
     2
  9
$PROJECTNAME
  1

  9
$CAMERADISPLAY
290
     0
  9
$LENSLENGTH
 40
50.0
  9
$CAMERAHEIGHT
 40
0.0
  9
$STEPSPERSEC
 40
2.0
  9
$STEPSIZE
 40
6.0
  9
$3DDWFPREC
 40
2.0
  9
$PSOLWIDTH
 40
0.25
  9
$PSOLHEIGHT
 40
4.0
  9
$LOFTANG1
 40
1.570796326794897
  9
$LOFTANG2
 40
1.570796326794897
  9
$LOFTMAG1
 40
0.0
  9
$LOFTMAG2
 40
0.0
  9
$LOFTPARAM
 70
     7
  9
$LOFTNORMALS
280
     1
  9
$LATITUDE
 40
37.795
  9
$LONGITUDE
 40
-122.394
  9
$NORTHDIRECTION
 40
0.0
  9
$TIMEZONE
 70
 -8000
  9
$LIGHTGLYPHDISPLAY
280
     1
  9
$TILEMODELIGHTSYNCH
280
     1
  9
$CMATERIAL
347
3C
  9
$SOLIDHIST
280
     1
  9
$SHOWHIST
280
     1
  9
$DWFFRAME
280
     2
  9
$DGNFRAME
280
     2
  9
$REALWORLDSCALE
290
     1
  9
$INTERFERECOLOR
 62
   256
  9
$CSHADOW
280
     0
  9
$SHADOWPLANELOCATION
 40
0.0
  0
ENDSEC
  0
SECTION
  2
CLASSES
  0
CLASS
  1
ACDBDICTIONARYWDFLT
  2
AcDbDictionaryWithDefault
  3
ObjectDBX Classes
 90
        0
 91
        4
280
     0
281
     0
  0
CLASS
  1
VISUALSTYLE
  2
AcDbVisualStyle
  3
ObjectDBX Classes
 90
     4095
 91
        4
280
     0
281
     0
  0
CLASS
  1
MATERIAL
  2
AcDbMaterial
  3
ObjectDBX Classes
 90
     1153
 91
        4
280
     0
281
     0
  0
CLASS
  1
SUN
  2
AcDbSun
  3
SCENEOE
 90
     1024
 91
        4
280
     0
281
     0
  0
ENDSEC
  0
SECTION
  2
TABLES
  0
TABLE
  2
VPORT
  5
8
330
0
100
AcDbSymbolTable
 70
     1
  0
VPORT
  5
29
330
8
100
AcDbSymbolTableRecord
100
AcDbViewportTableRecord
  2
*Active
 70
     0
 10
0.0
 20
0.0
 11
1.0
 21
1.0
 12
0.0
 22
0.0
 13
0.0
 23
0.0
 14
0.5
 24
0.5
 15
0.5
 25
0.5
 16
0.0
 26
0.0
 36
1.0
 17
105.0008280156501
 27
-148.4999710739862
 37
0.0
 40
296.9999421479724
 41
0.7070764206636528
 42
50.0
 43
0.0
 44
0.0
 50
0.0
 51
0.0
 71
     0
 72
   100
 73
     1
 74
     3
 75
     0
 76
     0
 77
     0
 78
     0
281
     0
 65
     1
110
0.0
120
0.0
130
0.0
111
1.0
121
0.0
131
0.0
112
0.0
122
1.0
132
0.0
 79
     0
146
0.0
 60
     3
 61
     5
292
     1
282
     1
141
0.0
142
0.0
 63
   250
361
3F
  0
ENDTAB
  0
TABLE
  2
LTYPE
  5
5
330
0
100
AcDbSymbolTable
 70
     1
  0
LTYPE
  5
14
330
5
100
AcDbSymbolTableRecord
100
AcDbLinetypeTableRecord
  2
ByBlock
 70
     0
  3

 72
    65
 73
     0
 40
0.0
  0
LTYPE
  5
15
330
5
100
AcDbSymbolTableRecord
100
AcDbLinetypeTableRecord
  2
ByLayer
 70
     0
  3

 72
    65
 73
     0
 40
0.0
  0
LTYPE
  5
16
330
5
100
AcDbSymbolTableRecord
100
AcDbLinetypeTableRecord
  2
Continuous
 70
     0
  3
Solid line
 72
    65
 73
     0
 40
0.0
  0
ENDTAB
  0
TABLE
  2
LAYER
  5
2
330
0
100
AcDbSymbolTable
 70
     2
  0
LAYER
  5
10
330
2
100
AcDbSymbolTableRecord
100
AcDbLayerTableRecord
  2
0
 70
     0
 62
     7
  6
Continuous
370
    -3
390
F
347
3E
  0
LAYER
  5
40
330
2
100
AcDbSymbolTableRecord
100
AcDbLayerTableRecord
  2
_U+30EC_U+30A4_U+30E4_U+30FC 1
 70
     0
 62
     7
  6
Continuous
370
    -3
390
F
347
3E
  0
ENDTAB
  0
TABLE
  2
STYLE
  5
3
330
0
100
AcDbSymbolTable
 70
     1
  0
STYLE
  5
11
330
3
100
AcDbSymbolTableRecord
100
AcDbTextStyleTableRecord
  2
Standard
 70
     0
 40
0.0
 41
1.0
 50
0.0
 71
     0
 42
0.2
  3
txt
  4

  0
ENDTAB
  0
TABLE
  2
VIEW
  5
6
330
0
100
AcDbSymbolTable
 70
     0
  0
ENDTAB
  0
TABLE
  2
UCS
  5
7
330
0
100
AcDbSymbolTable
 70
     0
  0
ENDTAB
  0
TABLE
  2
APPID
  5
9
330
0
100
AcDbSymbolTable
 70
     1
  0
APPID
  5
12
330
9
100
AcDbSymbolTableRecord
100
AcDbRegAppTableRecord
  2
ACAD
 70
     0
  0
ENDTAB
  0
TABLE
  2
DIMSTYLE
  5
A
330
0
100
AcDbSymbolTable
 70
     1
100
AcDbDimStyleTable
  0
DIMSTYLE
105
27
330
A
100
AcDbSymbolTableRecord
100
AcDbDimStyleTableRecord
  2
Standard
 70
     0
178
     0
340
11
  0
ENDTAB
  0
TABLE
  2
BLOCK_RECORD
  5
1
330
0
100
AcDbSymbolTable
 70
     6
  0
BLOCK_RECORD
  5
1F
330
1
100
AcDbSymbolTableRecord
100
AcDbBlockTableRecord
  2
*Model_Space
340
22
 70
     0
280
     1
281
     0
  0
BLOCK_RECORD
  5
1B
330
1
100
AcDbSymbolTableRecord
100
AcDbBlockTableRecord
  2
*Paper_Space
340
1E
 70
     0
280
     1
281
     0
  0
BLOCK_RECORD
  5
23
330
1
100
AcDbSymbolTableRecord
100
AcDbBlockTableRecord
  2
*Paper_Space0
340
26
 70
     0
280
     1
281
     0
  0
BLOCK_RECORD
  5
76
330
1
100
AcDbSymbolTableRecord
100
AcDbBlockTableRecord
  2
block 2
340
0
102
{BLKREFS
331
77
102
}
 70
     0
280
     1
281
     0
  0
BLOCK_RECORD
  5
8A
330
1
100
AcDbSymbolTableRecord
100
AcDbBlockTableRecord
  2
block 3
340
0
102
{BLKREFS
331
8B
102
}
 70
     0
280
     1
281
     0
  0
BLOCK_RECORD
  5
AF
330
1
100
AcDbSymbolTableRecord
100
AcDbBlockTableRecord
  2
block 4
340
0
102
{BLKREFS
331
B0
102
}
 70
     0
280
     1
281
     0
  0
BLOCK_RECORD
  5
C1
330
1
100
AcDbSymbolTableRecord
100
AcDbBlockTableRecord
  2
block 5
340
0
102
{BLKREFS
331
C2
102
}
 70
     0
280
     1
281
     0
  0
BLOCK_RECORD
  5
CB
330
1
100
AcDbSymbolTableRecord
100
AcDbBlockTableRecord
  2
block 6
340
0
102
{BLKREFS
331
CC
102
}
 70
     0
280
     1
281
     0
  0
ENDTAB
  0
ENDSEC
  0
SECTION
  2
BLOCKS
  0
BLOCK
  5
20
330
1F
100
AcDbEntity
  8
0
100
AcDbBlockBegin
  2
*Model_Space
 70
     0
 10
0.0
 20
0.0
 30
0.0
  3
*Model_Space
  1

  0
ENDBLK
  5
21
330
1F
100
AcDbEntity
  8
0
100
AcDbBlockEnd
  0
BLOCK
  5
1C
330
1B
100
AcDbEntity
 67
     1
  8
0
100
AcDbBlockBegin
  2
*Paper_Space
 70
     0
 10
0.0
 20
0.0
 30
0.0
  3
*Paper_Space
  1

  0
ENDBLK
  5
1D
330
1B
100
AcDbEntity
 67
     1
  8
0
100
AcDbBlockEnd
  0
BLOCK
  5
24
330
23
100
AcDbEntity
  8
0
100
AcDbBlockBegin
  2
*Paper_Space0
 70
     0
 10
0.0
 20
0.0
 30
0.0
  3
*Paper_Space0
  1

  0
ENDBLK
  5
25
330
23
100
AcDbEntity
  8
0
100
AcDbBlockEnd
  0
BLOCK
  5
78
330
76
100
AcDbEntity
  8
0
100
AcDbBlockBegin
  2
block 2
 70
     0
 10
0.0
 20
0.0
 30
0.0
  3
block 2
  1

  0
SPLINE
  5
7A
330
76
100
AcDbEntity
  8
_U+30EC_U+30A4_U+30E4_U+30FC 1
370
     0
100
AcDbSpline
210
0.0
220
0.0
230
1.0
 70
    11
 71
     3
 72
    44
 73
    40
 74
     0
 42
0.0000000001
 43
0.0000000001
 12
1.0
 22
0.0
 32
0.0
 13
1.0
 23
0.0
 33
0.0
 40
0.0
 40
0.0
 40
0.0
 40
0.0
 40
1.0
 40
1.0
 40
1.0
 40
2.0
 40
2.0
 40
2.0
 40
3.0
 40
3.0
 40
3.0
 40
4.0
 40
4.0
 40
4.0
 40
5.0
 40
5.0
 40
5.0
 40
6.0
 40
6.0
 40
6.0
 40
7.0
 40
7.0
 40
7.0
 40
8.0
 40
8.0
 40
8.0
 40
9.0
 40
9.0
 40
9.0
 40
10.0
 40
10.0
 40
10.0
 40
11.0
 40
11.0
 40
11.0
 40
12.0
 40
12.0
 40
12.0
 40
13.0
 40
13.0
 40
13.0
 40
13.0
 10
102.0557861072986
 20
-139.6631374433828
 30
0.0
 10
101.8380560726308
 20
-139.8219563452529
 30
0.0
 10
101.745038494529
 20
-139.8960258981857
 30
0.0
 10
101.6961181386385
 20
-140.0396863799207
 30
0.0
 10
101.6961181386385
 20
-140.0396863799207
 30
0.0
 10
102.4747097183049
 20
-140.0396863799207
 30
0.0
 10
102.4747097183049
 20
-140.0396863799207
 30
0.0
 10
102.4747097183049
 20
-140.0396863799207
 30
0.0
 10
102.4747097183049
 20
-140.2450140708415
 30
0.0
 10
102.4747097183049
 20
-140.2450140708415
 30
0.0
 10
102.4747097183049
 20
-140.2450140708415
 30
0.0
 10
101.4466932255064
 20
-140.2450140708415
 30
0.0
 10
101.4466932255064
 20
-140.2450140708415
 30
0.0
 10
101.4783881039707
 20
-139.8874131594726
 30
0.0
 10
101.5438449181904
 20
-139.8092094919574
 30
0.0
 10
101.9290065934414
 20
-139.5108642229348
 30
0.0
 10
102.1849771879954
 20
-139.3120822134359
 30
0.0
 10
102.2504340022152
 20
-139.2442138323765
 30
0.0
 10
102.2504340022152
 20
-139.106754522515
 30
0.0
 10
102.2504340022152
 20
-138.9882432378224
 30
0.0
 10
102.1784315065734
 20
-138.8573296093829
 30
0.0
 10
101.9817165543657
 20
-138.8573296093829
 30
0.0
 10
101.7216118452293
 20
-138.8573296093829
 30
0.0
 10
101.7133436160647
 20
-139.0878064973461
 30
0.0
 10
101.7088649919339
 20
-139.2042507247476
 30
0.0
 10
101.7088649919339
 20
-139.2042507247476
 30
0.0
 10
101.4845892758441
 20
-139.2042507247476
 30
0.0
 10
101.4845892758441
 20
-139.2042507247476
 30
0.0
 10
101.4932020145573
 20
-139.0771267013418
 30
0.0
 10
101.5038818105615
 20
-138.9651610980712
 30
0.0
 10
101.5841525353678
 20
-138.8466498133786
 30
0.0
 10
101.6940510813473
 20
-138.6857638542174
 30
0.0
 10
101.8804307470993
 20
-138.652001918462
 30
0.0
 10
101.9965304649523
 20
-138.652001918462
 30
0.0
 10
102.2738606515149
 20
-138.652001918462
 30
0.0
 10
102.4812553997269
 20
-138.8359700173743
 30
0.0
 10
102.4812553997269
 20
-139.1088215798061
 30
0.0
 10
102.4812553997269
 20
-139.3375759200267
 30
0.0
 10
102.3648111723255
 20
-139.4367946700019
 30
0.0
 10
102.0557861072986
 20
-139.6631374433828
 30
0.0
  0
HATCH
  5
7B
330
76
100
AcDbEntity
  8
_U+30EC_U+30A4_U+30E4_U+30FC 1
 62
     7
420
 16777215
100
AcDbHatch
 10
0.0
 20
0.0
 30
0.0
210
0.0
220
0.0
230
1.0
  2
SOLID
 70
     1
 71
     0
 91
        1
 92
        1
 93
        1
 72
     4
 94
        3
 73
     0
 74
     1
 95
       44
 96
       40
 40
0.0
 40
0.0
 40
0.0
 40
0.0
 40
1.0
 40
1.0
 40
1.0
 40
2.0
 40
2.0
 40
2.0
 40
3.0
 40
3.0
 40
3.0
 40
4.0
 40
4.0
 40
4.0
 40
5.0
 40
5.0
 40
5.0
 40
6.0
 40
6.0
 40
6.0
 40
7.0
 40
7.0
 40
7.0
 40
8.0
 40
8.0
 40
8.0
 40
9.0
 40
9.0
 40
9.0
 40
10.0
 40
10.0
 40
10.0
 40
11.0
 40
11.0
 40
11.0
 40
12.0
 40
12.0
 40
12.0
 40
13.0
 40
13.0
 40
13.0
 40
13.0
 10
102.0557861072986
 20
-139.6631374433828
 10
101.8380560726308
 20
-139.8219563452529
 10
101.745038494529
 20
-139.8960258981857
 10
101.6961181386385
 20
-140.0396863799207
 10
101.6961181386385
 20
-140.0396863799207
 10
102.4747097183049
 20
-140.0396863799207
 10
102.4747097183049
 20
-140.0396863799207
 10
102.4747097183049
 20
-140.0396863799207
 10
102.4747097183049
 20
-140.2450140708415
 10
102.4747097183049
 20
-140.2450140708415
 10
102.4747097183049
 20
-140.2450140708415
 10
101.4466932255064
 20
-140.2450140708415
 10
101.4466932255064
 20
-140.2450140708415
 10
101.4783881039707
 20
-139.8874131594726
 10
101.5438449181904
 20
-139.8092094919574
 10
101.9290065934414
 20
-139.5108642229348
 10
102.1849771879954
 20
-139.3120822134359
 10
102.2504340022152
 20
-139.2442138323765
 10
102.2504340022152
 20
-139.106754522515
 10
102.2504340022152
 20
-138.9882432378224
 10
102.1784315065734
 20
-138.8573296093829
 10
101.9817165543657
 20
-138.8573296093829
 10
101.7216118452293
 20
-138.8573296093829
 10
101.7133436160647
 20
-139.0878064973461
 10
101.7088649919339
 20
-139.2042507247476
 10
101.7088649919339
 20
-139.2042507247476
 10
101.4845892758441
 20
-139.2042507247476
 10
101.4845892758441
 20
-139.2042507247476
 10
101.4932020145573
 20
-139.0771267013418
 10
101.5038818105615
 20
-138.9651610980712
 10
101.5841525353678
 20
-138.8466498133786
 10
101.6940510813473
 20
-138.6857638542174
 10
101.8804307470993
 20
-138.652001918462
 10
101.9965304649523
 20
-138.652001918462
 10
102.2738606515149
 20
-138.652001918462
 10
102.4812553997269
 20
-138.8359700173743
 10
102.4812553997269
 20
-139.1088215798061
 10
102.4812553997269
 20
-139.3375759200267
 10
102.3648111723255
 20
-139.4367946700019
 10
102.0557861072986
 20
-139.6631374433828
 97
        0
 97
        0
 75
     2
 76
     1
 98
        0
  0
SPLINE
  5
7C
330
76
100
AcDbEntity
  8
_U+30EC_U+30A4_U+30E4_U+30FC 1
370
     0
100
AcDbSpline
210
0.0
220
0.0
230
1.0
 70
    11
 71
     3
 72
    53
 73
    49
 74
     0
 42
0.0000000001
 43
0.0000000001
 12
1.0
 22
0.0
 32
0.0
 13
1.0
 23
0.0
 33
0.0
 40
0.0
 40
0.0
 40
0.0
 40
0.0
 40
1.0
 40
1.0
 40
1.0
 40
2.0
 40
2.0
 40
2.0
 40
3.0
 40
3.0
 40
3.0
 40
4.0
 40
4.0
 40
4.0
 40
5.0
 40
5.0
 40
5.0
 40
6.0
 40
6.0
 40
6.0
 40
7.0
 40
7.0
 40
7.0
 40
8.0
 40
8.0
 40
8.0
 40
9.0
 40
9.0
 40
9.0
 40
10.0
 40
10.0
 40
10.0
 40
11.0
 40
11.0
 40
11.0
 40
12.0
 40
12.0
 40
12.0
 40
13.0
 40
13.0
 40
13.0
 40
14.0
 40
14.0
 40
14.0
 40
15.0
 40
15.0
 40
15.0
 40
16.0
 40
16.0
 40
16.0
 40
16.0
 10
103.1206651217893
 20
-140.2956569744747
 30
0.0
 10
103.0424614542741
 20
-140.2956569744747
 30
0.0
 10
102.9408311374592
 20
-140.278776006597
 30
0.0
 10
102.8392008206444
 20
-140.2153862496684
 30
0.0
 10
102.6659125177363
 20
-140.1054877036889
 30
0.0
 10
102.6445529257278
 20
-139.9742295657009
 30
0.0
 10
102.6256049005589
 20
-139.8663980770126
 30
0.0
 10
102.6256049005589
 20
-139.8663980770126
 30
0.0
 10
102.8478135593575
 20
-139.8663980770126
 30
0.0
 10
102.8478135593575
 20
-139.8663980770126
 30
0.0
 10
102.902590577573
 20
-140.0651800865115
 30
0.0
 10
103.0297146009787
 20
-140.0948079076846
 30
0.0
 10
103.1227321790804
 20
-140.0948079076846
 30
0.0
 10
103.2622585462331
 20
-140.0948079076846
 30
0.0
 10
103.4145317666811
 20
-139.9952446481609
 30
0.0
 10
103.4145317666811
 20
-139.7627007029066
 30
0.0
 10
103.4145317666811
 20
-139.5067301083525
 30
0.0
 10
103.234697782351
 20
-139.4367946700019
 30
0.0
 10
103.1141194403673
 20
-139.4367946700019
 30
0.0
 10
103.082424561903
 20
-139.4367946700019
 30
0.0
 10
102.9408311374592
 20
-139.4367946700019
 30
0.0
 10
102.8519476739398
 20
-139.5659857506988
 30
0.0
 10
102.8519476739398
 20
-139.5659857506988
 30
0.0
 10
102.6762478041921
 20
-139.5470377255299
 30
0.0
 10
102.6762478041921
 20
-139.5470377255299
 30
0.0
 10
102.6762478041921
 20
-139.5470377255299
 30
0.0
 10
102.7968261461758
 20
-138.700577764804
 30
0.0
 10
102.7968261461758
 20
-138.700577764804
 30
0.0
 10
102.7968261461758
 20
-138.700577764804
 30
0.0
 10
103.5754177258423
 20
-138.700577764804
 30
0.0
 10
103.5754177258423
 20
-138.700577764804
 30
0.0
 10
103.5754177258423
 20
-138.700577764804
 30
0.0
 10
103.5754177258423
 20
-138.8952256597206
 30
0.0
 10
103.5754177258423
 20
-138.8952256597206
 30
0.0
 10
103.5754177258423
 20
-138.8952256597206
 30
0.0
 10
102.9597791626281
 20
-138.8952256597206
 30
0.0
 10
102.9597791626281
 20
-138.8952256597206
 30
0.0
 10
102.9597791626281
 20
-138.8952256597206
 30
0.0
 10
102.8943223484084
 20
-139.3182833853093
 30
0.0
 10
102.8943223484084
 20
-139.3182833853093
 30
0.0
 10
102.9556450480458
 20
-139.2845214495539
 30
0.0
 10
103.0379828301433
 20
-139.2442138323765
 30
0.0
 10
103.1564941148359
 20
-139.2442138323765
 30
0.0
 10
103.4103976520988
 20
-139.2442138323765
 30
0.0
 10
103.647420221484
 20
-139.4305934981285
 30
0.0
 10
103.647420221484
 20
-139.7437526777377
 30
0.0
 10
103.647420221484
 20
-140.0610459719292
 30
0.0
 10
103.4231445053942
 20
-140.2956569744747
 30
0.0
 10
103.1206651217893
 20
-140.2956569744747
 30
0.0
  0
HATCH
  5
7D
330
76
100
AcDbEntity
  8
_U+30EC_U+30A4_U+30E4_U+30FC 1
 62
     7
420
 16777215
100
AcDbHatch
 10
0.0
 20
0.0
 30
0.0
210
0.0
220
0.0
230
1.0
  2
SOLID
 70
     1
 71
     0
 91
        1
 92
        1
 93
        1
 72
     4
 94
        3
 73
     0
 74
     1
 95
       53
 96
       49
 40
0.0
 40
0.0
 40
0.0
 40
0.0
 40
1.0
 40
1.0
 40
1.0
 40
2.0
 40
2.0
 40
2.0
 40
3.0
 40
3.0
 40
3.0
 40
4.0
 40
4.0
 40
4.0
 40
5.0
 40
5.0
 40
5.0
 40
6.0
 40
6.0
 40
6.0
 40
7.0
 40
7.0
 40
7.0
 40
8.0
 40
8.0
 40
8.0
 40
9.0
 40
9.0
 40
9.0
 40
10.0
 40
10.0
 40
10.0
 40
11.0
 40
11.0
 40
11.0
 40
12.0
 40
12.0
 40
12.0
 40
13.0
 40
13.0
 40
13.0
 40
14.0
 40
14.0
 40
14.0
 40
15.0
 40
15.0
 40
15.0
 40
16.0
 40
16.0
 40
16.0
 40
16.0
 10
103.1206651217893
 20
-140.2956569744747
 10
103.0424614542741
 20
-140.2956569744747
 10
102.9408311374592
 20
-140.278776006597
 10
102.8392008206444
 20
-140.2153862496684
 10
102.6659125177363
 20
-140.1054877036889
 10
102.6445529257278
 20
-139.9742295657009
 10
102.6256049005589
 20
-139.8663980770126
 10
102.6256049005589
 20
-139.8663980770126
 10
102.8478135593575
 20
-139.8663980770126
 10
102.8478135593575
 20
-139.8663980770126
 10
102.902590577573
 20
-140.0651800865115
 10
103.0297146009787
 20
-140.0948079076846
 10
103.1227321790804
 20
-140.0948079076846
 10
103.2622585462331
 20
-140.0948079076846
 10
103.4145317666811
 20
-139.9952446481609
 10
103.4145317666811
 20
-139.7627007029066
 10
103.4145317666811
 20
-139.5067301083525
 10
103.234697782351
 20
-139.4367946700019
 10
103.1141194403673
 20
-139.4367946700019
 10
103.082424561903
 20
-139.4367946700019
 10
102.9408311374592
 20
-139.4367946700019
 10
102.8519476739398
 20
-139.5659857506988
 10
102.8519476739398
 20
-139.5659857506988
 10
102.6762478041921
 20
-139.5470377255299
 10
102.6762478041921
 20
-139.5470377255299
 10
102.6762478041921
 20
-139.5470377255299
 10
102.7968261461758
 20
-138.700577764804
 10
102.7968261461758
 20
-138.700577764804
 10
102.7968261461758
 20
-138.700577764804
 10
103.5754177258423
 20
-138.700577764804
 10
103.5754177258423
 20
-138.700577764804
 10
103.5754177258423
 20
-138.700577764804
 10
103.5754177258423
 20
-138.8952256597206
 10
103.5754177258423
 20
-138.8952256597206
 10
103.5754177258423
 20
-138.8952256597206
 10
102.9597791626281
 20
-138.8952256597206
 10
102.9597791626281
 20
-138.8952256597206
 10
102.9597791626281
 20
-138.8952256597206
 10
102.8943223484084
 20
-139.3182833853093
 10
102.8943223484084
 20
-139.3182833853093
 10
102.9556450480458
 20
-139.2845214495539
 10
103.0379828301433
 20
-139.2442138323765
 10
103.1564941148359
 20
-139.2442138323765
 10
103.4103976520988
 20
-139.2442138323765
 10
103.647420221484
 20
-139.4305934981285
 10
103.647420221484
 20
-139.7437526777377
 10
103.647420221484
 20
-140.0610459719292
 10
103.4231445053942
 20
-140.2956569744747
 10
103.1206651217893
 20
-140.2956569744747
 97
        0
 97
        0
 75
     2
 76
     1
 98
        0
  0
ENDBLK
  5
79
330
76
100
AcDbEntity
  8
0
100
AcDbBlockEnd
  0
BLOCK
  5
8C
330
8A
100
AcDbEntity
  8
0
100
AcDbBlockBegin
  2
block 3
 70
     0
 10
0.0
 20
0.0
 30
0.0
  3
block 3
  1

  0
SPLINE
  5
8E
330
8A
100
AcDbEntity
  8
_U+30EC_U+30A4_U+30E4_U+30FC 1
370
     0
100
AcDbSpline
210
0.0
220
0.0
230
1.0
 70
    11
 71
     3
 72
    26
 73
    22
 74
     0
 42
0.0000000001
 43
0.0000000001
 12
1.0
 22
0.0
 32
0.0
 13
1.0
 23
0.0
 33
0.0
 40
0.0
 40
0.0
 40
0.0
 40
0.0
 40
1.0
 40
1.0
 40
1.0
 40
2.0
 40
2.0
 40
2.0
 40
3.0
 40
3.0
 40
3.0
 40
4.0
 40
4.0
 40
4.0
 40
5.0
 40
5.0
 40
5.0
 40
6.0
 40
6.0
 40
6.0
 40
7.0
 40
7.0
 40
7.0
 40
7.0
 10
94.41714814262835
 20
-157.226578736735
 30
0.0
 10
94.41714814262835
 20
-157.226578736735
 30
0.0
 10
94.41714814262835
 20
-156.1224256337125
 30
0.0
 10
94.41714814262835
 20
-156.1224256337125
 30
0.0
 10
94.41714814262835
 20
-156.1224256337125
 30
0.0
 10
94.08710799514142
 20
-156.1224256337125
 30
0.0
 10
94.08710799514142
 20
-156.1224256337125
 30
0.0
 10
94.08710799514142
 20
-156.1224256337125
 30
0.0
 10
94.08710799514142
 20
-155.9742865278467
 30
0.0
 10
94.08710799514142
 20
-155.9742865278467
 30
0.0
 10
94.4192151999195
 20
-155.9594726172601
 30
0.0
 10
94.46572398897038
 20
-155.7965196008078
 30
0.0
 10
94.49535181014353
 20
-155.6821424306975
 30
0.0
 10
94.49535181014353
 20
-155.6821424306975
 30
0.0
 10
94.64125160394386
 20
-155.6821424306975
 30
0.0
 10
94.64125160394386
 20
-155.6821424306975
 30
0.0
 10
94.64125160394386
 20
-155.6821424306975
 30
0.0
 10
94.64125160394386
 20
-157.226578736735
 30
0.0
 10
94.64125160394386
 20
-157.226578736735
 30
0.0
 10
94.64125160394386
 20
-157.226578736735
 30
0.0
 10
94.41714814262835
 20
-157.226578736735
 30
0.0
 10
94.41714814262835
 20
-157.226578736735
 30
0.0
  0
HATCH
  5
8F
330
8A
100
AcDbEntity
  8
_U+30EC_U+30A4_U+30E4_U+30FC 1
 62
     7
420
 16777215
100
AcDbHatch
 10
0.0
 20
0.0
 30
0.0
210
0.0
220
0.0
230
1.0
  2
SOLID
 70
     1
 71
     0
 91
        1
 92
        1
 93
        1
 72
     4
 94
        3
 73
     0
 74
     1
 95
       26
 96
       22
 40
0.0
 40
0.0
 40
0.0
 40
0.0
 40
1.0
 40
1.0
 40
1.0
 40
2.0
 40
2.0
 40
2.0
 40
3.0
 40
3.0
 40
3.0
 40
4.0
 40
4.0
 40
4.0
 40
5.0
 40
5.0
 40
5.0
 40
6.0
 40
6.0
 40
6.0
 40
7.0
 40
7.0
 40
7.0
 40
7.0
 10
94.41714814262835
 20
-157.226578736735
 10
94.41714814262835
 20
-157.226578736735
 10
94.41714814262835
 20
-156.1224256337125
 10
94.41714814262835
 20
-156.1224256337125
 10
94.41714814262835
 20
-156.1224256337125
 10
94.08710799514142
 20
-156.1224256337125
 10
94.08710799514142
 20
-156.1224256337125
 10
94.08710799514142
 20
-156.1224256337125
 10
94.08710799514142
 20
-155.9742865278467
 10
94.08710799514142
 20
-155.9742865278467
 10
94.4192151999195
 20
-155.9594726172601
 10
94.46572398897038
 20
-155.7965196008078
 10
94.49535181014353
 20
-155.6821424306975
 10
94.49535181014353
 20
-155.6821424306975
 10
94.64125160394386
 20
-155.6821424306975
 10
94.64125160394386
 20
-155.6821424306975
 10
94.64125160394386
 20
-155.6821424306975
 10
94.64125160394386
 20
-157.226578736735
 10
94.64125160394386
 20
-157.226578736735
 10
94.64125160394386
 20
-157.226578736735
 10
94.41714814262835
 20
-157.226578736735
 10
94.41714814262835
 20
-157.226578736735
 97
        0
 97
        0
 75
     2
 76
     1
 98
        0
  0
SPLINE
  5
90
330
8A
100
AcDbEntity
  8
_U+30EC_U+30A4_U+30E4_U+30FC 1
370
     0
100
AcDbSpline
210
0.0
220
0.0
230
1.0
 70
    11
 71
     3
 72
    29
 73
    25
 74
     0
 42
0.0000000001
 43
0.0000000001
 12
1.0
 22
0.0
 32
0.0
 13
1.0
 23
0.0
 33
0.0
 40
0.0
 40
0.0
 40
0.0
 40
0.0
 40
1.0
 40
1.0
 40
1.0
 40
2.0
 40
2.0
 40
2.0
 40
3.0
 40
3.0
 40
3.0
 40
4.0
 40
4.0
 40
4.0
 40
5.0
 40
5.0
 40
5.0
 40
6.0
 40
6.0
 40
6.0
 40
7.0
 40
7.0
 40
7.0
 40
8.0
 40
8.0
 40
8.0
 40
8.0
 10
96.04030488050381
 20
-157.0488118096961
 30
0.0
 10
95.93247339181549
 20
-157.2582736151993
 30
0.0
 10
95.75901283413317
 20
-157.2772216403682
 30
0.0
 10
95.64256860673173
 20
-157.2772216403682
 30
0.0
 10
95.48185490234482
 20
-157.2772216403682
 30
0.0
 10
95.34008922312678
 20
-157.2307128513173
 30
0.0
 10
95.24483233295963
 20
-157.0488118096961
 30
0.0
 10
95.14130721362787
 20
-156.8541639147795
 30
0.0
 10
95.12218693368473
 20
-156.6174858549429
 30
0.0
 10
95.12218693368473
 20
-156.4545328384905
 30
0.0
 10
95.12218693368473
 20
-156.3105278472071
 30
0.0
 10
95.13906790156246
 20
-156.0586913672353
 30
0.0
 10
95.24483233295963
 20
-155.8599093577364
 30
0.0
 10
95.35283607642221
 20
-155.6569932336552
 30
0.0
 10
95.51354978080911
 20
-155.6335665843555
 30
0.0
 10
95.64256860673173
 20
-155.6335665843555
 30
0.0
 10
95.80121525382748
 20
-155.6335665843555
 30
0.0
 10
95.94504799033666
 20
-155.6780083161152
 30
0.0
 10
96.04030488050381
 20
-155.8599093577364
 30
0.0
 10
96.13969588525327
 20
-156.0524901953619
 30
0.0
 10
96.16295027977871
 20
-156.2809000260339
 30
0.0
 10
96.16295027977871
 20
-156.4545328384905
 30
0.0
 10
96.16295027977871
 20
-156.6257540841075
 30
0.0
 10
96.14193519731869
 20
-156.8562309720707
 30
0.0
 10
96.04030488050381
 20
-157.0488118096961
 30
0.0
  0
SPLINE
  5
91
330
8A
100
AcDbEntity
  8
_U+30EC_U+30A4_U+30E4_U+30FC 1
370
     0
100
AcDbSpline
210
0.0
220
0.0
230
1.0
 70
    11
 71
     3
 72
    17
 73
    13
 74
     0
 42
0.0000000001
 43
0.0000000001
 12
1.0
 22
0.0
 32
0.0
 13
1.0
 23
0.0
 33
0.0
 40
0.0
 40
0.0
 40
0.0
 40
0.0
 40
1.0
 40
1.0
 40
1.0
 40
2.0
 40
2.0
 40
2.0
 40
3.0
 40
3.0
 40
3.0
 40
4.0
 40
4.0
 40
4.0
 40
4.0
 10
95.64256860673173
 20
-155.826147421981
 30
0.0
 10
95.39297143882537
 20
-155.826147421981
 30
0.0
 10
95.3464626497745
 20
-156.109678780417
 30
0.0
 10
95.3464626497745
 20
-156.4545328384905
 30
0.0
 10
95.3464626497745
 20
-156.7738931899732
 30
0.0
 10
95.38246389759536
 20
-157.0825737454516
 30
0.0
 10
95.64256860673173
 20
-157.0825737454516
 30
0.0
 10
95.89009871734693
 20
-157.0825737454516
 30
0.0
 10
95.9388468184632
 20
-156.8014539538552
 30
0.0
 10
95.9388468184632
 20
-156.4545328384905
 30
0.0
 10
95.9388468184632
 20
-156.1348279774594
 30
0.0
 10
95.9007785133512
 20
-155.826147421981
 30
0.0
 10
95.64256860673173
 20
-155.826147421981
 30
0.0
  0
HATCH
  5
92
330
8A
100
AcDbEntity
  8
_U+30EC_U+30A4_U+30E4_U+30FC 1
 62
     7
420
 16777215
100
AcDbHatch
 10
0.0
 20
0.0
 30
0.0
210
0.0
220
0.0
230
1.0
  2
SOLID
 70
     1
 71
     0
 91
        2
 92
        1
 93
        1
 72
     4
 94
        3
 73
     0
 74
     1
 95
       29
 96
       25
 40
0.0
 40
0.0
 40
0.0
 40
0.0
 40
1.0
 40
1.0
 40
1.0
 40
2.0
 40
2.0
 40
2.0
 40
3.0
 40
3.0
 40
3.0
 40
4.0
 40
4.0
 40
4.0
 40
5.0
 40
5.0
 40
5.0
 40
6.0
 40
6.0
 40
6.0
 40
7.0
 40
7.0
 40
7.0
 40
8.0
 40
8.0
 40
8.0
 40
8.0
 10
96.04030488050381
 20
-157.0488118096961
 10
95.93247339181549
 20
-157.2582736151993
 10
95.75901283413317
 20
-157.2772216403682
 10
95.64256860673173
 20
-157.2772216403682
 10
95.48185490234482
 20
-157.2772216403682
 10
95.34008922312678
 20
-157.2307128513173
 10
95.24483233295963
 20
-157.0488118096961
 10
95.14130721362787
 20
-156.8541639147795
 10
95.12218693368473
 20
-156.6174858549429
 10
95.12218693368473
 20
-156.4545328384905
 10
95.12218693368473
 20
-156.3105278472071
 10
95.13906790156246
 20
-156.0586913672353
 10
95.24483233295963
 20
-155.8599093577364
 10
95.35283607642221
 20
-155.6569932336552
 10
95.51354978080911
 20
-155.6335665843555
 10
95.64256860673173
 20
-155.6335665843555
 10
95.80121525382748
 20
-155.6335665843555
 10
95.94504799033666
 20
-155.6780083161152
 10
96.04030488050381
 20
-155.8599093577364
 10
96.13969588525327
 20
-156.0524901953619
 10
96.16295027977871
 20
-156.2809000260339
 10
96.16295027977871
 20
-156.4545328384905
 10
96.16295027977871
 20
-156.6257540841075
 10
96.14193519731869
 20
-156.8562309720707
 10
96.04030488050381
 20
-157.0488118096961
 97
        0
 97
        0
 92
        1
 93
        1
 72
     4
 94
        3
 73
     0
 74
     1
 95
       17
 96
       13
 40
0.0
 40
0.0
 40
0.0
 40
0.0
 40
1.0
 40
1.0
 40
1.0
 40
2.0
 40
2.0
 40
2.0
 40
3.0
 40
3.0
 40
3.0
 40
4.0
 40
4.0
 40
4.0
 40
4.0
 10
95.64256860673173
 20
-155.826147421981
 10
95.39297143882537
 20
-155.826147421981
 10
95.3464626497745
 20
-156.109678780417
 10
95.3464626497745
 20
-156.4545328384905
 10
95.3464626497745
 20
-156.7738931899732
 10
95.38246389759536
 20
-157.0825737454516
 10
95.64256860673173
 20
-157.0825737454516
 10
95.89009871734693
 20
-157.0825737454516
 10
95.9388468184632
 20
-156.8014539538552
 10
95.9388468184632
 20
-156.4545328384905
 10
95.9388468184632
 20
-156.1348279774594
 10
95.9007785133512
 20
-155.826147421981
 10
95.64256860673173
 20
-155.826147421981
 97
        0
 97
        0
 75
     2
 76
     1
 98
        0
  0
ENDBLK
  5
8D
330
8A
100
AcDbEntity
  8
0
100
AcDbBlockEnd
  0
BLOCK
  5
B1
330
AF
100
AcDbEntity
  8
0
100
AcDbBlockBegin
  2
block 4
 70
     0
 10
0.0
 20
0.0
 30
0.0
  3
block 4
  1

  0
SPLINE
  5
B3
330
AF
100
AcDbEntity
  8
_U+30EC_U+30A4_U+30E4_U+30FC 1
370
     0
100
AcDbSpline
210
0.0
220
0.0
230
1.0
 70
    11
 71
     3
 72
    26
 73
    22
 74
     0
 42
0.0000000001
 43
0.0000000001
 12
1.0
 22
0.0
 32
0.0
 13
1.0
 23
0.0
 33
0.0
 40
0.0
 40
0.0
 40
0.0
 40
0.0
 40
1.0
 40
1.0
 40
1.0
 40
2.0
 40
2.0
 40
2.0
 40
3.0
 40
3.0
 40
3.0
 40
4.0
 40
4.0
 40
4.0
 40
5.0
 40
5.0
 40
5.0
 40
6.0
 40
6.0
 40
6.0
 40
7.0
 40
7.0
 40
7.0
 40
7.0
 10
118.4554741457334
 20
-143.8017306498135
 30
0.0
 10
118.4554741457334
 20
-143.8017306498135
 30
0.0
 10
117.3513210427108
 20
-143.8017306498135
 30
0.0
 10
117.3513210427108
 20
-143.8017306498135
 30
0.0
 10
117.3513210427108
 20
-143.8017306498135
 30
0.0
 10
117.3513210427108
 20
-144.1317707973004
 30
0.0
 10
117.3513210427108
 20
-144.1317707973004
 30
0.0
 10
117.3513210427108
 20
-144.1317707973004
 30
0.0
 10
117.203181936845
 20
-144.1317707973004
 30
0.0
 10
117.203181936845
 20
-144.1317707973004
 30
0.0
 10
117.1883680262585
 20
-143.7996635925223
 30
0.0
 10
117.0254150098062
 20
-143.7531548034714
 30
0.0
 10
116.9110378396959
 20
-143.7235269822983
 30
0.0
 10
116.9110378396959
 20
-143.7235269822983
 30
0.0
 10
116.9110378396959
 20
-143.5774549337237
 30
0.0
 10
116.9110378396959
 20
-143.5774549337237
 30
0.0
 10
116.9110378396959
 20
-143.5774549337237
 30
0.0
 10
118.4554741457334
 20
-143.5774549337237
 30
0.0
 10
118.4554741457334
 20
-143.5774549337237
 30
0.0
 10
118.4554741457334
 20
-143.5774549337237
 30
0.0
 10
118.4554741457334
 20
-143.8017306498135
 30
0.0
 10
118.4554741457334
 20
-143.8017306498135
 30
0.0
  0
HATCH
  5
B4
330
AF
100
AcDbEntity
  8
_U+30EC_U+30A4_U+30E4_U+30FC 1
 62
     7
420
 16777215
100
AcDbHatch
 10
0.0
 20
0.0
 30
0.0
210
0.0
220
0.0
230
1.0
  2
SOLID
 70
     1
 71
     0
 91
        1
 92
        1
 93
        1
 72
     4
 94
        3
 73
     0
 74
     1
 95
       26
 96
       22
 40
0.0
 40
0.0
 40
0.0
 40
0.0
 40
1.0
 40
1.0
 40
1.0
 40
2.0
 40
2.0
 40
2.0
 40
3.0
 40
3.0
 40
3.0
 40
4.0
 40
4.0
 40
4.0
 40
5.0
 40
5.0
 40
5.0
 40
6.0
 40
6.0
 40
6.0
 40
7.0
 40
7.0
 40
7.0
 40
7.0
 10
118.4554741457334
 20
-143.8017306498135
 10
118.4554741457334
 20
-143.8017306498135
 10
117.3513210427108
 20
-143.8017306498135
 10
117.3513210427108
 20
-143.8017306498135
 10
117.3513210427108
 20
-143.8017306498135
 10
117.3513210427108
 20
-144.1317707973004
 10
117.3513210427108
 20
-144.1317707973004
 10
117.3513210427108
 20
-144.1317707973004
 10
117.203181936845
 20
-144.1317707973004
 10
117.203181936845
 20
-144.1317707973004
 10
117.1883680262585
 20
-143.7996635925223
 10
117.0254150098062
 20
-143.7531548034714
 10
116.9110378396959
 20
-143.7235269822983
 10
116.9110378396959
 20
-143.7235269822983
 10
116.9110378396959
 20
-143.5774549337237
 10
116.9110378396959
 20
-143.5774549337237
 10
116.9110378396959
 20
-143.5774549337237
 10
118.4554741457334
 20
-143.5774549337237
 10
118.4554741457334
 20
-143.5774549337237
 10
118.4554741457334
 20
-143.5774549337237
 10
118.4554741457334
 20
-143.8017306498135
 10
118.4554741457334
 20
-143.8017306498135
 97
        0
 97
        0
 75
     2
 76
     1
 98
        0
  0
ENDBLK
  5
B2
330
AF
100
AcDbEntity
  8
0
100
AcDbBlockEnd
  0
BLOCK
  5
C3
330
C1
100
AcDbEntity
  8
0
100
AcDbBlockBegin
  2
block 5
 70
     0
 10
0.0
 20
0.0
 30
0.0
  3
block 5
  1

  0
SPLINE
  5
C5
330
C1
100
AcDbEntity
  8
_U+30EC_U+30A4_U+30E4_U+30FC 1
370
     0
100
AcDbSpline
210
0.0
220
0.0
230
1.0
 70
    11
 71
     3
 72
    26
 73
    22
 74
     0
 42
0.0000000001
 43
0.0000000001
 12
1.0
 22
0.0
 32
0.0
 13
1.0
 23
0.0
 33
0.0
 40
0.0
 40
0.0
 40
0.0
 40
0.0
 40
1.0
 40
1.0
 40
1.0
 40
2.0
 40
2.0
 40
2.0
 40
3.0
 40
3.0
 40
3.0
 40
4.0
 40
4.0
 40
4.0
 40
5.0
 40
5.0
 40
5.0
 40
6.0
 40
6.0
 40
6.0
 40
7.0
 40
7.0
 40
7.0
 40
7.0
 10
118.4554741457334
 20
-149.421370405353
 30
0.0
 10
118.4554741457334
 20
-149.421370405353
 30
0.0
 10
118.4554741457334
 20
-149.6583929747382
 30
0.0
 10
118.4554741457334
 20
-149.6583929747382
 30
0.0
 10
118.1464490807064
 20
-149.6328992681473
 30
0.0
 10
117.6283067197249
 20
-149.4403184305219
 30
0.0
 10
117.1225667024902
 20
-149.0341416728109
 30
0.0
 10
117.1225667024902
 20
-149.0341416728109
 30
0.0
 10
117.1225667024902
 20
-149.8719888948237
 30
0.0
 10
117.1225667024902
 20
-149.8719888948237
 30
0.0
 10
117.1225667024902
 20
-149.8719888948237
 30
0.0
 10
116.9110378396959
 20
-149.8719888948237
 30
0.0
 10
116.9110378396959
 20
-149.8719888948237
 30
0.0
 10
116.9110378396959
 20
-149.8719888948237
 30
0.0
 10
116.9110378396959
 20
-148.7971191034257
 30
0.0
 10
116.9110378396959
 20
-148.7971191034257
 30
0.0
 10
116.9110378396959
 20
-148.7971191034257
 30
0.0
 10
117.1225667024902
 20
-148.7971191034257
 30
0.0
 10
117.1225667024902
 20
-148.7971191034257
 30
0.0
 10
117.4126437423482
 20
-149.1209580790392
 30
0.0
 10
118.0048556562627
 20
-149.3876084695976
 30
0.0
 10
118.4554741457334
 20
-149.421370405353
 30
0.0
  0
HATCH
  5
C6
330
C1
100
AcDbEntity
  8
_U+30EC_U+30A4_U+30E4_U+30FC 1
 62
     7
420
 16777215
100
AcDbHatch
 10
0.0
 20
0.0
 30
0.0
210
0.0
220
0.0
230
1.0
  2
SOLID
 70
     1
 71
     0
 91
        1
 92
        1
 93
        1
 72
     4
 94
        3
 73
     0
 74
     1
 95
       26
 96
       22
 40
0.0
 40
0.0
 40
0.0
 40
0.0
 40
1.0
 40
1.0
 40
1.0
 40
2.0
 40
2.0
 40
2.0
 40
3.0
 40
3.0
 40
3.0
 40
4.0
 40
4.0
 40
4.0
 40
5.0
 40
5.0
 40
5.0
 40
6.0
 40
6.0
 40
6.0
 40
7.0
 40
7.0
 40
7.0
 40
7.0
 10
118.4554741457334
 20
-149.421370405353
 10
118.4554741457334
 20
-149.421370405353
 10
118.4554741457334
 20
-149.6583929747382
 10
118.4554741457334
 20
-149.6583929747382
 10
118.1464490807064
 20
-149.6328992681473
 10
117.6283067197249
 20
-149.4403184305219
 10
117.1225667024902
 20
-149.0341416728109
 10
117.1225667024902
 20
-149.0341416728109
 10
117.1225667024902
 20
-149.8719888948237
 10
117.1225667024902
 20
-149.8719888948237
 10
117.1225667024902
 20
-149.8719888948237
 10
116.9110378396959
 20
-149.8719888948237
 10
116.9110378396959
 20
-149.8719888948237
 10
116.9110378396959
 20
-149.8719888948237
 10
116.9110378396959
 20
-148.7971191034257
 10
116.9110378396959
 20
-148.7971191034257
 10
116.9110378396959
 20
-148.7971191034257
 10
117.1225667024902
 20
-148.7971191034257
 10
117.1225667024902
 20
-148.7971191034257
 10
117.4126437423482
 20
-149.1209580790392
 10
118.0048556562627
 20
-149.3876084695976
 10
118.4554741457334
 20
-149.421370405353
 97
        0
 97
        0
 75
     2
 76
     1
 98
        0
  0
ENDBLK
  5
C4
330
C1
100
AcDbEntity
  8
0
100
AcDbBlockEnd
  0
BLOCK
  5
CD
330
CB
100
AcDbEntity
  8
0
100
AcDbBlockBegin
  2
block 6
 70
     0
 10
0.0
 20
0.0
 30
0.0
  3
block 6
  1

  0
SPLINE
  5
CF
330
CB
100
AcDbEntity
  8
_U+30EC_U+30A4_U+30E4_U+30FC 1
370
     0
100
AcDbSpline
210
0.0
220
0.0
230
1.0
 70
    11
 71
     3
 72
    29
 73
    25
 74
     0
 42
0.0000000001
 43
0.0000000001
 12
1.0
 22
0.0
 32
0.0
 13
1.0
 23
0.0
 33
0.0
 40
0.0
 40
0.0
 40
0.0
 40
0.0
 40
1.0
 40
1.0
 40
1.0
 40
2.0
 40
2.0
 40
2.0
 40
3.0
 40
3.0
 40
3.0
 40
4.0
 40
4.0
 40
4.0
 40
5.0
 40
5.0
 40
5.0
 40
6.0
 40
6.0
 40
6.0
 40
7.0
 40
7.0
 40
7.0
 40
8.0
 40
8.0
 40
8.0
 40
8.0
 10
103.2827568643703
 20
-150.676763200178
 30
0.0
 10
103.4922186698735
 20
-150.7849391984149
 30
0.0
 10
103.5111666950423
 20
-150.9582275013229
 30
0.0
 10
103.5111666950423
 20
-151.0746717287244
 30
0.0
 10
103.5111666950423
 20
-151.2355576878856
 30
0.0
 10
103.4646579059915
 20
-151.3771511123293
 30
0.0
 10
103.2827568643703
 20
-151.4722357477222
 30
0.0
 10
103.0881089694537
 20
-151.5759331218283
 30
0.0
 10
102.851430909617
 20
-151.5952256565456
 30
0.0
 10
102.6884778931647
 20
-151.5952256565456
 30
0.0
 10
102.5444729018812
 20
-151.5952256565456
 30
0.0
 10
102.2926364219095
 20
-151.5780001791194
 30
0.0
 10
102.0938544124106
 20
-151.4722357477222
 30
0.0
 10
101.8909382883294
 20
-151.3644042590339
 30
0.0
 10
101.8675116390297
 20
-151.2035182998727
 30
0.0
 10
101.8675116390297
 20
-151.0746717287244
 30
0.0
 10
101.8675116390297
 20
-150.9158528268544
 30
0.0
 10
101.9119533707894
 20
-150.7721923451195
 30
0.0
 10
102.0938544124106
 20
-150.676763200178
 30
0.0
 10
102.286435250036
 20
-150.5775444502029
 30
0.0
 10
102.5148450807081
 20
-150.5541178009032
 30
0.0
 10
102.6884778931647
 20
-150.5541178009032
 30
0.0
 10
102.8596991387816
 20
-150.5541178009032
 30
0.0
 10
103.0901760267448
 20
-150.5754773929117
 30
0.0
 10
103.2827568643703
 20
-150.676763200178
 30
0.0
  0
SPLINE
  5
D0
330
CB
100
AcDbEntity
  8
_U+30EC_U+30A4_U+30E4_U+30FC 1
370
     0
100
AcDbSpline
210
0.0
220
0.0
230
1.0
 70
    11
 71
     3
 72
    17
 73
    13
 74
     0
 42
0.0000000001
 43
0.0000000001
 12
1.0
 22
0.0
 32
0.0
 13
1.0
 23
0.0
 33
0.0
 40
0.0
 40
0.0
 40
0.0
 40
0.0
 40
1.0
 40
1.0
 40
1.0
 40
2.0
 40
2.0
 40
2.0
 40
3.0
 40
3.0
 40
3.0
 40
4.0
 40
4.0
 40
4.0
 40
4.0
 10
102.0600924766551
 20
-151.0746717287244
 30
0.0
 10
102.0600924766551
 20
-151.324441151405
 30
0.0
 10
102.3436238350912
 20
-151.3709499404559
 30
0.0
 10
102.6884778931647
 20
-151.3709499404559
 30
0.0
 10
103.0078382446473
 20
-151.3709499404559
 30
0.0
 10
103.3165188001257
 20
-151.3347764378608
 30
0.0
 10
103.3165188001257
 20
-151.0746717287244
 30
0.0
 10
103.3165188001257
 20
-150.8269693633349
 30
0.0
 10
103.0353990085294
 20
-150.7783935169929
 30
0.0
 10
102.6884778931647
 20
-150.7783935169929
 30
0.0
 10
102.3687730321335
 20
-150.7783935169929
 30
0.0
 10
102.0600924766551
 20
-150.8166340768792
 30
0.0
 10
102.0600924766551
 20
-151.0746717287244
 30
0.0
  0
HATCH
  5
D1
330
CB
100
AcDbEntity
  8
_U+30EC_U+30A4_U+30E4_U+30FC 1
 62
     7
420
 16777215
100
AcDbHatch
 10
0.0
 20
0.0
 30
0.0
210
0.0
220
0.0
230
1.0
  2
SOLID
 70
     1
 71
     0
 91
        2
 92
        1
 93
        1
 72
     4
 94
        3
 73
     0
 74
     1
 95
       29
 96
       25
 40
0.0
 40
0.0
 40
0.0
 40
0.0
 40
1.0
 40
1.0
 40
1.0
 40
2.0
 40
2.0
 40
2.0
 40
3.0
 40
3.0
 40
3.0
 40
4.0
 40
4.0
 40
4.0
 40
5.0
 40
5.0
 40
5.0
 40
6.0
 40
6.0
 40
6.0
 40
7.0
 40
7.0
 40
7.0
 40
8.0
 40
8.0
 40
8.0
 40
8.0
 10
103.2827568643703
 20
-150.676763200178
 10
103.4922186698735
 20
-150.7849391984149
 10
103.5111666950423
 20
-150.9582275013229
 10
103.5111666950423
 20
-151.0746717287244
 10
103.5111666950423
 20
-151.2355576878856
 10
103.4646579059915
 20
-151.3771511123293
 10
103.2827568643703
 20
-151.4722357477222
 10
103.0881089694537
 20
-151.5759331218283
 10
102.851430909617
 20
-151.5952256565456
 10
102.6884778931647
 20
-151.5952256565456
 10
102.5444729018812
 20
-151.5952256565456
 10
102.2926364219095
 20
-151.5780001791194
 10
102.0938544124106
 20
-151.4722357477222
 10
101.8909382883294
 20
-151.3644042590339
 10
101.8675116390297
 20
-151.2035182998727
 10
101.8675116390297
 20
-151.0746717287244
 10
101.8675116390297
 20
-150.9158528268544
 10
101.9119533707894
 20
-150.7721923451195
 10
102.0938544124106
 20
-150.676763200178
 10
102.286435250036
 20
-150.5775444502029
 10
102.5148450807081
 20
-150.5541178009032
 10
102.6884778931647
 20
-150.5541178009032
 10
102.8596991387816
 20
-150.5541178009032
 10
103.0901760267448
 20
-150.5754773929117
 10
103.2827568643703
 20
-150.676763200178
 97
        0
 97
        0
 92
        1
 93
        1
 72
     4
 94
        3
 73
     0
 74
     1
 95
       17
 96
       13
 40
0.0
 40
0.0
 40
0.0
 40
0.0
 40
1.0
 40
1.0
 40
1.0
 40
2.0
 40
2.0
 40
2.0
 40
3.0
 40
3.0
 40
3.0
 40
4.0
 40
4.0
 40
4.0
 40
4.0
 10
102.0600924766551
 20
-151.0746717287244
 10
102.0600924766551
 20
-151.324441151405
 10
102.3436238350912
 20
-151.3709499404559
 10
102.6884778931647
 20
-151.3709499404559
 10
103.0078382446473
 20
-151.3709499404559
 10
103.3165188001257
 20
-151.3347764378608
 10
103.3165188001257
 20
-151.0746717287244
 10
103.3165188001257
 20
-150.8269693633349
 10
103.0353990085294
 20
-150.7783935169929
 10
102.6884778931647
 20
-150.7783935169929
 10
102.3687730321335
 20
-150.7783935169929
 10
102.0600924766551
 20
-150.8166340768792
 10
102.0600924766551
 20
-151.0746717287244
 97
        0
 97
        0
 75
     2
 76
     1
 98
        0
  0
POLYLINE
  5
D2
330
CB
100
AcDbEntity
  8
_U+30EC_U+30A4_U+30E4_U+30FC 1
370
     0
100
AcDb2dPolyline
 66
     1
 10
0.0
 20
0.0
 30
0.0
  0
VERTEX
  5
D3
330
D2
100
AcDbEntity
  8
_U+30EC_U+30A4_U+30E4_U+30FC 1
370
     0
100
AcDbVertex
100
AcDb2dVertex
 10
103.4605237914092
 20
-150.3377658044295
 30
0.0
  0
VERTEX
  5
D4
330
D2
100
AcDbEntity
  8
_U+30EC_U+30A4_U+30E4_U+30FC 1
370
     0
100
AcDbVertex
100
AcDb2dVertex
 10
103.2086873114374
 20
-150.3377658044295
 30
0.0
  0
VERTEX
  5
D5
330
D2
100
AcDbEntity
  8
_U+30EC_U+30A4_U+30E4_U+30FC 1
370
     0
100
AcDbVertex
100
AcDb2dVertex
 10
103.2086873114374
 20
-150.0859293244577
 30
0.0
  0
VERTEX
  5
D6
330
D2
100
AcDbEntity
  8
_U+30EC_U+30A4_U+30E4_U+30FC 1
370
     0
100
AcDbVertex
100
AcDb2dVertex
 10
103.4605237914092
 20
-150.0859293244577
 30
0.0
  0
VERTEX
  5
D7
330
D2
100
AcDbEntity
  8
_U+30EC_U+30A4_U+30E4_U+30FC 1
370
     0
100
AcDbVertex
100
AcDb2dVertex
 10
103.4605237914092
 20
-150.3377658044295
 30
0.0
  0
SEQEND
  5
D8
330
D2
100
AcDbEntity
  8
_U+30EC_U+30A4_U+30E4_U+30FC 1
370
     0
  0
HATCH
  5
D9
330
CB
100
AcDbEntity
  8
_U+30EC_U+30A4_U+30E4_U+30FC 1
 62
     7
420
 16777215
100
AcDbHatch
 10
0.0
 20
0.0
 30
0.0
210
0.0
220
0.0
230
1.0
  2
SOLID
 70
     1
 71
     0
 91
        1
 92
        1
 93
        4
 72
     1
 10
103.4605237914092
 20
-150.3377658044295
 11
103.2086873114374
 21
-150.3377658044295
 72
     1
 10
103.2086873114374
 20
-150.3377658044295
 11
103.2086873114374
 21
-150.0859293244577
 72
     1
 10
103.2086873114374
 20
-150.0859293244577
 11
103.4605237914092
 21
-150.0859293244577
 72
     1
 10
103.4605237914092
 20
-150.0859293244577
 11
103.4605237914092
 21
-150.3377658044295
 97
        0
 75
     2
 76
     1
 98
        0
  0
SPLINE
  5
DA
330
CB
100
AcDbEntity
  8
_U+30EC_U+30A4_U+30E4_U+30FC 1
370
     0
100
AcDbSpline
210
0.0
220
0.0
230
1.0
 70
    11
 71
     3
 72
    53
 73
    49
 74
     0
 42
0.0000000001
 43
0.0000000001
 12
1.0
 22
0.0
 32
0.0
 13
1.0
 23
0.0
 33
0.0
 40
0.0
 40
0.0
 40
0.0
 40
0.0
 40
1.0
 40
1.0
 40
1.0
 40
2.0
 40
2.0
 40
2.0
 40
3.0
 40
3.0
 40
3.0
 40
4.0
 40
4.0
 40
4.0
 40
5.0
 40
5.0
 40
5.0
 40
6.0
 40
6.0
 40
6.0
 40
7.0
 40
7.0
 40
7.0
 40
8.0
 40
8.0
 40
8.0
 40
9.0
 40
9.0
 40
9.0
 40
10.0
 40
10.0
 40
10.0
 40
11.0
 40
11.0
 40
11.0
 40
12.0
 40
12.0
 40
12.0
 40
13.0
 40
13.0
 40
13.0
 40
14.0
 40
14.0
 40
14.0
 40
15.0
 40
15.0
 40
15.0
 40
16.0
 40
16.0
 40
16.0
 40
16.0
 10
103.5111666950423
 20
-149.3686604444287
 30
0.0
 10
103.5111666950423
 20
-149.4468641119439
 30
0.0
 10
103.4942857271646
 20
-149.5484944287587
 30
0.0
 10
103.430895970236
 20
-149.6501247455736
 30
0.0
 10
103.3209974242566
 20
-149.8234130484817
 30
0.0
 10
103.1897392862685
 20
-149.8447726404902
 30
0.0
 10
103.0819077975802
 20
-149.8637206656591
 30
0.0
 10
103.0819077975802
 20
-149.8637206656591
 30
0.0
 10
103.0819077975802
 20
-149.6415120068605
 30
0.0
 10
103.0819077975802
 20
-149.6415120068605
 30
0.0
 10
103.2806898070791
 20
-149.586734988645
 30
0.0
 10
103.3103176282523
 20
-149.4596109652393
 30
0.0
 10
103.3103176282523
 20
-149.3665933871375
 30
0.0
 10
103.3103176282523
 20
-149.2270670199849
 30
0.0
 10
103.2107543687286
 20
-149.0747937995369
 30
0.0
 10
102.9782104234742
 20
-149.0747937995369
 30
0.0
 10
102.7222398289201
 20
-149.0747937995369
 30
0.0
 10
102.6523043905696
 20
-149.2546277838669
 30
0.0
 10
102.6523043905696
 20
-149.3752061258506
 30
0.0
 10
102.6523043905696
 20
-149.406901004315
 30
0.0
 10
102.6523043905696
 20
-149.5484944287587
 30
0.0
 10
102.7814954712664
 20
-149.6373778922782
 30
0.0
 10
102.7814954712664
 20
-149.6373778922782
 30
0.0
 10
102.7625474460976
 20
-149.8130777620259
 30
0.0
 10
102.7625474460976
 20
-149.8130777620259
 30
0.0
 10
102.7625474460976
 20
-149.8130777620259
 30
0.0
 10
101.9160874853717
 20
-149.6924994200422
 30
0.0
 10
101.9160874853717
 20
-149.6924994200422
 30
0.0
 10
101.9160874853717
 20
-149.6924994200422
 30
0.0
 10
101.9160874853717
 20
-148.9139078403757
 30
0.0
 10
101.9160874853717
 20
-148.9139078403757
 30
0.0
 10
101.9160874853717
 20
-148.9139078403757
 30
0.0
 10
102.1107353802883
 20
-148.9139078403757
 30
0.0
 10
102.1107353802883
 20
-148.9139078403757
 30
0.0
 10
102.1107353802883
 20
-148.9139078403757
 30
0.0
 10
102.1107353802883
 20
-149.5295464035898
 30
0.0
 10
102.1107353802883
 20
-149.5295464035898
 30
0.0
 10
102.1107353802883
 20
-149.5295464035898
 30
0.0
 10
102.533793105877
 20
-149.5950032178096
 30
0.0
 10
102.533793105877
 20
-149.5950032178096
 30
0.0
 10
102.5000311701215
 20
-149.5336805181721
 30
0.0
 10
102.4597235529441
 20
-149.4513427360747
 30
0.0
 10
102.4597235529441
 20
-149.3328314513821
 30
0.0
 10
102.4597235529441
 20
-149.0789279141192
 30
0.0
 10
102.6461032186961
 20
-148.841905344734
 30
0.0
 10
102.9592623983053
 20
-148.841905344734
 30
0.0
 10
103.2765556924968
 20
-148.841905344734
 30
0.0
 10
103.5111666950423
 20
-149.0661810608237
 30
0.0
 10
103.5111666950423
 20
-149.3686604444287
 30
0.0
  0
HATCH
  5
DB
330
CB
100
AcDbEntity
  8
_U+30EC_U+30A4_U+30E4_U+30FC 1
 62
     7
420
 16777215
100
AcDbHatch
 10
0.0
 20
0.0
 30
0.0
210
0.0
220
0.0
230
1.0
  2
SOLID
 70
     1
 71
     0
 91
        1
 92
        1
 93
        1
 72
     4
 94
        3
 73
     0
 74
     1
 95
       53
 96
       49
 40
0.0
 40
0.0
 40
0.0
 40
0.0
 40
1.0
 40
1.0
 40
1.0
 40
2.0
 40
2.0
 40
2.0
 40
3.0
 40
3.0
 40
3.0
 40
4.0
 40
4.0
 40
4.0
 40
5.0
 40
5.0
 40
5.0
 40
6.0
 40
6.0
 40
6.0
 40
7.0
 40
7.0
 40
7.0
 40
8.0
 40
8.0
 40
8.0
 40
9.0
 40
9.0
 40
9.0
 40
10.0
 40
10.0
 40
10.0
 40
11.0
 40
11.0
 40
11.0
 40
12.0
 40
12.0
 40
12.0
 40
13.0
 40
13.0
 40
13.0
 40
14.0
 40
14.0
 40
14.0
 40
15.0
 40
15.0
 40
15.0
 40
16.0
 40
16.0
 40
16.0
 40
16.0
 10
103.5111666950423
 20
-149.3686604444287
 10
103.5111666950423
 20
-149.4468641119439
 10
103.4942857271646
 20
-149.5484944287587
 10
103.430895970236
 20
-149.6501247455736
 10
103.3209974242566
 20
-149.8234130484817
 10
103.1897392862685
 20
-149.8447726404902
 10
103.0819077975802
 20
-149.8637206656591
 10
103.0819077975802
 20
-149.8637206656591
 10
103.0819077975802
 20
-149.6415120068605
 10
103.0819077975802
 20
-149.6415120068605
 10
103.2806898070791
 20
-149.586734988645
 10
103.3103176282523
 20
-149.4596109652393
 10
103.3103176282523
 20
-149.3665933871375
 10
103.3103176282523
 20
-149.2270670199849
 10
103.2107543687286
 20
-149.0747937995369
 10
102.9782104234742
 20
-149.0747937995369
 10
102.7222398289201
 20
-149.0747937995369
 10
102.6523043905696
 20
-149.2546277838669
 10
102.6523043905696
 20
-149.3752061258506
 10
102.6523043905696
 20
-149.406901004315
 10
102.6523043905696
 20
-149.5484944287587
 10
102.7814954712664
 20
-149.6373778922782
 10
102.7814954712664
 20
-149.6373778922782
 10
102.7625474460976
 20
-149.8130777620259
 10
102.7625474460976
 20
-149.8130777620259
 10
102.7625474460976
 20
-149.8130777620259
 10
101.9160874853717
 20
-149.6924994200422
 10
101.9160874853717
 20
-149.6924994200422
 10
101.9160874853717
 20
-149.6924994200422
 10
101.9160874853717
 20
-148.9139078403757
 10
101.9160874853717
 20
-148.9139078403757
 10
101.9160874853717
 20
-148.9139078403757
 10
102.1107353802883
 20
-148.9139078403757
 10
102.1107353802883
 20
-148.9139078403757
 10
102.1107353802883
 20
-148.9139078403757
 10
102.1107353802883
 20
-149.5295464035898
 10
102.1107353802883
 20
-149.5295464035898
 10
102.1107353802883
 20
-149.5295464035898
 10
102.533793105877
 20
-149.5950032178096
 10
102.533793105877
 20
-149.5950032178096
 10
102.5000311701215
 20
-149.5336805181721
 10
102.4597235529441
 20
-149.4513427360747
 10
102.4597235529441
 20
-149.3328314513821
 10
102.4597235529441
 20
-149.0789279141192
 10
102.6461032186961
 20
-148.841905344734
 10
102.9592623983053
 20
-148.841905344734
 10
103.2765556924968
 20
-148.841905344734
 10
103.5111666950423
 20
-149.0661810608237
 10
103.5111666950423
 20
-149.3686604444287
 97
        0
 97
        0
 75
     2
 76
     1
 98
        0
  0
ENDBLK
  5
CE
330
CB
100
AcDbEntity
  8
0
100
AcDbBlockEnd
  0
ENDSEC
  0
SECTION
  2
ENTITIES
  0
POLYLINE
  5
41
330
1F
100
AcDbEntity
  8
_U+30EC_U+30A4_U+30E4_U+30FC 1
 62
     7
420
 16777215
370
    25
100
AcDb2dPolyline
 66
     1
 10
0.0
 20
0.0
 30
0.0
  0
VERTEX
  5
42
330
41
100
AcDbEntity
  8
_U+30EC_U+30A4_U+30E4_U+30FC 1
 62
     7
420
 16777215
370
    25
100
AcDbVertex
100
AcDb2dVertex
 10
90.05118214704738
 20
-144.8414538526785
 30
0.0
  0
VERTEX
  5
43
330
41
100
AcDbEntity
  8
_U+30EC_U+30A4_U+30E4_U+30FC 1
 62
     7
420
 16777215
370
    25
100
AcDbVertex
100
AcDb2dVertex
 10
115.0510256759149
 20
-144.8414538526785
 30
0.0
  0
SEQEND
  5
44
330
41
100
AcDbEntity
  8
_U+30EC_U+30A4_U+30E4_U+30FC 1
 62
     7
420
 16777215
370
    25
  0
POLYLINE
  5
45
330
1F
100
AcDbEntity
  8
_U+30EC_U+30A4_U+30E4_U+30FC 1
 62
     7
420
 16777215
370
    25
100
AcDb2dPolyline
 66
     1
 10
0.0
 20
0.0
 30
0.0
  0
VERTEX
  5
46
330
45
100
AcDbEntity
  8
_U+30EC_U+30A4_U+30E4_U+30FC 1
 62
     7
420
 16777215
370
    25
100
AcDbVertex
100
AcDb2dVertex
 10
90.05118214704738
 20
-144.8414538526785
 30
0.0
  0
VERTEX
  5
47
330
45
100
AcDbEntity
  8
_U+30EC_U+30A4_U+30E4_U+30FC 1
 62
     7
420
 16777215
370
    25
100
AcDbVertex
100
AcDb2dVertex
 10
90.05118214704738
 20
-153.8228232948776
 30
0.0
  0
SEQEND
  5
48
330
45
100
AcDbEntity
  8
_U+30EC_U+30A4_U+30E4_U+30FC 1
 62
     7
420
 16777215
370
    25
  0
POLYLINE
  5
49
330
1F
100
AcDbEntity
  8
_U+30EC_U+30A4_U+30E4_U+30FC 1
 62
     7
420
 16777215
370
    25
100
AcDb2dPolyline
 66
     1
 10
0.0
 20
0.0
 30
0.0
  0
VERTEX
  5
4A
330
49
100
AcDbEntity
  8
_U+30EC_U+30A4_U+30E4_U+30FC 1
 62
     7
420
 16777215
370
    25
100
AcDbVertex
100
AcDb2dVertex
 10
115.0510256759149
 20
-144.8414538526785
 30
0.0
  0
VERTEX
  5
4B
330
49
100
AcDbEntity
  8
_U+30EC_U+30A4_U+30E4_U+30FC 1
 62
     7
420
 16777215
370
    25
100
AcDbVertex
100
AcDb2dVertex
 10
115.0510256759149
 20
-145.8412260746508
 30
0.0
  0
SEQEND
  5
4C
330
49
100
AcDbEntity
  8
_U+30EC_U+30A4_U+30E4_U+30FC 1
 62
     7
420
 16777215
370
    25
  0
POLYLINE
  5
4D
330
1F
100
AcDbEntity
  8
_U+30EC_U+30A4_U+30E4_U+30FC 1
 62
     7
420
 16777215
370
    25
100
AcDb2dPolyline
 66
     1
 10
0.0
 20
0.0
 30
0.0
  0
VERTEX
  5
4E
330
4D
100
AcDbEntity
  8
_U+30EC_U+30A4_U+30E4_U+30FC 1
 62
     7
420
 16777215
370
    25
100
AcDbVertex
100
AcDb2dVertex
 10
91.0512718437552
 20
-145.8412260746508
 30
0.0
  0
VERTEX
  5
4F
330
4D
100
AcDbEntity
  8
_U+30EC_U+30A4_U+30E4_U+30FC 1
 62
     7
420
 16777215
370
    25
100
AcDbVertex
100
AcDb2dVertex
 10
115.0510256759149
 20
-145.8412260746508
 30
0.0
  0
SEQEND
  5
50
330
4D
100
AcDbEntity
  8
_U+30EC_U+30A4_U+30E4_U+30FC 1
 62
     7
420
 16777215
370
    25
  0
POLYLINE
  5
51
330
1F
100
AcDbEntity
  8
_U+30EC_U+30A4_U+30E4_U+30FC 1
 62
     7
420
 16777215
370
    25
100
AcDb2dPolyline
 66
     1
 10
0.0
 20
0.0
 30
0.0
  0
VERTEX
  5
52
330
51
100
AcDbEntity
  8
_U+30EC_U+30A4_U+30E4_U+30FC 1
 62
     7
420
 16777215
370
    25
100
AcDbVertex
100
AcDb2dVertex
 10
100.0567710584502
 20
-152.823051072905
 30
0.0
  0
VERTEX
  5
53
330
51
100
AcDbEntity
  8
_U+30EC_U+30A4_U+30E4_U+30FC 1
 62
     7
420
 16777215
370
    25
100
AcDbVertex
100
AcDb2dVertex
 10
100.0567710584502
 20
-153.3229371838916
 30
0.0
  0
SEQEND
  5
54
330
51
100
AcDbEntity
  8
_U+30EC_U+30A4_U+30E4_U+30FC 1
 62
     7
420
 16777215
370
    25
  0
POLYLINE
  5
55
330
1F
100
AcDbEntity
  8
_U+30EC_U+30A4_U+30E4_U+30FC 1
 62
     7
420
 16777215
370
    25
100
AcDb2dPolyline
 66
     1
 10
0.0
 20
0.0
 30
0.0
  0
VERTEX
  5
56
330
55
100
AcDbEntity
  8
_U+30EC_U+30A4_U+30E4_U+30FC 1
 62
     7
420
 16777215
370
    25
100
AcDbVertex
100
AcDb2dVertex
 10
91.0512718437552
 20
-152.823051072905
 30
0.0
  0
VERTEX
  5
57
330
55
100
AcDbEntity
  8
_U+30EC_U+30A4_U+30E4_U+30FC 1
 62
     7
420
 16777215
370
    25
100
AcDbVertex
100
AcDb2dVertex
 10
100.0567710584502
 20
-152.823051072905
 30
0.0
  0
SEQEND
  5
58
330
55
100
AcDbEntity
  8
_U+30EC_U+30A4_U+30E4_U+30FC 1
 62
     7
420
 16777215
370
    25
  0
POLYLINE
  5
59
330
1F
100
AcDbEntity
  8
_U+30EC_U+30A4_U+30E4_U+30FC 1
 62
     7
420
 16777215
370
    25
100
AcDb2dPolyline
 66
     1
 10
0.0
 20
0.0
 30
0.0
  0
VERTEX
  5
5A
330
59
100
AcDbEntity
  8
_U+30EC_U+30A4_U+30E4_U+30FC 1
 62
     7
420
 16777215
370
    25
100
AcDbVertex
100
AcDb2dVertex
 10
90.05118214704738
 20
-153.8228232948776
 30
0.0
  0
VERTEX
  5
5B
330
59
100
AcDbEntity
  8
_U+30EC_U+30A4_U+30E4_U+30FC 1
 62
     7
420
 16777215
370
    25
100
AcDbVertex
100
AcDb2dVertex
 10
100.0567710584502
 20
-153.3229371838916
 30
0.0
  0
SEQEND
  5
5C
330
59
100
AcDbEntity
  8
_U+30EC_U+30A4_U+30E4_U+30FC 1
 62
     7
420
 16777215
370
    25
  0
POLYLINE
  5
5D
330
1F
100
AcDbEntity
  8
_U+30EC_U+30A4_U+30E4_U+30FC 1
 62
     7
420
 16777215
370
    25
100
AcDb2dPolyline
 66
     1
 10
0.0
 20
0.0
 30
0.0
  0
VERTEX
  5
5E
330
5D
100
AcDbEntity
  8
_U+30EC_U+30A4_U+30E4_U+30FC 1
 62
     7
420
 16777215
370
    25
100
AcDbVertex
100
AcDb2dVertex
 10
91.0512718437552
 20
-145.8412260746508
 30
0.0
  0
VERTEX
  5
5F
330
5D
100
AcDbEntity
  8
_U+30EC_U+30A4_U+30E4_U+30FC 1
 62
     7
420
 16777215
370
    25
100
AcDbVertex
100
AcDb2dVertex
 10
91.0512718437552
 20
-152.823051072905
 30
0.0
  0
SEQEND
  5
60
330
5D
100
AcDbEntity
  8
_U+30EC_U+30A4_U+30E4_U+30FC 1
 62
     7
420
 16777215
370
    25
  0
SPLINE
  5
61
330
1F
100
AcDbEntity
  8
_U+30EC_U+30A4_U+30E4_U+30FC 1
 62
     7
420
 16777215
370
     9
100
AcDbSpline
210
0.0
220
0.0
230
1.0
 70
    11
 71
     3
 72
    17
 73
    13
 74
     0
 42
0.0000000001
 43
0.0000000001
 12
1.0
 22
0.0
 32
0.0
 13
1.0
 23
0.0
 33
0.0
 40
0.0
 40
0.0
 40
0.0
 40
0.0
 40
1.0
 40
1.0
 40
1.0
 40
2.0
 40
2.0
 40
2.0
 40
3.0
 40
3.0
 40
3.0
 40
4.0
 40
4.0
 40
4.0
 40
4.0
 10
90.15108881116522
 20
-140.8415182981231
 30
0.0
 10
90.15108881116522
 20
-140.7864144092479
 30
0.0
 10
90.10628603453046
 20
-140.7416116314811
 30
0.0
 10
90.05118214704738
 20
-140.7416116314811
 30
0.0
 10
89.99604298178744
 20
-140.7416116314811
 30
0.0
 10
89.95127775528981
 20
-140.7864144092479
 30
0.0
 10
89.95127775528981
 20
-140.8415182981231
 30
0.0
 10
89.95127775528981
 20
-140.8970102425536
 30
0.0
 10
89.99604298178744
 20
-140.9417777425425
 30
0.0
 10
90.05118214704738
 20
-140.9417777425425
 30
0.0
 10
90.10628603453046
 20
-140.9417777425425
 30
0.0
 10
90.15108881116522
 20
-140.8970102425536
 30
0.0
 10
90.15108881116522
 20
-140.8415182981231
 30
0.0
  0
SPLINE
  5
62
330
1F
100
AcDbEntity
  8
_U+30EC_U+30A4_U+30E4_U+30FC 1
 62
     7
420
 16777215
370
     9
100
AcDbSpline
210
0.0
220
0.0
230
1.0
 70
    11
 71
     3
 72
    17
 73
    13
 74
     0
 42
0.0000000001
 43
0.0000000001
 12
1.0
 22
0.0
 32
0.0
 13
1.0
 23
0.0
 33
0.0
 40
0.0
 40
0.0
 40
0.0
 40
0.0
 40
1.0
 40
1.0
 40
1.0
 40
2.0
 40
2.0
 40
2.0
 40
3.0
 40
3.0
 40
3.0
 40
4.0
 40
4.0
 40
4.0
 40
4.0
 10
115.1509323400328
 20
-140.8415182981231
 30
0.0
 10
115.1509323400328
 20
-140.7864144092479
 30
0.0
 10
115.1061648411749
 20
-140.7416116314811
 30
0.0
 10
115.0510256759149
 20
-140.7416116314811
 30
0.0
 10
114.9959217884318
 20
-140.7416116314811
 30
0.0
 10
114.9511190117971
 20
-140.7864144092479
 30
0.0
 10
114.9511190117971
 20
-140.8415182981231
 30
0.0
 10
114.9511190117971
 20
-140.8970102425536
 30
0.0
 10
114.9959217884318
 20
-140.9417777425425
 30
0.0
 10
115.0510256759149
 20
-140.9417777425425
 30
0.0
 10
115.1061648411749
 20
-140.9417777425425
 30
0.0
 10
115.1509323400328
 20
-140.8970102425536
 30
0.0
 10
115.1509323400328
 20
-140.8415182981231
 30
0.0
  0
SPLINE
  5
63
330
1F
100
AcDbEntity
  8
_U+30EC_U+30A4_U+30E4_U+30FC 1
 62
     7
420
 16777215
370
     9
100
AcDbSpline
210
0.0
220
0.0
230
1.0
 70
    11
 71
     3
 72
    17
 73
    13
 74
     0
 42
0.0000000001
 43
0.0000000001
 12
1.0
 22
0.0
 32
0.0
 13
1.0
 23
0.0
 33
0.0
 40
0.0
 40
0.0
 40
0.0
 40
0.0
 40
1.0
 40
1.0
 40
1.0
 40
2.0
 40
2.0
 40
2.0
 40
3.0
 40
3.0
 40
3.0
 40
4.0
 40
4.0
 40
4.0
 40
4.0
 10
119.1513999702123
 20
-144.8414538526785
 30
0.0
 10
119.1513999702123
 20
-144.7859971860259
 30
0.0
 10
119.1065971924456
 20
-144.7411944082591
 30
0.0
 10
119.0514902960768
 20
-144.7411944082591
 30
0.0
 10
118.9956455752793
 20
-144.7411944082591
 30
0.0
 10
118.9508780764214
 20
-144.7859971860259
 30
0.0
 10
118.9508780764214
 20
-144.8414538526785
 30
0.0
 10
118.9508780764214
 20
-144.8965930193313
 30
0.0
 10
118.9956455752793
 20
-144.9413605193202
 30
0.0
 10
119.0514902960768
 20
-144.9413605193202
 30
0.0
 10
119.1065971924456
 20
-144.9413605193202
 30
0.0
 10
119.1513999702123
 20
-144.8965930193313
 30
0.0
 10
119.1513999702123
 20
-144.8414538526785
 30
0.0
  0
SPLINE
  5
64
330
1F
100
AcDbEntity
  8
_U+30EC_U+30A4_U+30E4_U+30FC 1
 62
     7
420
 16777215
370
     9
100
AcDbSpline
210
0.0
220
0.0
230
1.0
 70
    11
 71
     3
 72
    17
 73
    13
 74
     0
 42
0.0000000001
 43
0.0000000001
 12
1.0
 22
0.0
 32
0.0
 13
1.0
 23
0.0
 33
0.0
 40
0.0
 40
0.0
 40
0.0
 40
0.0
 40
1.0
 40
1.0
 40
1.0
 40
2.0
 40
2.0
 40
2.0
 40
3.0
 40
3.0
 40
3.0
 40
4.0
 40
4.0
 40
4.0
 40
4.0
 10
119.1513999702123
 20
-145.8412260746508
 30
0.0
 10
119.1513999702123
 20
-145.7861221857758
 30
0.0
 10
119.1065971924456
 20
-145.7413194080091
 30
0.0
 10
119.0514902960768
 20
-145.7413194080091
 30
0.0
 10
118.9956455752793
 20
-145.7413194080091
 30
0.0
 10
118.9508780764214
 20
-145.7861221857758
 30
0.0
 10
118.9508780764214
 20
-145.8412260746508
 30
0.0
 10
118.9508780764214
 20
-145.8963652413038
 30
0.0
 10
118.9956455752793
 20
-145.9411327412924
 30
0.0
 10
119.0514902960768
 20
-145.9411327412924
 30
0.0
 10
119.1065971924456
 20
-145.9411327412924
 30
0.0
 10
119.1513999702123
 20
-145.8963652413038
 30
0.0
 10
119.1513999702123
 20
-145.8412260746508
 30
0.0
  0
SPLINE
  5
65
330
1F
100
AcDbEntity
  8
_U+30EC_U+30A4_U+30E4_U+30FC 1
 62
     7
420
 16777215
370
     9
100
AcDbSpline
210
0.0
220
0.0
230
1.0
 70
    11
 71
     3
 72
    17
 73
    13
 74
     0
 42
0.0000000001
 43
0.0000000001
 12
1.0
 22
0.0
 32
0.0
 13
1.0
 23
0.0
 33
0.0
 40
0.0
 40
0.0
 40
0.0
 40
0.0
 40
1.0
 40
1.0
 40
1.0
 40
2.0
 40
2.0
 40
2.0
 40
3.0
 40
3.0
 40
3.0
 40
4.0
 40
4.0
 40
4.0
 40
4.0
 10
119.1513999702123
 20
-152.823051072905
 30
0.0
 10
119.1513999702123
 20
-152.7675944062524
 30
0.0
 10
119.1065971924456
 20
-152.7227916284863
 30
0.0
 10
119.0514902960768
 20
-152.7227916284863
 30
0.0
 10
118.9956455752793
 20
-152.7227916284863
 30
0.0
 10
118.9508780764214
 20
-152.7675944062524
 30
0.0
 10
118.9508780764214
 20
-152.823051072905
 30
0.0
 10
118.9508780764214
 20
-152.8781902395581
 30
0.0
 10
118.9956455752793
 20
-152.9229577395473
 30
0.0
 10
119.0514902960768
 20
-152.9229577395473
 30
0.0
 10
119.1065971924456
 20
-152.9229577395473
 30
0.0
 10
119.1513999702123
 20
-152.8781902395581
 30
0.0
 10
119.1513999702123
 20
-152.823051072905
 30
0.0
  0
SPLINE
  5
66
330
1F
100
AcDbEntity
  8
_U+30EC_U+30A4_U+30E4_U+30FC 1
 62
     7
420
 16777215
370
     9
100
AcDbSpline
210
0.0
220
0.0
230
1.0
 70
    11
 71
     3
 72
    17
 73
    13
 74
     0
 42
0.0000000001
 43
0.0000000001
 12
1.0
 22
0.0
 32
0.0
 13
1.0
 23
0.0
 33
0.0
 40
0.0
 40
0.0
 40
0.0
 40
0.0
 40
1.0
 40
1.0
 40
1.0
 40
2.0
 40
2.0
 40
2.0
 40
3.0
 40
3.0
 40
3.0
 40
4.0
 40
4.0
 40
4.0
 40
4.0
 10
104.1567895649611
 20
-152.823051072905
 30
0.0
 10
104.1567895649611
 20
-152.7675944062524
 30
0.0
 10
104.1119867883264
 20
-152.7227916284863
 30
0.0
 10
104.0568829008433
 20
-152.7227916284863
 30
0.0
 10
104.0017437355834
 20
-152.7227916284863
 30
0.0
 10
103.9569762367255
 20
-152.7675944062524
 30
0.0
 10
103.9569762367255
 20
-152.823051072905
 30
0.0
 10
103.9569762367255
 20
-152.8781902395581
 30
0.0
 10
104.0017437355834
 20
-152.9229577395473
 30
0.0
 10
104.0568829008433
 20
-152.9229577395473
 30
0.0
 10
104.1119867883264
 20
-152.9229577395473
 30
0.0
 10
104.1567895649611
 20
-152.8781902395581
 30
0.0
 10
104.1567895649611
 20
-152.823051072905
 30
0.0
  0
SPLINE
  5
67
330
1F
100
AcDbEntity
  8
_U+30EC_U+30A4_U+30E4_U+30FC 1
 62
     7
420
 16777215
370
     9
100
AcDbSpline
210
0.0
220
0.0
230
1.0
 70
    11
 71
     3
 72
    17
 73
    13
 74
     0
 42
0.0000000001
 43
0.0000000001
 12
1.0
 22
0.0
 32
0.0
 13
1.0
 23
0.0
 33
0.0
 40
0.0
 40
0.0
 40
0.0
 40
0.0
 40
1.0
 40
1.0
 40
1.0
 40
2.0
 40
2.0
 40
2.0
 40
3.0
 40
3.0
 40
3.0
 40
4.0
 40
4.0
 40
4.0
 40
4.0
 10
104.1567895649611
 20
-153.3229371838916
 30
0.0
 10
104.1567895649611
 20
-153.2678332950161
 30
0.0
 10
104.1119867883264
 20
-153.22303051725
 30
0.0
 10
104.0568829008433
 20
-153.22303051725
 30
0.0
 10
104.0017437355834
 20
-153.22303051725
 30
0.0
 10
103.9569762367255
 20
-153.2678332950161
 30
0.0
 10
103.9569762367255
 20
-153.3229371838916
 30
0.0
 10
103.9569762367255
 20
-153.3780763505441
 30
0.0
 10
104.0017437355834
 20
-153.4228438505333
 30
0.0
 10
104.0568829008433
 20
-153.4228438505333
 30
0.0
 10
104.1119867883264
 20
-153.4228438505333
 30
0.0
 10
104.1567895649611
 20
-153.3780763505441
 30
0.0
 10
104.1567895649611
 20
-153.3229371838916
 30
0.0
  0
SPLINE
  5
68
330
1F
100
AcDbEntity
  8
_U+30EC_U+30A4_U+30E4_U+30FC 1
 62
     7
420
 16777215
370
     9
100
AcDbSpline
210
0.0
220
0.0
230
1.0
 70
    11
 71
     3
 72
    17
 73
    13
 74
     0
 42
0.0000000001
 43
0.0000000001
 12
1.0
 22
0.0
 32
0.0
 13
1.0
 23
0.0
 33
0.0
 40
0.0
 40
0.0
 40
0.0
 40
0.0
 40
1.0
 40
1.0
 40
1.0
 40
2.0
 40
2.0
 40
2.0
 40
3.0
 40
3.0
 40
3.0
 40
4.0
 40
4.0
 40
4.0
 40
4.0
 10
100.1573480003287
 20
-157.8229352383222
 30
0.0
 10
100.1573480003287
 20
-157.7677960716692
 30
0.0
 10
100.1125805014708
 20
-157.7230285716806
 30
0.0
 10
100.0567710584502
 20
-157.7230285716806
 30
0.0
 10
100.0016318931903
 20
-157.7230285716806
 30
0.0
 10
99.95686439433238
 20
-157.7677960716692
 30
0.0
 10
99.95686439433238
 20
-157.8229352383222
 30
0.0
 10
99.95686439433238
 20
-157.8780391271972
 30
0.0
 10
100.0016318931903
 20
-157.9228419049639
 30
0.0
 10
100.0567710584502
 20
-157.9228419049639
 30
0.0
 10
100.1125805014708
 20
-157.9228419049639
 30
0.0
 10
100.1573480003287
 20
-157.8780391271972
 30
0.0
 10
100.1573480003287
 20
-157.8229352383222
 30
0.0
  0
SPLINE
  5
69
330
1F
100
AcDbEntity
  8
_U+30EC_U+30A4_U+30E4_U+30FC 1
 62
     7
420
 16777215
370
     9
100
AcDbSpline
210
0.0
220
0.0
230
1.0
 70
    11
 71
     3
 72
    17
 73
    13
 74
     0
 42
0.0000000001
 43
0.0000000001
 12
1.0
 22
0.0
 32
0.0
 13
1.0
 23
0.0
 33
0.0
 40
0.0
 40
0.0
 40
0.0
 40
0.0
 40
1.0
 40
1.0
 40
1.0
 40
2.0
 40
2.0
 40
2.0
 40
3.0
 40
3.0
 40
3.0
 40
4.0
 40
4.0
 40
4.0
 40
4.0
 10
90.15108881116522
 20
-157.8229352383222
 30
0.0
 10
90.15108881116522
 20
-157.7677960716692
 30
0.0
 10
90.10628603453046
 20
-157.7230285716806
 30
0.0
 10
90.05118214704738
 20
-157.7230285716806
 30
0.0
 10
89.99604298178744
 20
-157.7230285716806
 30
0.0
 10
89.95127775528981
 20
-157.7677960716692
 30
0.0
 10
89.95127775528981
 20
-157.8229352383222
 30
0.0
 10
89.95127775528981
 20
-157.8780391271972
 30
0.0
 10
89.99604298178744
 20
-157.9228419049639
 30
0.0
 10
90.05118214704738
 20
-157.9228419049639
 30
0.0
 10
90.10628603453046
 20
-157.9228419049639
 30
0.0
 10
90.15108881116522
 20
-157.8780391271972
 30
0.0
 10
90.15108881116522
 20
-157.8229352383222
 30
0.0
  0
POLYLINE
  5
6A
330
1F
100
AcDbEntity
  8
_U+30EC_U+30A4_U+30E4_U+30FC 1
 62
     7
420
 16777215
370
     9
100
AcDb2dPolyline
 66
     1
 10
0.0
 20
0.0
 30
0.0
  0
VERTEX
  5
6B
330
6A
100
AcDbEntity
  8
_U+30EC_U+30A4_U+30E4_U+30FC 1
 62
     7
420
 16777215
370
     9
100
AcDbVertex
100
AcDb2dVertex
 10
90.05118214704738
 20
-140.8415182981231
 30
0.0
  0
VERTEX
  5
6C
330
6A
100
AcDbEntity
  8
_U+30EC_U+30A4_U+30E4_U+30FC 1
 62
     7
420
 16777215
370
     9
100
AcDbVertex
100
AcDb2dVertex
 10
115.0510256759149
 20
-140.8415182981231
 30
0.0
  0
SEQEND
  5
6D
330
6A
100
AcDbEntity
  8
_U+30EC_U+30A4_U+30E4_U+30FC 1
 62
     7
420
 16777215
370
     9
  0
POLYLINE
  5
6E
330
1F
100
AcDbEntity
  8
_U+30EC_U+30A4_U+30E4_U+30FC 1
 62
     7
420
 16777215
370
     9
100
AcDb2dPolyline
 66
     1
 10
0.0
 20
0.0
 30
0.0
  0
VERTEX
  5
6F
330
6E
100
AcDbEntity
  8
_U+30EC_U+30A4_U+30E4_U+30FC 1
 62
     7
420
 16777215
370
     9
100
AcDbVertex
100
AcDb2dVertex
 10
90.05118214704738
 20
-142.3010305199802
 30
0.0
  0
VERTEX
  5
70
330
6E
100
AcDbEntity
  8
_U+30EC_U+30A4_U+30E4_U+30FC 1
 62
     7
420
 16777215
370
     9
100
AcDbVertex
100
AcDb2dVertex
 10
90.05118214704738
 20
-139.8417813539284
 30
0.0
  0
SEQEND
  5
71
330
6E
100
AcDbEntity
  8
_U+30EC_U+30A4_U+30E4_U+30FC 1
 62
     7
420
 16777215
370
     9
  0
POLYLINE
  5
72
330
1F
100
AcDbEntity
  8
_U+30EC_U+30A4_U+30E4_U+30FC 1
 62
     7
420
 16777215
370
     9
100
AcDb2dPolyline
 66
     1
 10
0.0
 20
0.0
 30
0.0
  0
VERTEX
  5
73
330
72
100
AcDbEntity
  8
_U+30EC_U+30A4_U+30E4_U+30FC 1
 62
     7
420
 16777215
370
     9
100
AcDbVertex
100
AcDb2dVertex
 10
115.0510256759149
 20
-142.3010305199802
 30
0.0
  0
VERTEX
  5
74
330
72
100
AcDbEntity
  8
_U+30EC_U+30A4_U+30E4_U+30FC 1
 62
     7
420
 16777215
370
     9
100
AcDbVertex
100
AcDb2dVertex
 10
115.0510256759149
 20
-139.8417813539284
 30
0.0
  0
SEQEND
  5
75
330
72
100
AcDbEntity
  8
_U+30EC_U+30A4_U+30E4_U+30FC 1
 62
     7
420
 16777215
370
     9
  0
INSERT
  5
77
330
1F
100
AcDbEntity
  8
_U+30EC_U+30A4_U+30E4_U+30FC 1
100
AcDbBlockReference
  2
block 2
 10
0.0
 20
0.0
 30
0.0
  0
POLYLINE
  5
7E
330
1F
100
AcDbEntity
  8
_U+30EC_U+30A4_U+30E4_U+30FC 1
 62
     7
420
 16777215
370
     9
100
AcDb2dPolyline
 66
     1
 10
0.0
 20
0.0
 30
0.0
  0
VERTEX
  5
7F
330
7E
100
AcDbEntity
  8
_U+30EC_U+30A4_U+30E4_U+30FC 1
 62
     7
420
 16777215
370
     9
100
AcDbVertex
100
AcDb2dVertex
 10
90.05118214704738
 20
-157.8229352383222
 30
0.0
  0
VERTEX
  5
80
330
7E
100
AcDbEntity
  8
_U+30EC_U+30A4_U+30E4_U+30FC 1
 62
     7
420
 16777215
370
     9
100
AcDbVertex
100
AcDb2dVertex
 10
100.0567710584502
 20
-157.8229352383222
 30
0.0
  0
SEQEND
  5
81
330
7E
100
AcDbEntity
  8
_U+30EC_U+30A4_U+30E4_U+30FC 1
 62
     7
420
 16777215
370
     9
  0
POLYLINE
  5
82
330
1F
100
AcDbEntity
  8
_U+30EC_U+30A4_U+30E4_U+30FC 1
 62
     7
420
 16777215
370
     9
100
AcDb2dPolyline
 66
     1
 10
0.0
 20
0.0
 30
0.0
  0
VERTEX
  5
83
330
82
100
AcDbEntity
  8
_U+30EC_U+30A4_U+30E4_U+30FC 1
 62
     7
420
 16777215
370
     9
100
AcDbVertex
100
AcDb2dVertex
 10
90.05118214704738
 20
-156.3628938497979
 30
0.0
  0
VERTEX
  5
84
330
82
100
AcDbEntity
  8
_U+30EC_U+30A4_U+30E4_U+30FC 1
 62
     7
420
 16777215
370
     9
100
AcDbVertex
100
AcDb2dVertex
 10
90.05118214704738
 20
-158.8230249602944
 30
0.0
  0
SEQEND
  5
85
330
82
100
AcDbEntity
  8
_U+30EC_U+30A4_U+30E4_U+30FC 1
 62
     7
420
 16777215
370
     9
  0
POLYLINE
  5
86
330
1F
100
AcDbEntity
  8
_U+30EC_U+30A4_U+30E4_U+30FC 1
 62
     7
420
 16777215
370
     9
100
AcDb2dPolyline
 66
     1
 10
0.0
 20
0.0
 30
0.0
  0
VERTEX
  5
87
330
86
100
AcDbEntity
  8
_U+30EC_U+30A4_U+30E4_U+30FC 1
 62
     7
420
 16777215
370
     9
100
AcDbVertex
100
AcDb2dVertex
 10
100.0567710584502
 20
-155.8630077388119
 30
0.0
  0
VERTEX
  5
88
330
86
100
AcDbEntity
  8
_U+30EC_U+30A4_U+30E4_U+30FC 1
 62
     7
420
 16777215
370
     9
100
AcDbVertex
100
AcDb2dVertex
 10
100.0567710584502
 20
-158.8230249602944
 30
0.0
  0
SEQEND
  5
89
330
86
100
AcDbEntity
  8
_U+30EC_U+30A4_U+30E4_U+30FC 1
 62
     7
420
 16777215
370
     9
  0
INSERT
  5
8B
330
1F
100
AcDbEntity
  8
_U+30EC_U+30A4_U+30E4_U+30FC 1
100
AcDbBlockReference
  2
block 3
 10
0.0
 20
0.0
 30
0.0
  0
POLYLINE
  5
93
330
1F
100
AcDbEntity
  8
_U+30EC_U+30A4_U+30E4_U+30FC 1
 62
     7
420
 16777215
370
     9
100
AcDb2dPolyline
 66
     1
 10
0.0
 20
0.0
 30
0.0
  0
VERTEX
  5
94
330
93
100
AcDbEntity
  8
_U+30EC_U+30A4_U+30E4_U+30FC 1
 62
     7
420
 16777215
370
     9
100
AcDbVertex
100
AcDb2dVertex
 10
104.0568829008433
 20
-152.823051072905
 30
0.0
  0
VERTEX
  5
95
330
93
100
AcDbEntity
  8
_U+30EC_U+30A4_U+30E4_U+30FC 1
 62
     7
420
 16777215
370
     9
100
AcDbVertex
100
AcDb2dVertex
 10
104.0568829008433
 20
-154.3230621836413
 30
0.0
  0
SEQEND
  5
96
330
93
100
AcDbEntity
  8
_U+30EC_U+30A4_U+30E4_U+30FC 1
 62
     7
420
 16777215
370
     9
  0
POLYLINE
  5
97
330
1F
100
AcDbEntity
  8
_U+30EC_U+30A4_U+30E4_U+30FC 1
 62
     7
420
 16777215
370
     9
100
AcDb2dPolyline
 66
     1
 10
0.0
 20
0.0
 30
0.0
  0
VERTEX
  5
98
330
97
100
AcDbEntity
  8
_U+30EC_U+30A4_U+30E4_U+30FC 1
 62
     7
420
 16777215
370
     9
100
AcDbVertex
100
AcDb2dVertex
 10
102.5968415492032
 20
-152.823051072905
 30
0.0
  0
VERTEX
  5
99
330
97
100
AcDbEntity
  8
_U+30EC_U+30A4_U+30E4_U+30FC 1
 62
     7
420
 16777215
370
     9
100
AcDbVertex
100
AcDb2dVertex
 10
105.0566198197823
 20
-152.823051072905
 30
0.0
  0
SEQEND
  5
9A
330
97
100
AcDbEntity
  8
_U+30EC_U+30A4_U+30E4_U+30FC 1
 62
     7
420
 16777215
370
     9
  0
POLYLINE
  5
9B
330
1F
100
AcDbEntity
  8
_U+30EC_U+30A4_U+30E4_U+30FC 1
 62
     7
420
 16777215
370
     9
100
AcDb2dPolyline
 66
     1
 10
0.0
 20
0.0
 30
0.0
  0
VERTEX
  5
9C
330
9B
100
AcDbEntity
  8
_U+30EC_U+30A4_U+30E4_U+30FC 1
 62
     7
420
 16777215
370
     9
100
AcDbVertex
100
AcDb2dVertex
 10
102.5968415492032
 20
-153.3229371838916
 30
0.0
  0
VERTEX
  5
9D
330
9B
100
AcDbEntity
  8
_U+30EC_U+30A4_U+30E4_U+30FC 1
 62
     7
420
 16777215
370
     9
100
AcDbVertex
100
AcDb2dVertex
 10
105.0566198197823
 20
-153.3229371838916
 30
0.0
  0
SEQEND
  5
9E
330
9B
100
AcDbEntity
  8
_U+30EC_U+30A4_U+30E4_U+30FC 1
 62
     7
420
 16777215
370
     9
  0
POLYLINE
  5
9F
330
1F
100
AcDbEntity
  8
_U+30EC_U+30A4_U+30E4_U+30FC 1
 62
     7
420
 16777215
370
     9
100
AcDb2dPolyline
 66
     1
 10
0.0
 20
0.0
 30
0.0
  0
VERTEX
  5
A0
330
9F
100
AcDbEntity
  8
_U+30EC_U+30A4_U+30E4_U+30FC 1
 62
     7
420
 16777215
370
     9
100
AcDbVertex
100
AcDb2dVertex
 10
119.0514902960768
 20
-144.8414538526785
 30
0.0
  0
VERTEX
  5
A1
330
9F
100
AcDbEntity
  8
_U+30EC_U+30A4_U+30E4_U+30FC 1
 62
     7
420
 16777215
370
     9
100
AcDbVertex
100
AcDb2dVertex
 10
119.0514902960768
 20
-141.0716705202878
 30
0.0
  0
SEQEND
  5
A2
330
9F
100
AcDbEntity
  8
_U+30EC_U+30A4_U+30E4_U+30FC 1
 62
     7
420
 16777215
370
     9
  0
POLYLINE
  5
A3
330
1F
100
AcDbEntity
  8
_U+30EC_U+30A4_U+30E4_U+30FC 1
 62
     7
420
 16777215
370
     9
100
AcDb2dPolyline
 66
     1
 10
0.0
 20
0.0
 30
0.0
  0
VERTEX
  5
A4
330
A3
100
AcDbEntity
  8
_U+30EC_U+30A4_U+30E4_U+30FC 1
 62
     7
420
 16777215
370
     9
100
AcDbVertex
100
AcDb2dVertex
 10
119.0514902960768
 20
-144.8414538526785
 30
0.0
  0
VERTEX
  5
A5
330
A3
100
AcDbEntity
  8
_U+30EC_U+30A4_U+30E4_U+30FC 1
 62
     7
420
 16777215
370
     9
100
AcDbVertex
100
AcDb2dVertex
 10
119.0514902960768
 20
-145.8412260746508
 30
0.0
  0
SEQEND
  5
A6
330
A3
100
AcDbEntity
  8
_U+30EC_U+30A4_U+30E4_U+30FC 1
 62
     7
420
 16777215
370
     9
  0
POLYLINE
  5
A7
330
1F
100
AcDbEntity
  8
_U+30EC_U+30A4_U+30E4_U+30FC 1
 62
     7
420
 16777215
370
     9
100
AcDb2dPolyline
 66
     1
 10
0.0
 20
0.0
 30
0.0
  0
VERTEX
  5
A8
330
A7
100
AcDbEntity
  8
_U+30EC_U+30A4_U+30E4_U+30FC 1
 62
     7
420
 16777215
370
     9
100
AcDbVertex
100
AcDb2dVertex
 10
117.5914489444366
 20
-144.8414538526785
 30
0.0
  0
VERTEX
  5
A9
330
A7
100
AcDbEntity
  8
_U+30EC_U+30A4_U+30E4_U+30FC 1
 62
     7
420
 16777215
370
     9
100
AcDbVertex
100
AcDb2dVertex
 10
120.0512272150158
 20
-144.8414538526785
 30
0.0
  0
SEQEND
  5
AA
330
A7
100
AcDbEntity
  8
_U+30EC_U+30A4_U+30E4_U+30FC 1
 62
     7
420
 16777215
370
     9
  0
POLYLINE
  5
AB
330
1F
100
AcDbEntity
  8
_U+30EC_U+30A4_U+30E4_U+30FC 1
 62
     7
420
 16777215
370
     9
100
AcDb2dPolyline
 66
     1
 10
0.0
 20
0.0
 30
0.0
  0
VERTEX
  5
AC
330
AB
100
AcDbEntity
  8
_U+30EC_U+30A4_U+30E4_U+30FC 1
 62
     7
420
 16777215
370
     9
100
AcDbVertex
100
AcDb2dVertex
 10
117.5914489444366
 20
-145.8412260746508
 30
0.0
  0
VERTEX
  5
AD
330
AB
100
AcDbEntity
  8
_U+30EC_U+30A4_U+30E4_U+30FC 1
 62
     7
420
 16777215
370
     9
100
AcDbVertex
100
AcDb2dVertex
 10
120.0512272150158
 20
-145.8412260746508
 30
0.0
  0
SEQEND
  5
AE
330
AB
100
AcDbEntity
  8
_U+30EC_U+30A4_U+30E4_U+30FC 1
 62
     7
420
 16777215
370
     9
  0
INSERT
  5
B0
330
1F
100
AcDbEntity
  8
_U+30EC_U+30A4_U+30E4_U+30FC 1
100
AcDbBlockReference
  2
block 4
 10
0.0
 20
0.0
 30
0.0
  0
POLYLINE
  5
B5
330
1F
100
AcDbEntity
  8
_U+30EC_U+30A4_U+30E4_U+30FC 1
 62
     7
420
 16777215
370
     9
100
AcDb2dPolyline
 66
     1
 10
0.0
 20
0.0
 30
0.0
  0
VERTEX
  5
B6
330
B5
100
AcDbEntity
  8
_U+30EC_U+30A4_U+30E4_U+30FC 1
 62
     7
420
 16777215
370
     9
100
AcDbVertex
100
AcDb2dVertex
 10
119.0514902960768
 20
-145.8412260746508
 30
0.0
  0
VERTEX
  5
B7
330
B5
100
AcDbEntity
  8
_U+30EC_U+30A4_U+30E4_U+30FC 1
 62
     7
420
 16777215
370
     9
100
AcDbVertex
100
AcDb2dVertex
 10
119.0514902960768
 20
-152.823051072905
 30
0.0
  0
SEQEND
  5
B8
330
B5
100
AcDbEntity
  8
_U+30EC_U+30A4_U+30E4_U+30FC 1
 62
     7
420
 16777215
370
     9
  0
POLYLINE
  5
B9
330
1F
100
AcDbEntity
  8
_U+30EC_U+30A4_U+30E4_U+30FC 1
 62
     7
420
 16777215
370
     9
100
AcDb2dPolyline
 66
     1
 10
0.0
 20
0.0
 30
0.0
  0
VERTEX
  5
BA
330
B9
100
AcDbEntity
  8
_U+30EC_U+30A4_U+30E4_U+30FC 1
 62
     7
420
 16777215
370
     9
100
AcDbVertex
100
AcDb2dVertex
 10
117.5914489444366
 20
-145.8412260746508
 30
0.0
  0
VERTEX
  5
BB
330
B9
100
AcDbEntity
  8
_U+30EC_U+30A4_U+30E4_U+30FC 1
 62
     7
420
 16777215
370
     9
100
AcDbVertex
100
AcDb2dVertex
 10
120.0512272150158
 20
-145.8412260746508
 30
0.0
  0
SEQEND
  5
BC
330
B9
100
AcDbEntity
  8
_U+30EC_U+30A4_U+30E4_U+30FC 1
 62
     7
420
 16777215
370
     9
  0
POLYLINE
  5
BD
330
1F
100
AcDbEntity
  8
_U+30EC_U+30A4_U+30E4_U+30FC 1
 62
     7
420
 16777215
370
     9
100
AcDb2dPolyline
 66
     1
 10
0.0
 20
0.0
 30
0.0
  0
VERTEX
  5
BE
330
BD
100
AcDbEntity
  8
_U+30EC_U+30A4_U+30E4_U+30FC 1
 62
     7
420
 16777215
370
     9
100
AcDbVertex
100
AcDb2dVertex
 10
102.5968415492032
 20
-152.823051072905
 30
0.0
  0
VERTEX
  5
BF
330
BD
100
AcDbEntity
  8
_U+30EC_U+30A4_U+30E4_U+30FC 1
 62
     7
420
 16777215
370
     9
100
AcDbVertex
100
AcDb2dVertex
 10
120.0512272150158
 20
-152.823051072905
 30
0.0
  0
SEQEND
  5
C0
330
BD
100
AcDbEntity
  8
_U+30EC_U+30A4_U+30E4_U+30FC 1
 62
     7
420
 16777215
370
     9
  0
INSERT
  5
C2
330
1F
100
AcDbEntity
  8
_U+30EC_U+30A4_U+30E4_U+30FC 1
100
AcDbBlockReference
  2
block 5
 10
0.0
 20
0.0
 30
0.0
  0
POLYLINE
  5
C7
330
1F
100
AcDbEntity
  8
_U+30EC_U+30A4_U+30E4_U+30FC 1
 62
     7
420
 16777215
370
     9
100
AcDb2dPolyline
 66
     1
 10
0.0
 20
0.0
 30
0.0
  0
VERTEX
  5
C8
330
C7
100
AcDbEntity
  8
_U+30EC_U+30A4_U+30E4_U+30FC 1
 62
     7
420
 16777215
370
     9
100
AcDbVertex
100
AcDb2dVertex
 10
104.0568829008433
 20
-152.823051072905
 30
0.0
  0
VERTEX
  5
C9
330
C7
100
AcDbEntity
  8
_U+30EC_U+30A4_U+30E4_U+30FC 1
 62
     7
420
 16777215
370
     9
100
AcDbVertex
100
AcDb2dVertex
 10
104.0568829008433
 20
-148.3619996851319
 30
0.0
  0
SEQEND
  5
CA
330
C7
100
AcDbEntity
  8
_U+30EC_U+30A4_U+30E4_U+30FC 1
 62
     7
420
 16777215
370
     9
  0
INSERT
  5
CC
330
1F
100
AcDbEntity
  8
_U+30EC_U+30A4_U+30E4_U+30FC 1
100
AcDbBlockReference
  2
block 6
 10
0.0
 20
0.0
 30
0.0
  0
ENDSEC
  0
SECTION
  2
OBJECTS
  0
DICTIONARY
  5
C
330
0
100
AcDbDictionary
281
     1
  3
ACAD_GROUP
350
D
  3
ACAD_LAYOUT
350
1A
  3
ACAD_MATERIAL
350
3B
  3
ACAD_MLEADERSTYLE
350
DD
  3
ACAD_MLINESTYLE
350
17
  3
ACAD_PLOTSETTINGS
350
19
  3
ACAD_PLOTSTYLENAME
350
E
  3
ACAD_TABLESTYLE
350
DC
  3
ACAD_VISUALSTYLE
350
2A
  0
SUN
  5
3F
330
29
100
AcDbSun
 90
        1
290
     0
 63
     7
421
 16777215
 40
1.0
291
     1
 91
  2455826
 92
 54000000
292
     0
 70
     2
 71
   256
280
     1
  0
DICTIONARY
  5
D
102
{ACAD_REACTORS
330
C
102
}
330
C
100
AcDbDictionary
281
     1
  0
DICTIONARY
  5
1A
102
{ACAD_REACTORS
330
C
102
}
330
C
100
AcDbDictionary
281
     1
  3
Layout1
350
1E
  3
Layout2
350
26
  3
Model
350
22
  0
DICTIONARY
  5
3B
102
{ACAD_REACTORS
330
C
102
}
330
C
100
AcDbDictionary
281
     1
  3
ByBlock
350
3D
  3
ByLayer
350
3C
  3
Global
350
3E
  0
DICTIONARY
  5
DD
102
{ACAD_REACTORS
330
C
102
}
330
C
100
AcDbDictionary
281
     1
  0
DICTIONARY
  5
17
102
{ACAD_REACTORS
330
C
102
}
330
C
100
AcDbDictionary
281
     1
  3
Standard
350
18
  0
DICTIONARY
  5
19
102
{ACAD_REACTORS
330
C
102
}
330
C
100
AcDbDictionary
281
     1
  0
ACDBDICTIONARYWDFLT
  5
E
102
{ACAD_REACTORS
330
C
102
}
330
C
100
AcDbDictionary
281
     1
  3
Normal
350
F
100
AcDbDictionaryWithDefault
340
F
  0
DICTIONARY
  5
DC
102
{ACAD_REACTORS
330
C
102
}
330
C
100
AcDbDictionary
281
     1
  0
DICTIONARY
  5
2A
102
{ACAD_REACTORS
330
C
102
}
330
C
100
AcDbDictionary
281
     1
  3
2dWireframe
350
2F
  3
3D Hidden
350
31
  3
3dWireframe
350
30
  3
Basic
350
32
  3
Brighten
350
36
  3
ColorChange
350
3A
  3
Conceptual
350
34
  3
Dim
350
35
  3
Facepattern
350
39
  3
Flat
350
2B
  3
FlatWithEdges
350
2C
  3
Gouraud
350
2D
  3
GouraudWithEdges
350
2E
  3
Linepattern
350
38
  3
Realistic
350
33
  3
Thicken
350
37
  0
LAYOUT
  5
1E
102
{ACAD_REACTORS
330
1A
102
}
330
1A
100
AcDbPlotSettings
  1

  2
none_device
  4

  6

 40
0.0
 41
0.0
 42
0.0
 43
0.0
 44
0.0
 45
0.0
 46
0.0
 47
0.0
 48
0.0
 49
0.0
140
0.0
141
0.0
142
1.0
143
1.0
 70
   688
 72
     0
 73
     0
 74
     5
  7

 75
    16
 76
     0
 77
     2
 78
   300
147
1.0
148
0.0
149
0.0
100
AcDbLayout
  1
Layout1
 70
     1
 71
     1
 10
0.0
 20
0.0
 11
12.0
 21
9.0
 12
0.0
 22
0.0
 32
0.0
 14
1.000000000000000E+20
 24
1.000000000000000E+20
 34
1.000000000000000E+20
 15
-1.000000000000000E+20
 25
-1.000000000000000E+20
 35
-1.000000000000000E+20
146
0.0
 13
0.0
 23
0.0
 33
0.0
 16
1.0
 26
0.0
 36
0.0
 17
0.0
 27
1.0
 37
0.0
 76
     0
330
1B
  0
LAYOUT
  5
26
102
{ACAD_REACTORS
330
1A
102
}
330
1A
100
AcDbPlotSettings
  1

  2
none_device
  4

  6

 40
0.0
 41
0.0
 42
0.0
 43
0.0
 44
0.0
 45
0.0
 46
0.0
 47
0.0
 48
0.0
 49
0.0
140
0.0
141
0.0
142
1.0
143
1.0
 70
   688
 72
     0
 73
     0
 74
     5
  7

 75
    16
 76
     0
 77
     2
 78
   300
147
1.0
148
0.0
149
0.0
100
AcDbLayout
  1
Layout2
 70
     1
 71
     2
 10
0.0
 20
0.0
 11
0.0
 21
0.0
 12
0.0
 22
0.0
 32
0.0
 14
0.0
 24
0.0
 34
0.0
 15
0.0
 25
0.0
 35
0.0
146
0.0
 13
0.0
 23
0.0
 33
0.0
 16
1.0
 26
0.0
 36
0.0
 17
0.0
 27
1.0
 37
0.0
 76
     0
330
23
  0
LAYOUT
  5
22
102
{ACAD_REACTORS
330
1A
102
}
330
1A
100
AcDbPlotSettings
  1

  2
none_device
  4

  6

 40
0.0
 41
0.0
 42
0.0
 43
0.0
 44
0.0
 45
0.0
 46
0.0
 47
0.0
 48
0.0
 49
0.0
140
0.0
141
0.0
142
1.0
143
1.0
 70
  1712
 72
     0
 73
     0
 74
     0
  7

 75
     0
 76
     0
 77
     2
 78
   300
147
1.0
148
0.0
149
0.0
100
AcDbLayout
  1
Model
 70
     1
 71
     0
 10
0.0
 20
0.0
 11
12.0
 21
9.0
 12
0.0
 22
0.0
 32
0.0
 14
1.000000000000000E+20
 24
1.000000000000000E+20
 34
1.000000000000000E+20
 15
-1.000000000000000E+20
 25
-1.000000000000000E+20
 35
-1.000000000000000E+20
146
0.0
 13
0.0
 23
0.0
 33
0.0
 16
1.0
 26
0.0
 36
0.0
 17
0.0
 27
1.0
 37
0.0
 76
     0
330
1F
331
29
  0
MATERIAL
  5
3D
102
{ACAD_REACTORS
330
3B
102
}
330
3B
100
AcDbMaterial
  1
ByBlock
 72
     1
 94
      127
  0
MATERIAL
  5
3C
102
{ACAD_REACTORS
330
3B
102
}
330
3B
100
AcDbMaterial
  1
ByLayer
 72
     1
 94
      127
  0
MATERIAL
  5
3E
102
{ACAD_REACTORS
330
3B
102
}
330
3B
100
AcDbMaterial
  1
Global
 72
     1
 94
      127
  0
MLINESTYLE
  5
18
102
{ACAD_REACTORS
330
17
102
}
330
17
100
AcDbMlineStyle
  2
Standard
 70
     0
  3

 62
   256
 51
90.0
 52
90.0
 71
     2
 49
0.5
 62
   256
  6
BYLAYER
 49
-0.5
 62
   256
  6
BYLAYER
  0
ACDBPLACEHOLDER
  5
F
102
{ACAD_REACTORS
330
E
102
}
330
E
  0
VISUALSTYLE
  5
2F
102
{ACAD_REACTORS
330
2A
102
}
330
2A
100
AcDbVisualStyle
  2
2dWireframe
 70
     4
177
     2
291
     0
 71
     0
176
     1
 72
     2
176
     1
 73
     0
176
     1
 90
        0
176
     1
 40
-0.6
176
     1
 41
-30.0
176
     1
 62
     5
 63
     7
421
 16777215
176
     1
 74
     1
176
     1
 91
        4
176
     1
 64
     7
176
     1
 65
   257
176
     1
 75
     1
176
     1
175
     1
176
     1
 42
1.0
176
     1
 92
        0
176
     1
 66
   257
176
     1
 43
1.0
176
     1
 76
     1
176
     1
 77
     6
176
     1
 78
     2
176
     1
 67
     7
176
     1
 79
     5
176
     1
170
     0
176
     1
171
     0
176
     1
290
     0
176
     1
 93
        1
176
     1
 44
0.0
176
     1
173
     0
176
     1
  0
VISUALSTYLE
  5
31
102
{ACAD_REACTORS
330
2A
102
}
330
2A
100
AcDbVisualStyle
  2
3D Hidden
 70
     6
177
     2
291
     0
 71
     1
176
     1
 72
     2
176
     1
 73
     2
176
     1
 90
        0
176
     1
 40
-0.6
176
     1
 41
-30.0
176
     1
 62
     5
 63
     7
421
 16777215
176
     1
 74
     2
176
     1
 91
        2
176
     1
 64
     7
176
     1
 65
   257
176
     1
 75
     2
176
     1
175
     1
176
     1
 42
40.0
176
     1
 92
        0
176
     1
 66
   257
176
     1
 43
1.0
176
     1
 76
     1
176
     1
 77
     6
176
     1
 78
     2
176
     1
 67
     7
176
     1
 79
     3
176
     1
170
     0
176
     1
171
     0
176
     1
290
     0
176
     1
 93
        1
176
     1
 44
0.0
176
     1
173
     0
176
     1
  0
VISUALSTYLE
  5
30
102
{ACAD_REACTORS
330
2A
102
}
330
2A
100
AcDbVisualStyle
  2
3dWireframe
 70
     5
177
     2
291
     0
 71
     0
176
     1
 72
     2
176
     1
 73
     0
176
     1
 90
        0
176
     1
 40
-0.6
176
     1
 41
-30.0
176
     1
 62
     5
 63
     7
421
 16777215
176
     1
 74
     1
176
     1
 91
        4
176
     1
 64
     7
176
     1
 65
   257
176
     1
 75
     1
176
     1
175
     1
176
     1
 42
1.0
176
     1
 92
        0
176
     1
 66
   257
176
     1
 43
1.0
176
     1
 76
     1
176
     1
 77
     6
176
     1
 78
     2
176
     1
 67
     7
176
     1
 79
     5
176
     1
170
     0
176
     1
171
     0
176
     1
290
     0
176
     1
 93
        1
176
     1
 44
0.0
176
     1
173
     0
176
     1
  0
VISUALSTYLE
  5
32
102
{ACAD_REACTORS
330
2A
102
}
330
2A
100
AcDbVisualStyle
  2
Basic
 70
     7
177
     2
291
     1
 71
     1
176
     1
 72
     0
176
     1
 73
     1
176
     1
 90
        0
176
     1
 40
-0.6
176
     1
 41
-30.0
176
     1
 62
     5
 63
     7
421
 16777215
176
     1
 74
     0
176
     1
 91
        4
176
     1
 64
     7
176
     1
 65
   257
176
     1
 75
     1
176
     1
175
     1
176
     1
 42
1.0
176
     1
 92
        8
176
     1
 66
     7
176
     1
 43
1.0
176
     1
 76
     1
176
     1
 77
     6
176
     1
 78
     2
176
     1
 67
     7
176
     1
 79
     5
176
     1
170
     0
176
     1
171
     0
176
     1
290
     0
176
     1
 93
        1
176
     1
 44
0.0
176
     1
173
     0
176
     1
  0
VISUALSTYLE
  5
36
102
{ACAD_REACTORS
330
2A
102
}
330
2A
100
AcDbVisualStyle
  2
Brighten
 70
    12
177
     2
291
     1
 71
     2
176
     1
 72
     2
176
     1
 73
     0
176
     1
 90
        0
176
     1
 40
-0.6
176
     1
 41
-30.0
176
     1
 62
     5
 63
     7
421
 16777215
176
     1
 74
     1
176
     1
 91
        4
176
     1
 64
     7
176
     1
 65
   257
176
     1
 75
     1
176
     1
175
     1
176
     1
 42
1.0
176
     1
 92
        8
176
     1
 66
     7
176
     1
 43
1.0
176
     1
 76
     1
176
     1
 77
     6
176
     1
 78
     2
176
     1
 67
     7
176
     1
 79
     5
176
     1
170
     0
176
     1
171
     0
176
     1
290
     0
176
     1
 93
        1
176
     1
 44
50.0
176
     1
173
     0
176
     1
  0
VISUALSTYLE
  5
3A
102
{ACAD_REACTORS
330
2A
102
}
330
2A
100
AcDbVisualStyle
  2
ColorChange
 70
    16
177
     2
291
     1
 71
     2
176
     1
 72
     2
176
     1
 73
     3
176
     1
 90
        0
176
     1
 40
-0.6
176
     1
 41
-30.0
176
     1
 62
     5
 63
     8
421
  8421504
176
     1
 74
     1
176
     1
 91
        4
176
     1
 64
     7
176
     1
 65
   257
176
     1
 75
     1
176
     1
175
     1
176
     1
 42
1.0
176
     1
 92
        8
176
     1
 66
     8
424
  8421504
176
     1
 43
1.0
176
     1
 76
     1
176
     1
 77
     6
176
     1
 78
     2
176
     1
 67
     7
176
     1
 79
     5
176
     1
170
     0
176
     1
171
     0
176
     1
290
     0
176
     1
 93
        1
176
     1
 44
0.0
176
     1
173
     0
176
     1
  0
VISUALSTYLE
  5
34
102
{ACAD_REACTORS
330
2A
102
}
330
2A
100
AcDbVisualStyle
  2
Conceptual
 70
     9
177
     2
291
     0
 71
     3
176
     1
 72
     2
176
     1
 73
     0
176
     1
 90
        0
176
     1
 40
-0.6
176
     1
 41
-30.0
176
     1
 62
     5
 63
     7
421
 16777215
176
     1
 74
     2
176
     1
 91
        2
176
     1
 64
     7
176
     1
 65
   257
176
     1
 75
     1
176
     1
175
     1
176
     1
 42
40.0
176
     1
 92
        8
176
     1
 66
     7
176
     1
 43
1.0
176
     1
 76
     1
176
     1
 77
     6
176
     1
 78
     2
176
     1
 67
     7
176
     1
 79
     3
176
     1
170
     0
176
     1
171
     0
176
     1
290
     0
176
     1
 93
        1
176
     1
 44
0.0
176
     1
173
     0
176
     1
  0
VISUALSTYLE
  5
35
102
{ACAD_REACTORS
330
2A
102
}
330
2A
100
AcDbVisualStyle
  2
Dim
 70
    11
177
     2
291
     1
 71
     2
176
     1
 72
     2
176
     1
 73
     0
176
     1
 90
        0
176
     1
 40
-0.6
176
     1
 41
-30.0
176
     1
 62
     5
 63
     7
421
 16777215
176
     1
 74
     1
176
     1
 91
        4
176
     1
 64
     7
176
     1
 65
   257
176
     1
 75
     1
176
     1
175
     1
176
     1
 42
1.0
176
     1
 92
        8
176
     1
 66
     7
176
     1
 43
1.0
176
     1
 76
     1
176
     1
 77
     6
176
     1
 78
     2
176
     1
 67
     7
176
     1
 79
     5
176
     1
170
     0
176
     1
171
     0
176
     1
290
     0
176
     1
 93
        1
176
     1
 44
-50.0
176
     1
173
     0
176
     1
  0
VISUALSTYLE
  5
39
102
{ACAD_REACTORS
330
2A
102
}
330
2A
100
AcDbVisualStyle
  2
Facepattern
 70
    15
177
     2
291
     1
 71
     2
176
     1
 72
     2
176
     1
 73
     0
176
     1
 90
        0
176
     1
 40
-0.6
176
     1
 41
-30.0
176
     1
 62
     5
 63
     7
421
 16777215
176
     1
 74
     1
176
     1
 91
        4
176
     1
 64
     7
176
     1
 65
   257
176
     1
 75
     1
176
     1
175
     1
176
     1
 42
1.0
176
     1
 92
        8
176
     1
 66
     7
176
     1
 43
1.0
176
     1
 76
     1
176
     1
 77
     6
176
     1
 78
     2
176
     1
 67
     7
176
     1
 79
     5
176
     1
170
     0
176
     1
171
     0
176
     1
290
     0
176
     1
 93
        1
176
     1
 44
0.0
176
     1
173
     0
176
     1
  0
VISUALSTYLE
  5
2B
102
{ACAD_REACTORS
330
2A
102
}
330
2A
100
AcDbVisualStyle
  2
Flat
 70
     0
177
     2
291
     1
 71
     2
176
     1
 72
     1
176
     1
 73
     1
176
     1
 90
        2
176
     1
 40
-0.6
176
     1
 41
30.0
176
     1
 62
     5
 63
     7
421
 16777215
176
     1
 74
     0
176
     1
 91
        4
176
     1
 64
     7
176
     1
 65
   257
176
     1
 75
     1
176
     1
175
     1
176
     1
 42
1.0
176
     1
 92
        8
176
     1
 66
     7
176
     1
 43
1.0
176
     1
 76
     1
176
     1
 77
     6
176
     1
 78
     2
176
     1
 67
     7
176
     1
 79
     5
176
     1
170
     0
176
     1
171
     0
176
     1
290
     0
176
     1
 93
       13
176
     1
 44
0.0
176
     1
173
     0
176
     1
  0
VISUALSTYLE
  5
2C
102
{ACAD_REACTORS
330
2A
102
}
330
2A
100
AcDbVisualStyle
  2
FlatWithEdges
 70
     1
177
     2
291
     1
 71
     2
176
     1
 72
     1
176
     1
 73
     1
176
     1
 90
        2
176
     1
 40
-0.6
176
     1
 41
30.0
176
     1
 62
     5
 63
     7
421
 16777215
176
     1
 74
     1
176
     1
 91
        4
176
     1
 64
     7
176
     1
 65
   257
176
     1
 75
     1
176
     1
175
     1
176
     1
 42
1.0
176
     1
 92
        0
176
     1
 66
   257
176
     1
 43
1.0
176
     1
 76
     1
176
     1
 77
     6
176
     1
 78
     2
176
     1
 67
     7
176
     1
 79
     5
176
     1
170
     0
176
     1
171
     0
176
     1
290
     0
176
     1
 93
       13
176
     1
 44
0.0
176
     1
173
     0
176
     1
  0
VISUALSTYLE
  5
2D
102
{ACAD_REACTORS
330
2A
102
}
330
2A
100
AcDbVisualStyle
  2
Gouraud
 70
     2
177
     2
291
     1
 71
     2
176
     1
 72
     2
176
     1
 73
     1
176
     1
 90
        2
176
     1
 40
-0.6
176
     1
 41
30.0
176
     1
 62
     5
 63
     7
421
 16777215
176
     1
 74
     0
176
     1
 91
        4
176
     1
 64
     7
176
     1
 65
   257
176
     1
 75
     1
176
     1
175
     1
176
     1
 42
1.0
176
     1
 92
        0
176
     1
 66
     7
176
     1
 43
1.0
176
     1
 76
     1
176
     1
 77
     6
176
     1
 78
     2
176
     1
 67
     7
176
     1
 79
     5
176
     1
170
     0
176
     1
171
     0
176
     1
290
     0
176
     1
 93
       13
176
     1
 44
0.0
176
     1
173
     0
176
     1
  0
VISUALSTYLE
  5
2E
102
{ACAD_REACTORS
330
2A
102
}
330
2A
100
AcDbVisualStyle
  2
GouraudWithEdges
 70
     3
177
     2
291
     1
 71
     2
176
     1
 72
     2
176
     1
 73
     1
176
     1
 90
        2
176
     1
 40
-0.6
176
     1
 41
30.0
176
     1
 62
     5
 63
     7
421
 16777215
176
     1
 74
     1
176
     1
 91
        4
176
     1
 64
     7
176
     1
 65
   257
176
     1
 75
     1
176
     1
175
     1
176
     1
 42
1.0
176
     1
 92
        0
176
     1
 66
   257
176
     1
 43
1.0
176
     1
 76
     1
176
     1
 77
     6
176
     1
 78
     2
176
     1
 67
     7
176
     1
 79
     5
176
     1
170
     0
176
     1
171
     0
176
     1
290
     0
176
     1
 93
       13
176
     1
 44
0.0
176
     1
173
     0
176
     1
  0
VISUALSTYLE
  5
38
102
{ACAD_REACTORS
330
2A
102
}
330
2A
100
AcDbVisualStyle
  2
Linepattern
 70
    14
177
     2
291
     1
 71
     2
176
     1
 72
     2
176
     1
 73
     0
176
     1
 90
        0
176
     1
 40
-0.6
176
     1
 41
-30.0
176
     1
 62
     5
 63
     7
421
 16777215
176
     1
 74
     1
176
     1
 91
        4
176
     1
 64
     7
176
     1
 65
   257
176
     1
 75
     7
176
     1
175
     7
176
     1
 42
1.0
176
     1
 92
        8
176
     1
 66
     7
176
     1
 43
1.0
176
     1
 76
     1
176
     1
 77
     6
176
     1
 78
     2
176
     1
 67
     7
176
     1
 79
     5
176
     1
170
     0
176
     1
171
     0
176
     1
290
     0
176
     1
 93
        1
176
     1
 44
0.0
176
     1
173
     0
176
     1
  0
VISUALSTYLE
  5
33
102
{ACAD_REACTORS
330
2A
102
}
330
2A
100
AcDbVisualStyle
  2
Realistic
 70
     8
177
     2
291
     0
 71
     2
176
     1
 72
     2
176
     1
 73
     0
176
     1
 90
        0
176
     1
 40
-0.6
176
     1
 41
-30.0
176
     1
 62
     5
 63
     7
421
 16777215
176
     1
 74
     1
176
     1
 91
        0
176
     1
 64
     7
176
     1
 65
   257
176
     1
 75
     1
176
     1
175
     1
176
     1
 42
1.0
176
     1
 92
        8
176
     1
 66
     8
424
  7895160
176
     1
 43
1.0
176
     1
 76
     1
176
     1
 77
     6
176
     1
 78
     2
176
     1
 67
     7
176
     1
 79
     5
176
     1
170
     0
176
     1
171
     0
176
     1
290
     0
176
     1
 93
       13
176
     1
 44
0.0
176
     1
173
     0
176
     1
  0
VISUALSTYLE
  5
37
102
{ACAD_REACTORS
330
2A
102
}
330
2A
100
AcDbVisualStyle
  2
Thicken
 70
    13
177
     2
291
     1
 71
     2
176
     1
 72
     2
176
     1
 73
     0
176
     1
 90
        0
176
     1
 40
-0.6
176
     1
 41
-30.0
176
     1
 62
     5
 63
     7
421
 16777215
176
     1
 74
     1
176
     1
 91
        4
176
     1
 64
     7
176
     1
 65
   257
176
     1
 75
     1
176
     1
175
     1
176
     1
 42
1.0
176
     1
 92
       12
176
     1
 66
     7
176
     1
 43
1.0
176
     1
 76
     1
176
     1
 77
     6
176
     1
 78
     2
176
     1
 67
     7
176
     1
 79
     5
176
     1
170
     0
176
     1
171
     0
176
     1
290
     0
176
     1
 93
        1
176
     1
 44
0.0
176
     1
173
     0
176
     1
  0
ENDSEC
  0
EOF
