  0
SECTION
  2
HEADER
  9
$ACADVER
  1
AC1024
  9
$ACADMAINTVER
 70
     6
  9
$DWGCODEPAGE
  3
UNDEFINED
  9
$INSBASE
 10
0.0
 20
0.0
 30
0.0
  9
$EXTMIN
 10
1.000000000000000E+20
 20
1.000000000000000E+20
 30
1.000000000000000E+20
  9
$EXTMAX
 10
-1.000000000000000E+20
 20
-1.000000000000000E+20
 30
-1.000000000000000E+20
  9
$LIMMIN
 10
0.0
 20
0.0
  9
$LIMMAX
 10
12.0
 20
9.0
  9
$ORTHOMODE
 70
     0
  9
$REGENMODE
 70
     1
  9
$FILLMODE
 70
     1
  9
$QTEXTMODE
 70
     0
  9
$MIRRTEXT
 70
     1
  9
$LTSCALE
 40
1.0
  9
$ATTMODE
 70
     1
  9
$TEXTSIZE
 40
0.2
  9
$TRACEWID
 40
0.05
  9
$TEXTSTYLE
  7
Standard
  9
$CLAYER
  8
0
  9
$CELTYPE
  6
ByLayer
  9
$CECOLOR
 62
   256
  9
$CELTSCALE
 40
1.0
  9
$DISPSILH
 70
     0
  9
$DIMSCALE
 40
1.0
  9
$DIMASZ
 40
0.18
  9
$DIMEXO
 40
0.0625
  9
$DIMDLI
 40
0.38
  9
$DIMRND
 40
0.0
  9
$DIMDLE
 40
0.0
  9
$DIMEXE
 40
0.18
  9
$DIMTP
 40
0.0
  9
$DIMTM
 40
0.0
  9
$DIMTXT
 40
0.18
  9
$DIMCEN
 40
0.09
  9
$DIMTSZ
 40
0.0
  9
$DIMTOL
 70
     0
  9
$DIMLIM
 70
     0
  9
$DIMTIH
 70
     1
  9
$DIMTOH
 70
     1
  9
$DIMSE1
 70
     0
  9
$DIMSE2
 70
     0
  9
$DIMTAD
 70
     0
  9
$DIMZIN
 70
     0
  9
$DIMBLK
  1

  9
$DIMASO
 70
     1
  9
$DIMSHO
 70
     1
  9
$DIMPOST
  1

  9
$DIMAPOST
  1

  9
$DIMALT
 70
     0
  9
$DIMALTD
 70
     2
  9
$DIMALTF
 40
25.4
  9
$DIMLFAC
 40
1.0
  9
$DIMTOFL
 70
     0
  9
$DIMTVP
 40
0.0
  9
$DIMTIX
 70
     0
  9
$DIMSOXD
 70
     0
  9
$DIMSAH
 70
     0
  9
$DIMBLK1
  1

  9
$DIMBLK2
  1

  9
$DIMSTYLE
  2
Standard
  9
$DIMCLRD
 70
     0
  9
$DIMCLRE
 70
     0
  9
$DIMCLRT
 70
     0
  9
$DIMTFAC
 40
1.0
  9
$DIMGAP
 40
0.09
  9
$DIMJUST
 70
     0
  9
$DIMSD1
 70
     0
  9
$DIMSD2
 70
     0
  9
$DIMTOLJ
 70
     1
  9
$DIMTZIN
 70
     0
  9
$DIMALTZ
 70
     0
  9
$DIMALTTZ
 70
     0
  9
$DIMUPT
 70
     0
  9
$DIMDEC
 70
     4
  9
$DIMTDEC
 70
     4
  9
$DIMALTU
 70
     2
  9
$DIMALTTD
 70
     2
  9
$DIMTXSTY
  7
Standard
  9
$DIMAUNIT
 70
     0
  9
$DIMADEC
 70
     0
  9
$DIMALTRND
 40
0.0
  9
$DIMAZIN
 70
     0
  9
$DIMDSEP
 70
    46
  9
$DIMATFIT
 70
     3
  9
$DIMFRAC
 70
     0
  9
$DIMLDRBLK
  1

  9
$DIMLUNIT
 70
     2
  9
$DIMLWD
 70
    -2
  9
$DIMLWE
 70
    -2
  9
$DIMTMOVE
 70
     0
  9
$DIMFXL
 40
1.0
  9
$DIMFXLON
 70
     0
  9
$DIMJOGANG
 40
0.7853981633974483
  9
$DIMTFILL
 70
     0
  9
$DIMTFILLCLR
 70
     0
  9
$DIMARCSYM
 70
     0
  9
$DIMLTYPE
  6

  9
$DIMLTEX1
  6

  9
$DIMLTEX2
  6

  9
$DIMTXTDIRECTION
 70
     0
  9
$LUNITS
 70
     2
  9
$LUPREC
 70
     4
  9
$SKETCHINC
 40
0.1
  9
$FILLETRAD
 40
0.5
  9
$AUNITS
 70
     0
  9
$AUPREC
 70
     0
  9
$MENU
  1
.
  9
$ELEVATION
 40
0.0
  9
$PELEVATION
 40
0.0
  9
$THICKNESS
 40
0.0
  9
$LIMCHECK
 70
     0
  9
$CHAMFERA
 40
0.5
  9
$CHAMFERB
 40
0.5
  9
$CHAMFERC
 40
1.0
  9
$CHAMFERD
 40
0.0
  9
$SKPOLY
 70
     0
  9
$TDCREATE
 40
2457917.588159722
  9
$TDUCREATE
 40
2457917.213159722
  9
$TDUPDATE
 40
2457917.588159722
  9
$TDUUPDATE
 40
2457917.213159722
  9
$TDINDWG
 40
0.0000000116
  9
$TDUSRTIMER
 40
0.0000000116
  9
$USRTIMER
 70
     1
  9
$ANGBASE
 50
0.0
  9
$ANGDIR
 70
     0
  9
$PDMODE
 70
     0
  9
$PDSIZE
 40
0.0
  9
$PLINEWID
 40
0.0
  9
$SPLFRAME
 70
     0
  9
$SPLINETYPE
 70
     6
  9
$SPLINESEGS
 70
     8
  9
$HANDSEED
  5
F5
  9
$SURFTAB1
 70
     6
  9
$SURFTAB2
 70
     6
  9
$SURFTYPE
 70
     6
  9
$SURFU
 70
     6
  9
$SURFV
 70
     6
  9
$UCSBASE
  2

  9
$UCSNAME
  2

  9
$UCSORG
 10
0.0
 20
0.0
 30
0.0
  9
$UCSXDIR
 10
1.0
 20
0.0
 30
0.0
  9
$UCSYDIR
 10
0.0
 20
1.0
 30
0.0
  9
$UCSORTHOREF
  2

  9
$UCSORTHOVIEW
 70
     0
  9
$UCSORGTOP
 10
0.0
 20
0.0
 30
0.0
  9
$UCSORGBOTTOM
 10
0.0
 20
0.0
 30
0.0
  9
$UCSORGLEFT
 10
0.0
 20
0.0
 30
0.0
  9
$UCSORGRIGHT
 10
0.0
 20
0.0
 30
0.0
  9
$UCSORGFRONT
 10
0.0
 20
0.0
 30
0.0
  9
$UCSORGBACK
 10
0.0
 20
0.0
 30
0.0
  9
$PUCSBASE
  2

  9
$PUCSNAME
  2

  9
$PUCSORG
 10
0.0
 20
0.0
 30
0.0
  9
$PUCSXDIR
 10
1.0
 20
0.0
 30
0.0
  9
$PUCSYDIR
 10
0.0
 20
1.0
 30
0.0
  9
$PUCSORTHOREF
  2

  9
$PUCSORTHOVIEW
 70
     0
  9
$PUCSORGTOP
 10
0.0
 20
0.0
 30
0.0
  9
$PUCSORGBOTTOM
 10
0.0
 20
0.0
 30
0.0
  9
$PUCSORGLEFT
 10
0.0
 20
0.0
 30
0.0
  9
$PUCSORGRIGHT
 10
0.0
 20
0.0
 30
0.0
  9
$PUCSORGFRONT
 10
0.0
 20
0.0
 30
0.0
  9
$PUCSORGBACK
 10
0.0
 20
0.0
 30
0.0
  9
$USERI1
 70
     0
  9
$USERI2
 70
     0
  9
$USERI3
 70
     0
  9
$USERI4
 70
     0
  9
$USERI5
 70
     0
  9
$USERR1
 40
0.0
  9
$USERR2
 40
0.0
  9
$USERR3
 40
0.0
  9
$USERR4
 40
0.0
  9
$USERR5
 40
0.0
  9
$WORLDVIEW
 70
     1
  9
$SHADEDGE
 70
     3
  9
$SHADEDIF
 70
    70
  9
$TILEMODE
 70
     1
  9
$MAXACTVP
 70
    64
  9
$PINSBASE
 10
0.0
 20
0.0
 30
0.0
  9
$PLIMCHECK
 70
     0
  9
$PEXTMIN
 10
1.000000000000000E+20
 20
1.000000000000000E+20
 30
1.000000000000000E+20
  9
$PEXTMAX
 10
-1.000000000000000E+20
 20
-1.000000000000000E+20
 30
-1.000000000000000E+20
  9
$PLIMMIN
 10
0.0
 20
0.0
  9
$PLIMMAX
 10
12.0
 20
9.0
  9
$UNITMODE
 70
     0
  9
$VISRETAIN
 70
     1
  9
$PLINEGEN
 70
     0
  9
$PSLTSCALE
 70
     1
  9
$TREEDEPTH
 70
  3020
  9
$CMLSTYLE
  2
Standard
  9
$CMLJUST
 70
     0
  9
$CMLSCALE
 40
1.0
  9
$PROXYGRAPHICS
 70
     1
  9
$MEASUREMENT
 70
     0
  9
$CELWEIGHT
370
    -1
  9
$ENDCAPS
280
     0
  9
$JOINSTYLE
280
     0
  9
$LWDISPLAY
290
     1
  9
$INSUNITS
 70
     1
  9
$HYPERLINKBASE
  1

  9
$STYLESHEET
  1

  9
$XEDIT
290
     1
  9
$CEPSNTYPE
380
     0
  9
$PSTYLEMODE
290
     1
  9
$FINGERPRINTGUID
  2
{F1C5A83F-49E5-1C6D-1BB1-C08BD7B4126D}
  9
$VERSIONGUID
  2
{FAEB1C32-E019-11D5-929B-00C0DF256EC4}
  9
$EXTNAMES
290
     1
  9
$PSVPSCALE
 40
0.0
  9
$OLESTARTUP
290
     0
  9
$SORTENTS
280
   127
  9
$INDEXCTL
280
     0
  9
$HIDETEXT
280
     1
  9
$XCLIPFRAME
280
     2
  9
$HALOGAP
280
     0
  9
$OBSCOLOR
 70
   257
  9
$OBSLTYPE
280
     0
  9
$INTERSECTIONDISPLAY
280
     0
  9
$INTERSECTIONCOLOR
 70
   257
  9
$DIMASSOC
280
     2
  9
$PROJECTNAME
  1

  9
$CAMERADISPLAY
290
     0
  9
$LENSLENGTH
 40
50.0
  9
$CAMERAHEIGHT
 40
0.0
  9
$STEPSPERSEC
 40
2.0
  9
$STEPSIZE
 40
6.0
  9
$3DDWFPREC
 40
2.0
  9
$PSOLWIDTH
 40
0.25
  9
$PSOLHEIGHT
 40
4.0
  9
$LOFTANG1
 40
1.570796326794897
  9
$LOFTANG2
 40
1.570796326794897
  9
$LOFTMAG1
 40
0.0
  9
$LOFTMAG2
 40
0.0
  9
$LOFTPARAM
 70
     7
  9
$LOFTNORMALS
280
     1
  9
$LATITUDE
 40
37.795
  9
$LONGITUDE
 40
-122.394
  9
$NORTHDIRECTION
 40
0.0
  9
$TIMEZONE
 70
 -8000
  9
$LIGHTGLYPHDISPLAY
280
     1
  9
$TILEMODELIGHTSYNCH
280
     1
  9
$CMATERIAL
347
3C
  9
$SOLIDHIST
280
     1
  9
$SHOWHIST
280
     1
  9
$DWFFRAME
280
     2
  9
$DGNFRAME
280
     2
  9
$REALWORLDSCALE
290
     1
  9
$INTERFERECOLOR
 62
   256
  9
$CSHADOW
280
     0
  9
$SHADOWPLANELOCATION
 40
0.0
  0
ENDSEC
  0
SECTION
  2
CLASSES
  0
CLASS
  1
ACDBDICTIONARYWDFLT
  2
AcDbDictionaryWithDefault
  3
ObjectDBX Classes
 90
        0
 91
        4
280
     0
281
     0
  0
CLASS
  1
VISUALSTYLE
  2
AcDbVisualStyle
  3
ObjectDBX Classes
 90
     4095
 91
        4
280
     0
281
     0
  0
CLASS
  1
MATERIAL
  2
AcDbMaterial
  3
ObjectDBX Classes
 90
     1153
 91
        4
280
     0
281
     0
  0
CLASS
  1
SUN
  2
AcDbSun
  3
SCENEOE
 90
     1024
 91
        4
280
     0
281
     0
  0
ENDSEC
  0
SECTION
  2
TABLES
  0
TABLE
  2
VPORT
  5
8
330
0
100
AcDbSymbolTable
 70
     1
  0
VPORT
  5
29
330
8
100
AcDbSymbolTableRecord
100
AcDbViewportTableRecord
  2
*Active
 70
     0
 10
0.0
 20
0.0
 11
1.0
 21
1.0
 12
0.0
 22
0.0
 13
0.0
 23
0.0
 14
0.5
 24
0.5
 15
0.5
 25
0.5
 16
0.0
 26
0.0
 36
1.0
 17
63.499999984125
 27
-89.00059456108309
 37
0.0
 40
178.0011891221662
 41
0.7134783795241226
 42
50.0
 43
0.0
 44
0.0
 50
0.0
 51
0.0
 71
     0
 72
   100
 73
     1
 74
     3
 75
     0
 76
     0
 77
     0
 78
     0
281
     0
 65
     1
110
0.0
120
0.0
130
0.0
111
1.0
121
0.0
131
0.0
112
0.0
122
1.0
132
0.0
 79
     0
146
0.0
 60
     3
 61
     5
292
     1
282
     1
141
0.0
142
0.0
 63
   250
361
3F
  0
ENDTAB
  0
TABLE
  2
LTYPE
  5
5
330
0
100
AcDbSymbolTable
 70
     1
  0
LTYPE
  5
14
330
5
100
AcDbSymbolTableRecord
100
AcDbLinetypeTableRecord
  2
ByBlock
 70
     0
  3

 72
    65
 73
     0
 40
0.0
  0
LTYPE
  5
15
330
5
100
AcDbSymbolTableRecord
100
AcDbLinetypeTableRecord
  2
ByLayer
 70
     0
  3

 72
    65
 73
     0
 40
0.0
  0
LTYPE
  5
16
330
5
100
AcDbSymbolTableRecord
100
AcDbLinetypeTableRecord
  2
Continuous
 70
     0
  3
Solid line
 72
    65
 73
     0
 40
0.0
  0
ENDTAB
  0
TABLE
  2
LAYER
  5
2
330
0
100
AcDbSymbolTable
 70
     2
  0
LAYER
  5
10
330
2
100
AcDbSymbolTableRecord
100
AcDbLayerTableRecord
  2
0
 70
     0
 62
     7
  6
Continuous
370
    -3
390
F
347
3E
  0
LAYER
  5
40
330
2
100
AcDbSymbolTableRecord
100
AcDbLayerTableRecord
  2
_U+30EC_U+30A4_U+30E4_U+30FC 1
 70
     0
 62
     7
  6
Continuous
370
    -3
390
F
347
3E
  0
ENDTAB
  0
TABLE
  2
STYLE
  5
3
330
0
100
AcDbSymbolTable
 70
     1
  0
STYLE
  5
11
330
3
100
AcDbSymbolTableRecord
100
AcDbTextStyleTableRecord
  2
Standard
 70
     0
 40
0.0
 41
1.0
 50
0.0
 71
     0
 42
0.2
  3
txt
  4

  0
ENDTAB
  0
TABLE
  2
VIEW
  5
6
330
0
100
AcDbSymbolTable
 70
     0
  0
ENDTAB
  0
TABLE
  2
UCS
  5
7
330
0
100
AcDbSymbolTable
 70
     0
  0
ENDTAB
  0
TABLE
  2
APPID
  5
9
330
0
100
AcDbSymbolTable
 70
     1
  0
APPID
  5
12
330
9
100
AcDbSymbolTableRecord
100
AcDbRegAppTableRecord
  2
ACAD
 70
     0
  0
ENDTAB
  0
TABLE
  2
DIMSTYLE
  5
A
330
0
100
AcDbSymbolTable
 70
     1
100
AcDbDimStyleTable
  0
DIMSTYLE
105
27
330
A
100
AcDbSymbolTableRecord
100
AcDbDimStyleTableRecord
  2
Standard
 70
     0
178
     0
340
11
  0
ENDTAB
  0
TABLE
  2
BLOCK_RECORD
  5
1
330
0
100
AcDbSymbolTable
 70
     7
  0
BLOCK_RECORD
  5
1F
330
1
100
AcDbSymbolTableRecord
100
AcDbBlockTableRecord
  2
*Model_Space
340
22
 70
     0
280
     1
281
     0
  0
BLOCK_RECORD
  5
1B
330
1
100
AcDbSymbolTableRecord
100
AcDbBlockTableRecord
  2
*Paper_Space
340
1E
 70
     0
280
     1
281
     0
  0
BLOCK_RECORD
  5
23
330
1
100
AcDbSymbolTableRecord
100
AcDbBlockTableRecord
  2
*Paper_Space0
340
26
 70
     0
280
     1
281
     0
  0
BLOCK_RECORD
  5
41
330
1
100
AcDbSymbolTableRecord
100
AcDbBlockTableRecord
  2
block 2
340
0
102
{BLKREFS
331
42
102
}
 70
     0
280
     1
281
     0
  0
BLOCK_RECORD
  5
91
330
1
100
AcDbSymbolTableRecord
100
AcDbBlockTableRecord
  2
block 3
340
0
102
{BLKREFS
331
92
102
}
 70
     0
280
     1
281
     0
  0
BLOCK_RECORD
  5
A6
330
1
100
AcDbSymbolTableRecord
100
AcDbBlockTableRecord
  2
block 4
340
0
102
{BLKREFS
331
A7
102
}
 70
     0
280
     1
281
     0
  0
BLOCK_RECORD
  5
B4
330
1
100
AcDbSymbolTableRecord
100
AcDbBlockTableRecord
  2
block 5
340
0
102
{BLKREFS
331
B5
102
}
 70
     0
280
     1
281
     0
  0
BLOCK_RECORD
  5
C6
330
1
100
AcDbSymbolTableRecord
100
AcDbBlockTableRecord
  2
block 6
340
0
102
{BLKREFS
331
C7
102
}
 70
     0
280
     1
281
     0
  0
BLOCK_RECORD
  5
EA
330
1
100
AcDbSymbolTableRecord
100
AcDbBlockTableRecord
  2
block 7
340
0
102
{BLKREFS
331
EB
102
}
 70
     0
280
     1
281
     0
  0
ENDTAB
  0
ENDSEC
  0
SECTION
  2
BLOCKS
  0
BLOCK
  5
20
330
1F
100
AcDbEntity
  8
0
100
AcDbBlockBegin
  2
*Model_Space
 70
     0
 10
0.0
 20
0.0
 30
0.0
  3
*Model_Space
  1

  0
ENDBLK
  5
21
330
1F
100
AcDbEntity
  8
0
100
AcDbBlockEnd
  0
BLOCK
  5
1C
330
1B
100
AcDbEntity
 67
     1
  8
0
100
AcDbBlockBegin
  2
*Paper_Space
 70
     0
 10
0.0
 20
0.0
 30
0.0
  3
*Paper_Space
  1

  0
ENDBLK
  5
1D
330
1B
100
AcDbEntity
 67
     1
  8
0
100
AcDbBlockEnd
  0
BLOCK
  5
24
330
23
100
AcDbEntity
  8
0
100
AcDbBlockBegin
  2
*Paper_Space0
 70
     0
 10
0.0
 20
0.0
 30
0.0
  3
*Paper_Space0
  1

  0
ENDBLK
  5
25
330
23
100
AcDbEntity
  8
0
100
AcDbBlockEnd
  0
BLOCK
  5
43
330
41
100
AcDbEntity
  8
0
100
AcDbBlockBegin
  2
block 2
 70
     0
 10
0.0
 20
0.0
 30
0.0
  3
block 2
  1

  0
POLYLINE
  5
45
330
41
100
AcDbEntity
  8
_U+30EC_U+30A4_U+30E4_U+30FC 1
 62
     7
420
 16777215
370
    25
100
AcDb2dPolyline
 66
     1
 10
0.0
 20
0.0
 30
0.0
  0
VERTEX
  5
46
330
45
100
AcDbEntity
  8
_U+30EC_U+30A4_U+30E4_U+30FC 1
 62
     7
420
 16777215
370
    25
100
AcDbVertex
100
AcDb2dVertex
 10
66.71634385347983
 20
-94.18097747645463
 30
0.0
  0
VERTEX
  5
47
330
45
100
AcDbEntity
  8
_U+30EC_U+30A4_U+30E4_U+30FC 1
 62
     7
420
 16777215
370
    25
100
AcDbVertex
100
AcDb2dVertex
 10
69.71633072138823
 20
-94.18097747645463
 30
0.0
  0
SEQEND
  5
48
330
45
100
AcDbEntity
  8
_U+30EC_U+30A4_U+30E4_U+30FC 1
 62
     7
420
 16777215
370
    25
  0
POLYLINE
  5
49
330
41
100
AcDbEntity
  8
_U+30EC_U+30A4_U+30E4_U+30FC 1
 62
     7
420
 16777215
370
    25
100
AcDb2dPolyline
 66
     1
 10
0.0
 20
0.0
 30
0.0
  0
VERTEX
  5
4A
330
49
100
AcDbEntity
  8
_U+30EC_U+30A4_U+30E4_U+30FC 1
 62
     7
420
 16777215
370
    25
100
AcDbVertex
100
AcDb2dVertex
 10
39.7166031534117
 20
-97.3807777534329
 30
0.0
  0
VERTEX
  5
4B
330
49
100
AcDbEntity
  8
_U+30EC_U+30A4_U+30E4_U+30FC 1
 62
     7
420
 16777215
370
    25
100
AcDbVertex
100
AcDb2dVertex
 10
69.71633072138823
 20
-97.3807777534329
 30
0.0
  0
SEQEND
  5
4C
330
49
100
AcDbEntity
  8
_U+30EC_U+30A4_U+30E4_U+30FC 1
 62
     7
420
 16777215
370
    25
  0
POLYLINE
  5
4D
330
41
100
AcDbEntity
  8
_U+30EC_U+30A4_U+30E4_U+30FC 1
 62
     7
420
 16777215
370
    25
100
AcDb2dPolyline
 66
     1
 10
0.0
 20
0.0
 30
0.0
  0
VERTEX
  5
4E
330
4D
100
AcDbEntity
  8
_U+30EC_U+30A4_U+30E4_U+30FC 1
 62
     7
420
 16777215
370
    25
100
AcDbVertex
100
AcDb2dVertex
 10
69.71633072138823
 20
-94.18097747645463
 30
0.0
  0
VERTEX
  5
4F
330
4D
100
AcDbEntity
  8
_U+30EC_U+30A4_U+30E4_U+30FC 1
 62
     7
420
 16777215
370
    25
100
AcDbVertex
100
AcDb2dVertex
 10
69.71633072138823
 20
-97.3807777534329
 30
0.0
  0
SEQEND
  5
50
330
4D
100
AcDbEntity
  8
_U+30EC_U+30A4_U+30E4_U+30FC 1
 62
     7
420
 16777215
370
    25
  0
POLYLINE
  5
51
330
41
100
AcDbEntity
  8
_U+30EC_U+30A4_U+30E4_U+30FC 1
 62
     7
420
 16777215
370
    25
100
AcDb2dPolyline
 66
     1
 10
0.0
 20
0.0
 30
0.0
  0
VERTEX
  5
52
330
51
100
AcDbEntity
  8
_U+30EC_U+30A4_U+30E4_U+30FC 1
 62
     7
420
 16777215
370
    25
100
AcDbVertex
100
AcDb2dVertex
 10
66.71634385347983
 20
-95.18110247620494
 30
0.0
  0
VERTEX
  5
53
330
51
100
AcDbEntity
  8
_U+30EC_U+30A4_U+30E4_U+30FC 1
 62
     7
420
 16777215
370
    25
100
AcDbVertex
100
AcDb2dVertex
 10
68.71655852467232
 20
-95.18110247620494
 30
0.0
  0
SEQEND
  5
54
330
51
100
AcDbEntity
  8
_U+30EC_U+30A4_U+30E4_U+30FC 1
 62
     7
420
 16777215
370
    25
  0
POLYLINE
  5
55
330
41
100
AcDbEntity
  8
_U+30EC_U+30A4_U+30E4_U+30FC 1
 62
     7
420
 16777215
370
    25
100
AcDb2dPolyline
 66
     1
 10
0.0
 20
0.0
 30
0.0
  0
VERTEX
  5
56
330
55
100
AcDbEntity
  8
_U+30EC_U+30A4_U+30E4_U+30FC 1
 62
     7
420
 16777215
370
    25
100
AcDbVertex
100
AcDb2dVertex
 10
66.71634385347983
 20
-94.18097747645463
 30
0.0
  0
VERTEX
  5
57
330
55
100
AcDbEntity
  8
_U+30EC_U+30A4_U+30E4_U+30FC 1
 62
     7
420
 16777215
370
    25
100
AcDbVertex
100
AcDb2dVertex
 10
66.71634385347983
 20
-95.18110247620494
 30
0.0
  0
SEQEND
  5
58
330
55
100
AcDbEntity
  8
_U+30EC_U+30A4_U+30E4_U+30FC 1
 62
     7
420
 16777215
370
    25
  0
POLYLINE
  5
59
330
41
100
AcDbEntity
  8
_U+30EC_U+30A4_U+30E4_U+30FC 1
 62
     7
420
 16777215
370
    25
100
AcDb2dPolyline
 66
     1
 10
0.0
 20
0.0
 30
0.0
  0
VERTEX
  5
5A
330
59
100
AcDbEntity
  8
_U+30EC_U+30A4_U+30E4_U+30FC 1
 62
     7
420
 16777215
370
    25
100
AcDbVertex
100
AcDb2dVertex
 10
39.7166031534117
 20
-96.38104080923787
 30
0.0
  0
VERTEX
  5
5B
330
59
100
AcDbEntity
  8
_U+30EC_U+30A4_U+30E4_U+30FC 1
 62
     7
420
 16777215
370
    25
100
AcDbVertex
100
AcDb2dVertex
 10
39.7166031534117
 20
-97.3807777534329
 30
0.0
  0
SEQEND
  5
5C
330
59
100
AcDbEntity
  8
_U+30EC_U+30A4_U+30E4_U+30FC 1
 62
     7
420
 16777215
370
    25
  0
POLYLINE
  5
5D
330
41
100
AcDbEntity
  8
_U+30EC_U+30A4_U+30E4_U+30FC 1
 62
     7
420
 16777215
370
    25
100
AcDb2dPolyline
 66
     1
 10
0.0
 20
0.0
 30
0.0
  0
VERTEX
  5
5E
330
5D
100
AcDbEntity
  8
_U+30EC_U+30A4_U+30E4_U+30FC 1
 62
     7
420
 16777215
370
    25
100
AcDbVertex
100
AcDb2dVertex
 10
39.7166031534117
 20
-96.38104080923787
 30
0.0
  0
VERTEX
  5
5F
330
5D
100
AcDbEntity
  8
_U+30EC_U+30A4_U+30E4_U+30FC 1
 62
     7
420
 16777215
370
    25
100
AcDbVertex
100
AcDb2dVertex
 10
40.21684202953843
 20
-96.38104080923787
 30
0.0
  0
SEQEND
  5
60
330
5D
100
AcDbEntity
  8
_U+30EC_U+30A4_U+30E4_U+30FC 1
 62
     7
420
 16777215
370
    25
  0
POLYLINE
  5
61
330
41
100
AcDbEntity
  8
_U+30EC_U+30A4_U+30E4_U+30FC 1
 62
     7
420
 16777215
370
    25
100
AcDb2dPolyline
 66
     1
 10
0.0
 20
0.0
 30
0.0
  0
VERTEX
  5
62
330
61
100
AcDbEntity
  8
_U+30EC_U+30A4_U+30E4_U+30FC 1
 62
     7
420
 16777215
370
    25
100
AcDbVertex
100
AcDb2dVertex
 10
41.22314165636091
 20
-96.38104080923787
 30
0.0
  0
VERTEX
  5
63
330
61
100
AcDbEntity
  8
_U+30EC_U+30A4_U+30E4_U+30FC 1
 62
     7
420
 16777215
370
    25
100
AcDbVertex
100
AcDb2dVertex
 10
68.71655852467232
 20
-96.38104080923787
 30
0.0
  0
SEQEND
  5
64
330
61
100
AcDbEntity
  8
_U+30EC_U+30A4_U+30E4_U+30FC 1
 62
     7
420
 16777215
370
    25
  0
POLYLINE
  5
65
330
41
100
AcDbEntity
  8
_U+30EC_U+30A4_U+30E4_U+30FC 1
 62
     7
420
 16777215
370
    25
100
AcDb2dPolyline
 66
     1
 10
0.0
 20
0.0
 30
0.0
  0
VERTEX
  5
66
330
65
100
AcDbEntity
  8
_U+30EC_U+30A4_U+30E4_U+30FC 1
 62
     7
420
 16777215
370
    25
100
AcDbVertex
100
AcDb2dVertex
 10
68.71655852467232
 20
-95.18110247620494
 30
0.0
  0
VERTEX
  5
67
330
65
100
AcDbEntity
  8
_U+30EC_U+30A4_U+30E4_U+30FC 1
 62
     7
420
 16777215
370
    25
100
AcDbVertex
100
AcDb2dVertex
 10
68.71655852467232
 20
-96.38104080923787
 30
0.0
  0
SEQEND
  5
68
330
65
100
AcDbEntity
  8
_U+30EC_U+30A4_U+30E4_U+30FC 1
 62
     7
420
 16777215
370
    25
  0
POLYLINE
  5
69
330
41
100
AcDbEntity
  8
_U+30EC_U+30A4_U+30E4_U+30FC 1
 62
     7
420
 16777215
370
    25
100
AcDb2dPolyline
 66
     1
 10
0.0
 20
0.0
 30
0.0
  0
VERTEX
  5
6A
330
69
100
AcDbEntity
  8
_U+30EC_U+30A4_U+30E4_U+30FC 1
 62
     7
420
 16777215
370
    25
100
AcDbVertex
100
AcDb2dVertex
 10
42.60945141294233
 20
-84.1808916456213
 30
0.0
  0
VERTEX
  5
6B
330
69
100
AcDbEntity
  8
_U+30EC_U+30A4_U+30E4_U+30FC 1
 62
     7
420
 16777215
370
    25
100
AcDbVertex
100
AcDb2dVertex
 10
81.71627819302184
 20
-84.1808916456213
 30
0.0
  0
SEQEND
  5
6C
330
69
100
AcDbEntity
  8
_U+30EC_U+30A4_U+30E4_U+30FC 1
 62
     7
420
 16777215
370
    25
  0
POLYLINE
  5
6D
330
41
100
AcDbEntity
  8
_U+30EC_U+30A4_U+30E4_U+30FC 1
 62
     7
420
 16777215
370
    25
100
AcDb2dPolyline
 66
     1
 10
0.0
 20
0.0
 30
0.0
  0
VERTEX
  5
6E
330
6D
100
AcDbEntity
  8
_U+30EC_U+30A4_U+30E4_U+30FC 1
 62
     7
420
 16777215
370
    25
100
AcDbVertex
100
AcDb2dVertex
 10
81.71627819302184
 20
-83.18080192364916
 30
0.0
  0
VERTEX
  5
6F
330
6D
100
AcDbEntity
  8
_U+30EC_U+30A4_U+30E4_U+30FC 1
 62
     7
420
 16777215
370
    25
100
AcDbVertex
100
AcDb2dVertex
 10
81.71627819302184
 20
-84.1808916456213
 30
0.0
  0
SEQEND
  5
70
330
6D
100
AcDbEntity
  8
_U+30EC_U+30A4_U+30E4_U+30FC 1
 62
     7
420
 16777215
370
    25
  0
POLYLINE
  5
71
330
41
100
AcDbEntity
  8
_U+30EC_U+30A4_U+30E4_U+30FC 1
 62
     7
420
 16777215
370
    25
100
AcDb2dPolyline
 66
     1
 10
0.0
 20
0.0
 30
0.0
  0
VERTEX
  5
72
330
71
100
AcDbEntity
  8
_U+30EC_U+30A4_U+30E4_U+30FC 1
 62
     7
420
 16777215
370
    25
100
AcDbVertex
100
AcDb2dVertex
 10
41.7168178246042
 20
-83.18080192364916
 30
0.0
  0
VERTEX
  5
73
330
71
100
AcDbEntity
  8
_U+30EC_U+30A4_U+30E4_U+30FC 1
 62
     7
420
 16777215
370
    25
100
AcDbVertex
100
AcDb2dVertex
 10
81.71627819302184
 20
-83.18080192364916
 30
0.0
  0
SEQEND
  5
74
330
71
100
AcDbEntity
  8
_U+30EC_U+30A4_U+30E4_U+30FC 1
 62
     7
420
 16777215
370
    25
  0
POLYLINE
  5
75
330
41
100
AcDbEntity
  8
_U+30EC_U+30A4_U+30E4_U+30FC 1
 62
     7
420
 16777215
370
    25
100
AcDb2dPolyline
 66
     1
 10
0.0
 20
0.0
 30
0.0
  0
VERTEX
  5
76
330
75
100
AcDbEntity
  8
_U+30EC_U+30A4_U+30E4_U+30FC 1
 62
     7
420
 16777215
370
    25
100
AcDbVertex
100
AcDb2dVertex
 10
41.7168178246042
 20
-83.18080192364916
 30
0.0
  0
VERTEX
  5
77
330
75
100
AcDbEntity
  8
_U+30EC_U+30A4_U+30E4_U+30FC 1
 62
     7
420
 16777215
370
    25
100
AcDbVertex
100
AcDb2dVertex
 10
40.21684202953843
 20
-96.38104080923787
 30
0.0
  0
SEQEND
  5
78
330
75
100
AcDbEntity
  8
_U+30EC_U+30A4_U+30E4_U+30FC 1
 62
     7
420
 16777215
370
    25
  0
POLYLINE
  5
79
330
41
100
AcDbEntity
  8
_U+30EC_U+30A4_U+30E4_U+30FC 1
 62
     7
420
 16777215
370
    25
100
AcDb2dPolyline
 66
     1
 10
0.0
 20
0.0
 30
0.0
  0
VERTEX
  5
7A
330
79
100
AcDbEntity
  8
_U+30EC_U+30A4_U+30E4_U+30FC 1
 62
     7
420
 16777215
370
    25
100
AcDbVertex
100
AcDb2dVertex
 10
42.60945141294233
 20
-84.1808916456213
 30
0.0
  0
VERTEX
  5
7B
330
79
100
AcDbEntity
  8
_U+30EC_U+30A4_U+30E4_U+30FC 1
 62
     7
420
 16777215
370
    25
100
AcDbVertex
100
AcDb2dVertex
 10
41.22314165636091
 20
-96.38104080923787
 30
0.0
  0
SEQEND
  5
7C
330
79
100
AcDbEntity
  8
_U+30EC_U+30A4_U+30E4_U+30FC 1
 62
     7
420
 16777215
370
    25
  0
ENDBLK
  5
44
330
41
100
AcDbEntity
  8
0
100
AcDbBlockEnd
  0
BLOCK
  5
93
330
91
100
AcDbEntity
  8
0
100
AcDbBlockBegin
  2
block 3
 70
     0
 10
0.0
 20
0.0
 30
0.0
  3
block 3
  1

  0
SPLINE
  5
95
330
91
100
AcDbEntity
  8
_U+30EC_U+30A4_U+30E4_U+30FC 1
370
     0
100
AcDbSpline
210
0.0
220
0.0
230
1.0
 70
    11
 71
     3
 72
    62
 73
    58
 74
     0
 42
0.0000000001
 43
0.0000000001
 12
1.0
 22
0.0
 32
0.0
 13
1.0
 23
0.0
 33
0.0
 40
0.0
 40
0.0
 40
0.0
 40
0.0
 40
1.0
 40
1.0
 40
1.0
 40
2.0
 40
2.0
 40
2.0
 40
3.0
 40
3.0
 40
3.0
 40
4.0
 40
4.0
 40
4.0
 40
5.0
 40
5.0
 40
5.0
 40
6.0
 40
6.0
 40
6.0
 40
7.0
 40
7.0
 40
7.0
 40
8.0
 40
8.0
 40
8.0
 40
9.0
 40
9.0
 40
9.0
 40
10.0
 40
10.0
 40
10.0
 40
11.0
 40
11.0
 40
11.0
 40
12.0
 40
12.0
 40
12.0
 40
13.0
 40
13.0
 40
13.0
 40
14.0
 40
14.0
 40
14.0
 40
15.0
 40
15.0
 40
15.0
 40
16.0
 40
16.0
 40
16.0
 40
17.0
 40
17.0
 40
17.0
 40
18.0
 40
18.0
 40
18.0
 40
19.0
 40
19.0
 40
19.0
 40
19.0
 10
54.12262232804921
 20
-100.7852348923384
 30
0.0
 10
54.02753769265631
 20
-100.7852348923384
 30
0.0
 10
53.81015216753705
 20
-100.7642198098784
 30
0.0
 10
53.68578422051953
 20
-100.5781846536749
 30
0.0
 10
53.61188692236092
 20
-100.4658745408558
 30
0.0
 10
53.60758055300435
 20
-100.3666557908806
 30
0.0
 10
53.60344643842205
 20
-100.2819064419434
 30
0.0
 10
53.60344643842205
 20
-100.2819064419434
 30
0.0
 10
53.82289902083247
 20
-100.2819064419434
 30
0.0
 10
53.82289902083247
 20
-100.2819064419434
 30
0.0
 10
53.82496607812362
 20
-100.3559759948763
 30
0.0
 10
53.8356458741279
 20
-100.5905869974218
 30
0.0
 10
54.11831595869265
 20
-100.5905869974218
 30
0.0
 10
54.25543075900559
 20
-100.5905869974218
 30
0.0
 10
54.40735946990511
 20
-100.5209960686198
 30
0.0
 10
54.40735946990511
 20
-100.2925862379477
 30
0.0
 10
54.40735946990511
 20
-100.1761420105462
 30
0.0
 10
54.36946341956736
 20
-100.1275661642042
 30
0.0
 10
54.33776854110306
 20
-100.0958712857399
 30
0.0
 10
54.26387124294445
 20
-100.021801732807
 30
0.0
 10
54.14777152509154
 20
-100.0090548795116
 30
0.0
 10
54.09299450687606
 20
-100.0090548795116
 30
0.0
 10
54.07404648170719
 20
-100.0090548795116
 30
0.0
 10
54.03821748866059
 20
-100.0111219368028
 30
0.0
 10
54.01065672477859
 20
-100.0152560513851
 30
0.0
 10
54.01065672477859
 20
-100.0152560513851
 30
0.0
 10
54.01065672477859
 20
-99.82060815646847
 30
0.0
 10
54.01065672477859
 20
-99.82060815646847
 30
0.0
 10
54.0487250298906
 20
-99.82715383789044
 30
0.0
 10
54.09092744958491
 20
-99.82922089518159
 30
0.0
 10
54.09712862145836
 20
-99.82922089518159
 30
0.0
 10
54.1625854356781
 20
-99.82922089518159
 30
0.0
 10
54.3610229356285
 20
-99.80786130317304
 30
0.0
 10
54.3610229356285
 20
-99.57118324333638
 30
0.0
 10
54.3610229356285
 20
-99.39341631629749
 30
0.0
 10
54.230109307189
 20
-99.33829478853349
 30
0.0
 10
54.1203830159838
 20
-99.33829478853349
 30
0.0
 10
53.85666095658792
 20
-99.33829478853349
 30
0.0
 10
53.84822047264906
 20
-99.57118324333638
 30
0.0
 10
53.8439141032925
 20
-99.64284122942958
 30
0.0
 10
53.8439141032925
 20
-99.64284122942958
 30
0.0
 10
53.6413424887598
 20
-99.64284122942958
 30
0.0
 10
53.6413424887598
 20
-99.64284122942958
 30
0.0
 10
53.64995522747293
 20
-99.51812877286353
 30
0.0
 10
53.67734373658067
 20
-99.14157983632572
 30
0.0
 10
54.13312986927922
 20
-99.14157983632572
 30
0.0
 10
54.35671656627193
 20
-99.14157983632572
 30
0.0
 10
54.59735648591663
 20
-99.26870385973145
 30
0.0
 10
54.59735648591663
 20
-99.5646375619144
 30
0.0
 10
54.59735648591663
 20
-99.75101722766642
 30
0.0
 10
54.50227185052374
 20
-99.83335500976389
 30
0.0
 10
54.40322535532281
 20
-99.89467770940134
 30
0.0
 10
54.46437580018599
 20
-99.92223847328333
 30
0.0
 10
54.64593233225866
 20
-100.0025091980897
 30
0.0
 10
54.64593233225866
 20
-100.2798393846523
 30
0.0
 10
54.64593233225866
 20
-100.6181477613038
 30
0.0
 10
54.39891898596625
 20
-100.7852348923384
 30
0.0
 10
54.12262232804921
 20
-100.7852348923384
 30
0.0
  0
HATCH
  5
96
330
91
100
AcDbEntity
  8
_U+30EC_U+30A4_U+30E4_U+30FC 1
 62
     7
420
 16777215
100
AcDbHatch
 10
0.0
 20
0.0
 30
0.0
210
0.0
220
0.0
230
1.0
  2
SOLID
 70
     1
 71
     0
 91
        1
 92
        1
 93
        1
 72
     4
 94
        3
 73
     0
 74
     1
 95
       62
 96
       58
 40
0.0
 40
0.0
 40
0.0
 40
0.0
 40
1.0
 40
1.0
 40
1.0
 40
2.0
 40
2.0
 40
2.0
 40
3.0
 40
3.0
 40
3.0
 40
4.0
 40
4.0
 40
4.0
 40
5.0
 40
5.0
 40
5.0
 40
6.0
 40
6.0
 40
6.0
 40
7.0
 40
7.0
 40
7.0
 40
8.0
 40
8.0
 40
8.0
 40
9.0
 40
9.0
 40
9.0
 40
10.0
 40
10.0
 40
10.0
 40
11.0
 40
11.0
 40
11.0
 40
12.0
 40
12.0
 40
12.0
 40
13.0
 40
13.0
 40
13.0
 40
14.0
 40
14.0
 40
14.0
 40
15.0
 40
15.0
 40
15.0
 40
16.0
 40
16.0
 40
16.0
 40
17.0
 40
17.0
 40
17.0
 40
18.0
 40
18.0
 40
18.0
 40
19.0
 40
19.0
 40
19.0
 40
19.0
 10
54.12262232804921
 20
-100.7852348923384
 10
54.02753769265631
 20
-100.7852348923384
 10
53.81015216753705
 20
-100.7642198098784
 10
53.68578422051953
 20
-100.5781846536749
 10
53.61188692236092
 20
-100.4658745408558
 10
53.60758055300435
 20
-100.3666557908806
 10
53.60344643842205
 20
-100.2819064419434
 10
53.60344643842205
 20
-100.2819064419434
 10
53.82289902083247
 20
-100.2819064419434
 10
53.82289902083247
 20
-100.2819064419434
 10
53.82496607812362
 20
-100.3559759948763
 10
53.8356458741279
 20
-100.5905869974218
 10
54.11831595869265
 20
-100.5905869974218
 10
54.25543075900559
 20
-100.5905869974218
 10
54.40735946990511
 20
-100.5209960686198
 10
54.40735946990511
 20
-100.2925862379477
 10
54.40735946990511
 20
-100.1761420105462
 10
54.36946341956736
 20
-100.1275661642042
 10
54.33776854110306
 20
-100.0958712857399
 10
54.26387124294445
 20
-100.021801732807
 10
54.14777152509154
 20
-100.0090548795116
 10
54.09299450687606
 20
-100.0090548795116
 10
54.07404648170719
 20
-100.0090548795116
 10
54.03821748866059
 20
-100.0111219368028
 10
54.01065672477859
 20
-100.0152560513851
 10
54.01065672477859
 20
-100.0152560513851
 10
54.01065672477859
 20
-99.82060815646847
 10
54.01065672477859
 20
-99.82060815646847
 10
54.0487250298906
 20
-99.82715383789044
 10
54.09092744958491
 20
-99.82922089518159
 10
54.09712862145836
 20
-99.82922089518159
 10
54.1625854356781
 20
-99.82922089518159
 10
54.3610229356285
 20
-99.80786130317304
 10
54.3610229356285
 20
-99.57118324333638
 10
54.3610229356285
 20
-99.39341631629749
 10
54.230109307189
 20
-99.33829478853349
 10
54.1203830159838
 20
-99.33829478853349
 10
53.85666095658792
 20
-99.33829478853349
 10
53.84822047264906
 20
-99.57118324333638
 10
53.8439141032925
 20
-99.64284122942958
 10
53.8439141032925
 20
-99.64284122942958
 10
53.6413424887598
 20
-99.64284122942958
 10
53.6413424887598
 20
-99.64284122942958
 10
53.64995522747293
 20
-99.51812877286353
 10
53.67734373658067
 20
-99.14157983632572
 10
54.13312986927922
 20
-99.14157983632572
 10
54.35671656627193
 20
-99.14157983632572
 10
54.59735648591663
 20
-99.26870385973145
 10
54.59735648591663
 20
-99.5646375619144
 10
54.59735648591663
 20
-99.75101722766642
 10
54.50227185052374
 20
-99.83335500976389
 10
54.40322535532281
 20
-99.89467770940134
 10
54.46437580018599
 20
-99.92223847328333
 10
54.64593233225866
 20
-100.0025091980897
 10
54.64593233225866
 20
-100.2798393846523
 10
54.64593233225866
 20
-100.6181477613038
 10
54.39891898596625
 20
-100.7852348923384
 10
54.12262232804921
 20
-100.7852348923384
 97
        0
 97
        0
 75
     2
 76
     1
 98
        0
  0
SPLINE
  5
97
330
91
100
AcDbEntity
  8
_U+30EC_U+30A4_U+30E4_U+30FC 1
370
     0
100
AcDbSpline
210
0.0
220
0.0
230
1.0
 70
    11
 71
     3
 72
    29
 73
    25
 74
     0
 42
0.0000000001
 43
0.0000000001
 12
1.0
 22
0.0
 32
0.0
 13
1.0
 23
0.0
 33
0.0
 40
0.0
 40
0.0
 40
0.0
 40
0.0
 40
1.0
 40
1.0
 40
1.0
 40
2.0
 40
2.0
 40
2.0
 40
3.0
 40
3.0
 40
3.0
 40
4.0
 40
4.0
 40
4.0
 40
5.0
 40
5.0
 40
5.0
 40
6.0
 40
6.0
 40
6.0
 40
7.0
 40
7.0
 40
7.0
 40
8.0
 40
8.0
 40
8.0
 40
8.0
 10
55.69978704119659
 20
-100.5568250616664
 30
0.0
 10
55.59230006205679
 20
-100.7662868671695
 30
0.0
 10
55.41918401392299
 20
-100.7852348923384
 30
0.0
 10
55.30325655084432
 20
-100.7852348923384
 30
0.0
 10
55.14271510123169
 20
-100.7852348923384
 30
0.0
 10
55.00146618633644
 20
-100.7387261032875
 30
0.0
 10
54.90638155094354
 20
-100.5568250616664
 30
0.0
 10
54.80302868638605
 20
-100.3621771667497
 30
0.0
 10
54.78408066121717
 20
-100.1251545973646
 30
0.0
 10
54.78408066121717
 20
-99.96254609046076
 30
0.0
 10
54.78408066121717
 20
-99.81854109917731
 30
0.0
 10
54.8009616290949
 20
-99.56670461920555
 30
0.0
 10
54.90638155094354
 20
-99.36792260970664
 30
0.0
 10
55.01404078485761
 20
-99.16500648562543
 30
0.0
 10
55.17440997969598
 20
-99.14157983632572
 30
0.0
 10
55.30325655084432
 20
-99.14157983632572
 30
0.0
 10
55.46138643361729
 20
-99.14157983632572
 30
0.0
 10
55.60487466057795
 20
-99.18602156808544
 30
0.0
 10
55.69978704119659
 20
-99.36792260970664
 30
0.0
 10
55.79900579117178
 20
-99.5605034473321
 30
0.0
 10
55.82226018569722
 20
-99.78891327800416
 30
0.0
 10
55.82226018569722
 20
-99.96254609046076
 30
0.0
 10
55.82226018569722
 20
-100.1337673360777
 30
0.0
 10
55.80107284846293
 20
-100.3642442240409
 30
0.0
 10
55.69978704119659
 20
-100.5568250616664
 30
0.0
  0
SPLINE
  5
98
330
91
100
AcDbEntity
  8
_U+30EC_U+30A4_U+30E4_U+30FC 1
370
     0
100
AcDbSpline
210
0.0
220
0.0
230
1.0
 70
    11
 71
     3
 72
    17
 73
    13
 74
     0
 42
0.0000000001
 43
0.0000000001
 12
1.0
 22
0.0
 32
0.0
 13
1.0
 23
0.0
 33
0.0
 40
0.0
 40
0.0
 40
0.0
 40
0.0
 40
1.0
 40
1.0
 40
1.0
 40
2.0
 40
2.0
 40
2.0
 40
3.0
 40
3.0
 40
3.0
 40
4.0
 40
4.0
 40
4.0
 40
4.0
 10
55.30325655084432
 20
-99.33416067395119
 30
0.0
 10
55.05417614726076
 20
-99.33416067395119
 30
0.0
 10
55.00766735820989
 20
-99.61769203238725
 30
0.0
 10
55.00766735820989
 20
-99.96254609046076
 30
0.0
 10
55.00766735820989
 20
-100.2819064419434
 30
0.0
 10
55.04366860603075
 20
-100.5905869974218
 30
0.0
 10
55.30325655084432
 20
-100.5905869974218
 30
0.0
 10
55.55009764236248
 20
-100.5905869974218
 30
0.0
 10
55.59850123393024
 20
-100.3094672058254
 30
0.0
 10
55.59850123393024
 20
-99.96254609046076
 30
0.0
 10
55.59850123393024
 20
-99.64284122942958
 30
0.0
 10
55.56060518359249
 20
-99.33416067395119
 30
0.0
 10
55.30325655084432
 20
-99.33416067395119
 30
0.0
  0
HATCH
  5
99
330
91
100
AcDbEntity
  8
_U+30EC_U+30A4_U+30E4_U+30FC 1
 62
     7
420
 16777215
100
AcDbHatch
 10
0.0
 20
0.0
 30
0.0
210
0.0
220
0.0
230
1.0
  2
SOLID
 70
     1
 71
     0
 91
        2
 92
        1
 93
        1
 72
     4
 94
        3
 73
     0
 74
     1
 95
       29
 96
       25
 40
0.0
 40
0.0
 40
0.0
 40
0.0
 40
1.0
 40
1.0
 40
1.0
 40
2.0
 40
2.0
 40
2.0
 40
3.0
 40
3.0
 40
3.0
 40
4.0
 40
4.0
 40
4.0
 40
5.0
 40
5.0
 40
5.0
 40
6.0
 40
6.0
 40
6.0
 40
7.0
 40
7.0
 40
7.0
 40
8.0
 40
8.0
 40
8.0
 40
8.0
 10
55.69978704119659
 20
-100.5568250616664
 10
55.59230006205679
 20
-100.7662868671695
 10
55.41918401392299
 20
-100.7852348923384
 10
55.30325655084432
 20
-100.7852348923384
 10
55.14271510123169
 20
-100.7852348923384
 10
55.00146618633644
 20
-100.7387261032875
 10
54.90638155094354
 20
-100.5568250616664
 10
54.80302868638605
 20
-100.3621771667497
 10
54.78408066121717
 20
-100.1251545973646
 10
54.78408066121717
 20
-99.96254609046076
 10
54.78408066121717
 20
-99.81854109917731
 10
54.8009616290949
 20
-99.56670461920555
 10
54.90638155094354
 20
-99.36792260970664
 10
55.01404078485761
 20
-99.16500648562543
 10
55.17440997969598
 20
-99.14157983632572
 10
55.30325655084432
 20
-99.14157983632572
 10
55.46138643361729
 20
-99.14157983632572
 10
55.60487466057795
 20
-99.18602156808544
 10
55.69978704119659
 20
-99.36792260970664
 10
55.79900579117178
 20
-99.5605034473321
 10
55.82226018569722
 20
-99.78891327800416
 10
55.82226018569722
 20
-99.96254609046076
 10
55.82226018569722
 20
-100.1337673360777
 10
55.80107284846293
 20
-100.3642442240409
 10
55.69978704119659
 20
-100.5568250616664
 97
        0
 97
        0
 92
        1
 93
        1
 72
     4
 94
        3
 73
     0
 74
     1
 95
       17
 96
       13
 40
0.0
 40
0.0
 40
0.0
 40
0.0
 40
1.0
 40
1.0
 40
1.0
 40
2.0
 40
2.0
 40
2.0
 40
3.0
 40
3.0
 40
3.0
 40
4.0
 40
4.0
 40
4.0
 40
4.0
 10
55.30325655084432
 20
-99.33416067395119
 10
55.05417614726076
 20
-99.33416067395119
 10
55.00766735820989
 20
-99.61769203238725
 10
55.00766735820989
 20
-99.96254609046076
 10
55.00766735820989
 20
-100.2819064419434
 10
55.04366860603075
 20
-100.5905869974218
 10
55.30325655084432
 20
-100.5905869974218
 10
55.55009764236248
 20
-100.5905869974218
 10
55.59850123393024
 20
-100.3094672058254
 10
55.59850123393024
 20
-99.96254609046076
 10
55.59850123393024
 20
-99.64284122942958
 10
55.56060518359249
 20
-99.33416067395119
 10
55.30325655084432
 20
-99.33416067395119
 97
        0
 97
        0
 75
     2
 76
     1
 98
        0
  0
ENDBLK
  5
94
330
91
100
AcDbEntity
  8
0
100
AcDbBlockEnd
  0
BLOCK
  5
A8
330
A6
100
AcDbEntity
  8
0
100
AcDbBlockBegin
  2
block 4
 70
     0
 10
0.0
 20
0.0
 30
0.0
  3
block 4
  1

  0
SPLINE
  5
AA
330
A6
100
AcDbEntity
  8
_U+30EC_U+30A4_U+30E4_U+30FC 1
370
     0
100
AcDbSpline
210
0.0
220
0.0
230
1.0
 70
    11
 71
     3
 72
    62
 73
    58
 74
     0
 42
0.0000000001
 43
0.0000000001
 12
1.0
 22
0.0
 32
0.0
 13
1.0
 23
0.0
 33
0.0
 40
0.0
 40
0.0
 40
0.0
 40
0.0
 40
1.0
 40
1.0
 40
1.0
 40
2.0
 40
2.0
 40
2.0
 40
3.0
 40
3.0
 40
3.0
 40
4.0
 40
4.0
 40
4.0
 40
5.0
 40
5.0
 40
5.0
 40
6.0
 40
6.0
 40
6.0
 40
7.0
 40
7.0
 40
7.0
 40
8.0
 40
8.0
 40
8.0
 40
9.0
 40
9.0
 40
9.0
 40
10.0
 40
10.0
 40
10.0
 40
11.0
 40
11.0
 40
11.0
 40
12.0
 40
12.0
 40
12.0
 40
13.0
 40
13.0
 40
13.0
 40
14.0
 40
14.0
 40
14.0
 40
15.0
 40
15.0
 40
15.0
 40
16.0
 40
16.0
 40
16.0
 40
17.0
 40
17.0
 40
17.0
 40
18.0
 40
18.0
 40
18.0
 40
19.0
 40
19.0
 40
19.0
 40
19.0
 10
84.3865803825492
 20
-95.88734264095872
 30
0.0
 10
84.3865803825492
 20
-95.98208276680309
 30
0.0
 10
84.36556530008917
 20
-96.19946829192236
 30
0.0
 10
84.17953014388567
 20
-96.3241807484884
 30
0.0
 10
84.06722003106653
 20
-96.39790579187274
 30
0.0
 10
83.96800128109133
 20
-96.40203990645504
 30
0.0
 10
83.8832519321542
 20
-96.40617402103734
 30
0.0
 10
83.8832519321542
 20
-96.40617402103734
 30
0.0
 10
83.8832519321542
 20
-96.18706594817546
 30
0.0
 10
83.8832519321542
 20
-96.18706594817546
 30
0.0
 10
83.95732148508706
 20
-96.18465438133579
 30
0.0
 10
84.19193248763257
 20
-96.17431909488003
 30
0.0
 10
84.19193248763257
 20
-95.89147675554102
 30
0.0
 10
84.19193248763257
 20
-95.75436195522808
 30
0.0
 10
84.12234155883053
 20
-95.60243324432857
 30
0.0
 10
83.89393172815846
 20
-95.60243324432857
 30
0.0
 10
83.77748750075702
 20
-95.60243324432857
 30
0.0
 10
83.728911654415
 20
-95.64032929466632
 30
0.0
 10
83.6972167759507
 20
-95.67202417313061
 30
0.0
 10
83.62314722301782
 20
-95.74574921651495
 30
0.0
 10
83.6104003697224
 20
-95.86184893436787
 30
0.0
 10
83.6104003697224
 20
-95.91697046213187
 30
0.0
 10
83.6104003697224
 20
-95.93591848730075
 30
0.0
 10
83.61246742701356
 20
-95.97174748034735
 30
0.0
 10
83.61660154159586
 20
-95.99896373468081
 30
0.0
 10
83.61660154159586
 20
-95.99896373468081
 30
0.0
 10
83.42195364667924
 20
-95.99896373468081
 30
0.0
 10
83.42195364667924
 20
-95.99896373468081
 30
0.0
 10
83.42849932810121
 20
-95.96106768434306
 30
0.0
 10
83.43056638539237
 20
-95.91903751942303
 30
0.0
 10
83.43056638539237
 20
-95.91249183800105
 30
0.0
 10
83.43056638539237
 20
-95.8470350237813
 30
0.0
 10
83.40920679338382
 20
-95.64894203337944
 30
0.0
 10
83.17252873354715
 20
-95.64894203337944
 30
0.0
 10
82.99476180650825
 20
-95.64894203337944
 30
0.0
 10
82.93964027874426
 20
-95.7795111522704
 30
0.0
 10
82.93964027874426
 20
-95.88940969824988
 30
0.0
 10
82.93964027874426
 20
-96.15330401242001
 30
0.0
 10
83.17252873354715
 20
-96.16157224158461
 30
0.0
 10
83.24418671964034
 20
-96.16570635616691
 30
0.0
 10
83.24418671964034
 20
-96.16570635616691
 30
0.0
 10
83.24418671964034
 20
-96.36827797069961
 30
0.0
 10
83.24418671964034
 20
-96.36827797069961
 30
0.0
 10
83.1194742630743
 20
-96.360009741535
 30
0.0
 10
82.7429253265365
 20
-96.332448977653
 30
0.0
 10
82.7429253265365
 20
-95.87666284495445
 30
0.0
 10
82.7429253265365
 20
-95.65307614796174
 30
0.0
 10
82.8700493499422
 20
-95.41260848309129
 30
0.0
 10
83.16598305212517
 20
-95.41260848309129
 30
0.0
 10
83.35236271787718
 20
-95.41260848309129
 30
0.0
 10
83.43470049997467
 20
-95.50734860893567
 30
0.0
 10
83.49602319961211
 20
-95.60656735891087
 30
0.0
 10
83.5235839634941
 20
-95.54558916882193
 30
0.0
 10
83.60385468830043
 20
-95.36403263674927
 30
0.0
 10
83.88118487486304
 20
-95.36403263674927
 30
0.0
 10
84.21949325151458
 20
-95.36403263674927
 30
0.0
 10
84.3865803825492
 20
-95.61070147349317
 30
0.0
 10
84.3865803825492
 20
-95.88734264095872
 30
0.0
  0
HATCH
  5
AB
330
A6
100
AcDbEntity
  8
_U+30EC_U+30A4_U+30E4_U+30FC 1
 62
     7
420
 16777215
100
AcDbHatch
 10
0.0
 20
0.0
 30
0.0
210
0.0
220
0.0
230
1.0
  2
SOLID
 70
     1
 71
     0
 91
        1
 92
        1
 93
        1
 72
     4
 94
        3
 73
     0
 74
     1
 95
       62
 96
       58
 40
0.0
 40
0.0
 40
0.0
 40
0.0
 40
1.0
 40
1.0
 40
1.0
 40
2.0
 40
2.0
 40
2.0
 40
3.0
 40
3.0
 40
3.0
 40
4.0
 40
4.0
 40
4.0
 40
5.0
 40
5.0
 40
5.0
 40
6.0
 40
6.0
 40
6.0
 40
7.0
 40
7.0
 40
7.0
 40
8.0
 40
8.0
 40
8.0
 40
9.0
 40
9.0
 40
9.0
 40
10.0
 40
10.0
 40
10.0
 40
11.0
 40
11.0
 40
11.0
 40
12.0
 40
12.0
 40
12.0
 40
13.0
 40
13.0
 40
13.0
 40
14.0
 40
14.0
 40
14.0
 40
15.0
 40
15.0
 40
15.0
 40
16.0
 40
16.0
 40
16.0
 40
17.0
 40
17.0
 40
17.0
 40
18.0
 40
18.0
 40
18.0
 40
19.0
 40
19.0
 40
19.0
 40
19.0
 10
84.3865803825492
 20
-95.88734264095872
 10
84.3865803825492
 20
-95.98208276680309
 10
84.36556530008917
 20
-96.19946829192236
 10
84.17953014388567
 20
-96.3241807484884
 10
84.06722003106653
 20
-96.39790579187274
 10
83.96800128109133
 20
-96.40203990645504
 10
83.8832519321542
 20
-96.40617402103734
 10
83.8832519321542
 20
-96.40617402103734
 10
83.8832519321542
 20
-96.18706594817546
 10
83.8832519321542
 20
-96.18706594817546
 10
83.95732148508706
 20
-96.18465438133579
 10
84.19193248763257
 20
-96.17431909488003
 10
84.19193248763257
 20
-95.89147675554102
 10
84.19193248763257
 20
-95.75436195522808
 10
84.12234155883053
 20
-95.60243324432857
 10
83.89393172815846
 20
-95.60243324432857
 10
83.77748750075702
 20
-95.60243324432857
 10
83.728911654415
 20
-95.64032929466632
 10
83.6972167759507
 20
-95.67202417313061
 10
83.62314722301782
 20
-95.74574921651495
 10
83.6104003697224
 20
-95.86184893436787
 10
83.6104003697224
 20
-95.91697046213187
 10
83.6104003697224
 20
-95.93591848730075
 10
83.61246742701356
 20
-95.97174748034735
 10
83.61660154159586
 20
-95.99896373468081
 10
83.61660154159586
 20
-95.99896373468081
 10
83.42195364667924
 20
-95.99896373468081
 10
83.42195364667924
 20
-95.99896373468081
 10
83.42849932810121
 20
-95.96106768434306
 10
83.43056638539237
 20
-95.91903751942303
 10
83.43056638539237
 20
-95.91249183800105
 10
83.43056638539237
 20
-95.8470350237813
 10
83.40920679338382
 20
-95.64894203337944
 10
83.17252873354715
 20
-95.64894203337944
 10
82.99476180650825
 20
-95.64894203337944
 10
82.93964027874426
 20
-95.7795111522704
 10
82.93964027874426
 20
-95.88940969824988
 10
82.93964027874426
 20
-96.15330401242001
 10
83.17252873354715
 20
-96.16157224158461
 10
83.24418671964034
 20
-96.16570635616691
 10
83.24418671964034
 20
-96.16570635616691
 10
83.24418671964034
 20
-96.36827797069961
 10
83.24418671964034
 20
-96.36827797069961
 10
83.1194742630743
 20
-96.360009741535
 10
82.7429253265365
 20
-96.332448977653
 10
82.7429253265365
 20
-95.87666284495445
 10
82.7429253265365
 20
-95.65307614796174
 10
82.8700493499422
 20
-95.41260848309129
 10
83.16598305212517
 20
-95.41260848309129
 10
83.35236271787718
 20
-95.41260848309129
 10
83.43470049997467
 20
-95.50734860893567
 10
83.49602319961211
 20
-95.60656735891087
 10
83.5235839634941
 20
-95.54558916882193
 10
83.60385468830043
 20
-95.36403263674927
 10
83.88118487486304
 20
-95.36403263674927
 10
84.21949325151458
 20
-95.36403263674927
 10
84.3865803825492
 20
-95.61070147349317
 10
84.3865803825492
 20
-95.88734264095872
 97
        0
 97
        0
 75
     2
 76
     1
 98
        0
  0
ENDBLK
  5
A9
330
A6
100
AcDbEntity
  8
0
100
AcDbBlockEnd
  0
BLOCK
  5
B6
330
B4
100
AcDbEntity
  8
0
100
AcDbBlockBegin
  2
block 5
 70
     0
 10
0.0
 20
0.0
 30
0.0
  3
block 5
  1

  0
SPLINE
  5
B8
330
B4
100
AcDbEntity
  8
_U+30EC_U+30A4_U+30E4_U+30FC 1
370
     0
100
AcDbSpline
210
0.0
220
0.0
230
1.0
 70
    11
 71
     3
 72
    26
 73
    22
 74
     0
 42
0.0000000001
 43
0.0000000001
 12
1.0
 22
0.0
 32
0.0
 13
1.0
 23
0.0
 33
0.0
 40
0.0
 40
0.0
 40
0.0
 40
0.0
 40
1.0
 40
1.0
 40
1.0
 40
2.0
 40
2.0
 40
2.0
 40
3.0
 40
3.0
 40
3.0
 40
4.0
 40
4.0
 40
4.0
 40
5.0
 40
5.0
 40
5.0
 40
6.0
 40
6.0
 40
6.0
 40
7.0
 40
7.0
 40
7.0
 40
7.0
 10
84.9643228954256
 20
-81.36178654649983
 30
0.0
 10
84.9643228954256
 20
-81.36178654649983
 30
0.0
 10
83.86016979240301
 20
-81.36178654649983
 30
0.0
 10
83.86016979240301
 20
-81.36178654649983
 30
0.0
 10
83.86016979240301
 20
-81.36178654649983
 30
0.0
 10
83.86016979240301
 20
-81.69113767488972
 30
0.0
 10
83.86016979240301
 20
-81.69113767488972
 30
0.0
 10
83.86016979240301
 20
-81.69113767488972
 30
0.0
 10
83.71203068653728
 20
-81.69113767488972
 30
0.0
 10
83.71203068653728
 20
-81.69113767488972
 30
0.0
 10
83.6972167759507
 20
-81.35971948920869
 30
0.0
 10
83.53426375949839
 20
-81.31321070015781
 30
0.0
 10
83.41988658938808
 20
-81.28358287898466
 30
0.0
 10
83.41988658938808
 20
-81.28358287898466
 30
0.0
 10
83.41988658938808
 20
-81.13819984950712
 30
0.0
 10
83.41988658938808
 20
-81.13819984950712
 30
0.0
 10
83.41988658938808
 20
-81.13819984950712
 30
0.0
 10
84.9643228954256
 20
-81.13819984950712
 30
0.0
 10
84.9643228954256
 20
-81.13819984950712
 30
0.0
 10
84.9643228954256
 20
-81.13819984950712
 30
0.0
 10
84.9643228954256
 20
-81.36178654649983
 30
0.0
 10
84.9643228954256
 20
-81.36178654649983
 30
0.0
  0
HATCH
  5
B9
330
B4
100
AcDbEntity
  8
_U+30EC_U+30A4_U+30E4_U+30FC 1
 62
     7
420
 16777215
100
AcDbHatch
 10
0.0
 20
0.0
 30
0.0
210
0.0
220
0.0
230
1.0
  2
SOLID
 70
     1
 71
     0
 91
        1
 92
        1
 93
        1
 72
     4
 94
        3
 73
     0
 74
     1
 95
       26
 96
       22
 40
0.0
 40
0.0
 40
0.0
 40
0.0
 40
1.0
 40
1.0
 40
1.0
 40
2.0
 40
2.0
 40
2.0
 40
3.0
 40
3.0
 40
3.0
 40
4.0
 40
4.0
 40
4.0
 40
5.0
 40
5.0
 40
5.0
 40
6.0
 40
6.0
 40
6.0
 40
7.0
 40
7.0
 40
7.0
 40
7.0
 10
84.9643228954256
 20
-81.36178654649983
 10
84.9643228954256
 20
-81.36178654649983
 10
83.86016979240301
 20
-81.36178654649983
 10
83.86016979240301
 20
-81.36178654649983
 10
83.86016979240301
 20
-81.36178654649983
 10
83.86016979240301
 20
-81.69113767488972
 10
83.86016979240301
 20
-81.69113767488972
 10
83.86016979240301
 20
-81.69113767488972
 10
83.71203068653728
 20
-81.69113767488972
 10
83.71203068653728
 20
-81.69113767488972
 10
83.6972167759507
 20
-81.35971948920869
 10
83.53426375949839
 20
-81.31321070015781
 10
83.41988658938808
 20
-81.28358287898466
 10
83.41988658938808
 20
-81.28358287898466
 10
83.41988658938808
 20
-81.13819984950712
 10
83.41988658938808
 20
-81.13819984950712
 10
83.41988658938808
 20
-81.13819984950712
 10
84.9643228954256
 20
-81.13819984950712
 10
84.9643228954256
 20
-81.13819984950712
 10
84.9643228954256
 20
-81.13819984950712
 10
84.9643228954256
 20
-81.36178654649983
 10
84.9643228954256
 20
-81.36178654649983
 97
        0
 97
        0
 75
     2
 76
     1
 98
        0
  0
ENDBLK
  5
B7
330
B4
100
AcDbEntity
  8
0
100
AcDbBlockEnd
  0
BLOCK
  5
C8
330
C6
100
AcDbEntity
  8
0
100
AcDbBlockBegin
  2
block 6
 70
     0
 10
0.0
 20
0.0
 30
0.0
  3
block 6
  1

  0
POLYLINE
  5
CA
330
C6
100
AcDbEntity
  8
_U+30EC_U+30A4_U+30E4_U+30FC 1
370
     0
100
AcDb2dPolyline
 66
     1
 10
0.0
 20
0.0
 30
0.0
  0
VERTEX
  5
CB
330
CA
100
AcDbEntity
  8
_U+30EC_U+30A4_U+30E4_U+30FC 1
370
     0
100
AcDbVertex
100
AcDb2dVertex
 10
61.46222600459972
 20
-78.18782007593916
 30
0.0
  0
VERTEX
  5
CC
330
CA
100
AcDbEntity
  8
_U+30EC_U+30A4_U+30E4_U+30FC 1
370
     0
100
AcDbVertex
100
AcDb2dVertex
 10
61.46222600459972
 20
-78.53474119130382
 30
0.0
  0
VERTEX
  5
CD
330
CA
100
AcDbEntity
  8
_U+30EC_U+30A4_U+30E4_U+30FC 1
370
     0
100
AcDbVertex
100
AcDb2dVertex
 10
61.24501273425472
 20
-78.53474119130382
 30
0.0
  0
VERTEX
  5
CE
330
CA
100
AcDbEntity
  8
_U+30EC_U+30A4_U+30E4_U+30FC 1
370
     0
100
AcDbVertex
100
AcDb2dVertex
 10
61.24501273425472
 20
-78.18782007593916
 30
0.0
  0
VERTEX
  5
CF
330
CA
100
AcDbEntity
  8
_U+30EC_U+30A4_U+30E4_U+30FC 1
370
     0
100
AcDbVertex
100
AcDb2dVertex
 10
60.59096135638004
 20
-78.18782007593916
 30
0.0
  0
VERTEX
  5
D0
330
CA
100
AcDbEntity
  8
_U+30EC_U+30A4_U+30E4_U+30FC 1
370
     0
100
AcDbVertex
100
AcDb2dVertex
 10
60.59096135638004
 20
-77.9635443598494
 30
0.0
  0
VERTEX
  5
D1
330
CA
100
AcDbEntity
  8
_U+30EC_U+30A4_U+30E4_U+30FC 1
370
     0
100
AcDbVertex
100
AcDb2dVertex
 10
61.26826712878016
 20
-76.99047714004058
 30
0.0
  0
VERTEX
  5
D2
330
CA
100
AcDbEntity
  8
_U+30EC_U+30A4_U+30E4_U+30FC 1
370
     0
100
AcDbVertex
100
AcDb2dVertex
 10
61.46222600459972
 20
-76.99047714004058
 30
0.0
  0
VERTEX
  5
D3
330
CA
100
AcDbEntity
  8
_U+30EC_U+30A4_U+30E4_U+30FC 1
370
     0
100
AcDbVertex
100
AcDb2dVertex
 10
61.46222600459972
 20
-77.98886581166599
 30
0.0
  0
VERTEX
  5
D4
330
CA
100
AcDbEntity
  8
_U+30EC_U+30A4_U+30E4_U+30FC 1
370
     0
100
AcDbVertex
100
AcDb2dVertex
 10
61.66927624326324
 20
-77.98886581166599
 30
0.0
  0
VERTEX
  5
D5
330
CA
100
AcDbEntity
  8
_U+30EC_U+30A4_U+30E4_U+30FC 1
370
     0
100
AcDbVertex
100
AcDb2dVertex
 10
61.66927624326324
 20
-78.18782007593916
 30
0.0
  0
VERTEX
  5
D6
330
CA
100
AcDbEntity
  8
_U+30EC_U+30A4_U+30E4_U+30FC 1
370
     0
100
AcDbVertex
100
AcDb2dVertex
 10
61.46222600459972
 20
-78.18782007593916
 30
0.0
  0
SEQEND
  5
D7
330
CA
100
AcDbEntity
  8
_U+30EC_U+30A4_U+30E4_U+30FC 1
370
     0
  0
POLYLINE
  5
D8
330
C6
100
AcDbEntity
  8
_U+30EC_U+30A4_U+30E4_U+30FC 1
370
     0
100
AcDb2dPolyline
 66
     1
 10
0.0
 20
0.0
 30
0.0
  0
VERTEX
  5
D9
330
D8
100
AcDbEntity
  8
_U+30EC_U+30A4_U+30E4_U+30FC 1
370
     0
100
AcDbVertex
100
AcDb2dVertex
 10
61.24501273425472
 20
-77.33309188604868
 30
0.0
  0
VERTEX
  5
DA
330
D8
100
AcDbEntity
  8
_U+30EC_U+30A4_U+30E4_U+30FC 1
370
     0
100
AcDbVertex
100
AcDb2dVertex
 10
60.78922660155617
 20
-77.98886581166599
 30
0.0
  0
VERTEX
  5
DB
330
D8
100
AcDbEntity
  8
_U+30EC_U+30A4_U+30E4_U+30FC 1
370
     0
100
AcDbVertex
100
AcDb2dVertex
 10
61.24501273425472
 20
-77.98886581166599
 30
0.0
  0
VERTEX
  5
DC
330
D8
100
AcDbEntity
  8
_U+30EC_U+30A4_U+30E4_U+30FC 1
370
     0
100
AcDbVertex
100
AcDb2dVertex
 10
61.24501273425472
 20
-77.33309188604868
 30
0.0
  0
SEQEND
  5
DD
330
D8
100
AcDbEntity
  8
_U+30EC_U+30A4_U+30E4_U+30FC 1
370
     0
  0
HATCH
  5
DE
330
C6
100
AcDbEntity
  8
_U+30EC_U+30A4_U+30E4_U+30FC 1
 62
     7
420
 16777215
100
AcDbHatch
 10
0.0
 20
0.0
 30
0.0
210
0.0
220
0.0
230
1.0
  2
SOLID
 70
     1
 71
     0
 91
        2
 92
        1
 93
       11
 72
     1
 10
61.46222600459972
 20
-78.18782007593916
 11
61.46222600459972
 21
-78.53474119130382
 72
     1
 10
61.46222600459972
 20
-78.53474119130382
 11
61.24501273425472
 21
-78.53474119130382
 72
     1
 10
61.24501273425472
 20
-78.53474119130382
 11
61.24501273425472
 21
-78.18782007593916
 72
     1
 10
61.24501273425472
 20
-78.18782007593916
 11
60.59096135638004
 21
-78.18782007593916
 72
     1
 10
60.59096135638004
 20
-78.18782007593916
 11
60.59096135638004
 21
-77.9635443598494
 72
     1
 10
60.59096135638004
 20
-77.9635443598494
 11
61.26826712878016
 21
-76.99047714004058
 72
     1
 10
61.26826712878016
 20
-76.99047714004058
 11
61.46222600459972
 21
-76.99047714004058
 72
     1
 10
61.46222600459972
 20
-76.99047714004058
 11
61.46222600459972
 21
-77.98886581166599
 72
     1
 10
61.46222600459972
 20
-77.98886581166599
 11
61.66927624326324
 21
-77.98886581166599
 72
     1
 10
61.66927624326324
 20
-77.98886581166599
 11
61.66927624326324
 21
-78.18782007593916
 72
     1
 10
61.66927624326324
 20
-78.18782007593916
 11
61.46222600459972
 21
-78.18782007593916
 97
        0
 92
        1
 93
        3
 72
     1
 10
61.24501273425472
 20
-77.33309188604868
 11
60.78922660155617
 21
-77.98886581166599
 72
     1
 10
60.78922660155617
 20
-77.98886581166599
 11
61.24501273425472
 21
-77.98886581166599
 72
     1
 10
61.24501273425472
 20
-77.98886581166599
 11
61.24501273425472
 21
-77.33309188604868
 97
        0
 75
     2
 76
     1
 98
        0
  0
SPLINE
  5
DF
330
C6
100
AcDbEntity
  8
_U+30EC_U+30A4_U+30E4_U+30FC 1
370
     0
100
AcDbSpline
210
0.0
220
0.0
230
1.0
 70
    11
 71
     3
 72
    29
 73
    25
 74
     0
 42
0.0000000001
 43
0.0000000001
 12
1.0
 22
0.0
 32
0.0
 13
1.0
 23
0.0
 33
0.0
 40
0.0
 40
0.0
 40
0.0
 40
0.0
 40
1.0
 40
1.0
 40
1.0
 40
2.0
 40
2.0
 40
2.0
 40
3.0
 40
3.0
 40
3.0
 40
4.0
 40
4.0
 40
4.0
 40
5.0
 40
5.0
 40
5.0
 40
6.0
 40
6.0
 40
6.0
 40
7.0
 40
7.0
 40
7.0
 40
8.0
 40
8.0
 40
8.0
 40
8.0
 10
62.70004881244999
 20
-78.35697426426492
 30
0.0
 10
62.59256183331019
 20
-78.56643606976812
 30
0.0
 10
62.41961803995066
 20
-78.58555634971125
 30
0.0
 10
62.30351832209774
 20
-78.58555634971125
 30
0.0
 10
62.14297687248509
 20
-78.58555634971125
 30
0.0
 10
62.00172795758985
 20
-78.53904756066038
 30
0.0
 10
61.90664332219696
 20
-78.35697426426492
 30
0.0
 10
61.80329045763946
 20
-78.1623263693483
 30
0.0
 10
61.78434243247058
 20
-77.92547605473739
 30
0.0
 10
61.78434243247058
 20
-77.76252303828507
 30
0.0
 10
61.78434243247058
 20
-77.61869030177589
 30
0.0
 10
61.80122340034831
 20
-77.36702607657838
 30
0.0
 10
61.90664332219696
 20
-77.16807181230521
 30
0.0
 10
62.01447481088528
 20
-76.96498343344973
 30
0.0
 10
62.17467175094939
 20
-76.9417290389243
 30
0.0
 10
62.30351832209774
 20
-76.9417290389243
 30
0.0
 10
62.4616482048707
 20
-76.9417290389243
 30
0.0
 10
62.60530868660562
 20
-76.98617077068401
 30
0.0
 10
62.70004881244999
 20
-77.16807181230521
 30
0.0
 10
62.79926756242519
 20
-77.36065264993067
 30
0.0
 10
62.82234970217636
 20
-77.58906248060273
 30
0.0
 10
62.82234970217636
 20
-77.76252303828507
 30
0.0
 10
62.82234970217636
 20
-77.93391653867624
 30
0.0
 10
62.80133461971634
 20
-78.16456568141372
 30
0.0
 10
62.70004881244999
 20
-78.35697426426492
 30
0.0
  0
SPLINE
  5
E0
330
C6
100
AcDbEntity
  8
_U+30EC_U+30A4_U+30E4_U+30FC 1
370
     0
100
AcDbSpline
210
0.0
220
0.0
230
1.0
 70
    11
 71
     3
 72
    17
 73
    13
 74
     0
 42
0.0000000001
 43
0.0000000001
 12
1.0
 22
0.0
 32
0.0
 13
1.0
 23
0.0
 33
0.0
 40
0.0
 40
0.0
 40
0.0
 40
0.0
 40
1.0
 40
1.0
 40
1.0
 40
2.0
 40
2.0
 40
2.0
 40
3.0
 40
3.0
 40
3.0
 40
4.0
 40
4.0
 40
4.0
 40
4.0
 10
62.30351832209774
 20
-77.13430987654976
 30
0.0
 10
62.05443791851417
 20
-77.13430987654976
 30
0.0
 10
62.0079291294633
 20
-77.41784123498581
 30
0.0
 10
62.0079291294633
 20
-77.76252303828507
 30
0.0
 10
62.0079291294633
 20
-78.082055644542
 30
0.0
 10
62.0437581225099
 20
-78.39090845479464
 30
0.0
 10
62.30351832209774
 20
-78.39090845479464
 30
0.0
 10
62.55018715884162
 20
-78.39090845479464
 30
0.0
 10
62.59876300518364
 20
-78.10944415364973
 30
0.0
 10
62.59876300518364
 20
-77.76252303828507
 30
0.0
 10
62.59876300518364
 20
-77.44316268680241
 30
0.0
 10
62.5608669548459
 20
-77.13430987654976
 30
0.0
 10
62.30351832209774
 20
-77.13430987654976
 30
0.0
  0
HATCH
  5
E1
330
C6
100
AcDbEntity
  8
_U+30EC_U+30A4_U+30E4_U+30FC 1
 62
     7
420
 16777215
100
AcDbHatch
 10
0.0
 20
0.0
 30
0.0
210
0.0
220
0.0
230
1.0
  2
SOLID
 70
     1
 71
     0
 91
        2
 92
        1
 93
        1
 72
     4
 94
        3
 73
     0
 74
     1
 95
       29
 96
       25
 40
0.0
 40
0.0
 40
0.0
 40
0.0
 40
1.0
 40
1.0
 40
1.0
 40
2.0
 40
2.0
 40
2.0
 40
3.0
 40
3.0
 40
3.0
 40
4.0
 40
4.0
 40
4.0
 40
5.0
 40
5.0
 40
5.0
 40
6.0
 40
6.0
 40
6.0
 40
7.0
 40
7.0
 40
7.0
 40
8.0
 40
8.0
 40
8.0
 40
8.0
 10
62.70004881244999
 20
-78.35697426426492
 10
62.59256183331019
 20
-78.56643606976812
 10
62.41961803995066
 20
-78.58555634971125
 10
62.30351832209774
 20
-78.58555634971125
 10
62.14297687248509
 20
-78.58555634971125
 10
62.00172795758985
 20
-78.53904756066038
 10
61.90664332219696
 20
-78.35697426426492
 10
61.80329045763946
 20
-78.1623263693483
 10
61.78434243247058
 20
-77.92547605473739
 10
61.78434243247058
 20
-77.76252303828507
 10
61.78434243247058
 20
-77.61869030177589
 10
61.80122340034831
 20
-77.36702607657838
 10
61.90664332219696
 20
-77.16807181230521
 10
62.01447481088528
 20
-76.96498343344973
 10
62.17467175094939
 20
-76.9417290389243
 10
62.30351832209774
 20
-76.9417290389243
 10
62.4616482048707
 20
-76.9417290389243
 10
62.60530868660562
 20
-76.98617077068401
 10
62.70004881244999
 20
-77.16807181230521
 10
62.79926756242519
 20
-77.36065264993067
 10
62.82234970217636
 20
-77.58906248060273
 10
62.82234970217636
 20
-77.76252303828507
 10
62.82234970217636
 20
-77.93391653867624
 10
62.80133461971634
 20
-78.16456568141372
 10
62.70004881244999
 20
-78.35697426426492
 97
        0
 97
        0
 92
        1
 93
        1
 72
     4
 94
        3
 73
     0
 74
     1
 95
       17
 96
       13
 40
0.0
 40
0.0
 40
0.0
 40
0.0
 40
1.0
 40
1.0
 40
1.0
 40
2.0
 40
2.0
 40
2.0
 40
3.0
 40
3.0
 40
3.0
 40
4.0
 40
4.0
 40
4.0
 40
4.0
 10
62.30351832209774
 20
-77.13430987654976
 10
62.05443791851417
 20
-77.13430987654976
 10
62.0079291294633
 20
-77.41784123498581
 10
62.0079291294633
 20
-77.76252303828507
 10
62.0079291294633
 20
-78.082055644542
 10
62.0437581225099
 20
-78.39090845479464
 10
62.30351832209774
 20
-78.39090845479464
 10
62.55018715884162
 20
-78.39090845479464
 10
62.59876300518364
 20
-78.10944415364973
 10
62.59876300518364
 20
-77.76252303828507
 10
62.59876300518364
 20
-77.44316268680241
 10
62.5608669548459
 20
-77.13430987654976
 10
62.30351832209774
 20
-77.13430987654976
 97
        0
 97
        0
 75
     2
 76
     1
 98
        0
  0
ENDBLK
  5
C9
330
C6
100
AcDbEntity
  8
0
100
AcDbBlockEnd
  0
BLOCK
  5
EC
330
EA
100
AcDbEntity
  8
0
100
AcDbBlockBegin
  2
block 7
 70
     0
 10
0.0
 20
0.0
 30
0.0
  3
block 7
  1

  0
SPLINE
  5
EE
330
EA
100
AcDbEntity
  8
_U+30EC_U+30A4_U+30E4_U+30FC 1
370
     0
100
AcDbSpline
210
0.0
220
0.0
230
1.0
 70
    11
 71
     3
 72
    26
 73
    22
 74
     0
 42
0.0000000001
 43
0.0000000001
 12
1.0
 22
0.0
 32
0.0
 13
1.0
 23
0.0
 33
0.0
 40
0.0
 40
0.0
 40
0.0
 40
0.0
 40
1.0
 40
1.0
 40
1.0
 40
2.0
 40
2.0
 40
2.0
 40
3.0
 40
3.0
 40
3.0
 40
4.0
 40
4.0
 40
4.0
 40
5.0
 40
5.0
 40
5.0
 40
6.0
 40
6.0
 40
6.0
 40
7.0
 40
7.0
 40
7.0
 40
7.0
 10
84.33593747891602
 20
-89.91389157908404
 30
0.0
 10
84.33593747891602
 20
-89.91389157908404
 30
0.0
 10
83.23178437589344
 20
-89.91389157908404
 30
0.0
 10
83.23178437589344
 20
-89.91389157908404
 30
0.0
 10
83.23178437589344
 20
-89.91389157908404
 30
0.0
 10
83.23178437589344
 20
-90.24324270747391
 30
0.0
 10
83.23178437589344
 20
-90.24324270747391
 30
0.0
 10
83.23178437589344
 20
-90.24324270747391
 30
0.0
 10
83.0836452700277
 20
-90.24324270747391
 30
0.0
 10
83.0836452700277
 20
-90.24324270747391
 30
0.0
 10
83.06883135944113
 20
-89.91182452179288
 30
0.0
 10
82.90587834298881
 20
-89.865315732742
 30
0.0
 10
82.79150117287851
 20
-89.83568791156885
 30
0.0
 10
82.79150117287851
 20
-89.83568791156885
 30
0.0
 10
82.79150117287851
 20
-89.69030488209131
 30
0.0
 10
82.79150117287851
 20
-89.69030488209131
 30
0.0
 10
82.79150117287851
 20
-89.69030488209131
 30
0.0
 10
84.33593747891602
 20
-89.69030488209131
 30
0.0
 10
84.33593747891602
 20
-89.69030488209131
 30
0.0
 10
84.33593747891602
 20
-89.69030488209131
 30
0.0
 10
84.33593747891602
 20
-89.91389157908404
 30
0.0
 10
84.33593747891602
 20
-89.91389157908404
 30
0.0
  0
HATCH
  5
EF
330
EA
100
AcDbEntity
  8
_U+30EC_U+30A4_U+30E4_U+30FC 1
 62
     7
420
 16777215
100
AcDbHatch
 10
0.0
 20
0.0
 30
0.0
210
0.0
220
0.0
230
1.0
  2
SOLID
 70
     1
 71
     0
 91
        1
 92
        1
 93
        1
 72
     4
 94
        3
 73
     0
 74
     1
 95
       26
 96
       22
 40
0.0
 40
0.0
 40
0.0
 40
0.0
 40
1.0
 40
1.0
 40
1.0
 40
2.0
 40
2.0
 40
2.0
 40
3.0
 40
3.0
 40
3.0
 40
4.0
 40
4.0
 40
4.0
 40
5.0
 40
5.0
 40
5.0
 40
6.0
 40
6.0
 40
6.0
 40
7.0
 40
7.0
 40
7.0
 40
7.0
 10
84.33593747891602
 20
-89.91389157908404
 10
84.33593747891602
 20
-89.91389157908404
 10
83.23178437589344
 20
-89.91389157908404
 10
83.23178437589344
 20
-89.91389157908404
 10
83.23178437589344
 20
-89.91389157908404
 10
83.23178437589344
 20
-90.24324270747391
 10
83.23178437589344
 20
-90.24324270747391
 10
83.23178437589344
 20
-90.24324270747391
 10
83.0836452700277
 20
-90.24324270747391
 10
83.0836452700277
 20
-90.24324270747391
 10
83.06883135944113
 20
-89.91182452179288
 10
82.90587834298881
 20
-89.865315732742
 10
82.79150117287851
 20
-89.83568791156885
 10
82.79150117287851
 20
-89.83568791156885
 10
82.79150117287851
 20
-89.69030488209131
 10
82.79150117287851
 20
-89.69030488209131
 10
82.79150117287851
 20
-89.69030488209131
 10
84.33593747891602
 20
-89.69030488209131
 10
84.33593747891602
 20
-89.69030488209131
 10
84.33593747891602
 20
-89.69030488209131
 10
84.33593747891602
 20
-89.91389157908404
 10
84.33593747891602
 20
-89.91389157908404
 97
        0
 97
        0
 75
     2
 76
     1
 98
        0
  0
SPLINE
  5
F0
330
EA
100
AcDbEntity
  8
_U+30EC_U+30A4_U+30E4_U+30FC 1
370
     0
100
AcDbSpline
210
0.0
220
0.0
230
1.0
 70
    11
 71
     3
 72
    29
 73
    25
 74
     0
 42
0.0000000001
 43
0.0000000001
 12
1.0
 22
0.0
 32
0.0
 13
1.0
 23
0.0
 33
0.0
 40
0.0
 40
0.0
 40
0.0
 40
0.0
 40
1.0
 40
1.0
 40
1.0
 40
2.0
 40
2.0
 40
2.0
 40
3.0
 40
3.0
 40
3.0
 40
4.0
 40
4.0
 40
4.0
 40
5.0
 40
5.0
 40
5.0
 40
6.0
 40
6.0
 40
6.0
 40
7.0
 40
7.0
 40
7.0
 40
8.0
 40
8.0
 40
8.0
 40
8.0
 10
84.15817055187713
 20
-88.29641924875924
 30
0.0
 10
84.36763235738032
 20
-88.40390622789903
 30
0.0
 10
84.3865803825492
 20
-88.57685002125856
 30
0.0
 10
84.3865803825492
 20
-88.69294973911148
 30
0.0
 10
84.3865803825492
 20
-88.85349118872413
 30
0.0
 10
84.34007159349832
 20
-88.99474010361938
 30
0.0
 10
84.15817055187713
 20
-89.08982473901227
 30
0.0
 10
83.9635226569605
 20
-89.19317760356977
 30
0.0
 10
83.72684459712384
 20
-89.21212562873863
 30
0.0
 10
83.56389158067154
 20
-89.21212562873863
 30
0.0
 10
83.41988658938808
 20
-89.21212562873863
 30
0.0
 10
83.16805010941633
 20
-89.19524466086092
 30
0.0
 10
82.96926809991741
 20
-89.08982473901227
 30
0.0
 10
82.76635197583619
 20
-88.98199325032395
 30
0.0
 10
82.7429253265365
 20
-88.82179631025983
 30
0.0
 10
82.7429253265365
 20
-88.69294973911148
 30
0.0
 10
82.7429253265365
 20
-88.53481985633852
 30
0.0
 10
82.78736705829621
 20
-88.3911593746036
 30
0.0
 10
82.96926809991741
 20
-88.29641924875924
 30
0.0
 10
83.16184893754287
 20
-88.19720049878404
 30
0.0
 10
83.39025876821493
 20
-88.17377384948433
 30
0.0
 10
83.56389158067154
 20
-88.17377384948433
 30
0.0
 10
83.73511282628844
 20
-88.17377384948433
 30
0.0
 10
83.96558971425166
 20
-88.19513344149289
 30
0.0
 10
84.15817055187713
 20
-88.29641924875924
 30
0.0
  0
SPLINE
  5
F1
330
EA
100
AcDbEntity
  8
_U+30EC_U+30A4_U+30E4_U+30FC 1
370
     0
100
AcDbSpline
210
0.0
220
0.0
230
1.0
 70
    11
 71
     3
 72
    17
 73
    13
 74
     0
 42
0.0000000001
 43
0.0000000001
 12
1.0
 22
0.0
 32
0.0
 13
1.0
 23
0.0
 33
0.0
 40
0.0
 40
0.0
 40
0.0
 40
0.0
 40
1.0
 40
1.0
 40
1.0
 40
2.0
 40
2.0
 40
2.0
 40
3.0
 40
3.0
 40
3.0
 40
4.0
 40
4.0
 40
4.0
 40
4.0
 10
82.93550616416196
 20
-88.69294973911148
 30
0.0
 10
82.93550616416196
 20
-88.94203014269505
 30
0.0
 10
83.21903752259803
 20
-88.98853893174592
 30
0.0
 10
83.56389158067154
 20
-88.98853893174592
 30
0.0
 10
83.8832519321542
 20
-88.98853893174592
 30
0.0
 10
84.19193248763257
 20
-88.95270993869933
 30
0.0
 10
84.19193248763257
 20
-88.69294973911148
 30
0.0
 10
84.19193248763257
 20
-88.4462809023676
 30
0.0
 10
83.91081269603619
 20
-88.39770505602557
 30
0.0
 10
83.56389158067154
 20
-88.39770505602557
 30
0.0
 10
83.24418671964034
 20
-88.39770505602557
 30
0.0
 10
82.93550616416196
 20
-88.43560110636332
 30
0.0
 10
82.93550616416196
 20
-88.69294973911148
 30
0.0
  0
HATCH
  5
F2
330
EA
100
AcDbEntity
  8
_U+30EC_U+30A4_U+30E4_U+30FC 1
 62
     7
420
 16777215
100
AcDbHatch
 10
0.0
 20
0.0
 30
0.0
210
0.0
220
0.0
230
1.0
  2
SOLID
 70
     1
 71
     0
 91
        2
 92
        1
 93
        1
 72
     4
 94
        3
 73
     0
 74
     1
 95
       29
 96
       25
 40
0.0
 40
0.0
 40
0.0
 40
0.0
 40
1.0
 40
1.0
 40
1.0
 40
2.0
 40
2.0
 40
2.0
 40
3.0
 40
3.0
 40
3.0
 40
4.0
 40
4.0
 40
4.0
 40
5.0
 40
5.0
 40
5.0
 40
6.0
 40
6.0
 40
6.0
 40
7.0
 40
7.0
 40
7.0
 40
8.0
 40
8.0
 40
8.0
 40
8.0
 10
84.15817055187713
 20
-88.29641924875924
 10
84.36763235738032
 20
-88.40390622789903
 10
84.3865803825492
 20
-88.57685002125856
 10
84.3865803825492
 20
-88.69294973911148
 10
84.3865803825492
 20
-88.85349118872413
 10
84.34007159349832
 20
-88.99474010361938
 10
84.15817055187713
 20
-89.08982473901227
 10
83.9635226569605
 20
-89.19317760356977
 10
83.72684459712384
 20
-89.21212562873863
 10
83.56389158067154
 20
-89.21212562873863
 10
83.41988658938808
 20
-89.21212562873863
 10
83.16805010941633
 20
-89.19524466086092
 10
82.96926809991741
 20
-89.08982473901227
 10
82.76635197583619
 20
-88.98199325032395
 10
82.7429253265365
 20
-88.82179631025983
 10
82.7429253265365
 20
-88.69294973911148
 10
82.7429253265365
 20
-88.53481985633852
 10
82.78736705829621
 20
-88.3911593746036
 10
82.96926809991741
 20
-88.29641924875924
 10
83.16184893754287
 20
-88.19720049878404
 10
83.39025876821493
 20
-88.17377384948433
 10
83.56389158067154
 20
-88.17377384948433
 10
83.73511282628844
 20
-88.17377384948433
 10
83.96558971425166
 20
-88.19513344149289
 10
84.15817055187713
 20
-88.29641924875924
 97
        0
 97
        0
 92
        1
 93
        1
 72
     4
 94
        3
 73
     0
 74
     1
 95
       17
 96
       13
 40
0.0
 40
0.0
 40
0.0
 40
0.0
 40
1.0
 40
1.0
 40
1.0
 40
2.0
 40
2.0
 40
2.0
 40
3.0
 40
3.0
 40
3.0
 40
4.0
 40
4.0
 40
4.0
 40
4.0
 10
82.93550616416196
 20
-88.69294973911148
 10
82.93550616416196
 20
-88.94203014269505
 10
83.21903752259803
 20
-88.98853893174592
 10
83.56389158067154
 20
-88.98853893174592
 10
83.8832519321542
 20
-88.98853893174592
 10
84.19193248763257
 20
-88.95270993869933
 10
84.19193248763257
 20
-88.69294973911148
 10
84.19193248763257
 20
-88.4462809023676
 10
83.91081269603619
 20
-88.39770505602557
 10
83.56389158067154
 20
-88.39770505602557
 10
83.24418671964034
 20
-88.39770505602557
 10
82.93550616416196
 20
-88.43560110636332
 10
82.93550616416196
 20
-88.69294973911148
 97
        0
 97
        0
 75
     2
 76
     1
 98
        0
  0
ENDBLK
  5
ED
330
EA
100
AcDbEntity
  8
0
100
AcDbBlockEnd
  0
ENDSEC
  0
SECTION
  2
ENTITIES
  0
INSERT
  5
42
330
1F
100
AcDbEntity
  8
_U+30EC_U+30A4_U+30E4_U+30FC 1
100
AcDbBlockReference
  2
block 2
 10
0.0
 20
0.0
 30
0.0
  0
SPLINE
  5
7D
330
1F
100
AcDbEntity
  8
_U+30EC_U+30A4_U+30E4_U+30FC 1
 62
     7
420
 16777215
370
     9
100
AcDbSpline
210
0.0
220
0.0
230
1.0
 70
    11
 71
     3
 72
    17
 73
    13
 74
     0
 42
0.0000000001
 43
0.0000000001
 12
1.0
 22
0.0
 32
0.0
 13
1.0
 23
0.0
 33
0.0
 40
0.0
 40
0.0
 40
0.0
 40
0.0
 40
1.0
 40
1.0
 40
1.0
 40
2.0
 40
2.0
 40
2.0
 40
3.0
 40
3.0
 40
3.0
 40
4.0
 40
4.0
 40
4.0
 40
4.0
 10
69.71633072138823
 20
-101.3808896968769
 30
0.0
 10
69.71633072138823
 20
-101.325785808002
 30
0.0
 10
69.67152794475346
 20
-101.2809830302353
 30
0.0
 10
69.6164240572704
 20
-101.2809830302353
 30
0.0
 10
69.56128489201043
 20
-101.2809830302353
 30
0.0
 10
69.51651739315255
 20
-101.325785808002
 30
0.0
 10
69.51651739315255
 20
-101.3808896968769
 30
0.0
 10
69.51651739315255
 20
-101.43602886353
 30
0.0
 10
69.56128489201043
 20
-101.4807963635185
 30
0.0
 10
69.6164240572704
 20
-101.4807963635185
 30
0.0
 10
69.67152794475346
 20
-101.4807963635185
 30
0.0
 10
69.71633072138823
 20
-101.43602886353
 30
0.0
 10
69.71633072138823
 20
-101.3808896968769
 30
0.0
  0
SPLINE
  5
7E
330
1F
100
AcDbEntity
  8
_U+30EC_U+30A4_U+30E4_U+30FC 1
 62
     7
420
 16777215
370
     9
100
AcDbSpline
210
0.0
220
0.0
230
1.0
 70
    11
 71
     3
 72
    17
 73
    13
 74
     0
 42
0.0000000001
 43
0.0000000001
 12
1.0
 22
0.0
 32
0.0
 13
1.0
 23
0.0
 33
0.0
 40
0.0
 40
0.0
 40
0.0
 40
0.0
 40
1.0
 40
1.0
 40
1.0
 40
2.0
 40
2.0
 40
2.0
 40
3.0
 40
3.0
 40
3.0
 40
4.0
 40
4.0
 40
4.0
 40
4.0
 10
39.81650981752954
 20
-101.3808896968769
 30
0.0
 10
39.81650981752954
 20
-101.325785808002
 30
0.0
 10
39.77174231867166
 20
-101.2809830302353
 30
0.0
 10
39.7166031534117
 20
-101.2809830302353
 30
0.0
 10
39.66149926592863
 20
-101.2809830302353
 30
0.0
 10
39.61669648929387
 20
-101.325785808002
 30
0.0
 10
39.61669648929387
 20
-101.3808896968769
 30
0.0
 10
39.61669648929387
 20
-101.43602886353
 30
0.0
 10
39.66149926592863
 20
-101.4807963635185
 30
0.0
 10
39.7166031534117
 20
-101.4807963635185
 30
0.0
 10
39.77174231867166
 20
-101.4807963635185
 30
0.0
 10
39.81650981752954
 20
-101.43602886353
 30
0.0
 10
39.81650981752954
 20
-101.3808896968769
 30
0.0
  0
SPLINE
  5
7F
330
1F
100
AcDbEntity
  8
_U+30EC_U+30A4_U+30E4_U+30FC 1
 62
     7
420
 16777215
370
     9
100
AcDbSpline
210
0.0
220
0.0
230
1.0
 70
    11
 71
     3
 72
    17
 73
    13
 74
     0
 42
0.0000000001
 43
0.0000000001
 12
1.0
 22
0.0
 32
0.0
 13
1.0
 23
0.0
 33
0.0
 40
0.0
 40
0.0
 40
0.0
 40
0.0
 40
1.0
 40
1.0
 40
1.0
 40
2.0
 40
2.0
 40
2.0
 40
3.0
 40
3.0
 40
3.0
 40
4.0
 40
4.0
 40
4.0
 40
4.0
 10
85.81664947730154
 20
-83.2807085902908
 30
0.0
 10
85.81664947730154
 20
-83.22556942363805
 30
0.0
 10
85.77184670066677
 20
-83.18080192364916
 30
0.0
 10
85.7167428131837
 20
-83.18080192364916
 30
0.0
 10
85.66093337016308
 20
-83.18080192364916
 30
0.0
 10
85.61613059352831
 20
-83.22556942363805
 30
0.0
 10
85.61613059352831
 20
-83.2807085902908
 30
0.0
 10
85.61613059352831
 20
-83.3361652569438
 30
0.0
 10
85.66093337016308
 20
-83.38061525693276
 30
0.0
 10
85.7167428131837
 20
-83.38061525693276
 30
0.0
 10
85.77184670066677
 20
-83.38061525693276
 30
0.0
 10
85.81664947730154
 20
-83.3361652569438
 30
0.0
 10
85.81664947730154
 20
-83.2807085902908
 30
0.0
  0
SPLINE
  5
80
330
1F
100
AcDbEntity
  8
_U+30EC_U+30A4_U+30E4_U+30FC 1
 62
     7
420
 16777215
370
     9
100
AcDbSpline
210
0.0
220
0.0
230
1.0
 70
    11
 71
     3
 72
    17
 73
    13
 74
     0
 42
0.0000000001
 43
0.0000000001
 12
1.0
 22
0.0
 32
0.0
 13
1.0
 23
0.0
 33
0.0
 40
0.0
 40
0.0
 40
0.0
 40
0.0
 40
1.0
 40
1.0
 40
1.0
 40
2.0
 40
2.0
 40
2.0
 40
3.0
 40
3.0
 40
3.0
 40
4.0
 40
4.0
 40
4.0
 40
4.0
 10
85.81664947730154
 20
-84.28083359004079
 30
0.0
 10
85.81664947730154
 20
-84.22569442338802
 30
0.0
 10
85.77184670066677
 20
-84.1808916456213
 30
0.0
 10
85.7167428131837
 20
-84.1808916456213
 30
0.0
 10
85.66093337016308
 20
-84.1808916456213
 30
0.0
 10
85.61613059352831
 20
-84.22569442338802
 30
0.0
 10
85.61613059352831
 20
-84.28083359004079
 30
0.0
 10
85.61613059352831
 20
-84.33629025669379
 30
0.0
 10
85.66093337016308
 20
-84.38105775668267
 30
0.0
 10
85.7167428131837
 20
-84.38105775668267
 30
0.0
 10
85.77184670066677
 20
-84.38105775668267
 30
0.0
 10
85.81664947730154
 20
-84.33629025669379
 30
0.0
 10
85.81664947730154
 20
-84.28083359004079
 30
0.0
  0
SPLINE
  5
81
330
1F
100
AcDbEntity
  8
_U+30EC_U+30A4_U+30E4_U+30FC 1
 62
     7
420
 16777215
370
     9
100
AcDbSpline
210
0.0
220
0.0
230
1.0
 70
    11
 71
     3
 72
    17
 73
    13
 74
     0
 42
0.0000000001
 43
0.0000000001
 12
1.0
 22
0.0
 32
0.0
 13
1.0
 23
0.0
 33
0.0
 40
0.0
 40
0.0
 40
0.0
 40
0.0
 40
1.0
 40
1.0
 40
1.0
 40
2.0
 40
2.0
 40
2.0
 40
3.0
 40
3.0
 40
3.0
 40
4.0
 40
4.0
 40
4.0
 40
4.0
 10
85.81664947730154
 20
-94.28088414309627
 30
0.0
 10
85.81664947730154
 20
-94.22578025422136
 30
0.0
 10
85.77184670066677
 20
-94.18097747645463
 30
0.0
 10
85.7167428131837
 20
-94.18097747645463
 30
0.0
 10
85.66093337016308
 20
-94.18097747645463
 30
0.0
 10
85.61613059352831
 20
-94.22578025422136
 30
0.0
 10
85.61613059352831
 20
-94.28088414309627
 30
0.0
 10
85.61613059352831
 20
-94.33602330974935
 30
0.0
 10
85.66093337016308
 20
-94.38079080973792
 30
0.0
 10
85.7167428131837
 20
-94.38079080973792
 30
0.0
 10
85.77184670066677
 20
-94.38079080973792
 30
0.0
 10
85.81664947730154
 20
-94.33602330974935
 30
0.0
 10
85.81664947730154
 20
-94.28088414309627
 30
0.0
  0
SPLINE
  5
82
330
1F
100
AcDbEntity
  8
_U+30EC_U+30A4_U+30E4_U+30FC 1
 62
     7
420
 16777215
370
     9
100
AcDbSpline
210
0.0
220
0.0
230
1.0
 70
    11
 71
     3
 72
    17
 73
    13
 74
     0
 42
0.0000000001
 43
0.0000000001
 12
1.0
 22
0.0
 32
0.0
 13
1.0
 23
0.0
 33
0.0
 40
0.0
 40
0.0
 40
0.0
 40
0.0
 40
1.0
 40
1.0
 40
1.0
 40
2.0
 40
2.0
 40
2.0
 40
3.0
 40
3.0
 40
3.0
 40
4.0
 40
4.0
 40
4.0
 40
4.0
 10
85.81664947730154
 20
-97.3807777534329
 30
0.0
 10
85.81664947730154
 20
-97.32567386455733
 30
0.0
 10
85.77184670066677
 20
-97.28087108679061
 30
0.0
 10
85.7167428131837
 20
-97.28087108679061
 30
0.0
 10
85.66093337016308
 20
-97.28087108679061
 30
0.0
 10
85.61613059352831
 20
-97.32567386455733
 30
0.0
 10
85.61613059352831
 20
-97.3807777534329
 30
0.0
 10
85.61613059352831
 20
-97.4362696978631
 30
0.0
 10
85.66093337016308
 20
-97.48103719785165
 30
0.0
 10
85.7167428131837
 20
-97.48103719785165
 30
0.0
 10
85.77184670066677
 20
-97.48103719785165
 30
0.0
 10
85.81664947730154
 20
-97.4362696978631
 30
0.0
 10
85.81664947730154
 20
-97.3807777534329
 30
0.0
  0
SPLINE
  5
83
330
1F
100
AcDbEntity
  8
_U+30EC_U+30A4_U+30E4_U+30FC 1
 62
     7
420
 16777215
370
     9
100
AcDbSpline
210
0.0
220
0.0
230
1.0
 70
    11
 71
     3
 72
    17
 73
    13
 74
     0
 42
0.0000000001
 43
0.0000000001
 12
1.0
 22
0.0
 32
0.0
 13
1.0
 23
0.0
 33
0.0
 40
0.0
 40
0.0
 40
0.0
 40
0.0
 40
1.0
 40
1.0
 40
1.0
 40
2.0
 40
2.0
 40
2.0
 40
3.0
 40
3.0
 40
3.0
 40
4.0
 40
4.0
 40
4.0
 40
4.0
 10
81.81618485713967
 20
-79.1810427579826
 30
0.0
 10
81.81618485713967
 20
-79.1255860913296
 30
0.0
 10
81.77141942400148
 20
-79.0807833135632
 30
0.0
 10
81.71627819302184
 20
-79.0807833135632
 30
0.0
 10
81.66117430553876
 20
-79.0807833135632
 30
0.0
 10
81.616371528904
 20
-79.1255860913296
 30
0.0
 10
81.616371528904
 20
-79.1810427579826
 30
0.0
 10
81.616371528904
 20
-79.23614664685752
 30
0.0
 10
81.66117430553876
 20
-79.28094942462424
 30
0.0
 10
81.71627819302184
 20
-79.28094942462424
 30
0.0
 10
81.77141942400148
 20
-79.28094942462424
 30
0.0
 10
81.81618485713967
 20
-79.23614664685752
 30
0.0
 10
81.81618485713967
 20
-79.1810427579826
 30
0.0
  0
SPLINE
  5
84
330
1F
100
AcDbEntity
  8
_U+30EC_U+30A4_U+30E4_U+30FC 1
 62
     7
420
 16777215
370
     9
100
AcDbSpline
210
0.0
220
0.0
230
1.0
 70
    11
 71
     3
 72
    17
 73
    13
 74
     0
 42
0.0000000001
 43
0.0000000001
 12
1.0
 22
0.0
 32
0.0
 13
1.0
 23
0.0
 33
0.0
 40
0.0
 40
0.0
 40
0.0
 40
0.0
 40
1.0
 40
1.0
 40
1.0
 40
2.0
 40
2.0
 40
2.0
 40
3.0
 40
3.0
 40
3.0
 40
4.0
 40
4.0
 40
4.0
 40
4.0
 10
41.81672448872204
 20
-79.1810427579826
 30
0.0
 10
41.81672448872204
 20
-79.1255860913296
 30
0.0
 10
41.77195698986415
 20
-79.0807833135632
 30
0.0
 10
41.7168178246042
 20
-79.0807833135632
 30
0.0
 10
41.66136115935235
 20
-79.0807833135632
 30
0.0
 10
41.61659366049447
 20
-79.1255860913296
 30
0.0
 10
41.61659366049447
 20
-79.1810427579826
 30
0.0
 10
41.61659366049447
 20
-79.23614664685752
 30
0.0
 10
41.66136115935235
 20
-79.28094942462424
 30
0.0
 10
41.7168178246042
 20
-79.28094942462424
 30
0.0
 10
41.77195698986415
 20
-79.28094942462424
 30
0.0
 10
41.81672448872204
 20
-79.23614664685752
 30
0.0
 10
41.81672448872204
 20
-79.1810427579826
 30
0.0
  0
POLYLINE
  5
85
330
1F
100
AcDbEntity
  8
_U+30EC_U+30A4_U+30E4_U+30FC 1
 62
     7
420
 16777215
370
     9
100
AcDb2dPolyline
 66
     1
 10
0.0
 20
0.0
 30
0.0
  0
VERTEX
  5
86
330
85
100
AcDbEntity
  8
_U+30EC_U+30A4_U+30E4_U+30FC 1
 62
     7
420
 16777215
370
     9
100
AcDbVertex
100
AcDb2dVertex
 10
39.7166031534117
 20
-101.3808896968769
 30
0.0
  0
VERTEX
  5
87
330
85
100
AcDbEntity
  8
_U+30EC_U+30A4_U+30E4_U+30FC 1
 62
     7
420
 16777215
370
     9
100
AcDbVertex
100
AcDb2dVertex
 10
69.71633072138823
 20
-101.3808896968769
 30
0.0
  0
SEQEND
  5
88
330
85
100
AcDbEntity
  8
_U+30EC_U+30A4_U+30E4_U+30FC 1
 62
     7
420
 16777215
370
     9
  0
POLYLINE
  5
89
330
1F
100
AcDbEntity
  8
_U+30EC_U+30A4_U+30E4_U+30FC 1
 62
     7
420
 16777215
370
     9
100
AcDb2dPolyline
 66
     1
 10
0.0
 20
0.0
 30
0.0
  0
VERTEX
  5
8A
330
89
100
AcDbEntity
  8
_U+30EC_U+30A4_U+30E4_U+30FC 1
 62
     7
420
 16777215
370
     9
100
AcDbVertex
100
AcDb2dVertex
 10
39.7166031534117
 20
-99.92084830835319
 30
0.0
  0
VERTEX
  5
8B
330
89
100
AcDbEntity
  8
_U+30EC_U+30A4_U+30E4_U+30FC 1
 62
     7
420
 16777215
370
     9
100
AcDbVertex
100
AcDb2dVertex
 10
39.7166031534117
 20
-102.3813321966268
 30
0.0
  0
SEQEND
  5
8C
330
89
100
AcDbEntity
  8
_U+30EC_U+30A4_U+30E4_U+30FC 1
 62
     7
420
 16777215
370
     9
  0
POLYLINE
  5
8D
330
1F
100
AcDbEntity
  8
_U+30EC_U+30A4_U+30E4_U+30FC 1
 62
     7
420
 16777215
370
     9
100
AcDb2dPolyline
 66
     1
 10
0.0
 20
0.0
 30
0.0
  0
VERTEX
  5
8E
330
8D
100
AcDbEntity
  8
_U+30EC_U+30A4_U+30E4_U+30FC 1
 62
     7
420
 16777215
370
     9
100
AcDbVertex
100
AcDb2dVertex
 10
69.6164240572704
 20
-99.92084830835319
 30
0.0
  0
VERTEX
  5
8F
330
8D
100
AcDbEntity
  8
_U+30EC_U+30A4_U+30E4_U+30FC 1
 62
     7
420
 16777215
370
     9
100
AcDbVertex
100
AcDb2dVertex
 10
69.6164240572704
 20
-102.3813321966268
 30
0.0
  0
SEQEND
  5
90
330
8D
100
AcDbEntity
  8
_U+30EC_U+30A4_U+30E4_U+30FC 1
 62
     7
420
 16777215
370
     9
  0
INSERT
  5
92
330
1F
100
AcDbEntity
  8
_U+30EC_U+30A4_U+30E4_U+30FC 1
100
AcDbBlockReference
  2
block 3
 10
0.0
 20
0.0
 30
0.0
  0
POLYLINE
  5
9A
330
1F
100
AcDbEntity
  8
_U+30EC_U+30A4_U+30E4_U+30FC 1
 62
     7
420
 16777215
370
     9
100
AcDb2dPolyline
 66
     1
 10
0.0
 20
0.0
 30
0.0
  0
VERTEX
  5
9B
330
9A
100
AcDbEntity
  8
_U+30EC_U+30A4_U+30E4_U+30FC 1
 62
     7
420
 16777215
370
     9
100
AcDbVertex
100
AcDb2dVertex
 10
85.7167428131837
 20
-94.38079080973792
 30
0.0
  0
VERTEX
  5
9C
330
9A
100
AcDbEntity
  8
_U+30EC_U+30A4_U+30E4_U+30FC 1
 62
     7
420
 16777215
370
     9
100
AcDbVertex
100
AcDb2dVertex
 10
85.7167428131837
 20
-97.3807777534329
 30
0.0
  0
SEQEND
  5
9D
330
9A
100
AcDbEntity
  8
_U+30EC_U+30A4_U+30E4_U+30FC 1
 62
     7
420
 16777215
370
     9
  0
POLYLINE
  5
9E
330
1F
100
AcDbEntity
  8
_U+30EC_U+30A4_U+30E4_U+30FC 1
 62
     7
420
 16777215
370
     9
100
AcDb2dPolyline
 66
     1
 10
0.0
 20
0.0
 30
0.0
  0
VERTEX
  5
9F
330
9E
100
AcDbEntity
  8
_U+30EC_U+30A4_U+30E4_U+30FC 1
 62
     7
420
 16777215
370
     9
100
AcDbVertex
100
AcDb2dVertex
 10
72.21678609305718
 20
-94.28088414309627
 30
0.0
  0
VERTEX
  5
A0
330
9E
100
AcDbEntity
  8
_U+30EC_U+30A4_U+30E4_U+30FC 1
 62
     7
420
 16777215
370
     9
100
AcDbVertex
100
AcDb2dVertex
 10
86.71647973212274
 20
-94.28088414309627
 30
0.0
  0
SEQEND
  5
A1
330
9E
100
AcDbEntity
  8
_U+30EC_U+30A4_U+30E4_U+30FC 1
 62
     7
420
 16777215
370
     9
  0
POLYLINE
  5
A2
330
1F
100
AcDbEntity
  8
_U+30EC_U+30A4_U+30E4_U+30FC 1
 62
     7
420
 16777215
370
     9
100
AcDb2dPolyline
 66
     1
 10
0.0
 20
0.0
 30
0.0
  0
VERTEX
  5
A3
330
A2
100
AcDbEntity
  8
_U+30EC_U+30A4_U+30E4_U+30FC 1
 62
     7
420
 16777215
370
     9
100
AcDbVertex
100
AcDb2dVertex
 10
72.21678609305718
 20
-97.3807777534329
 30
0.0
  0
VERTEX
  5
A4
330
A2
100
AcDbEntity
  8
_U+30EC_U+30A4_U+30E4_U+30FC 1
 62
     7
420
 16777215
370
     9
100
AcDbVertex
100
AcDb2dVertex
 10
86.71647973212274
 20
-97.3807777534329
 30
0.0
  0
SEQEND
  5
A5
330
A2
100
AcDbEntity
  8
_U+30EC_U+30A4_U+30E4_U+30FC 1
 62
     7
420
 16777215
370
     9
  0
INSERT
  5
A7
330
1F
100
AcDbEntity
  8
_U+30EC_U+30A4_U+30E4_U+30FC 1
100
AcDbBlockReference
  2
block 4
 10
0.0
 20
0.0
 30
0.0
  0
POLYLINE
  5
AC
330
1F
100
AcDbEntity
  8
_U+30EC_U+30A4_U+30E4_U+30FC 1
 62
     7
420
 16777215
370
     9
100
AcDb2dPolyline
 66
     1
 10
0.0
 20
0.0
 30
0.0
  0
VERTEX
  5
AD
330
AC
100
AcDbEntity
  8
_U+30EC_U+30A4_U+30E4_U+30FC 1
 62
     7
420
 16777215
370
     9
100
AcDbVertex
100
AcDb2dVertex
 10
85.7167428131837
 20
-84.28083359004079
 30
0.0
  0
VERTEX
  5
AE
330
AC
100
AcDbEntity
  8
_U+30EC_U+30A4_U+30E4_U+30FC 1
 62
     7
420
 16777215
370
     9
100
AcDbVertex
100
AcDb2dVertex
 10
85.7167428131837
 20
-79.28094942462424
 30
0.0
  0
SEQEND
  5
AF
330
AC
100
AcDbEntity
  8
_U+30EC_U+30A4_U+30E4_U+30FC 1
 62
     7
420
 16777215
370
     9
  0
POLYLINE
  5
B0
330
1F
100
AcDbEntity
  8
_U+30EC_U+30A4_U+30E4_U+30FC 1
 62
     7
420
 16777215
370
     9
100
AcDb2dPolyline
 66
     1
 10
0.0
 20
0.0
 30
0.0
  0
VERTEX
  5
B1
330
B0
100
AcDbEntity
  8
_U+30EC_U+30A4_U+30E4_U+30FC 1
 62
     7
420
 16777215
370
     9
100
AcDbVertex
100
AcDb2dVertex
 10
84.25670146154357
 20
-83.2807085902908
 30
0.0
  0
VERTEX
  5
B2
330
B0
100
AcDbEntity
  8
_U+30EC_U+30A4_U+30E4_U+30FC 1
 62
     7
420
 16777215
370
     9
100
AcDbVertex
100
AcDb2dVertex
 10
86.71647973212274
 20
-83.2807085902908
 30
0.0
  0
SEQEND
  5
B3
330
B0
100
AcDbEntity
  8
_U+30EC_U+30A4_U+30E4_U+30FC 1
 62
     7
420
 16777215
370
     9
  0
INSERT
  5
B5
330
1F
100
AcDbEntity
  8
_U+30EC_U+30A4_U+30E4_U+30FC 1
100
AcDbBlockReference
  2
block 5
 10
0.0
 20
0.0
 30
0.0
  0
POLYLINE
  5
BA
330
1F
100
AcDbEntity
  8
_U+30EC_U+30A4_U+30E4_U+30FC 1
 62
     7
420
 16777215
370
     9
100
AcDb2dPolyline
 66
     1
 10
0.0
 20
0.0
 30
0.0
  0
VERTEX
  5
BB
330
BA
100
AcDbEntity
  8
_U+30EC_U+30A4_U+30E4_U+30FC 1
 62
     7
420
 16777215
370
     9
100
AcDbVertex
100
AcDb2dVertex
 10
41.7168178246042
 20
-79.1810427579826
 30
0.0
  0
VERTEX
  5
BC
330
BA
100
AcDbEntity
  8
_U+30EC_U+30A4_U+30E4_U+30FC 1
 62
     7
420
 16777215
370
     9
100
AcDbVertex
100
AcDb2dVertex
 10
81.71627819302184
 20
-79.1810427579826
 30
0.0
  0
SEQEND
  5
BD
330
BA
100
AcDbEntity
  8
_U+30EC_U+30A4_U+30E4_U+30FC 1
 62
     7
420
 16777215
370
     9
  0
POLYLINE
  5
BE
330
1F
100
AcDbEntity
  8
_U+30EC_U+30A4_U+30E4_U+30FC 1
 62
     7
420
 16777215
370
     9
100
AcDb2dPolyline
 66
     1
 10
0.0
 20
0.0
 30
0.0
  0
VERTEX
  5
BF
330
BE
100
AcDbEntity
  8
_U+30EC_U+30A4_U+30E4_U+30FC 1
 62
     7
420
 16777215
370
     9
100
AcDbVertex
100
AcDb2dVertex
 10
41.7168178246042
 20
-80.6410841465063
 30
0.0
  0
VERTEX
  5
C0
330
BE
100
AcDbEntity
  8
_U+30EC_U+30A4_U+30E4_U+30FC 1
 62
     7
420
 16777215
370
     9
100
AcDbVertex
100
AcDb2dVertex
 10
41.7168178246042
 20
-78.18091775823262
 30
0.0
  0
SEQEND
  5
C1
330
BE
100
AcDbEntity
  8
_U+30EC_U+30A4_U+30E4_U+30FC 1
 62
     7
420
 16777215
370
     9
  0
POLYLINE
  5
C2
330
1F
100
AcDbEntity
  8
_U+30EC_U+30A4_U+30E4_U+30FC 1
 62
     7
420
 16777215
370
     9
100
AcDb2dPolyline
 66
     1
 10
0.0
 20
0.0
 30
0.0
  0
VERTEX
  5
C3
330
C2
100
AcDbEntity
  8
_U+30EC_U+30A4_U+30E4_U+30FC 1
 62
     7
420
 16777215
370
     9
100
AcDbVertex
100
AcDb2dVertex
 10
81.71627819302184
 20
-80.6410841465063
 30
0.0
  0
VERTEX
  5
C4
330
C2
100
AcDbEntity
  8
_U+30EC_U+30A4_U+30E4_U+30FC 1
 62
     7
420
 16777215
370
     9
100
AcDbVertex
100
AcDb2dVertex
 10
81.71627819302184
 20
-78.18091775823262
 30
0.0
  0
SEQEND
  5
C5
330
C2
100
AcDbEntity
  8
_U+30EC_U+30A4_U+30E4_U+30FC 1
 62
     7
420
 16777215
370
     9
  0
INSERT
  5
C7
330
1F
100
AcDbEntity
  8
_U+30EC_U+30A4_U+30E4_U+30FC 1
100
AcDbBlockReference
  2
block 6
 10
0.0
 20
0.0
 30
0.0
  0
POLYLINE
  5
E2
330
1F
100
AcDbEntity
  8
_U+30EC_U+30A4_U+30E4_U+30FC 1
 62
     7
420
 16777215
370
     9
100
AcDb2dPolyline
 66
     1
 10
0.0
 20
0.0
 30
0.0
  0
VERTEX
  5
E3
330
E2
100
AcDbEntity
  8
_U+30EC_U+30A4_U+30E4_U+30FC 1
 62
     7
420
 16777215
370
     9
100
AcDbVertex
100
AcDb2dVertex
 10
85.7167428131837
 20
-84.28083359004079
 30
0.0
  0
VERTEX
  5
E4
330
E2
100
AcDbEntity
  8
_U+30EC_U+30A4_U+30E4_U+30FC 1
 62
     7
420
 16777215
370
     9
100
AcDbVertex
100
AcDb2dVertex
 10
85.7167428131837
 20
-94.28088414309627
 30
0.0
  0
SEQEND
  5
E5
330
E2
100
AcDbEntity
  8
_U+30EC_U+30A4_U+30E4_U+30FC 1
 62
     7
420
 16777215
370
     9
  0
POLYLINE
  5
E6
330
1F
100
AcDbEntity
  8
_U+30EC_U+30A4_U+30E4_U+30FC 1
 62
     7
420
 16777215
370
     9
100
AcDb2dPolyline
 66
     1
 10
0.0
 20
0.0
 30
0.0
  0
VERTEX
  5
E7
330
E6
100
AcDbEntity
  8
_U+30EC_U+30A4_U+30E4_U+30FC 1
 62
     7
420
 16777215
370
     9
100
AcDbVertex
100
AcDb2dVertex
 10
84.25670146154357
 20
-84.28083359004079
 30
0.0
  0
VERTEX
  5
E8
330
E6
100
AcDbEntity
  8
_U+30EC_U+30A4_U+30E4_U+30FC 1
 62
     7
420
 16777215
370
     9
100
AcDbVertex
100
AcDb2dVertex
 10
86.71647973212274
 20
-84.28083359004079
 30
0.0
  0
SEQEND
  5
E9
330
E6
100
AcDbEntity
  8
_U+30EC_U+30A4_U+30E4_U+30FC 1
 62
     7
420
 16777215
370
     9
  0
INSERT
  5
EB
330
1F
100
AcDbEntity
  8
_U+30EC_U+30A4_U+30E4_U+30FC 1
100
AcDbBlockReference
  2
block 7
 10
0.0
 20
0.0
 30
0.0
  0
ENDSEC
  0
SECTION
  2
OBJECTS
  0
DICTIONARY
  5
C
330
0
100
AcDbDictionary
281
     1
  3
ACAD_GROUP
350
D
  3
ACAD_LAYOUT
350
1A
  3
ACAD_MATERIAL
350
3B
  3
ACAD_MLEADERSTYLE
350
F4
  3
ACAD_MLINESTYLE
350
17
  3
ACAD_PLOTSETTINGS
350
19
  3
ACAD_PLOTSTYLENAME
350
E
  3
ACAD_TABLESTYLE
350
F3
  3
ACAD_VISUALSTYLE
350
2A
  0
SUN
  5
3F
330
29
100
AcDbSun
 90
        1
290
     0
 63
     7
421
 16777215
 40
1.0
291
     1
 91
  2455826
 92
 54000000
292
     0
 70
     2
 71
   256
280
     1
  0
DICTIONARY
  5
D
102
{ACAD_REACTORS
330
C
102
}
330
C
100
AcDbDictionary
281
     1
  0
DICTIONARY
  5
1A
102
{ACAD_REACTORS
330
C
102
}
330
C
100
AcDbDictionary
281
     1
  3
Layout1
350
1E
  3
Layout2
350
26
  3
Model
350
22
  0
DICTIONARY
  5
3B
102
{ACAD_REACTORS
330
C
102
}
330
C
100
AcDbDictionary
281
     1
  3
ByBlock
350
3D
  3
ByLayer
350
3C
  3
Global
350
3E
  0
DICTIONARY
  5
F4
102
{ACAD_REACTORS
330
C
102
}
330
C
100
AcDbDictionary
281
     1
  0
DICTIONARY
  5
17
102
{ACAD_REACTORS
330
C
102
}
330
C
100
AcDbDictionary
281
     1
  3
Standard
350
18
  0
DICTIONARY
  5
19
102
{ACAD_REACTORS
330
C
102
}
330
C
100
AcDbDictionary
281
     1
  0
ACDBDICTIONARYWDFLT
  5
E
102
{ACAD_REACTORS
330
C
102
}
330
C
100
AcDbDictionary
281
     1
  3
Normal
350
F
100
AcDbDictionaryWithDefault
340
F
  0
DICTIONARY
  5
F3
102
{ACAD_REACTORS
330
C
102
}
330
C
100
AcDbDictionary
281
     1
  0
DICTIONARY
  5
2A
102
{ACAD_REACTORS
330
C
102
}
330
C
100
AcDbDictionary
281
     1
  3
2dWireframe
350
2F
  3
3D Hidden
350
31
  3
3dWireframe
350
30
  3
Basic
350
32
  3
Brighten
350
36
  3
ColorChange
350
3A
  3
Conceptual
350
34
  3
Dim
350
35
  3
Facepattern
350
39
  3
Flat
350
2B
  3
FlatWithEdges
350
2C
  3
Gouraud
350
2D
  3
GouraudWithEdges
350
2E
  3
Linepattern
350
38
  3
Realistic
350
33
  3
Thicken
350
37
  0
LAYOUT
  5
1E
102
{ACAD_REACTORS
330
1A
102
}
330
1A
100
AcDbPlotSettings
  1

  2
none_device
  4

  6

 40
0.0
 41
0.0
 42
0.0
 43
0.0
 44
0.0
 45
0.0
 46
0.0
 47
0.0
 48
0.0
 49
0.0
140
0.0
141
0.0
142
1.0
143
1.0
 70
   688
 72
     0
 73
     0
 74
     5
  7

 75
    16
 76
     0
 77
     2
 78
   300
147
1.0
148
0.0
149
0.0
100
AcDbLayout
  1
Layout1
 70
     1
 71
     1
 10
0.0
 20
0.0
 11
12.0
 21
9.0
 12
0.0
 22
0.0
 32
0.0
 14
1.000000000000000E+20
 24
1.000000000000000E+20
 34
1.000000000000000E+20
 15
-1.000000000000000E+20
 25
-1.000000000000000E+20
 35
-1.000000000000000E+20
146
0.0
 13
0.0
 23
0.0
 33
0.0
 16
1.0
 26
0.0
 36
0.0
 17
0.0
 27
1.0
 37
0.0
 76
     0
330
1B
  0
LAYOUT
  5
26
102
{ACAD_REACTORS
330
1A
102
}
330
1A
100
AcDbPlotSettings
  1

  2
none_device
  4

  6

 40
0.0
 41
0.0
 42
0.0
 43
0.0
 44
0.0
 45
0.0
 46
0.0
 47
0.0
 48
0.0
 49
0.0
140
0.0
141
0.0
142
1.0
143
1.0
 70
   688
 72
     0
 73
     0
 74
     5
  7

 75
    16
 76
     0
 77
     2
 78
   300
147
1.0
148
0.0
149
0.0
100
AcDbLayout
  1
Layout2
 70
     1
 71
     2
 10
0.0
 20
0.0
 11
0.0
 21
0.0
 12
0.0
 22
0.0
 32
0.0
 14
0.0
 24
0.0
 34
0.0
 15
0.0
 25
0.0
 35
0.0
146
0.0
 13
0.0
 23
0.0
 33
0.0
 16
1.0
 26
0.0
 36
0.0
 17
0.0
 27
1.0
 37
0.0
 76
     0
330
23
  0
LAYOUT
  5
22
102
{ACAD_REACTORS
330
1A
102
}
330
1A
100
AcDbPlotSettings
  1

  2
none_device
  4

  6

 40
0.0
 41
0.0
 42
0.0
 43
0.0
 44
0.0
 45
0.0
 46
0.0
 47
0.0
 48
0.0
 49
0.0
140
0.0
141
0.0
142
1.0
143
1.0
 70
  1712
 72
     0
 73
     0
 74
     0
  7

 75
     0
 76
     0
 77
     2
 78
   300
147
1.0
148
0.0
149
0.0
100
AcDbLayout
  1
Model
 70
     1
 71
     0
 10
0.0
 20
0.0
 11
12.0
 21
9.0
 12
0.0
 22
0.0
 32
0.0
 14
1.000000000000000E+20
 24
1.000000000000000E+20
 34
1.000000000000000E+20
 15
-1.000000000000000E+20
 25
-1.000000000000000E+20
 35
-1.000000000000000E+20
146
0.0
 13
0.0
 23
0.0
 33
0.0
 16
1.0
 26
0.0
 36
0.0
 17
0.0
 27
1.0
 37
0.0
 76
     0
330
1F
331
29
  0
MATERIAL
  5
3D
102
{ACAD_REACTORS
330
3B
102
}
330
3B
100
AcDbMaterial
  1
ByBlock
 72
     1
 94
      127
  0
MATERIAL
  5
3C
102
{ACAD_REACTORS
330
3B
102
}
330
3B
100
AcDbMaterial
  1
ByLayer
 72
     1
 94
      127
  0
MATERIAL
  5
3E
102
{ACAD_REACTORS
330
3B
102
}
330
3B
100
AcDbMaterial
  1
Global
 72
     1
 94
      127
  0
MLINESTYLE
  5
18
102
{ACAD_REACTORS
330
17
102
}
330
17
100
AcDbMlineStyle
  2
Standard
 70
     0
  3

 62
   256
 51
90.0
 52
90.0
 71
     2
 49
0.5
 62
   256
  6
BYLAYER
 49
-0.5
 62
   256
  6
BYLAYER
  0
ACDBPLACEHOLDER
  5
F
102
{ACAD_REACTORS
330
E
102
}
330
E
  0
VISUALSTYLE
  5
2F
102
{ACAD_REACTORS
330
2A
102
}
330
2A
100
AcDbVisualStyle
  2
2dWireframe
 70
     4
177
     2
291
     0
 71
     0
176
     1
 72
     2
176
     1
 73
     0
176
     1
 90
        0
176
     1
 40
-0.6
176
     1
 41
-30.0
176
     1
 62
     5
 63
     7
421
 16777215
176
     1
 74
     1
176
     1
 91
        4
176
     1
 64
     7
176
     1
 65
   257
176
     1
 75
     1
176
     1
175
     1
176
     1
 42
1.0
176
     1
 92
        0
176
     1
 66
   257
176
     1
 43
1.0
176
     1
 76
     1
176
     1
 77
     6
176
     1
 78
     2
176
     1
 67
     7
176
     1
 79
     5
176
     1
170
     0
176
     1
171
     0
176
     1
290
     0
176
     1
 93
        1
176
     1
 44
0.0
176
     1
173
     0
176
     1
  0
VISUALSTYLE
  5
31
102
{ACAD_REACTORS
330
2A
102
}
330
2A
100
AcDbVisualStyle
  2
3D Hidden
 70
     6
177
     2
291
     0
 71
     1
176
     1
 72
     2
176
     1
 73
     2
176
     1
 90
        0
176
     1
 40
-0.6
176
     1
 41
-30.0
176
     1
 62
     5
 63
     7
421
 16777215
176
     1
 74
     2
176
     1
 91
        2
176
     1
 64
     7
176
     1
 65
   257
176
     1
 75
     2
176
     1
175
     1
176
     1
 42
40.0
176
     1
 92
        0
176
     1
 66
   257
176
     1
 43
1.0
176
     1
 76
     1
176
     1
 77
     6
176
     1
 78
     2
176
     1
 67
     7
176
     1
 79
     3
176
     1
170
     0
176
     1
171
     0
176
     1
290
     0
176
     1
 93
        1
176
     1
 44
0.0
176
     1
173
     0
176
     1
  0
VISUALSTYLE
  5
30
102
{ACAD_REACTORS
330
2A
102
}
330
2A
100
AcDbVisualStyle
  2
3dWireframe
 70
     5
177
     2
291
     0
 71
     0
176
     1
 72
     2
176
     1
 73
     0
176
     1
 90
        0
176
     1
 40
-0.6
176
     1
 41
-30.0
176
     1
 62
     5
 63
     7
421
 16777215
176
     1
 74
     1
176
     1
 91
        4
176
     1
 64
     7
176
     1
 65
   257
176
     1
 75
     1
176
     1
175
     1
176
     1
 42
1.0
176
     1
 92
        0
176
     1
 66
   257
176
     1
 43
1.0
176
     1
 76
     1
176
     1
 77
     6
176
     1
 78
     2
176
     1
 67
     7
176
     1
 79
     5
176
     1
170
     0
176
     1
171
     0
176
     1
290
     0
176
     1
 93
        1
176
     1
 44
0.0
176
     1
173
     0
176
     1
  0
VISUALSTYLE
  5
32
102
{ACAD_REACTORS
330
2A
102
}
330
2A
100
AcDbVisualStyle
  2
Basic
 70
     7
177
     2
291
     1
 71
     1
176
     1
 72
     0
176
     1
 73
     1
176
     1
 90
        0
176
     1
 40
-0.6
176
     1
 41
-30.0
176
     1
 62
     5
 63
     7
421
 16777215
176
     1
 74
     0
176
     1
 91
        4
176
     1
 64
     7
176
     1
 65
   257
176
     1
 75
     1
176
     1
175
     1
176
     1
 42
1.0
176
     1
 92
        8
176
     1
 66
     7
176
     1
 43
1.0
176
     1
 76
     1
176
     1
 77
     6
176
     1
 78
     2
176
     1
 67
     7
176
     1
 79
     5
176
     1
170
     0
176
     1
171
     0
176
     1
290
     0
176
     1
 93
        1
176
     1
 44
0.0
176
     1
173
     0
176
     1
  0
VISUALSTYLE
  5
36
102
{ACAD_REACTORS
330
2A
102
}
330
2A
100
AcDbVisualStyle
  2
Brighten
 70
    12
177
     2
291
     1
 71
     2
176
     1
 72
     2
176
     1
 73
     0
176
     1
 90
        0
176
     1
 40
-0.6
176
     1
 41
-30.0
176
     1
 62
     5
 63
     7
421
 16777215
176
     1
 74
     1
176
     1
 91
        4
176
     1
 64
     7
176
     1
 65
   257
176
     1
 75
     1
176
     1
175
     1
176
     1
 42
1.0
176
     1
 92
        8
176
     1
 66
     7
176
     1
 43
1.0
176
     1
 76
     1
176
     1
 77
     6
176
     1
 78
     2
176
     1
 67
     7
176
     1
 79
     5
176
     1
170
     0
176
     1
171
     0
176
     1
290
     0
176
     1
 93
        1
176
     1
 44
50.0
176
     1
173
     0
176
     1
  0
VISUALSTYLE
  5
3A
102
{ACAD_REACTORS
330
2A
102
}
330
2A
100
AcDbVisualStyle
  2
ColorChange
 70
    16
177
     2
291
     1
 71
     2
176
     1
 72
     2
176
     1
 73
     3
176
     1
 90
        0
176
     1
 40
-0.6
176
     1
 41
-30.0
176
     1
 62
     5
 63
     8
421
  8421504
176
     1
 74
     1
176
     1
 91
        4
176
     1
 64
     7
176
     1
 65
   257
176
     1
 75
     1
176
     1
175
     1
176
     1
 42
1.0
176
     1
 92
        8
176
     1
 66
     8
424
  8421504
176
     1
 43
1.0
176
     1
 76
     1
176
     1
 77
     6
176
     1
 78
     2
176
     1
 67
     7
176
     1
 79
     5
176
     1
170
     0
176
     1
171
     0
176
     1
290
     0
176
     1
 93
        1
176
     1
 44
0.0
176
     1
173
     0
176
     1
  0
VISUALSTYLE
  5
34
102
{ACAD_REACTORS
330
2A
102
}
330
2A
100
AcDbVisualStyle
  2
Conceptual
 70
     9
177
     2
291
     0
 71
     3
176
     1
 72
     2
176
     1
 73
     0
176
     1
 90
        0
176
     1
 40
-0.6
176
     1
 41
-30.0
176
     1
 62
     5
 63
     7
421
 16777215
176
     1
 74
     2
176
     1
 91
        2
176
     1
 64
     7
176
     1
 65
   257
176
     1
 75
     1
176
     1
175
     1
176
     1
 42
40.0
176
     1
 92
        8
176
     1
 66
     7
176
     1
 43
1.0
176
     1
 76
     1
176
     1
 77
     6
176
     1
 78
     2
176
     1
 67
     7
176
     1
 79
     3
176
     1
170
     0
176
     1
171
     0
176
     1
290
     0
176
     1
 93
        1
176
     1
 44
0.0
176
     1
173
     0
176
     1
  0
VISUALSTYLE
  5
35
102
{ACAD_REACTORS
330
2A
102
}
330
2A
100
AcDbVisualStyle
  2
Dim
 70
    11
177
     2
291
     1
 71
     2
176
     1
 72
     2
176
     1
 73
     0
176
     1
 90
        0
176
     1
 40
-0.6
176
     1
 41
-30.0
176
     1
 62
     5
 63
     7
421
 16777215
176
     1
 74
     1
176
     1
 91
        4
176
     1
 64
     7
176
     1
 65
   257
176
     1
 75
     1
176
     1
175
     1
176
     1
 42
1.0
176
     1
 92
        8
176
     1
 66
     7
176
     1
 43
1.0
176
     1
 76
     1
176
     1
 77
     6
176
     1
 78
     2
176
     1
 67
     7
176
     1
 79
     5
176
     1
170
     0
176
     1
171
     0
176
     1
290
     0
176
     1
 93
        1
176
     1
 44
-50.0
176
     1
173
     0
176
     1
  0
VISUALSTYLE
  5
39
102
{ACAD_REACTORS
330
2A
102
}
330
2A
100
AcDbVisualStyle
  2
Facepattern
 70
    15
177
     2
291
     1
 71
     2
176
     1
 72
     2
176
     1
 73
     0
176
     1
 90
        0
176
     1
 40
-0.6
176
     1
 41
-30.0
176
     1
 62
     5
 63
     7
421
 16777215
176
     1
 74
     1
176
     1
 91
        4
176
     1
 64
     7
176
     1
 65
   257
176
     1
 75
     1
176
     1
175
     1
176
     1
 42
1.0
176
     1
 92
        8
176
     1
 66
     7
176
     1
 43
1.0
176
     1
 76
     1
176
     1
 77
     6
176
     1
 78
     2
176
     1
 67
     7
176
     1
 79
     5
176
     1
170
     0
176
     1
171
     0
176
     1
290
     0
176
     1
 93
        1
176
     1
 44
0.0
176
     1
173
     0
176
     1
  0
VISUALSTYLE
  5
2B
102
{ACAD_REACTORS
330
2A
102
}
330
2A
100
AcDbVisualStyle
  2
Flat
 70
     0
177
     2
291
     1
 71
     2
176
     1
 72
     1
176
     1
 73
     1
176
     1
 90
        2
176
     1
 40
-0.6
176
     1
 41
30.0
176
     1
 62
     5
 63
     7
421
 16777215
176
     1
 74
     0
176
     1
 91
        4
176
     1
 64
     7
176
     1
 65
   257
176
     1
 75
     1
176
     1
175
     1
176
     1
 42
1.0
176
     1
 92
        8
176
     1
 66
     7
176
     1
 43
1.0
176
     1
 76
     1
176
     1
 77
     6
176
     1
 78
     2
176
     1
 67
     7
176
     1
 79
     5
176
     1
170
     0
176
     1
171
     0
176
     1
290
     0
176
     1
 93
       13
176
     1
 44
0.0
176
     1
173
     0
176
     1
  0
VISUALSTYLE
  5
2C
102
{ACAD_REACTORS
330
2A
102
}
330
2A
100
AcDbVisualStyle
  2
FlatWithEdges
 70
     1
177
     2
291
     1
 71
     2
176
     1
 72
     1
176
     1
 73
     1
176
     1
 90
        2
176
     1
 40
-0.6
176
     1
 41
30.0
176
     1
 62
     5
 63
     7
421
 16777215
176
     1
 74
     1
176
     1
 91
        4
176
     1
 64
     7
176
     1
 65
   257
176
     1
 75
     1
176
     1
175
     1
176
     1
 42
1.0
176
     1
 92
        0
176
     1
 66
   257
176
     1
 43
1.0
176
     1
 76
     1
176
     1
 77
     6
176
     1
 78
     2
176
     1
 67
     7
176
     1
 79
     5
176
     1
170
     0
176
     1
171
     0
176
     1
290
     0
176
     1
 93
       13
176
     1
 44
0.0
176
     1
173
     0
176
     1
  0
VISUALSTYLE
  5
2D
102
{ACAD_REACTORS
330
2A
102
}
330
2A
100
AcDbVisualStyle
  2
Gouraud
 70
     2
177
     2
291
     1
 71
     2
176
     1
 72
     2
176
     1
 73
     1
176
     1
 90
        2
176
     1
 40
-0.6
176
     1
 41
30.0
176
     1
 62
     5
 63
     7
421
 16777215
176
     1
 74
     0
176
     1
 91
        4
176
     1
 64
     7
176
     1
 65
   257
176
     1
 75
     1
176
     1
175
     1
176
     1
 42
1.0
176
     1
 92
        0
176
     1
 66
     7
176
     1
 43
1.0
176
     1
 76
     1
176
     1
 77
     6
176
     1
 78
     2
176
     1
 67
     7
176
     1
 79
     5
176
     1
170
     0
176
     1
171
     0
176
     1
290
     0
176
     1
 93
       13
176
     1
 44
0.0
176
     1
173
     0
176
     1
  0
VISUALSTYLE
  5
2E
102
{ACAD_REACTORS
330
2A
102
}
330
2A
100
AcDbVisualStyle
  2
GouraudWithEdges
 70
     3
177
     2
291
     1
 71
     2
176
     1
 72
     2
176
     1
 73
     1
176
     1
 90
        2
176
     1
 40
-0.6
176
     1
 41
30.0
176
     1
 62
     5
 63
     7
421
 16777215
176
     1
 74
     1
176
     1
 91
        4
176
     1
 64
     7
176
     1
 65
   257
176
     1
 75
     1
176
     1
175
     1
176
     1
 42
1.0
176
     1
 92
        0
176
     1
 66
   257
176
     1
 43
1.0
176
     1
 76
     1
176
     1
 77
     6
176
     1
 78
     2
176
     1
 67
     7
176
     1
 79
     5
176
     1
170
     0
176
     1
171
     0
176
     1
290
     0
176
     1
 93
       13
176
     1
 44
0.0
176
     1
173
     0
176
     1
  0
VISUALSTYLE
  5
38
102
{ACAD_REACTORS
330
2A
102
}
330
2A
100
AcDbVisualStyle
  2
Linepattern
 70
    14
177
     2
291
     1
 71
     2
176
     1
 72
     2
176
     1
 73
     0
176
     1
 90
        0
176
     1
 40
-0.6
176
     1
 41
-30.0
176
     1
 62
     5
 63
     7
421
 16777215
176
     1
 74
     1
176
     1
 91
        4
176
     1
 64
     7
176
     1
 65
   257
176
     1
 75
     7
176
     1
175
     7
176
     1
 42
1.0
176
     1
 92
        8
176
     1
 66
     7
176
     1
 43
1.0
176
     1
 76
     1
176
     1
 77
     6
176
     1
 78
     2
176
     1
 67
     7
176
     1
 79
     5
176
     1
170
     0
176
     1
171
     0
176
     1
290
     0
176
     1
 93
        1
176
     1
 44
0.0
176
     1
173
     0
176
     1
  0
VISUALSTYLE
  5
33
102
{ACAD_REACTORS
330
2A
102
}
330
2A
100
AcDbVisualStyle
  2
Realistic
 70
     8
177
     2
291
     0
 71
     2
176
     1
 72
     2
176
     1
 73
     0
176
     1
 90
        0
176
     1
 40
-0.6
176
     1
 41
-30.0
176
     1
 62
     5
 63
     7
421
 16777215
176
     1
 74
     1
176
     1
 91
        0
176
     1
 64
     7
176
     1
 65
   257
176
     1
 75
     1
176
     1
175
     1
176
     1
 42
1.0
176
     1
 92
        8
176
     1
 66
     8
424
  7895160
176
     1
 43
1.0
176
     1
 76
     1
176
     1
 77
     6
176
     1
 78
     2
176
     1
 67
     7
176
     1
 79
     5
176
     1
170
     0
176
     1
171
     0
176
     1
290
     0
176
     1
 93
       13
176
     1
 44
0.0
176
     1
173
     0
176
     1
  0
VISUALSTYLE
  5
37
102
{ACAD_REACTORS
330
2A
102
}
330
2A
100
AcDbVisualStyle
  2
Thicken
 70
    13
177
     2
291
     1
 71
     2
176
     1
 72
     2
176
     1
 73
     0
176
     1
 90
        0
176
     1
 40
-0.6
176
     1
 41
-30.0
176
     1
 62
     5
 63
     7
421
 16777215
176
     1
 74
     1
176
     1
 91
        4
176
     1
 64
     7
176
     1
 65
   257
176
     1
 75
     1
176
     1
175
     1
176
     1
 42
1.0
176
     1
 92
       12
176
     1
 66
     7
176
     1
 43
1.0
176
     1
 76
     1
176
     1
 77
     6
176
     1
 78
     2
176
     1
 67
     7
176
     1
 79
     5
176
     1
170
     0
176
     1
171
     0
176
     1
290
     0
176
     1
 93
        1
176
     1
 44
0.0
176
     1
173
     0
176
     1
  0
ENDSEC
  0
EOF
