  0
SECTION
  2
HEADER
  9
$ACADVER
  1
AC1024
  9
$ACADMAINTVER
 70
     6
  9
$DWGCODEPAGE
  3
UNDEFINED
  9
$INSBASE
 10
0.0
 20
0.0
 30
0.0
  9
$EXTMIN
 10
1.000000000000000E+20
 20
1.000000000000000E+20
 30
1.000000000000000E+20
  9
$EXTMAX
 10
-1.000000000000000E+20
 20
-1.000000000000000E+20
 30
-1.000000000000000E+20
  9
$LIMMIN
 10
0.0
 20
0.0
  9
$LIMMAX
 10
12.0
 20
9.0
  9
$ORTHOMODE
 70
     0
  9
$REGENMODE
 70
     1
  9
$FILLMODE
 70
     1
  9
$QTEXTMODE
 70
     0
  9
$MIRRTEXT
 70
     1
  9
$LTSCALE
 40
1.0
  9
$ATTMODE
 70
     1
  9
$TEXTSIZE
 40
0.2
  9
$TRACEWID
 40
0.05
  9
$TEXTSTYLE
  7
Standard
  9
$CLAYER
  8
0
  9
$CELTYPE
  6
ByLayer
  9
$CECOLOR
 62
   256
  9
$CELTSCALE
 40
1.0
  9
$DISPSILH
 70
     0
  9
$DIMSCALE
 40
1.0
  9
$DIMASZ
 40
0.18
  9
$DIMEXO
 40
0.0625
  9
$DIMDLI
 40
0.38
  9
$DIMRND
 40
0.0
  9
$DIMDLE
 40
0.0
  9
$DIMEXE
 40
0.18
  9
$DIMTP
 40
0.0
  9
$DIMTM
 40
0.0
  9
$DIMTXT
 40
0.18
  9
$DIMCEN
 40
0.09
  9
$DIMTSZ
 40
0.0
  9
$DIMTOL
 70
     0
  9
$DIMLIM
 70
     0
  9
$DIMTIH
 70
     1
  9
$DIMTOH
 70
     1
  9
$DIMSE1
 70
     0
  9
$DIMSE2
 70
     0
  9
$DIMTAD
 70
     0
  9
$DIMZIN
 70
     0
  9
$DIMBLK
  1

  9
$DIMASO
 70
     1
  9
$DIMSHO
 70
     1
  9
$DIMPOST
  1

  9
$DIMAPOST
  1

  9
$DIMALT
 70
     0
  9
$DIMALTD
 70
     2
  9
$DIMALTF
 40
25.4
  9
$DIMLFAC
 40
1.0
  9
$DIMTOFL
 70
     0
  9
$DIMTVP
 40
0.0
  9
$DIMTIX
 70
     0
  9
$DIMSOXD
 70
     0
  9
$DIMSAH
 70
     0
  9
$DIMBLK1
  1

  9
$DIMBLK2
  1

  9
$DIMSTYLE
  2
Standard
  9
$DIMCLRD
 70
     0
  9
$DIMCLRE
 70
     0
  9
$DIMCLRT
 70
     0
  9
$DIMTFAC
 40
1.0
  9
$DIMGAP
 40
0.09
  9
$DIMJUST
 70
     0
  9
$DIMSD1
 70
     0
  9
$DIMSD2
 70
     0
  9
$DIMTOLJ
 70
     1
  9
$DIMTZIN
 70
     0
  9
$DIMALTZ
 70
     0
  9
$DIMALTTZ
 70
     0
  9
$DIMUPT
 70
     0
  9
$DIMDEC
 70
     4
  9
$DIMTDEC
 70
     4
  9
$DIMALTU
 70
     2
  9
$DIMALTTD
 70
     2
  9
$DIMTXSTY
  7
Standard
  9
$DIMAUNIT
 70
     0
  9
$DIMADEC
 70
     0
  9
$DIMALTRND
 40
0.0
  9
$DIMAZIN
 70
     0
  9
$DIMDSEP
 70
    46
  9
$DIMATFIT
 70
     3
  9
$DIMFRAC
 70
     0
  9
$DIMLDRBLK
  1

  9
$DIMLUNIT
 70
     2
  9
$DIMLWD
 70
    -2
  9
$DIMLWE
 70
    -2
  9
$DIMTMOVE
 70
     0
  9
$DIMFXL
 40
1.0
  9
$DIMFXLON
 70
     0
  9
$DIMJOGANG
 40
0.7853981633974483
  9
$DIMTFILL
 70
     0
  9
$DIMTFILLCLR
 70
     0
  9
$DIMARCSYM
 70
     0
  9
$DIMLTYPE
  6

  9
$DIMLTEX1
  6

  9
$DIMLTEX2
  6

  9
$DIMTXTDIRECTION
 70
     0
  9
$LUNITS
 70
     2
  9
$LUPREC
 70
     4
  9
$SKETCHINC
 40
0.1
  9
$FILLETRAD
 40
0.5
  9
$AUNITS
 70
     0
  9
$AUPREC
 70
     0
  9
$MENU
  1
.
  9
$ELEVATION
 40
0.0
  9
$PELEVATION
 40
0.0
  9
$THICKNESS
 40
0.0
  9
$LIMCHECK
 70
     0
  9
$CHAMFERA
 40
0.5
  9
$CHAMFERB
 40
0.5
  9
$CHAMFERC
 40
1.0
  9
$CHAMFERD
 40
0.0
  9
$SKPOLY
 70
     0
  9
$TDCREATE
 40
2457917.588136574
  9
$TDUCREATE
 40
2457917.213136574
  9
$TDUPDATE
 40
2457917.588136574
  9
$TDUUPDATE
 40
2457917.213136574
  9
$TDINDWG
 40
0.0000000116
  9
$TDUSRTIMER
 40
0.0000000116
  9
$USRTIMER
 70
     1
  9
$ANGBASE
 50
0.0
  9
$ANGDIR
 70
     0
  9
$PDMODE
 70
     0
  9
$PDSIZE
 40
0.0
  9
$PLINEWID
 40
0.0
  9
$SPLFRAME
 70
     0
  9
$SPLINETYPE
 70
     6
  9
$SPLINESEGS
 70
     8
  9
$HANDSEED
  5
D9
  9
$SURFTAB1
 70
     6
  9
$SURFTAB2
 70
     6
  9
$SURFTYPE
 70
     6
  9
$SURFU
 70
     6
  9
$SURFV
 70
     6
  9
$UCSBASE
  2

  9
$UCSNAME
  2

  9
$UCSORG
 10
0.0
 20
0.0
 30
0.0
  9
$UCSXDIR
 10
1.0
 20
0.0
 30
0.0
  9
$UCSYDIR
 10
0.0
 20
1.0
 30
0.0
  9
$UCSORTHOREF
  2

  9
$UCSORTHOVIEW
 70
     0
  9
$UCSORGTOP
 10
0.0
 20
0.0
 30
0.0
  9
$UCSORGBOTTOM
 10
0.0
 20
0.0
 30
0.0
  9
$UCSORGLEFT
 10
0.0
 20
0.0
 30
0.0
  9
$UCSORGRIGHT
 10
0.0
 20
0.0
 30
0.0
  9
$UCSORGFRONT
 10
0.0
 20
0.0
 30
0.0
  9
$UCSORGBACK
 10
0.0
 20
0.0
 30
0.0
  9
$PUCSBASE
  2

  9
$PUCSNAME
  2

  9
$PUCSORG
 10
0.0
 20
0.0
 30
0.0
  9
$PUCSXDIR
 10
1.0
 20
0.0
 30
0.0
  9
$PUCSYDIR
 10
0.0
 20
1.0
 30
0.0
  9
$PUCSORTHOREF
  2

  9
$PUCSORTHOVIEW
 70
     0
  9
$PUCSORGTOP
 10
0.0
 20
0.0
 30
0.0
  9
$PUCSORGBOTTOM
 10
0.0
 20
0.0
 30
0.0
  9
$PUCSORGLEFT
 10
0.0
 20
0.0
 30
0.0
  9
$PUCSORGRIGHT
 10
0.0
 20
0.0
 30
0.0
  9
$PUCSORGFRONT
 10
0.0
 20
0.0
 30
0.0
  9
$PUCSORGBACK
 10
0.0
 20
0.0
 30
0.0
  9
$USERI1
 70
     0
  9
$USERI2
 70
     0
  9
$USERI3
 70
     0
  9
$USERI4
 70
     0
  9
$USERI5
 70
     0
  9
$USERR1
 40
0.0
  9
$USERR2
 40
0.0
  9
$USERR3
 40
0.0
  9
$USERR4
 40
0.0
  9
$USERR5
 40
0.0
  9
$WORLDVIEW
 70
     1
  9
$SHADEDGE
 70
     3
  9
$SHADEDIF
 70
    70
  9
$TILEMODE
 70
     1
  9
$MAXACTVP
 70
    64
  9
$PINSBASE
 10
0.0
 20
0.0
 30
0.0
  9
$PLIMCHECK
 70
     0
  9
$PEXTMIN
 10
1.000000000000000E+20
 20
1.000000000000000E+20
 30
1.000000000000000E+20
  9
$PEXTMAX
 10
-1.000000000000000E+20
 20
-1.000000000000000E+20
 30
-1.000000000000000E+20
  9
$PLIMMIN
 10
0.0
 20
0.0
  9
$PLIMMAX
 10
12.0
 20
9.0
  9
$UNITMODE
 70
     0
  9
$VISRETAIN
 70
     1
  9
$PLINEGEN
 70
     0
  9
$PSLTSCALE
 70
     1
  9
$TREEDEPTH
 70
  3020
  9
$CMLSTYLE
  2
Standard
  9
$CMLJUST
 70
     0
  9
$CMLSCALE
 40
1.0
  9
$PROXYGRAPHICS
 70
     1
  9
$MEASUREMENT
 70
     0
  9
$CELWEIGHT
370
    -1
  9
$ENDCAPS
280
     0
  9
$JOINSTYLE
280
     0
  9
$LWDISPLAY
290
     1
  9
$INSUNITS
 70
     1
  9
$HYPERLINKBASE
  1

  9
$STYLESHEET
  1

  9
$XEDIT
290
     1
  9
$CEPSNTYPE
380
     0
  9
$PSTYLEMODE
290
     1
  9
$FINGERPRINTGUID
  2
{850E7324-E033-9BA6-D5B1-77AB65F38FC6}
  9
$VERSIONGUID
  2
{FAEB1C32-E019-11D5-929B-00C0DF256EC4}
  9
$EXTNAMES
290
     1
  9
$PSVPSCALE
 40
0.0
  9
$OLESTARTUP
290
     0
  9
$SORTENTS
280
   127
  9
$INDEXCTL
280
     0
  9
$HIDETEXT
280
     1
  9
$XCLIPFRAME
280
     2
  9
$HALOGAP
280
     0
  9
$OBSCOLOR
 70
   257
  9
$OBSLTYPE
280
     0
  9
$INTERSECTIONDISPLAY
280
     0
  9
$INTERSECTIONCOLOR
 70
   257
  9
$DIMASSOC
280
     2
  9
$PROJECTNAME
  1

  9
$CAMERADISPLAY
290
     0
  9
$LENSLENGTH
 40
50.0
  9
$CAMERAHEIGHT
 40
0.0
  9
$STEPSPERSEC
 40
2.0
  9
$STEPSIZE
 40
6.0
  9
$3DDWFPREC
 40
2.0
  9
$PSOLWIDTH
 40
0.25
  9
$PSOLHEIGHT
 40
4.0
  9
$LOFTANG1
 40
1.570796326794897
  9
$LOFTANG2
 40
1.570796326794897
  9
$LOFTMAG1
 40
0.0
  9
$LOFTMAG2
 40
0.0
  9
$LOFTPARAM
 70
     7
  9
$LOFTNORMALS
280
     1
  9
$LATITUDE
 40
37.795
  9
$LONGITUDE
 40
-122.394
  9
$NORTHDIRECTION
 40
0.0
  9
$TIMEZONE
 70
 -8000
  9
$LIGHTGLYPHDISPLAY
280
     1
  9
$TILEMODELIGHTSYNCH
280
     1
  9
$CMATERIAL
347
3C
  9
$SOLIDHIST
280
     1
  9
$SHOWHIST
280
     1
  9
$DWFFRAME
280
     2
  9
$DGNFRAME
280
     2
  9
$REALWORLDSCALE
290
     1
  9
$INTERFERECOLOR
 62
   256
  9
$CSHADOW
280
     0
  9
$SHADOWPLANELOCATION
 40
0.0
  0
ENDSEC
  0
SECTION
  2
CLASSES
  0
CLASS
  1
ACDBDICTIONARYWDFLT
  2
AcDbDictionaryWithDefault
  3
ObjectDBX Classes
 90
        0
 91
        4
280
     0
281
     0
  0
CLASS
  1
VISUALSTYLE
  2
AcDbVisualStyle
  3
ObjectDBX Classes
 90
     4095
 91
        4
280
     0
281
     0
  0
CLASS
  1
MATERIAL
  2
AcDbMaterial
  3
ObjectDBX Classes
 90
     1153
 91
        4
280
     0
281
     0
  0
CLASS
  1
SUN
  2
AcDbSun
  3
SCENEOE
 90
     1024
 91
        4
280
     0
281
     0
  0
ENDSEC
  0
SECTION
  2
TABLES
  0
TABLE
  2
VPORT
  5
8
330
0
100
AcDbSymbolTable
 70
     1
  0
VPORT
  5
29
330
8
100
AcDbSymbolTableRecord
100
AcDbViewportTableRecord
  2
*Active
 70
     0
 10
0.0
 20
0.0
 11
1.0
 21
1.0
 12
0.0
 22
0.0
 13
0.0
 23
0.0
 14
0.5
 24
0.5
 15
0.5
 25
0.5
 16
0.0
 26
0.0
 36
1.0
 17
63.499999984125
 27
-89.00059456108309
 37
0.0
 40
178.0011891221662
 41
0.7134783795241226
 42
50.0
 43
0.0
 44
0.0
 50
0.0
 51
0.0
 71
     0
 72
   100
 73
     1
 74
     3
 75
     0
 76
     0
 77
     0
 78
     0
281
     0
 65
     1
110
0.0
120
0.0
130
0.0
111
1.0
121
0.0
131
0.0
112
0.0
122
1.0
132
0.0
 79
     0
146
0.0
 60
     3
 61
     5
292
     1
282
     1
141
0.0
142
0.0
 63
   250
361
3F
  0
ENDTAB
  0
TABLE
  2
LTYPE
  5
5
330
0
100
AcDbSymbolTable
 70
     1
  0
LTYPE
  5
14
330
5
100
AcDbSymbolTableRecord
100
AcDbLinetypeTableRecord
  2
ByBlock
 70
     0
  3

 72
    65
 73
     0
 40
0.0
  0
LTYPE
  5
15
330
5
100
AcDbSymbolTableRecord
100
AcDbLinetypeTableRecord
  2
ByLayer
 70
     0
  3

 72
    65
 73
     0
 40
0.0
  0
LTYPE
  5
16
330
5
100
AcDbSymbolTableRecord
100
AcDbLinetypeTableRecord
  2
Continuous
 70
     0
  3
Solid line
 72
    65
 73
     0
 40
0.0
  0
ENDTAB
  0
TABLE
  2
LAYER
  5
2
330
0
100
AcDbSymbolTable
 70
     2
  0
LAYER
  5
10
330
2
100
AcDbSymbolTableRecord
100
AcDbLayerTableRecord
  2
0
 70
     0
 62
     7
  6
Continuous
370
    -3
390
F
347
3E
  0
LAYER
  5
40
330
2
100
AcDbSymbolTableRecord
100
AcDbLayerTableRecord
  2
_U+30EC_U+30A4_U+30E4_U+30FC 1
 70
     0
 62
     7
  6
Continuous
370
    -3
390
F
347
3E
  0
ENDTAB
  0
TABLE
  2
STYLE
  5
3
330
0
100
AcDbSymbolTable
 70
     1
  0
STYLE
  5
11
330
3
100
AcDbSymbolTableRecord
100
AcDbTextStyleTableRecord
  2
Standard
 70
     0
 40
0.0
 41
1.0
 50
0.0
 71
     0
 42
0.2
  3
txt
  4

  0
ENDTAB
  0
TABLE
  2
VIEW
  5
6
330
0
100
AcDbSymbolTable
 70
     0
  0
ENDTAB
  0
TABLE
  2
UCS
  5
7
330
0
100
AcDbSymbolTable
 70
     0
  0
ENDTAB
  0
TABLE
  2
APPID
  5
9
330
0
100
AcDbSymbolTable
 70
     1
  0
APPID
  5
12
330
9
100
AcDbSymbolTableRecord
100
AcDbRegAppTableRecord
  2
ACAD
 70
     0
  0
ENDTAB
  0
TABLE
  2
DIMSTYLE
  5
A
330
0
100
AcDbSymbolTable
 70
     1
100
AcDbDimStyleTable
  0
DIMSTYLE
105
27
330
A
100
AcDbSymbolTableRecord
100
AcDbDimStyleTableRecord
  2
Standard
 70
     0
178
     0
340
11
  0
ENDTAB
  0
TABLE
  2
BLOCK_RECORD
  5
1
330
0
100
AcDbSymbolTable
 70
     7
  0
BLOCK_RECORD
  5
1F
330
1
100
AcDbSymbolTableRecord
100
AcDbBlockTableRecord
  2
*Model_Space
340
22
 70
     0
280
     1
281
     0
  0
BLOCK_RECORD
  5
1B
330
1
100
AcDbSymbolTableRecord
100
AcDbBlockTableRecord
  2
*Paper_Space
340
1E
 70
     0
280
     1
281
     0
  0
BLOCK_RECORD
  5
23
330
1
100
AcDbSymbolTableRecord
100
AcDbBlockTableRecord
  2
*Paper_Space0
340
26
 70
     0
280
     1
281
     0
  0
BLOCK_RECORD
  5
41
330
1
100
AcDbSymbolTableRecord
100
AcDbBlockTableRecord
  2
block 2
340
0
102
{BLKREFS
331
42
102
}
 70
     0
280
     1
281
     0
  0
BLOCK_RECORD
  5
89
330
1
100
AcDbSymbolTableRecord
100
AcDbBlockTableRecord
  2
block 3
340
0
102
{BLKREFS
331
8A
102
}
 70
     0
280
     1
281
     0
  0
BLOCK_RECORD
  5
9E
330
1
100
AcDbSymbolTableRecord
100
AcDbBlockTableRecord
  2
block 4
340
0
102
{BLKREFS
331
9F
102
}
 70
     0
280
     1
281
     0
  0
BLOCK_RECORD
  5
AC
330
1
100
AcDbSymbolTableRecord
100
AcDbBlockTableRecord
  2
block 5
340
0
102
{BLKREFS
331
AD
102
}
 70
     0
280
     1
281
     0
  0
BLOCK_RECORD
  5
BE
330
1
100
AcDbSymbolTableRecord
100
AcDbBlockTableRecord
  2
block 6
340
0
102
{BLKREFS
331
BF
102
}
 70
     0
280
     1
281
     0
  0
BLOCK_RECORD
  5
CF
330
1
100
AcDbSymbolTableRecord
100
AcDbBlockTableRecord
  2
block 7
340
0
102
{BLKREFS
331
D0
102
}
 70
     0
280
     1
281
     0
  0
ENDTAB
  0
ENDSEC
  0
SECTION
  2
BLOCKS
  0
BLOCK
  5
20
330
1F
100
AcDbEntity
  8
0
100
AcDbBlockBegin
  2
*Model_Space
 70
     0
 10
0.0
 20
0.0
 30
0.0
  3
*Model_Space
  1

  0
ENDBLK
  5
21
330
1F
100
AcDbEntity
  8
0
100
AcDbBlockEnd
  0
BLOCK
  5
1C
330
1B
100
AcDbEntity
 67
     1
  8
0
100
AcDbBlockBegin
  2
*Paper_Space
 70
     0
 10
0.0
 20
0.0
 30
0.0
  3
*Paper_Space
  1

  0
ENDBLK
  5
1D
330
1B
100
AcDbEntity
 67
     1
  8
0
100
AcDbBlockEnd
  0
BLOCK
  5
24
330
23
100
AcDbEntity
  8
0
100
AcDbBlockBegin
  2
*Paper_Space0
 70
     0
 10
0.0
 20
0.0
 30
0.0
  3
*Paper_Space0
  1

  0
ENDBLK
  5
25
330
23
100
AcDbEntity
  8
0
100
AcDbBlockEnd
  0
BLOCK
  5
43
330
41
100
AcDbEntity
  8
0
100
AcDbBlockBegin
  2
block 2
 70
     0
 10
0.0
 20
0.0
 30
0.0
  3
block 2
  1

  0
POLYLINE
  5
45
330
41
100
AcDbEntity
  8
_U+30EC_U+30A4_U+30E4_U+30FC 1
 62
     7
420
 16777215
370
    25
100
AcDb2dPolyline
 66
     1
 10
0.0
 20
0.0
 30
0.0
  0
VERTEX
  5
46
330
45
100
AcDbEntity
  8
_U+30EC_U+30A4_U+30E4_U+30FC 1
 62
     7
420
 16777215
370
    25
100
AcDbVertex
100
AcDb2dVertex
 10
63.52688004596094
 20
-96.04202136487842
 30
0.0
  0
VERTEX
  5
47
330
45
100
AcDbEntity
  8
_U+30EC_U+30A4_U+30E4_U+30FC 1
 62
     7
420
 16777215
370
    25
100
AcDbVertex
100
AcDb2dVertex
 10
64.52665224267685
 20
-96.04202136487842
 30
0.0
  0
SEQEND
  5
48
330
45
100
AcDbEntity
  8
_U+30EC_U+30A4_U+30E4_U+30FC 1
 62
     7
420
 16777215
370
    25
  0
POLYLINE
  5
49
330
41
100
AcDbEntity
  8
_U+30EC_U+30A4_U+30E4_U+30FC 1
 62
     7
420
 16777215
370
    25
100
AcDb2dPolyline
 66
     1
 10
0.0
 20
0.0
 30
0.0
  0
VERTEX
  5
4A
330
49
100
AcDbEntity
  8
_U+30EC_U+30A4_U+30E4_U+30FC 1
 62
     7
420
 16777215
370
    25
100
AcDbVertex
100
AcDb2dVertex
 10
44.52683386402583
 20
-98.2417319198839
 30
0.0
  0
VERTEX
  5
4B
330
49
100
AcDbEntity
  8
_U+30EC_U+30A4_U+30E4_U+30FC 1
 62
     7
420
 16777215
370
    25
100
AcDbVertex
100
AcDb2dVertex
 10
64.52665224267685
 20
-98.2417319198839
 30
0.0
  0
SEQEND
  5
4C
330
49
100
AcDbEntity
  8
_U+30EC_U+30A4_U+30E4_U+30FC 1
 62
     7
420
 16777215
370
    25
  0
POLYLINE
  5
4D
330
41
100
AcDbEntity
  8
_U+30EC_U+30A4_U+30E4_U+30FC 1
 62
     7
420
 16777215
370
    25
100
AcDb2dPolyline
 66
     1
 10
0.0
 20
0.0
 30
0.0
  0
VERTEX
  5
4E
330
4D
100
AcDbEntity
  8
_U+30EC_U+30A4_U+30E4_U+30FC 1
 62
     7
420
 16777215
370
    25
100
AcDbVertex
100
AcDb2dVertex
 10
64.52665224267685
 20
-96.04202136487842
 30
0.0
  0
VERTEX
  5
4F
330
4D
100
AcDbEntity
  8
_U+30EC_U+30A4_U+30E4_U+30FC 1
 62
     7
420
 16777215
370
    25
100
AcDbVertex
100
AcDb2dVertex
 10
64.52665224267685
 20
-98.2417319198839
 30
0.0
  0
SEQEND
  5
50
330
4D
100
AcDbEntity
  8
_U+30EC_U+30A4_U+30E4_U+30FC 1
 62
     7
420
 16777215
370
    25
  0
POLYLINE
  5
51
330
41
100
AcDbEntity
  8
_U+30EC_U+30A4_U+30E4_U+30FC 1
 62
     7
420
 16777215
370
    25
100
AcDb2dPolyline
 66
     1
 10
0.0
 20
0.0
 30
0.0
  0
VERTEX
  5
52
330
51
100
AcDbEntity
  8
_U+30EC_U+30A4_U+30E4_U+30FC 1
 62
     7
420
 16777215
370
    25
100
AcDbVertex
100
AcDb2dVertex
 10
44.52683386402583
 20
-97.241959697912
 30
0.0
  0
VERTEX
  5
53
330
51
100
AcDbEntity
  8
_U+30EC_U+30A4_U+30E4_U+30FC 1
 62
     7
420
 16777215
370
    25
100
AcDbVertex
100
AcDb2dVertex
 10
44.52683386402583
 20
-98.2417319198839
 30
0.0
  0
SEQEND
  5
54
330
51
100
AcDbEntity
  8
_U+30EC_U+30A4_U+30E4_U+30FC 1
 62
     7
420
 16777215
370
    25
  0
POLYLINE
  5
55
330
41
100
AcDbEntity
  8
_U+30EC_U+30A4_U+30E4_U+30FC 1
 62
     7
420
 16777215
370
    25
100
AcDb2dPolyline
 66
     1
 10
0.0
 20
0.0
 30
0.0
  0
VERTEX
  5
56
330
55
100
AcDbEntity
  8
_U+30EC_U+30A4_U+30E4_U+30FC 1
 62
     7
420
 16777215
370
    25
100
AcDbVertex
100
AcDb2dVertex
 10
44.52683386402583
 20
-97.241959697912
 30
0.0
  0
VERTEX
  5
57
330
55
100
AcDbEntity
  8
_U+30EC_U+30A4_U+30E4_U+30FC 1
 62
     7
420
 16777215
370
    25
100
AcDbVertex
100
AcDb2dVertex
 10
45.02703746237568
 20
-97.241959697912
 30
0.0
  0
SEQEND
  5
58
330
55
100
AcDbEntity
  8
_U+30EC_U+30A4_U+30E4_U+30FC 1
 62
     7
420
 16777215
370
    25
  0
POLYLINE
  5
59
330
41
100
AcDbEntity
  8
_U+30EC_U+30A4_U+30E4_U+30FC 1
 62
     7
420
 16777215
370
    25
100
AcDb2dPolyline
 66
     1
 10
0.0
 20
0.0
 30
0.0
  0
VERTEX
  5
5A
330
59
100
AcDbEntity
  8
_U+30EC_U+30A4_U+30E4_U+30FC 1
 62
     7
420
 16777215
370
    25
100
AcDbVertex
100
AcDb2dVertex
 10
46.03128993675507
 20
-97.241959697912
 30
0.0
  0
VERTEX
  5
5B
330
59
100
AcDbEntity
  8
_U+30EC_U+30A4_U+30E4_U+30FC 1
 62
     7
420
 16777215
370
    25
100
AcDbVertex
100
AcDb2dVertex
 10
63.52719754595284
 20
-97.241959697912
 30
0.0
  0
SEQEND
  5
5C
330
59
100
AcDbEntity
  8
_U+30EC_U+30A4_U+30E4_U+30FC 1
 62
     7
420
 16777215
370
    25
  0
POLYLINE
  5
5D
330
41
100
AcDbEntity
  8
_U+30EC_U+30A4_U+30E4_U+30FC 1
 62
     7
420
 16777215
370
    25
100
AcDb2dPolyline
 66
     1
 10
0.0
 20
0.0
 30
0.0
  0
VERTEX
  5
5E
330
5D
100
AcDbEntity
  8
_U+30EC_U+30A4_U+30E4_U+30FC 1
 62
     7
420
 16777215
370
    25
100
AcDbVertex
100
AcDb2dVertex
 10
63.52688004596094
 20
-96.04202136487842
 30
0.0
  0
VERTEX
  5
5F
330
5D
100
AcDbEntity
  8
_U+30EC_U+30A4_U+30E4_U+30FC 1
 62
     7
420
 16777215
370
    25
100
AcDbVertex
100
AcDb2dVertex
 10
63.52688004596094
 20
-97.241959697912
 30
0.0
  0
SEQEND
  5
60
330
5D
100
AcDbEntity
  8
_U+30EC_U+30A4_U+30E4_U+30FC 1
 62
     7
420
 16777215
370
    25
  0
POLYLINE
  5
61
330
41
100
AcDbEntity
  8
_U+30EC_U+30A4_U+30E4_U+30FC 1
 62
     7
420
 16777215
370
    25
100
AcDb2dPolyline
 66
     1
 10
0.0
 20
0.0
 30
0.0
  0
VERTEX
  5
62
330
61
100
AcDbEntity
  8
_U+30EC_U+30A4_U+30E4_U+30FC 1
 62
     7
420
 16777215
370
    25
100
AcDbVertex
100
AcDb2dVertex
 10
47.43862628973982
 20
-83.04194859035074
 30
0.0
  0
VERTEX
  5
63
330
61
100
AcDbEntity
  8
_U+30EC_U+30A4_U+30E4_U+30FC 1
 62
     7
420
 16777215
370
    25
100
AcDbVertex
100
AcDb2dVertex
 10
76.52695249207923
 20
-83.04194859035074
 30
0.0
  0
SEQEND
  5
64
330
61
100
AcDbEntity
  8
_U+30EC_U+30A4_U+30E4_U+30FC 1
 62
     7
420
 16777215
370
    25
  0
POLYLINE
  5
65
330
41
100
AcDbEntity
  8
_U+30EC_U+30A4_U+30E4_U+30FC 1
 62
     7
420
 16777215
370
    25
100
AcDb2dPolyline
 66
     1
 10
0.0
 20
0.0
 30
0.0
  0
VERTEX
  5
66
330
65
100
AcDbEntity
  8
_U+30EC_U+30A4_U+30E4_U+30FC 1
 62
     7
420
 16777215
370
    25
100
AcDbVertex
100
AcDb2dVertex
 10
76.52695249207923
 20
-82.04185886837828
 30
0.0
  0
VERTEX
  5
67
330
65
100
AcDbEntity
  8
_U+30EC_U+30A4_U+30E4_U+30FC 1
 62
     7
420
 16777215
370
    25
100
AcDbVertex
100
AcDb2dVertex
 10
76.52695249207923
 20
-83.04194859035074
 30
0.0
  0
SEQEND
  5
68
330
65
100
AcDbEntity
  8
_U+30EC_U+30A4_U+30E4_U+30FC 1
 62
     7
420
 16777215
370
    25
  0
POLYLINE
  5
69
330
41
100
AcDbEntity
  8
_U+30EC_U+30A4_U+30E4_U+30FC 1
 62
     7
420
 16777215
370
    25
100
AcDb2dPolyline
 66
     1
 10
0.0
 20
0.0
 30
0.0
  0
VERTEX
  5
6A
330
69
100
AcDbEntity
  8
_U+30EC_U+30A4_U+30E4_U+30FC 1
 62
     7
420
 16777215
370
    25
100
AcDbVertex
100
AcDb2dVertex
 10
46.52704853521833
 20
-82.04185886837828
 30
0.0
  0
VERTEX
  5
6B
330
69
100
AcDbEntity
  8
_U+30EC_U+30A4_U+30E4_U+30FC 1
 62
     7
420
 16777215
370
    25
100
AcDbVertex
100
AcDb2dVertex
 10
76.52695249207923
 20
-82.04185886837828
 30
0.0
  0
SEQEND
  5
6C
330
69
100
AcDbEntity
  8
_U+30EC_U+30A4_U+30E4_U+30FC 1
 62
     7
420
 16777215
370
    25
  0
POLYLINE
  5
6D
330
41
100
AcDbEntity
  8
_U+30EC_U+30A4_U+30E4_U+30FC 1
 62
     7
420
 16777215
370
    25
100
AcDb2dPolyline
 66
     1
 10
0.0
 20
0.0
 30
0.0
  0
VERTEX
  5
6E
330
6D
100
AcDbEntity
  8
_U+30EC_U+30A4_U+30E4_U+30FC 1
 62
     7
420
 16777215
370
    25
100
AcDbVertex
100
AcDb2dVertex
 10
46.52704853521833
 20
-82.04185886837828
 30
0.0
  0
VERTEX
  5
6F
330
6D
100
AcDbEntity
  8
_U+30EC_U+30A4_U+30E4_U+30FC 1
 62
     7
420
 16777215
370
    25
100
AcDbVertex
100
AcDb2dVertex
 10
45.02703746237568
 20
-97.241959697912
 30
0.0
  0
SEQEND
  5
70
330
6D
100
AcDbEntity
  8
_U+30EC_U+30A4_U+30E4_U+30FC 1
 62
     7
420
 16777215
370
    25
  0
POLYLINE
  5
71
330
41
100
AcDbEntity
  8
_U+30EC_U+30A4_U+30E4_U+30FC 1
 62
     7
420
 16777215
370
    25
100
AcDb2dPolyline
 66
     1
 10
0.0
 20
0.0
 30
0.0
  0
VERTEX
  5
72
330
71
100
AcDbEntity
  8
_U+30EC_U+30A4_U+30E4_U+30FC 1
 62
     7
420
 16777215
370
    25
100
AcDbVertex
100
AcDb2dVertex
 10
47.43862628973982
 20
-83.04194859035074
 30
0.0
  0
VERTEX
  5
73
330
71
100
AcDbEntity
  8
_U+30EC_U+30A4_U+30E4_U+30FC 1
 62
     7
420
 16777215
370
    25
100
AcDbVertex
100
AcDb2dVertex
 10
46.03128993675507
 20
-97.241959697912
 30
0.0
  0
SEQEND
  5
74
330
71
100
AcDbEntity
  8
_U+30EC_U+30A4_U+30E4_U+30FC 1
 62
     7
420
 16777215
370
    25
  0
ENDBLK
  5
44
330
41
100
AcDbEntity
  8
0
100
AcDbBlockEnd
  0
BLOCK
  5
8B
330
89
100
AcDbEntity
  8
0
100
AcDbBlockBegin
  2
block 3
 70
     0
 10
0.0
 20
0.0
 30
0.0
  3
block 3
  1

  0
SPLINE
  5
8D
330
89
100
AcDbEntity
  8
_U+30EC_U+30A4_U+30E4_U+30FC 1
370
     0
100
AcDbSpline
210
0.0
220
0.0
230
1.0
 70
    11
 71
     3
 72
    44
 73
    40
 74
     0
 42
0.0000000001
 43
0.0000000001
 12
1.0
 22
0.0
 32
0.0
 13
1.0
 23
0.0
 33
0.0
 40
0.0
 40
0.0
 40
0.0
 40
0.0
 40
1.0
 40
1.0
 40
1.0
 40
2.0
 40
2.0
 40
2.0
 40
3.0
 40
3.0
 40
3.0
 40
4.0
 40
4.0
 40
4.0
 40
5.0
 40
5.0
 40
5.0
 40
6.0
 40
6.0
 40
6.0
 40
7.0
 40
7.0
 40
7.0
 40
8.0
 40
8.0
 40
8.0
 40
9.0
 40
9.0
 40
9.0
 40
10.0
 40
10.0
 40
10.0
 40
11.0
 40
11.0
 40
11.0
 40
12.0
 40
12.0
 40
12.0
 40
13.0
 40
13.0
 40
13.0
 40
13.0
 10
54.03425562885255
 20
-101.013989232559
 30
0.0
 10
53.81687010373329
 20
-101.172808134429
 30
0.0
 10
53.7240247804058
 20
-101.2468776873619
 30
0.0
 10
53.67544893406378
 20
-101.3905381690968
 30
0.0
 10
53.67544893406378
 20
-101.3905381690968
 30
0.0
 10
54.45197345643909
 20
-101.3905381690968
 30
0.0
 10
54.45197345643909
 20
-101.3905381690968
 30
0.0
 10
54.45197345643909
 20
-101.3905381690968
 30
0.0
 10
54.45197345643909
 20
-101.5958658600177
 30
0.0
 10
54.45197345643909
 20
-101.5958658600177
 30
0.0
 10
54.45197345643909
 20
-101.5958658600177
 30
0.0
 10
53.42654078525448
 20
-101.5958658600177
 30
0.0
 10
53.42654078525448
 20
-101.5958658600177
 30
0.0
 10
53.45806340894451
 20
-101.2382649486488
 30
0.0
 10
53.52352022316426
 20
-101.1600612811336
 30
0.0
 10
53.90747611499535
 20
-100.861716012111
 30
0.0
 10
54.16292994522663
 20
-100.662934002612
 30
0.0
 10
54.22821450467212
 20
-100.5950656215526
 30
0.0
 10
54.22821450467212
 20
-100.4576063116912
 30
0.0
 10
54.22821450467212
 20
-100.3390950269986
 30
0.0
 10
54.15655651857892
 20
-100.2081813985591
 30
0.0
 10
53.96035833069394
 20
-100.2081813985591
 30
0.0
 10
53.70077038588037
 20
-100.2081813985591
 30
0.0
 10
53.69232990194151
 20
-100.4386582865223
 30
0.0
 10
53.68802353258494
 20
-100.5551025139237
 30
0.0
 10
53.68802353258494
 20
-100.5551025139237
 30
0.0
 10
53.46443683559222
 20
-100.5551025139237
 30
0.0
 10
53.46443683559222
 20
-100.5551025139237
 30
0.0
 10
53.47287731953109
 20
-100.427978490518
 30
0.0
 10
53.4833848607611
 20
-100.3160128872474
 30
0.0
 10
53.56365558556742
 20
-100.1975016025548
 30
0.0
 10
53.67338187677263
 20
-100.0366156433936
 30
0.0
 10
53.85907252342759
 20
-100.0028537076382
 30
0.0
 10
53.97499998650625
 20
-100.0028537076382
 30
0.0
 10
54.25146889919755
 20
-100.0028537076382
 30
0.0
 10
54.4583468830868
 20
-100.1868218065505
 30
0.0
 10
54.4583468830868
 20
-100.4596733689823
 30
0.0
 10
54.4583468830868
 20
-100.6884277092029
 30
0.0
 10
54.34224716523389
 20
-100.7876464591781
 30
0.0
 10
54.03425562885255
 20
-101.013989232559
 30
0.0
  0
HATCH
  5
8E
330
89
100
AcDbEntity
  8
_U+30EC_U+30A4_U+30E4_U+30FC 1
 62
     7
420
 16777215
100
AcDbHatch
 10
0.0
 20
0.0
 30
0.0
210
0.0
220
0.0
230
1.0
  2
SOLID
 70
     1
 71
     0
 91
        1
 92
        1
 93
        1
 72
     4
 94
        3
 73
     0
 74
     1
 95
       44
 96
       40
 40
0.0
 40
0.0
 40
0.0
 40
0.0
 40
1.0
 40
1.0
 40
1.0
 40
2.0
 40
2.0
 40
2.0
 40
3.0
 40
3.0
 40
3.0
 40
4.0
 40
4.0
 40
4.0
 40
5.0
 40
5.0
 40
5.0
 40
6.0
 40
6.0
 40
6.0
 40
7.0
 40
7.0
 40
7.0
 40
8.0
 40
8.0
 40
8.0
 40
9.0
 40
9.0
 40
9.0
 40
10.0
 40
10.0
 40
10.0
 40
11.0
 40
11.0
 40
11.0
 40
12.0
 40
12.0
 40
12.0
 40
13.0
 40
13.0
 40
13.0
 40
13.0
 10
54.03425562885255
 20
-101.013989232559
 10
53.81687010373329
 20
-101.172808134429
 10
53.7240247804058
 20
-101.2468776873619
 10
53.67544893406378
 20
-101.3905381690968
 10
53.67544893406378
 20
-101.3905381690968
 10
54.45197345643909
 20
-101.3905381690968
 10
54.45197345643909
 20
-101.3905381690968
 10
54.45197345643909
 20
-101.3905381690968
 10
54.45197345643909
 20
-101.5958658600177
 10
54.45197345643909
 20
-101.5958658600177
 10
54.45197345643909
 20
-101.5958658600177
 10
53.42654078525448
 20
-101.5958658600177
 10
53.42654078525448
 20
-101.5958658600177
 10
53.45806340894451
 20
-101.2382649486488
 10
53.52352022316426
 20
-101.1600612811336
 10
53.90747611499535
 20
-100.861716012111
 10
54.16292994522663
 20
-100.662934002612
 10
54.22821450467212
 20
-100.5950656215526
 10
54.22821450467212
 20
-100.4576063116912
 10
54.22821450467212
 20
-100.3390950269986
 10
54.15655651857892
 20
-100.2081813985591
 10
53.96035833069394
 20
-100.2081813985591
 10
53.70077038588037
 20
-100.2081813985591
 10
53.69232990194151
 20
-100.4386582865223
 10
53.68802353258494
 20
-100.5551025139237
 10
53.68802353258494
 20
-100.5551025139237
 10
53.46443683559222
 20
-100.5551025139237
 10
53.46443683559222
 20
-100.5551025139237
 10
53.47287731953109
 20
-100.427978490518
 10
53.4833848607611
 20
-100.3160128872474
 10
53.56365558556742
 20
-100.1975016025548
 10
53.67338187677263
 20
-100.0366156433936
 10
53.85907252342759
 20
-100.0028537076382
 10
53.97499998650625
 20
-100.0028537076382
 10
54.25146889919755
 20
-100.0028537076382
 10
54.4583468830868
 20
-100.1868218065505
 10
54.4583468830868
 20
-100.4596733689823
 10
54.4583468830868
 20
-100.6884277092029
 10
54.34224716523389
 20
-100.7876464591781
 10
54.03425562885255
 20
-101.013989232559
 97
        0
 97
        0
 75
     2
 76
     1
 98
        0
  0
SPLINE
  5
8F
330
89
100
AcDbEntity
  8
_U+30EC_U+30A4_U+30E4_U+30FC 1
370
     0
100
AcDbSpline
210
0.0
220
0.0
230
1.0
 70
    11
 71
     3
 72
    29
 73
    25
 74
     0
 42
0.0000000001
 43
0.0000000001
 12
1.0
 22
0.0
 32
0.0
 13
1.0
 23
0.0
 33
0.0
 40
0.0
 40
0.0
 40
0.0
 40
0.0
 40
1.0
 40
1.0
 40
1.0
 40
2.0
 40
2.0
 40
2.0
 40
3.0
 40
3.0
 40
3.0
 40
4.0
 40
4.0
 40
4.0
 40
5.0
 40
5.0
 40
5.0
 40
6.0
 40
6.0
 40
6.0
 40
7.0
 40
7.0
 40
7.0
 40
8.0
 40
8.0
 40
8.0
 40
8.0
 10
55.51013453473358
 20
-101.4180989329788
 30
0.0
 10
55.40264755559379
 20
-101.627560738482
 30
0.0
 10
55.22953150745998
 20
-101.6465087636509
 30
0.0
 10
55.11360404438133
 20
-101.6465087636509
 30
0.0
 10
54.95306259476868
 20
-101.6465087636509
 30
0.0
 10
54.81181367987344
 20
-101.5999999746
 30
0.0
 10
54.71672904448054
 20
-101.4180989329788
 30
0.0
 10
54.61337617992304
 20
-101.2234510380622
 30
0.0
 10
54.59442815475418
 20
-100.986428468677
 30
0.0
 10
54.59442815475418
 20
-100.8238199617732
 30
0.0
 10
54.59442815475418
 20
-100.6798149704898
 30
0.0
 10
54.61130912263189
 20
-100.427978490518
 30
0.0
 10
54.71672904448054
 20
-100.2291964810191
 30
0.0
 10
54.8243882783946
 20
-100.0262803569379
 30
0.0
 10
54.98475747323298
 20
-100.0028537076382
 30
0.0
 10
55.11360404438133
 20
-100.0028537076382
 30
0.0
 10
55.27173392715429
 20
-100.0028537076382
 30
0.0
 10
55.41522215411495
 20
-100.0472954393979
 30
0.0
 10
55.51013453473358
 20
-100.2291964810191
 30
0.0
 10
55.60935328470877
 20
-100.4217773186446
 30
0.0
 10
55.63260767923421
 20
-100.6501871493166
 30
0.0
 10
55.63260767923421
 20
-100.8238199617732
 30
0.0
 10
55.63260767923421
 20
-100.9950412073901
 30
0.0
 10
55.61142034199992
 20
-101.2255180953534
 30
0.0
 10
55.51013453473358
 20
-101.4180989329788
 30
0.0
  0
SPLINE
  5
90
330
89
100
AcDbEntity
  8
_U+30EC_U+30A4_U+30E4_U+30FC 1
370
     0
100
AcDbSpline
210
0.0
220
0.0
230
1.0
 70
    11
 71
     3
 72
    17
 73
    13
 74
     0
 42
0.0000000001
 43
0.0000000001
 12
1.0
 22
0.0
 32
0.0
 13
1.0
 23
0.0
 33
0.0
 40
0.0
 40
0.0
 40
0.0
 40
0.0
 40
1.0
 40
1.0
 40
1.0
 40
2.0
 40
2.0
 40
2.0
 40
3.0
 40
3.0
 40
3.0
 40
4.0
 40
4.0
 40
4.0
 40
4.0
 10
55.11360404438133
 20
-100.1954345452637
 30
0.0
 10
54.86452364079776
 20
-100.1954345452637
 30
0.0
 10
54.81801485174689
 20
-100.4789659036997
 30
0.0
 10
54.81801485174689
 20
-100.8238199617732
 30
0.0
 10
54.81801485174689
 20
-101.1431803132559
 30
0.0
 10
54.85401609956775
 20
-101.4518608687343
 30
0.0
 10
55.11360404438133
 20
-101.4518608687343
 30
0.0
 10
55.36044513589948
 20
-101.4518608687343
 30
0.0
 10
55.40884872746724
 20
-101.1707410771379
 30
0.0
 10
55.40884872746724
 20
-100.8238199617732
 30
0.0
 10
55.40884872746724
 20
-100.504115100742
 30
0.0
 10
55.37095267712949
 20
-100.1954345452637
 30
0.0
 10
55.11360404438133
 20
-100.1954345452637
 30
0.0
  0
HATCH
  5
91
330
89
100
AcDbEntity
  8
_U+30EC_U+30A4_U+30E4_U+30FC 1
 62
     7
420
 16777215
100
AcDbHatch
 10
0.0
 20
0.0
 30
0.0
210
0.0
220
0.0
230
1.0
  2
SOLID
 70
     1
 71
     0
 91
        2
 92
        1
 93
        1
 72
     4
 94
        3
 73
     0
 74
     1
 95
       29
 96
       25
 40
0.0
 40
0.0
 40
0.0
 40
0.0
 40
1.0
 40
1.0
 40
1.0
 40
2.0
 40
2.0
 40
2.0
 40
3.0
 40
3.0
 40
3.0
 40
4.0
 40
4.0
 40
4.0
 40
5.0
 40
5.0
 40
5.0
 40
6.0
 40
6.0
 40
6.0
 40
7.0
 40
7.0
 40
7.0
 40
8.0
 40
8.0
 40
8.0
 40
8.0
 10
55.51013453473358
 20
-101.4180989329788
 10
55.40264755559379
 20
-101.627560738482
 10
55.22953150745998
 20
-101.6465087636509
 10
55.11360404438133
 20
-101.6465087636509
 10
54.95306259476868
 20
-101.6465087636509
 10
54.81181367987344
 20
-101.5999999746
 10
54.71672904448054
 20
-101.4180989329788
 10
54.61337617992304
 20
-101.2234510380622
 10
54.59442815475418
 20
-100.986428468677
 10
54.59442815475418
 20
-100.8238199617732
 10
54.59442815475418
 20
-100.6798149704898
 10
54.61130912263189
 20
-100.427978490518
 10
54.71672904448054
 20
-100.2291964810191
 10
54.8243882783946
 20
-100.0262803569379
 10
54.98475747323298
 20
-100.0028537076382
 10
55.11360404438133
 20
-100.0028537076382
 10
55.27173392715429
 20
-100.0028537076382
 10
55.41522215411495
 20
-100.0472954393979
 10
55.51013453473358
 20
-100.2291964810191
 10
55.60935328470877
 20
-100.4217773186446
 10
55.63260767923421
 20
-100.6501871493166
 10
55.63260767923421
 20
-100.8238199617732
 10
55.63260767923421
 20
-100.9950412073901
 10
55.61142034199992
 20
-101.2255180953534
 10
55.51013453473358
 20
-101.4180989329788
 97
        0
 97
        0
 92
        1
 93
        1
 72
     4
 94
        3
 73
     0
 74
     1
 95
       17
 96
       13
 40
0.0
 40
0.0
 40
0.0
 40
0.0
 40
1.0
 40
1.0
 40
1.0
 40
2.0
 40
2.0
 40
2.0
 40
3.0
 40
3.0
 40
3.0
 40
4.0
 40
4.0
 40
4.0
 40
4.0
 10
55.11360404438133
 20
-100.1954345452637
 10
54.86452364079776
 20
-100.1954345452637
 10
54.81801485174689
 20
-100.4789659036997
 10
54.81801485174689
 20
-100.8238199617732
 10
54.81801485174689
 20
-101.1431803132559
 10
54.85401609956775
 20
-101.4518608687343
 10
55.11360404438133
 20
-101.4518608687343
 10
55.36044513589948
 20
-101.4518608687343
 10
55.40884872746724
 20
-101.1707410771379
 10
55.40884872746724
 20
-100.8238199617732
 10
55.40884872746724
 20
-100.504115100742
 10
55.37095267712949
 20
-100.1954345452637
 10
55.11360404438133
 20
-100.1954345452637
 97
        0
 97
        0
 75
     2
 76
     1
 98
        0
  0
ENDBLK
  5
8C
330
89
100
AcDbEntity
  8
0
100
AcDbBlockEnd
  0
BLOCK
  5
A0
330
9E
100
AcDbEntity
  8
0
100
AcDbBlockBegin
  2
block 4
 70
     0
 10
0.0
 20
0.0
 30
0.0
  3
block 4
  1

  0
SPLINE
  5
A2
330
9E
100
AcDbEntity
  8
_U+30EC_U+30A4_U+30E4_U+30FC 1
370
     0
100
AcDbSpline
210
0.0
220
0.0
230
1.0
 70
    11
 71
     3
 72
    44
 73
    40
 74
     0
 42
0.0000000001
 43
0.0000000001
 12
1.0
 22
0.0
 32
0.0
 13
1.0
 23
0.0
 33
0.0
 40
0.0
 40
0.0
 40
0.0
 40
0.0
 40
1.0
 40
1.0
 40
1.0
 40
2.0
 40
2.0
 40
2.0
 40
3.0
 40
3.0
 40
3.0
 40
4.0
 40
4.0
 40
4.0
 40
5.0
 40
5.0
 40
5.0
 40
6.0
 40
6.0
 40
6.0
 40
7.0
 40
7.0
 40
7.0
 40
8.0
 40
8.0
 40
8.0
 40
9.0
 40
9.0
 40
9.0
 40
10.0
 40
10.0
 40
10.0
 40
11.0
 40
11.0
 40
11.0
 40
12.0
 40
12.0
 40
12.0
 40
13.0
 40
13.0
 40
13.0
 40
13.0
 10
78.56436901247697
 20
-97.1485920981087
 30
0.0
 10
78.72318791434698
 20
-97.36597762322795
 30
0.0
 10
78.79725746727986
 20
-97.45865069178117
 30
0.0
 10
78.94091794901477
 20
-97.50722653812319
 30
0.0
 10
78.94091794901477
 20
-97.50722653812319
 30
0.0
 10
78.94091794901477
 20
-96.73070201574788
 30
0.0
 10
78.94091794901477
 20
-96.73070201574788
 30
0.0
 10
78.94091794901477
 20
-96.73070201574788
 30
0.0
 10
79.14624563993567
 20
-96.73070201574788
 30
0.0
 10
79.14624563993567
 20
-96.73070201574788
 30
0.0
 10
79.14624563993567
 20
-96.73070201574788
 30
0.0
 10
79.14624563993567
 20
-97.75630694170677
 30
0.0
 10
79.14624563993567
 20
-97.75630694170677
 30
0.0
 10
78.78864472856674
 20
-97.72461206324246
 30
0.0
 10
78.71044106105155
 20
-97.65915524902272
 30
0.0
 10
78.41209579202892
 20
-97.27502710241735
 30
0.0
 10
78.21331378253001
 20
-97.01974552696035
 30
0.0
 10
78.14544540147058
 20
-96.95428871274059
 30
0.0
 10
78.00798609160911
 20
-96.95428871274059
 30
0.0
 10
77.88947480691652
 20
-96.95428871274059
 30
0.0
 10
77.75856117847702
 20
-97.02629120838232
 30
0.0
 10
77.75856117847702
 20
-97.22231714149304
 30
0.0
 10
77.75856117847702
 20
-97.48173283153236
 30
0.0
 10
77.98903806644024
 20
-97.49034557024548
 30
0.0
 10
78.10548229384169
 20
-97.49447968482778
 30
0.0
 10
78.10548229384169
 20
-97.49447968482778
 30
0.0
 10
78.10548229384169
 20
-97.71806638182049
 30
0.0
 10
78.10548229384169
 20
-97.71806638182049
 30
0.0
 10
77.97835827043598
 20
-97.70979815265589
 30
0.0
 10
77.86639266716534
 20
-97.69911835665161
 30
0.0
 10
77.74788138247276
 20
-97.61919214139382
 30
0.0
 10
77.58699542331159
 20
-97.50929359541435
 30
0.0
 10
77.55323348755614
 20
-97.32360294875939
 30
0.0
 10
77.55323348755614
 20
-97.20750323090647
 30
0.0
 10
77.55323348755614
 20
-96.93120657298942
 30
0.0
 10
77.73720158646849
 20
-96.72450084387444
 30
0.0
 10
78.01005314890027
 20
-96.72450084387444
 30
0.0
 10
78.23880748912086
 20
-96.72450084387444
 30
0.0
 10
78.33802623909605
 20
-96.84025605217883
 30
0.0
 10
78.56436901247697
 20
-97.1485920981087
 30
0.0
  0
HATCH
  5
A3
330
9E
100
AcDbEntity
  8
_U+30EC_U+30A4_U+30E4_U+30FC 1
 62
     7
420
 16777215
100
AcDbHatch
 10
0.0
 20
0.0
 30
0.0
210
0.0
220
0.0
230
1.0
  2
SOLID
 70
     1
 71
     0
 91
        1
 92
        1
 93
        1
 72
     4
 94
        3
 73
     0
 74
     1
 95
       44
 96
       40
 40
0.0
 40
0.0
 40
0.0
 40
0.0
 40
1.0
 40
1.0
 40
1.0
 40
2.0
 40
2.0
 40
2.0
 40
3.0
 40
3.0
 40
3.0
 40
4.0
 40
4.0
 40
4.0
 40
5.0
 40
5.0
 40
5.0
 40
6.0
 40
6.0
 40
6.0
 40
7.0
 40
7.0
 40
7.0
 40
8.0
 40
8.0
 40
8.0
 40
9.0
 40
9.0
 40
9.0
 40
10.0
 40
10.0
 40
10.0
 40
11.0
 40
11.0
 40
11.0
 40
12.0
 40
12.0
 40
12.0
 40
13.0
 40
13.0
 40
13.0
 40
13.0
 10
78.56436901247697
 20
-97.1485920981087
 10
78.72318791434698
 20
-97.36597762322795
 10
78.79725746727986
 20
-97.45865069178117
 10
78.94091794901477
 20
-97.50722653812319
 10
78.94091794901477
 20
-97.50722653812319
 10
78.94091794901477
 20
-96.73070201574788
 10
78.94091794901477
 20
-96.73070201574788
 10
78.94091794901477
 20
-96.73070201574788
 10
79.14624563993567
 20
-96.73070201574788
 10
79.14624563993567
 20
-96.73070201574788
 10
79.14624563993567
 20
-96.73070201574788
 10
79.14624563993567
 20
-97.75630694170677
 10
79.14624563993567
 20
-97.75630694170677
 10
78.78864472856674
 20
-97.72461206324246
 10
78.71044106105155
 20
-97.65915524902272
 10
78.41209579202892
 20
-97.27502710241735
 10
78.21331378253001
 20
-97.01974552696035
 10
78.14544540147058
 20
-96.95428871274059
 10
78.00798609160911
 20
-96.95428871274059
 10
77.88947480691652
 20
-96.95428871274059
 10
77.75856117847702
 20
-97.02629120838232
 10
77.75856117847702
 20
-97.22231714149304
 10
77.75856117847702
 20
-97.48173283153236
 10
77.98903806644024
 20
-97.49034557024548
 10
78.10548229384169
 20
-97.49447968482778
 10
78.10548229384169
 20
-97.49447968482778
 10
78.10548229384169
 20
-97.71806638182049
 10
78.10548229384169
 20
-97.71806638182049
 10
77.97835827043598
 20
-97.70979815265589
 10
77.86639266716534
 20
-97.69911835665161
 10
77.74788138247276
 20
-97.61919214139382
 10
77.58699542331159
 20
-97.50929359541435
 10
77.55323348755614
 20
-97.32360294875939
 10
77.55323348755614
 20
-97.20750323090647
 10
77.55323348755614
 20
-96.93120657298942
 10
77.73720158646849
 20
-96.72450084387444
 10
78.01005314890027
 20
-96.72450084387444
 10
78.23880748912086
 20
-96.72450084387444
 10
78.33802623909605
 20
-96.84025605217883
 10
78.56436901247697
 20
-97.1485920981087
 97
        0
 97
        0
 75
     2
 76
     1
 98
        0
  0
ENDBLK
  5
A1
330
9E
100
AcDbEntity
  8
0
100
AcDbBlockEnd
  0
BLOCK
  5
AE
330
AC
100
AcDbEntity
  8
0
100
AcDbBlockBegin
  2
block 5
 70
     0
 10
0.0
 20
0.0
 30
0.0
  3
block 5
  1

  0
SPLINE
  5
B0
330
AC
100
AcDbEntity
  8
_U+30EC_U+30A4_U+30E4_U+30FC 1
370
     0
100
AcDbSpline
210
0.0
220
0.0
230
1.0
 70
    11
 71
     3
 72
    26
 73
    22
 74
     0
 42
0.0000000001
 43
0.0000000001
 12
1.0
 22
0.0
 32
0.0
 13
1.0
 23
0.0
 33
0.0
 40
0.0
 40
0.0
 40
0.0
 40
0.0
 40
1.0
 40
1.0
 40
1.0
 40
2.0
 40
2.0
 40
2.0
 40
3.0
 40
3.0
 40
3.0
 40
4.0
 40
4.0
 40
4.0
 40
5.0
 40
5.0
 40
5.0
 40
6.0
 40
6.0
 40
6.0
 40
7.0
 40
7.0
 40
7.0
 40
7.0
 10
79.77463105644523
 20
-80.22387150772181
 30
0.0
 10
79.77463105644523
 20
-80.22387150772181
 30
0.0
 10
78.67047795342266
 20
-80.22387150772181
 30
0.0
 10
78.67047795342266
 20
-80.22387150772181
 30
0.0
 10
78.67047795342266
 20
-80.22387150772181
 30
0.0
 10
78.67047795342266
 20
-80.5532226361117
 30
0.0
 10
78.67047795342266
 20
-80.5532226361117
 30
0.0
 10
78.67047795342266
 20
-80.5532226361117
 30
0.0
 10
78.52233884755692
 20
-80.5532226361117
 30
0.0
 10
78.52233884755692
 20
-80.5532226361117
 30
0.0
 10
78.50752493697034
 20
-80.22180445043067
 30
0.0
 10
78.34457192051802
 20
-80.17529566137979
 30
0.0
 10
78.23019475040773
 20
-80.14601234975517
 30
0.0
 10
78.23019475040773
 20
-80.14601234975517
 30
0.0
 10
78.23019475040773
 20
-80.0002848107291
 30
0.0
 10
78.23019475040773
 20
-80.0002848107291
 30
0.0
 10
78.23019475040773
 20
-80.0002848107291
 30
0.0
 10
79.77463105644523
 20
-80.0002848107291
 30
0.0
 10
79.77463105644523
 20
-80.0002848107291
 30
0.0
 10
79.77463105644523
 20
-80.0002848107291
 30
0.0
 10
79.77463105644523
 20
-80.22387150772181
 30
0.0
 10
79.77463105644523
 20
-80.22387150772181
 30
0.0
  0
HATCH
  5
B1
330
AC
100
AcDbEntity
  8
_U+30EC_U+30A4_U+30E4_U+30FC 1
 62
     7
420
 16777215
100
AcDbHatch
 10
0.0
 20
0.0
 30
0.0
210
0.0
220
0.0
230
1.0
  2
SOLID
 70
     1
 71
     0
 91
        1
 92
        1
 93
        1
 72
     4
 94
        3
 73
     0
 74
     1
 95
       26
 96
       22
 40
0.0
 40
0.0
 40
0.0
 40
0.0
 40
1.0
 40
1.0
 40
1.0
 40
2.0
 40
2.0
 40
2.0
 40
3.0
 40
3.0
 40
3.0
 40
4.0
 40
4.0
 40
4.0
 40
5.0
 40
5.0
 40
5.0
 40
6.0
 40
6.0
 40
6.0
 40
7.0
 40
7.0
 40
7.0
 40
7.0
 10
79.77463105644523
 20
-80.22387150772181
 10
79.77463105644523
 20
-80.22387150772181
 10
78.67047795342266
 20
-80.22387150772181
 10
78.67047795342266
 20
-80.22387150772181
 10
78.67047795342266
 20
-80.22387150772181
 10
78.67047795342266
 20
-80.5532226361117
 10
78.67047795342266
 20
-80.5532226361117
 10
78.67047795342266
 20
-80.5532226361117
 10
78.52233884755692
 20
-80.5532226361117
 10
78.52233884755692
 20
-80.5532226361117
 10
78.50752493697034
 20
-80.22180445043067
 10
78.34457192051802
 20
-80.17529566137979
 10
78.23019475040773
 20
-80.14601234975517
 10
78.23019475040773
 20
-80.14601234975517
 10
78.23019475040773
 20
-80.0002848107291
 10
78.23019475040773
 20
-80.0002848107291
 10
78.23019475040773
 20
-80.0002848107291
 10
79.77463105644523
 20
-80.0002848107291
 10
79.77463105644523
 20
-80.0002848107291
 10
79.77463105644523
 20
-80.0002848107291
 10
79.77463105644523
 20
-80.22387150772181
 10
79.77463105644523
 20
-80.22387150772181
 97
        0
 97
        0
 75
     2
 76
     1
 98
        0
  0
ENDBLK
  5
AF
330
AC
100
AcDbEntity
  8
0
100
AcDbBlockEnd
  0
BLOCK
  5
C0
330
BE
100
AcDbEntity
  8
0
100
AcDbBlockBegin
  2
block 6
 70
     0
 10
0.0
 20
0.0
 30
0.0
  3
block 6
  1

  0
SPLINE
  5
C2
330
BE
100
AcDbEntity
  8
_U+30EC_U+30A4_U+30E4_U+30FC 1
370
     0
100
AcDbSpline
210
0.0
220
0.0
230
1.0
 70
    11
 71
     3
 72
    62
 73
    58
 74
     0
 42
0.0000000001
 43
0.0000000001
 12
1.0
 22
0.0
 32
0.0
 13
1.0
 23
0.0
 33
0.0
 40
0.0
 40
0.0
 40
0.0
 40
0.0
 40
1.0
 40
1.0
 40
1.0
 40
2.0
 40
2.0
 40
2.0
 40
3.0
 40
3.0
 40
3.0
 40
4.0
 40
4.0
 40
4.0
 40
5.0
 40
5.0
 40
5.0
 40
6.0
 40
6.0
 40
6.0
 40
7.0
 40
7.0
 40
7.0
 40
8.0
 40
8.0
 40
8.0
 40
9.0
 40
9.0
 40
9.0
 40
10.0
 40
10.0
 40
10.0
 40
11.0
 40
11.0
 40
11.0
 40
12.0
 40
12.0
 40
12.0
 40
13.0
 40
13.0
 40
13.0
 40
14.0
 40
14.0
 40
14.0
 40
15.0
 40
15.0
 40
15.0
 40
16.0
 40
16.0
 40
16.0
 40
17.0
 40
17.0
 40
17.0
 40
18.0
 40
18.0
 40
18.0
 40
19.0
 40
19.0
 40
19.0
 40
19.0
 10
60.93305933806535
 20
-77.44695229183618
 30
0.0
 10
60.83797470267245
 20
-77.44695229183618
 30
0.0
 10
60.62058917755319
 20
-77.4257649546019
 30
0.0
 10
60.49622123053567
 20
-77.23955754362414
 30
0.0
 10
60.42232393237706
 20
-77.12741968557926
 30
0.0
 10
60.4180175630205
 20
-77.0280286808298
 30
0.0
 10
60.4138834484382
 20
-76.94345158666692
 30
0.0
 10
60.4138834484382
 20
-76.94345158666692
 30
0.0
 10
60.63333603084861
 20
-76.94345158666692
 30
0.0
 10
60.63333603084861
 20
-76.94345158666692
 30
0.0
 10
60.63540308813976
 20
-77.0175211395998
 30
0.0
 10
60.64608288414404
 20
-77.25230439691957
 30
0.0
 10
60.92875296870879
 20
-77.25230439691957
 30
0.0
 10
61.06586776902173
 20
-77.25230439691957
 30
0.0
 10
61.21796873469551
 20
-77.18254121334326
 30
0.0
 10
61.21796873469551
 20
-76.95395912789694
 30
0.0
 10
61.21796873469551
 20
-76.83768715526975
 30
0.0
 10
61.17972817480923
 20
-76.78893905415346
 30
0.0
 10
61.1482055511192
 20
-76.75724417568917
 30
0.0
 10
61.07430825296059
 20
-76.6831746227563
 30
0.0
 10
60.95820853510767
 20
-76.67060002423513
 30
0.0
 10
60.9034315168922
 20
-76.67060002423513
 30
0.0
 10
60.88448349172332
 20
-76.67060002423513
 30
0.0
 10
60.84865449867673
 20
-76.67266708152628
 30
0.0
 10
60.82109373479473
 20
-76.67680119610858
 30
0.0
 10
60.82109373479473
 20
-76.67680119610858
 30
0.0
 10
60.82109373479473
 20
-76.48215330119197
 30
0.0
 10
60.82109373479473
 20
-76.48215330119197
 30
0.0
 10
60.85916203990674
 20
-76.48852672783968
 30
0.0
 10
60.90136445960105
 20
-76.4907660399051
 30
0.0
 10
60.9075656314745
 20
-76.4907660399051
 30
0.0
 10
60.97302244569425
 20
-76.4907660399051
 30
0.0
 10
61.17145994564464
 20
-76.4695787026708
 30
0.0
 10
61.17145994564464
 20
-76.23255613328561
 30
0.0
 10
61.17145994564464
 20
-76.05496146102098
 30
0.0
 10
61.04054631720514
 20
-75.999839933257
 30
0.0
 10
60.93082002599994
 20
-75.999839933257
 30
0.0
 10
60.66709796660406
 20
-75.999839933257
 30
0.0
 10
60.6586574826652
 20
-76.23255613328561
 30
0.0
 10
60.65435111330864
 20
-76.30455862892734
 30
0.0
 10
60.65435111330864
 20
-76.30455862892734
 30
0.0
 10
60.45177949877595
 20
-76.30455862892734
 30
0.0
 10
60.45177949877595
 20
-76.30455862892734
 30
0.0
 10
60.46039223748907
 20
-76.17967391758702
 30
0.0
 10
60.4877807465968
 20
-75.80312498104922
 30
0.0
 10
60.94356687929536
 20
-75.80312498104922
 30
0.0
 10
61.16732583106234
 20
-75.80312498104922
 30
0.0
 10
61.40779349593278
 20
-75.93007674968068
 30
0.0
 10
61.40779349593278
 20
-76.2261827066379
 30
0.0
 10
61.40779349593278
 20
-76.41239011761566
 30
0.0
 10
61.31270886053988
 20
-76.4949001544874
 30
0.0
 10
61.21349011056468
 20
-76.55622285412484
 30
0.0
 10
61.27481281020214
 20
-76.58378361800683
 30
0.0
 10
61.4563693422748
 20
-76.66422659758742
 30
0.0
 10
61.4563693422748
 20
-76.94138452937577
 30
0.0
 10
61.4563693422748
 20
-77.27986516080156
 30
0.0
 10
61.20935599598238
 20
-77.44695229183618
 30
0.0
 10
60.93305933806535
 20
-77.44695229183618
 30
0.0
  0
HATCH
  5
C3
330
BE
100
AcDbEntity
  8
_U+30EC_U+30A4_U+30E4_U+30FC 1
 62
     7
420
 16777215
100
AcDbHatch
 10
0.0
 20
0.0
 30
0.0
210
0.0
220
0.0
230
1.0
  2
SOLID
 70
     1
 71
     0
 91
        1
 92
        1
 93
        1
 72
     4
 94
        3
 73
     0
 74
     1
 95
       62
 96
       58
 40
0.0
 40
0.0
 40
0.0
 40
0.0
 40
1.0
 40
1.0
 40
1.0
 40
2.0
 40
2.0
 40
2.0
 40
3.0
 40
3.0
 40
3.0
 40
4.0
 40
4.0
 40
4.0
 40
5.0
 40
5.0
 40
5.0
 40
6.0
 40
6.0
 40
6.0
 40
7.0
 40
7.0
 40
7.0
 40
8.0
 40
8.0
 40
8.0
 40
9.0
 40
9.0
 40
9.0
 40
10.0
 40
10.0
 40
10.0
 40
11.0
 40
11.0
 40
11.0
 40
12.0
 40
12.0
 40
12.0
 40
13.0
 40
13.0
 40
13.0
 40
14.0
 40
14.0
 40
14.0
 40
15.0
 40
15.0
 40
15.0
 40
16.0
 40
16.0
 40
16.0
 40
17.0
 40
17.0
 40
17.0
 40
18.0
 40
18.0
 40
18.0
 40
19.0
 40
19.0
 40
19.0
 40
19.0
 10
60.93305933806535
 20
-77.44695229183618
 10
60.83797470267245
 20
-77.44695229183618
 10
60.62058917755319
 20
-77.4257649546019
 10
60.49622123053567
 20
-77.23955754362414
 10
60.42232393237706
 20
-77.12741968557926
 10
60.4180175630205
 20
-77.0280286808298
 10
60.4138834484382
 20
-76.94345158666692
 10
60.4138834484382
 20
-76.94345158666692
 10
60.63333603084861
 20
-76.94345158666692
 10
60.63333603084861
 20
-76.94345158666692
 10
60.63540308813976
 20
-77.0175211395998
 10
60.64608288414404
 20
-77.25230439691957
 10
60.92875296870879
 20
-77.25230439691957
 10
61.06586776902173
 20
-77.25230439691957
 10
61.21796873469551
 20
-77.18254121334326
 10
61.21796873469551
 20
-76.95395912789694
 10
61.21796873469551
 20
-76.83768715526975
 10
61.17972817480923
 20
-76.78893905415346
 10
61.1482055511192
 20
-76.75724417568917
 10
61.07430825296059
 20
-76.6831746227563
 10
60.95820853510767
 20
-76.67060002423513
 10
60.9034315168922
 20
-76.67060002423513
 10
60.88448349172332
 20
-76.67060002423513
 10
60.84865449867673
 20
-76.67266708152628
 10
60.82109373479473
 20
-76.67680119610858
 10
60.82109373479473
 20
-76.67680119610858
 10
60.82109373479473
 20
-76.48215330119197
 10
60.82109373479473
 20
-76.48215330119197
 10
60.85916203990674
 20
-76.48852672783968
 10
60.90136445960105
 20
-76.4907660399051
 10
60.9075656314745
 20
-76.4907660399051
 10
60.97302244569425
 20
-76.4907660399051
 10
61.17145994564464
 20
-76.4695787026708
 10
61.17145994564464
 20
-76.23255613328561
 10
61.17145994564464
 20
-76.05496146102098
 10
61.04054631720514
 20
-75.999839933257
 10
60.93082002599994
 20
-75.999839933257
 10
60.66709796660406
 20
-75.999839933257
 10
60.6586574826652
 20
-76.23255613328561
 10
60.65435111330864
 20
-76.30455862892734
 10
60.65435111330864
 20
-76.30455862892734
 10
60.45177949877595
 20
-76.30455862892734
 10
60.45177949877595
 20
-76.30455862892734
 10
60.46039223748907
 20
-76.17967391758702
 10
60.4877807465968
 20
-75.80312498104922
 10
60.94356687929536
 20
-75.80312498104922
 10
61.16732583106234
 20
-75.80312498104922
 10
61.40779349593278
 20
-75.93007674968068
 10
61.40779349593278
 20
-76.2261827066379
 10
61.40779349593278
 20
-76.41239011761566
 10
61.31270886053988
 20
-76.4949001544874
 10
61.21349011056468
 20
-76.55622285412484
 10
61.27481281020214
 20
-76.58378361800683
 10
61.4563693422748
 20
-76.66422659758742
 10
61.4563693422748
 20
-76.94138452937577
 10
61.4563693422748
 20
-77.27986516080156
 10
61.20935599598238
 20
-77.44695229183618
 10
60.93305933806535
 20
-77.44695229183618
 97
        0
 97
        0
 75
     2
 76
     1
 98
        0
  0
SPLINE
  5
C4
330
BE
100
AcDbEntity
  8
_U+30EC_U+30A4_U+30E4_U+30FC 1
370
     0
100
AcDbSpline
210
0.0
220
0.0
230
1.0
 70
    11
 71
     3
 72
    29
 73
    25
 74
     0
 42
0.0000000001
 43
0.0000000001
 12
1.0
 22
0.0
 32
0.0
 13
1.0
 23
0.0
 33
0.0
 40
0.0
 40
0.0
 40
0.0
 40
0.0
 40
1.0
 40
1.0
 40
1.0
 40
2.0
 40
2.0
 40
2.0
 40
3.0
 40
3.0
 40
3.0
 40
4.0
 40
4.0
 40
4.0
 40
5.0
 40
5.0
 40
5.0
 40
6.0
 40
6.0
 40
6.0
 40
7.0
 40
7.0
 40
7.0
 40
8.0
 40
8.0
 40
8.0
 40
8.0
 10
62.51022405121272
 20
-77.21837020638985
 30
0.0
 10
62.40273707207293
 20
-77.42783201189305
 30
0.0
 10
62.22979327871339
 20
-77.44695229183618
 30
0.0
 10
62.11369356086047
 20
-77.44695229183618
 30
0.0
 10
61.95315211124782
 20
-77.44695229183618
 30
0.0
 10
61.81190319635258
 20
-77.40044350278531
 30
0.0
 10
61.71681856095969
 20
-77.21837020638985
 30
0.0
 10
61.61346569640219
 20
-77.02372231147324
 30
0.0
 10
61.59451767123332
 20
-76.78687199686232
 30
0.0
 10
61.59451767123332
 20
-76.62391898041
 30
0.0
 10
61.59451767123332
 20
-76.48008624390081
 30
0.0
 10
61.61139863911104
 20
-76.22842201870331
 30
0.0
 10
61.71681856095969
 20
-76.02946775443014
 30
0.0
 10
61.82465004964801
 20
-75.82637937557466
 30
0.0
 10
61.98484698971212
 20
-75.80312498104922
 30
0.0
 10
62.11369356086047
 20
-75.80312498104922
 30
0.0
 10
62.27182344363344
 20
-75.80312498104922
 30
0.0
 10
62.41548392536836
 20
-75.84756671280894
 30
0.0
 10
62.51022405121272
 20
-76.02946775443014
 30
0.0
 10
62.60944280118792
 20
-76.2220485920556
 30
0.0
 10
62.63286945048762
 20
-76.45045842272766
 30
0.0
 10
62.63286945048762
 20
-76.62391898041
 30
0.0
 10
62.63286945048762
 20
-76.79531248080117
 30
0.0
 10
62.61150985847907
 20
-77.02596162353865
 30
0.0
 10
62.51022405121272
 20
-77.21837020638985
 30
0.0
  0
SPLINE
  5
C5
330
BE
100
AcDbEntity
  8
_U+30EC_U+30A4_U+30E4_U+30FC 1
370
     0
100
AcDbSpline
210
0.0
220
0.0
230
1.0
 70
    11
 71
     3
 72
    17
 73
    13
 74
     0
 42
0.0000000001
 43
0.0000000001
 12
1.0
 22
0.0
 32
0.0
 13
1.0
 23
0.0
 33
0.0
 40
0.0
 40
0.0
 40
0.0
 40
0.0
 40
1.0
 40
1.0
 40
1.0
 40
2.0
 40
2.0
 40
2.0
 40
3.0
 40
3.0
 40
3.0
 40
4.0
 40
4.0
 40
4.0
 40
4.0
 10
62.11369356086047
 20
-75.9957058186747
 30
0.0
 10
61.86461315727691
 20
-75.9957058186747
 30
0.0
 10
61.81810436822603
 20
-76.27923717711074
 30
0.0
 10
61.81810436822603
 20
-76.62391898041
 30
0.0
 10
61.81810436822603
 20
-76.94345158666692
 30
0.0
 10
61.85393336127263
 20
-77.25230439691957
 30
0.0
 10
62.11369356086047
 20
-77.25230439691957
 30
0.0
 10
62.36036239760436
 20
-77.25230439691957
 30
0.0
 10
62.40893824394638
 20
-76.97084009577465
 30
0.0
 10
62.40893824394638
 20
-76.62391898041
 30
0.0
 10
62.40893824394638
 20
-76.30455862892734
 30
0.0
 10
62.37104219360863
 20
-75.9957058186747
 30
0.0
 10
62.11369356086047
 20
-75.9957058186747
 30
0.0
  0
HATCH
  5
C6
330
BE
100
AcDbEntity
  8
_U+30EC_U+30A4_U+30E4_U+30FC 1
 62
     7
420
 16777215
100
AcDbHatch
 10
0.0
 20
0.0
 30
0.0
210
0.0
220
0.0
230
1.0
  2
SOLID
 70
     1
 71
     0
 91
        2
 92
        1
 93
        1
 72
     4
 94
        3
 73
     0
 74
     1
 95
       29
 96
       25
 40
0.0
 40
0.0
 40
0.0
 40
0.0
 40
1.0
 40
1.0
 40
1.0
 40
2.0
 40
2.0
 40
2.0
 40
3.0
 40
3.0
 40
3.0
 40
4.0
 40
4.0
 40
4.0
 40
5.0
 40
5.0
 40
5.0
 40
6.0
 40
6.0
 40
6.0
 40
7.0
 40
7.0
 40
7.0
 40
8.0
 40
8.0
 40
8.0
 40
8.0
 10
62.51022405121272
 20
-77.21837020638985
 10
62.40273707207293
 20
-77.42783201189305
 10
62.22979327871339
 20
-77.44695229183618
 10
62.11369356086047
 20
-77.44695229183618
 10
61.95315211124782
 20
-77.44695229183618
 10
61.81190319635258
 20
-77.40044350278531
 10
61.71681856095969
 20
-77.21837020638985
 10
61.61346569640219
 20
-77.02372231147324
 10
61.59451767123332
 20
-76.78687199686232
 10
61.59451767123332
 20
-76.62391898041
 10
61.59451767123332
 20
-76.48008624390081
 10
61.61139863911104
 20
-76.22842201870331
 10
61.71681856095969
 20
-76.02946775443014
 10
61.82465004964801
 20
-75.82637937557466
 10
61.98484698971212
 20
-75.80312498104922
 10
62.11369356086047
 20
-75.80312498104922
 10
62.27182344363344
 20
-75.80312498104922
 10
62.41548392536836
 20
-75.84756671280894
 10
62.51022405121272
 20
-76.02946775443014
 10
62.60944280118792
 20
-76.2220485920556
 10
62.63286945048762
 20
-76.45045842272766
 10
62.63286945048762
 20
-76.62391898041
 10
62.63286945048762
 20
-76.79531248080117
 10
62.61150985847907
 20
-77.02596162353865
 10
62.51022405121272
 20
-77.21837020638985
 97
        0
 97
        0
 92
        1
 93
        1
 72
     4
 94
        3
 73
     0
 74
     1
 95
       17
 96
       13
 40
0.0
 40
0.0
 40
0.0
 40
0.0
 40
1.0
 40
1.0
 40
1.0
 40
2.0
 40
2.0
 40
2.0
 40
3.0
 40
3.0
 40
3.0
 40
4.0
 40
4.0
 40
4.0
 40
4.0
 10
62.11369356086047
 20
-75.9957058186747
 10
61.86461315727691
 20
-75.9957058186747
 10
61.81810436822603
 20
-76.27923717711074
 10
61.81810436822603
 20
-76.62391898041
 10
61.81810436822603
 20
-76.94345158666692
 10
61.85393336127263
 20
-77.25230439691957
 10
62.11369356086047
 20
-77.25230439691957
 10
62.36036239760436
 20
-77.25230439691957
 10
62.40893824394638
 20
-76.97084009577465
 10
62.40893824394638
 20
-76.62391898041
 10
62.40893824394638
 20
-76.30455862892734
 10
62.37104219360863
 20
-75.9957058186747
 10
62.11369356086047
 20
-75.9957058186747
 97
        0
 97
        0
 75
     2
 76
     1
 98
        0
  0
ENDBLK
  5
C1
330
BE
100
AcDbEntity
  8
0
100
AcDbBlockEnd
  0
BLOCK
  5
D1
330
CF
100
AcDbEntity
  8
0
100
AcDbBlockBegin
  2
block 7
 70
     0
 10
0.0
 20
0.0
 30
0.0
  3
block 7
  1

  0
SPLINE
  5
D3
330
CF
100
AcDbEntity
  8
_U+30EC_U+30A4_U+30E4_U+30FC 1
370
     0
100
AcDbSpline
210
0.0
220
0.0
230
1.0
 70
    11
 71
     3
 72
    26
 73
    22
 74
     0
 42
0.0000000001
 43
0.0000000001
 12
1.0
 22
0.0
 32
0.0
 13
1.0
 23
0.0
 33
0.0
 40
0.0
 40
0.0
 40
0.0
 40
0.0
 40
1.0
 40
1.0
 40
1.0
 40
2.0
 40
2.0
 40
2.0
 40
3.0
 40
3.0
 40
3.0
 40
4.0
 40
4.0
 40
4.0
 40
5.0
 40
5.0
 40
5.0
 40
6.0
 40
6.0
 40
6.0
 40
7.0
 40
7.0
 40
7.0
 40
7.0
 10
79.14624563993567
 20
-90.27631562413231
 30
0.0
 10
79.14624563993567
 20
-90.27631562413231
 30
0.0
 10
78.04209253691309
 20
-90.27631562413231
 30
0.0
 10
78.04209253691309
 20
-90.27631562413231
 30
0.0
 10
78.04209253691309
 20
-90.27631562413231
 30
0.0
 10
78.04209253691309
 20
-90.6056667525222
 30
0.0
 10
78.04209253691309
 20
-90.6056667525222
 30
0.0
 10
78.04209253691309
 20
-90.6056667525222
 30
0.0
 10
77.89395343104735
 20
-90.6056667525222
 30
0.0
 10
77.89395343104735
 20
-90.6056667525222
 30
0.0
 10
77.87913952046077
 20
-90.27424856684117
 30
0.0
 10
77.71618650400846
 20
-90.22773977779029
 30
0.0
 10
77.60180933389816
 20
-90.19811195661714
 30
0.0
 10
77.60180933389816
 20
-90.19811195661714
 30
0.0
 10
77.60180933389816
 20
-90.0527289271396
 30
0.0
 10
77.60180933389816
 20
-90.0527289271396
 30
0.0
 10
77.60180933389816
 20
-90.0527289271396
 30
0.0
 10
79.14624563993567
 20
-90.0527289271396
 30
0.0
 10
79.14624563993567
 20
-90.0527289271396
 30
0.0
 10
79.14624563993567
 20
-90.0527289271396
 30
0.0
 10
79.14624563993567
 20
-90.27631562413231
 30
0.0
 10
79.14624563993567
 20
-90.27631562413231
 30
0.0
  0
HATCH
  5
D4
330
CF
100
AcDbEntity
  8
_U+30EC_U+30A4_U+30E4_U+30FC 1
 62
     7
420
 16777215
100
AcDbHatch
 10
0.0
 20
0.0
 30
0.0
210
0.0
220
0.0
230
1.0
  2
SOLID
 70
     1
 71
     0
 91
        1
 92
        1
 93
        1
 72
     4
 94
        3
 73
     0
 74
     1
 95
       26
 96
       22
 40
0.0
 40
0.0
 40
0.0
 40
0.0
 40
1.0
 40
1.0
 40
1.0
 40
2.0
 40
2.0
 40
2.0
 40
3.0
 40
3.0
 40
3.0
 40
4.0
 40
4.0
 40
4.0
 40
5.0
 40
5.0
 40
5.0
 40
6.0
 40
6.0
 40
6.0
 40
7.0
 40
7.0
 40
7.0
 40
7.0
 10
79.14624563993567
 20
-90.27631562413231
 10
79.14624563993567
 20
-90.27631562413231
 10
78.04209253691309
 20
-90.27631562413231
 10
78.04209253691309
 20
-90.27631562413231
 10
78.04209253691309
 20
-90.27631562413231
 10
78.04209253691309
 20
-90.6056667525222
 10
78.04209253691309
 20
-90.6056667525222
 10
78.04209253691309
 20
-90.6056667525222
 10
77.89395343104735
 20
-90.6056667525222
 10
77.89395343104735
 20
-90.6056667525222
 10
77.87913952046077
 20
-90.27424856684117
 10
77.71618650400846
 20
-90.22773977779029
 10
77.60180933389816
 20
-90.19811195661714
 10
77.60180933389816
 20
-90.19811195661714
 10
77.60180933389816
 20
-90.0527289271396
 10
77.60180933389816
 20
-90.0527289271396
 10
77.60180933389816
 20
-90.0527289271396
 10
79.14624563993567
 20
-90.0527289271396
 10
79.14624563993567
 20
-90.0527289271396
 10
79.14624563993567
 20
-90.0527289271396
 10
79.14624563993567
 20
-90.27631562413231
 10
79.14624563993567
 20
-90.27631562413231
 97
        0
 97
        0
 75
     2
 76
     1
 98
        0
  0
SPLINE
  5
D5
330
CF
100
AcDbEntity
  8
_U+30EC_U+30A4_U+30E4_U+30FC 1
370
     0
100
AcDbSpline
210
0.0
220
0.0
230
1.0
 70
    11
 71
     3
 72
    62
 73
    58
 74
     0
 42
0.0000000001
 43
0.0000000001
 12
1.0
 22
0.0
 32
0.0
 13
1.0
 23
0.0
 33
0.0
 40
0.0
 40
0.0
 40
0.0
 40
0.0
 40
1.0
 40
1.0
 40
1.0
 40
2.0
 40
2.0
 40
2.0
 40
3.0
 40
3.0
 40
3.0
 40
4.0
 40
4.0
 40
4.0
 40
5.0
 40
5.0
 40
5.0
 40
6.0
 40
6.0
 40
6.0
 40
7.0
 40
7.0
 40
7.0
 40
8.0
 40
8.0
 40
8.0
 40
9.0
 40
9.0
 40
9.0
 40
10.0
 40
10.0
 40
10.0
 40
11.0
 40
11.0
 40
11.0
 40
12.0
 40
12.0
 40
12.0
 40
13.0
 40
13.0
 40
13.0
 40
14.0
 40
14.0
 40
14.0
 40
15.0
 40
15.0
 40
15.0
 40
16.0
 40
16.0
 40
16.0
 40
17.0
 40
17.0
 40
17.0
 40
18.0
 40
18.0
 40
18.0
 40
19.0
 40
19.0
 40
19.0
 40
19.0
 10
79.19688854356883
 20
-89.0639865228729
 30
0.0
 10
79.19688854356883
 20
-89.15872664871726
 30
0.0
 10
79.17587346110881
 20
-89.37611217383653
 30
0.0
 10
78.98983830490532
 20
-89.50082463040258
 30
0.0
 10
78.87752819208617
 20
-89.57454967378692
 30
0.0
 10
78.77830944211098
 20
-89.57868378836922
 30
0.0
 10
78.69356009317383
 20
-89.58281790295152
 30
0.0
 10
78.69356009317383
 20
-89.58281790295152
 30
0.0
 10
78.69356009317383
 20
-89.36370983008963
 30
0.0
 10
78.69356009317383
 20
-89.36370983008963
 30
0.0
 10
78.76762964610671
 20
-89.36129826324996
 30
0.0
 10
79.00224064865222
 20
-89.35096297679421
 30
0.0
 10
79.00224064865222
 20
-89.0681206374552
 30
0.0
 10
79.00224064865222
 20
-88.93100583714225
 30
0.0
 10
78.93264971985018
 20
-88.77907712624274
 30
0.0
 10
78.70423988917811
 20
-88.77907712624274
 30
0.0
 10
78.58779566177667
 20
-88.77907712624274
 30
0.0
 10
78.53921981543465
 20
-88.81697317658049
 30
0.0
 10
78.50752493697034
 20
-88.84866805504478
 30
0.0
 10
78.43345538403747
 20
-88.92239309842913
 30
0.0
 10
78.42070853074205
 20
-89.03849281628204
 30
0.0
 10
78.42070853074205
 20
-89.09361434404605
 30
0.0
 10
78.42070853074205
 20
-89.11256236921491
 30
0.0
 10
78.4227755880332
 20
-89.14839136226152
 30
0.0
 10
78.4269097026155
 20
-89.17560761659499
 30
0.0
 10
78.4269097026155
 20
-89.17560761659499
 30
0.0
 10
78.23226180769888
 20
-89.17560761659499
 30
0.0
 10
78.23226180769888
 20
-89.17560761659499
 30
0.0
 10
78.23880748912086
 20
-89.13771156625724
 30
0.0
 10
78.240874546412
 20
-89.09568140133719
 30
0.0
 10
78.240874546412
 20
-89.08913571991522
 30
0.0
 10
78.240874546412
 20
-89.02367890569548
 30
0.0
 10
78.21951495440346
 20
-88.8255859152936
 30
0.0
 10
77.98283689456679
 20
-88.8255859152936
 30
0.0
 10
77.8050699675279
 20
-88.8255859152936
 30
0.0
 10
77.74994843976391
 20
-88.95615503418458
 30
0.0
 10
77.74994843976391
 20
-89.06605358016405
 30
0.0
 10
77.74994843976391
 20
-89.32994789433418
 30
0.0
 10
77.98283689456679
 20
-89.33821612349878
 30
0.0
 10
78.05449488065999
 20
-89.34235023808108
 30
0.0
 10
78.05449488065999
 20
-89.34235023808108
 30
0.0
 10
78.05449488065999
 20
-89.54492185261377
 30
0.0
 10
78.05449488065999
 20
-89.54492185261377
 30
0.0
 10
77.92978242409394
 20
-89.53665362344917
 30
0.0
 10
77.55323348755614
 20
-89.50909285956718
 30
0.0
 10
77.55323348755614
 20
-89.05330672686863
 30
0.0
 10
77.55323348755614
 20
-88.8297200298759
 30
0.0
 10
77.68035751096185
 20
-88.58925236500546
 30
0.0
 10
77.97629121314482
 20
-88.58925236500546
 30
0.0
 10
78.16267087889683
 20
-88.58925236500546
 30
0.0
 10
78.2450086609943
 20
-88.68399249084985
 30
0.0
 10
78.30633136063176
 20
-88.78321124082504
 30
0.0
 10
78.33389212451375
 20
-88.72223305073611
 30
0.0
 10
78.41416284932008
 20
-88.54067651866345
 30
0.0
 10
78.69149303588269
 20
-88.54067651866345
 30
0.0
 10
79.02980141253423
 20
-88.54067651866345
 30
0.0
 10
79.19688854356883
 20
-88.78734535540734
 30
0.0
 10
79.19688854356883
 20
-89.0639865228729
 30
0.0
  0
HATCH
  5
D6
330
CF
100
AcDbEntity
  8
_U+30EC_U+30A4_U+30E4_U+30FC 1
 62
     7
420
 16777215
100
AcDbHatch
 10
0.0
 20
0.0
 30
0.0
210
0.0
220
0.0
230
1.0
  2
SOLID
 70
     1
 71
     0
 91
        1
 92
        1
 93
        1
 72
     4
 94
        3
 73
     0
 74
     1
 95
       62
 96
       58
 40
0.0
 40
0.0
 40
0.0
 40
0.0
 40
1.0
 40
1.0
 40
1.0
 40
2.0
 40
2.0
 40
2.0
 40
3.0
 40
3.0
 40
3.0
 40
4.0
 40
4.0
 40
4.0
 40
5.0
 40
5.0
 40
5.0
 40
6.0
 40
6.0
 40
6.0
 40
7.0
 40
7.0
 40
7.0
 40
8.0
 40
8.0
 40
8.0
 40
9.0
 40
9.0
 40
9.0
 40
10.0
 40
10.0
 40
10.0
 40
11.0
 40
11.0
 40
11.0
 40
12.0
 40
12.0
 40
12.0
 40
13.0
 40
13.0
 40
13.0
 40
14.0
 40
14.0
 40
14.0
 40
15.0
 40
15.0
 40
15.0
 40
16.0
 40
16.0
 40
16.0
 40
17.0
 40
17.0
 40
17.0
 40
18.0
 40
18.0
 40
18.0
 40
19.0
 40
19.0
 40
19.0
 40
19.0
 10
79.19688854356883
 20
-89.0639865228729
 10
79.19688854356883
 20
-89.15872664871726
 10
79.17587346110881
 20
-89.37611217383653
 10
78.98983830490532
 20
-89.50082463040258
 10
78.87752819208617
 20
-89.57454967378692
 10
78.77830944211098
 20
-89.57868378836922
 10
78.69356009317383
 20
-89.58281790295152
 10
78.69356009317383
 20
-89.58281790295152
 10
78.69356009317383
 20
-89.36370983008963
 10
78.69356009317383
 20
-89.36370983008963
 10
78.76762964610671
 20
-89.36129826324996
 10
79.00224064865222
 20
-89.35096297679421
 10
79.00224064865222
 20
-89.0681206374552
 10
79.00224064865222
 20
-88.93100583714225
 10
78.93264971985018
 20
-88.77907712624274
 10
78.70423988917811
 20
-88.77907712624274
 10
78.58779566177667
 20
-88.77907712624274
 10
78.53921981543465
 20
-88.81697317658049
 10
78.50752493697034
 20
-88.84866805504478
 10
78.43345538403747
 20
-88.92239309842913
 10
78.42070853074205
 20
-89.03849281628204
 10
78.42070853074205
 20
-89.09361434404605
 10
78.42070853074205
 20
-89.11256236921491
 10
78.4227755880332
 20
-89.14839136226152
 10
78.4269097026155
 20
-89.17560761659499
 10
78.4269097026155
 20
-89.17560761659499
 10
78.23226180769888
 20
-89.17560761659499
 10
78.23226180769888
 20
-89.17560761659499
 10
78.23880748912086
 20
-89.13771156625724
 10
78.240874546412
 20
-89.09568140133719
 10
78.240874546412
 20
-89.08913571991522
 10
78.240874546412
 20
-89.02367890569548
 10
78.21951495440346
 20
-88.8255859152936
 10
77.98283689456679
 20
-88.8255859152936
 10
77.8050699675279
 20
-88.8255859152936
 10
77.74994843976391
 20
-88.95615503418458
 10
77.74994843976391
 20
-89.06605358016405
 10
77.74994843976391
 20
-89.32994789433418
 10
77.98283689456679
 20
-89.33821612349878
 10
78.05449488065999
 20
-89.34235023808108
 10
78.05449488065999
 20
-89.34235023808108
 10
78.05449488065999
 20
-89.54492185261377
 10
78.05449488065999
 20
-89.54492185261377
 10
77.92978242409394
 20
-89.53665362344917
 10
77.55323348755614
 20
-89.50909285956718
 10
77.55323348755614
 20
-89.05330672686863
 10
77.55323348755614
 20
-88.8297200298759
 10
77.68035751096185
 20
-88.58925236500546
 10
77.97629121314482
 20
-88.58925236500546
 10
78.16267087889683
 20
-88.58925236500546
 10
78.2450086609943
 20
-88.68399249084985
 10
78.30633136063176
 20
-88.78321124082504
 10
78.33389212451375
 20
-88.72223305073611
 10
78.41416284932008
 20
-88.54067651866345
 10
78.69149303588269
 20
-88.54067651866345
 10
79.02980141253423
 20
-88.54067651866345
 10
79.19688854356883
 20
-88.78734535540734
 10
79.19688854356883
 20
-89.0639865228729
 97
        0
 97
        0
 75
     2
 76
     1
 98
        0
  0
ENDBLK
  5
D2
330
CF
100
AcDbEntity
  8
0
100
AcDbBlockEnd
  0
ENDSEC
  0
SECTION
  2
ENTITIES
  0
INSERT
  5
42
330
1F
100
AcDbEntity
  8
_U+30EC_U+30A4_U+30E4_U+30FC 1
100
AcDbBlockReference
  2
block 2
 10
0.0
 20
0.0
 30
0.0
  0
SPLINE
  5
75
330
1F
100
AcDbEntity
  8
_U+30EC_U+30A4_U+30E4_U+30FC 1
 62
     7
420
 16777215
370
     9
100
AcDbSpline
210
0.0
220
0.0
230
1.0
 70
    11
 71
     3
 72
    17
 73
    13
 74
     0
 42
0.0000000001
 43
0.0000000001
 12
1.0
 22
0.0
 32
0.0
 13
1.0
 23
0.0
 33
0.0
 40
0.0
 40
0.0
 40
0.0
 40
0.0
 40
1.0
 40
1.0
 40
1.0
 40
2.0
 40
2.0
 40
2.0
 40
3.0
 40
3.0
 40
3.0
 40
4.0
 40
4.0
 40
4.0
 40
4.0
 10
64.72646557091251
 20
-102.2418085855504
 30
0.0
 10
64.72646557091251
 20
-102.1867046966755
 30
0.0
 10
64.68166279427776
 20
-102.1419019189087
 30
0.0
 10
64.62655890679468
 20
-102.1419019189087
 30
0.0
 10
64.57141974153473
 20
-102.1419019189087
 30
0.0
 10
64.52665224267685
 20
-102.1867046966755
 30
0.0
 10
64.52665224267685
 20
-102.2418085855504
 30
0.0
 10
64.52665224267685
 20
-102.2969477522035
 30
0.0
 10
64.57141974153473
 20
-102.3417152521927
 30
0.0
 10
64.62655890679468
 20
-102.3417152521927
 30
0.0
 10
64.68166279427776
 20
-102.3417152521927
 30
0.0
 10
64.72646557091251
 20
-102.2969477522035
 30
0.0
 10
64.72646557091251
 20
-102.2418085855504
 30
0.0
  0
SPLINE
  5
76
330
1F
100
AcDbEntity
  8
_U+30EC_U+30A4_U+30E4_U+30FC 1
 62
     7
420
 16777215
370
     9
100
AcDbSpline
210
0.0
220
0.0
230
1.0
 70
    11
 71
     3
 72
    17
 73
    13
 74
     0
 42
0.0000000001
 43
0.0000000001
 12
1.0
 22
0.0
 32
0.0
 13
1.0
 23
0.0
 33
0.0
 40
0.0
 40
0.0
 40
0.0
 40
0.0
 40
1.0
 40
1.0
 40
1.0
 40
2.0
 40
2.0
 40
2.0
 40
3.0
 40
3.0
 40
3.0
 40
4.0
 40
4.0
 40
4.0
 40
4.0
 10
44.62709443328782
 20
-102.2418085855504
 30
0.0
 10
44.62709443328782
 20
-102.1867046966755
 30
0.0
 10
44.5822916555211
 20
-102.1419019189087
 30
0.0
 10
44.52683386402583
 20
-102.1419019189087
 30
0.0
 10
44.47169469876588
 20
-102.1419019189087
 30
0.0
 10
44.42692719990799
 20
-102.1867046966755
 30
0.0
 10
44.42692719990799
 20
-102.2418085855504
 30
0.0
 10
44.42692719990799
 20
-102.2969477522035
 30
0.0
 10
44.47169469876588
 20
-102.3417152521927
 30
0.0
 10
44.52683386402583
 20
-102.3417152521927
 30
0.0
 10
44.5822916555211
 20
-102.3417152521927
 30
0.0
 10
44.62709443328782
 20
-102.2969477522035
 30
0.0
 10
44.62709443328782
 20
-102.2418085855504
 30
0.0
  0
SPLINE
  5
77
330
1F
100
AcDbEntity
  8
_U+30EC_U+30A4_U+30E4_U+30FC 1
 62
     7
420
 16777215
370
     9
100
AcDbSpline
210
0.0
220
0.0
230
1.0
 70
    11
 71
     3
 72
    17
 73
    13
 74
     0
 42
0.0000000001
 43
0.0000000001
 12
1.0
 22
0.0
 32
0.0
 13
1.0
 23
0.0
 33
0.0
 40
0.0
 40
0.0
 40
0.0
 40
0.0
 40
1.0
 40
1.0
 40
1.0
 40
2.0
 40
2.0
 40
2.0
 40
3.0
 40
3.0
 40
3.0
 40
4.0
 40
4.0
 40
4.0
 40
4.0
 10
80.62693572081328
 20
-82.14176553502024
 30
0.0
 10
80.62693572081328
 20
-82.08662636836716
 30
0.0
 10
80.5821682219554
 20
-82.04185886837828
 30
0.0
 10
80.52702905669544
 20
-82.04185886837828
 30
0.0
 10
80.4715723914436
 20
-82.04185886837828
 30
0.0
 10
80.42676961480883
 20
-82.08662636836716
 30
0.0
 10
80.42676961480883
 20
-82.14176553502024
 30
0.0
 10
80.42676961480883
 20
-82.19686942389517
 30
0.0
 10
80.4715723914436
 20
-82.24167220166188
 30
0.0
 10
80.52702905669544
 20
-82.24167220166188
 30
0.0
 10
80.5821682219554
 20
-82.24167220166188
 30
0.0
 10
80.62693572081328
 20
-82.19686942389517
 30
0.0
 10
80.62693572081328
 20
-82.14176553502024
 30
0.0
  0
SPLINE
  5
78
330
1F
100
AcDbEntity
  8
_U+30EC_U+30A4_U+30E4_U+30FC 1
 62
     7
420
 16777215
370
     9
100
AcDbSpline
210
0.0
220
0.0
230
1.0
 70
    11
 71
     3
 72
    17
 73
    13
 74
     0
 42
0.0000000001
 43
0.0000000001
 12
1.0
 22
0.0
 32
0.0
 13
1.0
 23
0.0
 33
0.0
 40
0.0
 40
0.0
 40
0.0
 40
0.0
 40
1.0
 40
1.0
 40
1.0
 40
2.0
 40
2.0
 40
2.0
 40
3.0
 40
3.0
 40
3.0
 40
4.0
 40
4.0
 40
4.0
 40
4.0
 10
80.62693572081328
 20
-83.14185525699239
 30
0.0
 10
80.62693572081328
 20
-83.08675136811715
 30
0.0
 10
80.5821682219554
 20
-83.04194859035074
 30
0.0
 10
80.52702905669544
 20
-83.04194859035074
 30
0.0
 10
80.4715723914436
 20
-83.04194859035074
 30
0.0
 10
80.42676961480883
 20
-83.08675136811715
 30
0.0
 10
80.42676961480883
 20
-83.14185525699239
 30
0.0
 10
80.42676961480883
 20
-83.1973472014229
 30
0.0
 10
80.4715723914436
 20
-83.24211470141178
 30
0.0
 10
80.52702905669544
 20
-83.24211470141178
 30
0.0
 10
80.5821682219554
 20
-83.24211470141178
 30
0.0
 10
80.62693572081328
 20
-83.1973472014229
 30
0.0
 10
80.62693572081328
 20
-83.14185525699239
 30
0.0
  0
SPLINE
  5
79
330
1F
100
AcDbEntity
  8
_U+30EC_U+30A4_U+30E4_U+30FC 1
 62
     7
420
 16777215
370
     9
100
AcDbSpline
210
0.0
220
0.0
230
1.0
 70
    11
 71
     3
 72
    17
 73
    13
 74
     0
 42
0.0000000001
 43
0.0000000001
 12
1.0
 22
0.0
 32
0.0
 13
1.0
 23
0.0
 33
0.0
 40
0.0
 40
0.0
 40
0.0
 40
0.0
 40
1.0
 40
1.0
 40
1.0
 40
2.0
 40
2.0
 40
2.0
 40
3.0
 40
3.0
 40
3.0
 40
4.0
 40
4.0
 40
4.0
 40
4.0
 10
80.62693572081328
 20
-96.14192803152005
 30
0.0
 10
80.62693572081328
 20
-96.08682414264514
 30
0.0
 10
80.5821682219554
 20
-96.04202136487842
 30
0.0
 10
80.52702905669544
 20
-96.04202136487842
 30
0.0
 10
80.4715723914436
 20
-96.04202136487842
 30
0.0
 10
80.42676961480883
 20
-96.08682414264514
 30
0.0
 10
80.42676961480883
 20
-96.14192803152005
 30
0.0
 10
80.42676961480883
 20
-96.19706719817313
 30
0.0
 10
80.4715723914436
 20
-96.2418346981617
 30
0.0
 10
80.52702905669544
 20
-96.2418346981617
 30
0.0
 10
80.5821682219554
 20
-96.2418346981617
 30
0.0
 10
80.62693572081328
 20
-96.19706719817313
 30
0.0
 10
80.62693572081328
 20
-96.14192803152005
 30
0.0
  0
SPLINE
  5
7A
330
1F
100
AcDbEntity
  8
_U+30EC_U+30A4_U+30E4_U+30FC 1
 62
     7
420
 16777215
370
     9
100
AcDbSpline
210
0.0
220
0.0
230
1.0
 70
    11
 71
     3
 72
    17
 73
    13
 74
     0
 42
0.0000000001
 43
0.0000000001
 12
1.0
 22
0.0
 32
0.0
 13
1.0
 23
0.0
 33
0.0
 40
0.0
 40
0.0
 40
0.0
 40
0.0
 40
1.0
 40
1.0
 40
1.0
 40
2.0
 40
2.0
 40
2.0
 40
3.0
 40
3.0
 40
3.0
 40
4.0
 40
4.0
 40
4.0
 40
4.0
 10
80.62693572081328
 20
-98.2417319198839
 30
0.0
 10
80.62693572081328
 20
-98.18659275323083
 30
0.0
 10
80.5821682219554
 20
-98.14182525324226
 30
0.0
 10
80.52702905669544
 20
-98.14182525324226
 30
0.0
 10
80.4715723914436
 20
-98.14182525324226
 30
0.0
 10
80.42676961480883
 20
-98.18659275323083
 30
0.0
 10
80.42676961480883
 20
-98.2417319198839
 30
0.0
 10
80.42676961480883
 20
-98.29718858653658
 30
0.0
 10
80.4715723914436
 20
-98.34195608652578
 30
0.0
 10
80.52702905669544
 20
-98.34195608652578
 30
0.0
 10
80.5821682219554
 20
-98.34195608652578
 30
0.0
 10
80.62693572081328
 20
-98.29718858653658
 30
0.0
 10
80.62693572081328
 20
-98.2417319198839
 30
0.0
  0
SPLINE
  5
7B
330
1F
100
AcDbEntity
  8
_U+30EC_U+30A4_U+30E4_U+30FC 1
 62
     7
420
 16777215
370
     9
100
AcDbSpline
210
0.0
220
0.0
230
1.0
 70
    11
 71
     3
 72
    17
 73
    13
 74
     0
 42
0.0000000001
 43
0.0000000001
 12
1.0
 22
0.0
 32
0.0
 13
1.0
 23
0.0
 33
0.0
 40
0.0
 40
0.0
 40
0.0
 40
0.0
 40
1.0
 40
1.0
 40
1.0
 40
2.0
 40
2.0
 40
2.0
 40
3.0
 40
3.0
 40
3.0
 40
4.0
 40
4.0
 40
4.0
 40
4.0
 10
76.6268610919541
 20
-78.04174692493396
 30
0.0
 10
76.6268610919541
 20
-77.98664303605904
 30
0.0
 10
76.58205831418802
 20
-77.94184025829232
 30
0.0
 10
76.52695249207923
 20
-77.94184025829232
 30
0.0
 10
76.47181332681929
 20
-77.94184025829232
 30
0.0
 10
76.4270458279614
 20
-77.98664303605904
 30
0.0
 10
76.4270458279614
 20
-78.04174692493396
 30
0.0
 10
76.4270458279614
 20
-78.09720359158696
 30
0.0
 10
76.47181332681929
 20
-78.14200636935335
 30
0.0
 10
76.52695249207923
 20
-78.14200636935335
 30
0.0
 10
76.58205831418802
 20
-78.14200636935335
 30
0.0
 10
76.6268610919541
 20
-78.09720359158696
 30
0.0
 10
76.6268610919541
 20
-78.04174692493396
 30
0.0
  0
SPLINE
  5
7C
330
1F
100
AcDbEntity
  8
_U+30EC_U+30A4_U+30E4_U+30FC 1
 62
     7
420
 16777215
370
     9
100
AcDbSpline
210
0.0
220
0.0
230
1.0
 70
    11
 71
     3
 72
    17
 73
    13
 74
     0
 42
0.0000000001
 43
0.0000000001
 12
1.0
 22
0.0
 32
0.0
 13
1.0
 23
0.0
 33
0.0
 40
0.0
 40
0.0
 40
0.0
 40
0.0
 40
1.0
 40
1.0
 40
1.0
 40
2.0
 40
2.0
 40
2.0
 40
3.0
 40
3.0
 40
3.0
 40
4.0
 40
4.0
 40
4.0
 40
4.0
 10
46.62695519933616
 20
-78.04174692493396
 30
0.0
 10
46.62695519933616
 20
-77.98664303605904
 30
0.0
 10
46.5821524227014
 20
-77.94184025829232
 30
0.0
 10
46.52704853521833
 20
-77.94184025829232
 30
0.0
 10
46.47190936995838
 20
-77.94184025829232
 30
0.0
 10
46.42714187110049
 20
-77.98664303605904
 30
0.0
 10
46.42714187110049
 20
-78.04174692493396
 30
0.0
 10
46.42714187110049
 20
-78.09720359158696
 30
0.0
 10
46.47190936995838
 20
-78.14200636935335
 30
0.0
 10
46.52704853521833
 20
-78.14200636935335
 30
0.0
 10
46.5821524227014
 20
-78.14200636935335
 30
0.0
 10
46.62695519933616
 20
-78.09720359158696
 30
0.0
 10
46.62695519933616
 20
-78.04174692493396
 30
0.0
  0
POLYLINE
  5
7D
330
1F
100
AcDbEntity
  8
_U+30EC_U+30A4_U+30E4_U+30FC 1
 62
     7
420
 16777215
370
     9
100
AcDb2dPolyline
 66
     1
 10
0.0
 20
0.0
 30
0.0
  0
VERTEX
  5
7E
330
7D
100
AcDbEntity
  8
_U+30EC_U+30A4_U+30E4_U+30FC 1
 62
     7
420
 16777215
370
     9
100
AcDbVertex
100
AcDb2dVertex
 10
44.52683386402583
 20
-102.2418085855504
 30
0.0
  0
VERTEX
  5
7F
330
7D
100
AcDbEntity
  8
_U+30EC_U+30A4_U+30E4_U+30FC 1
 62
     7
420
 16777215
370
     9
100
AcDbVertex
100
AcDb2dVertex
 10
64.52665224267685
 20
-102.2418085855504
 30
0.0
  0
SEQEND
  5
80
330
7D
100
AcDbEntity
  8
_U+30EC_U+30A4_U+30E4_U+30FC 1
 62
     7
420
 16777215
370
     9
  0
POLYLINE
  5
81
330
1F
100
AcDbEntity
  8
_U+30EC_U+30A4_U+30E4_U+30FC 1
 62
     7
420
 16777215
370
     9
100
AcDb2dPolyline
 66
     1
 10
0.0
 20
0.0
 30
0.0
  0
VERTEX
  5
82
330
81
100
AcDbEntity
  8
_U+30EC_U+30A4_U+30E4_U+30FC 1
 62
     7
420
 16777215
370
     9
100
AcDbVertex
100
AcDb2dVertex
 10
44.52683386402583
 20
-100.7818024748048
 30
0.0
  0
VERTEX
  5
83
330
81
100
AcDbEntity
  8
_U+30EC_U+30A4_U+30E4_U+30FC 1
 62
     7
420
 16777215
370
     9
100
AcDbVertex
100
AcDb2dVertex
 10
44.52683386402583
 20
-103.2419335853007
 30
0.0
  0
SEQEND
  5
84
330
81
100
AcDbEntity
  8
_U+30EC_U+30A4_U+30E4_U+30FC 1
 62
     7
420
 16777215
370
     9
  0
POLYLINE
  5
85
330
1F
100
AcDbEntity
  8
_U+30EC_U+30A4_U+30E4_U+30FC 1
 62
     7
420
 16777215
370
     9
100
AcDb2dPolyline
 66
     1
 10
0.0
 20
0.0
 30
0.0
  0
VERTEX
  5
86
330
85
100
AcDbEntity
  8
_U+30EC_U+30A4_U+30E4_U+30FC 1
 62
     7
420
 16777215
370
     9
100
AcDbVertex
100
AcDb2dVertex
 10
64.62655890679468
 20
-100.7818024748048
 30
0.0
  0
VERTEX
  5
87
330
85
100
AcDbEntity
  8
_U+30EC_U+30A4_U+30E4_U+30FC 1
 62
     7
420
 16777215
370
     9
100
AcDbVertex
100
AcDb2dVertex
 10
64.62655890679468
 20
-103.2419335853007
 30
0.0
  0
SEQEND
  5
88
330
85
100
AcDbEntity
  8
_U+30EC_U+30A4_U+30E4_U+30FC 1
 62
     7
420
 16777215
370
     9
  0
INSERT
  5
8A
330
1F
100
AcDbEntity
  8
_U+30EC_U+30A4_U+30E4_U+30FC 1
100
AcDbBlockReference
  2
block 3
 10
0.0
 20
0.0
 30
0.0
  0
POLYLINE
  5
92
330
1F
100
AcDbEntity
  8
_U+30EC_U+30A4_U+30E4_U+30FC 1
 62
     7
420
 16777215
370
     9
100
AcDb2dPolyline
 66
     1
 10
0.0
 20
0.0
 30
0.0
  0
VERTEX
  5
93
330
92
100
AcDbEntity
  8
_U+30EC_U+30A4_U+30E4_U+30FC 1
 62
     7
420
 16777215
370
     9
100
AcDbVertex
100
AcDb2dVertex
 10
80.52702905669544
 20
-96.2418346981617
 30
0.0
  0
VERTEX
  5
94
330
92
100
AcDbEntity
  8
_U+30EC_U+30A4_U+30E4_U+30FC 1
 62
     7
420
 16777215
370
     9
100
AcDbVertex
100
AcDb2dVertex
 10
80.52702905669544
 20
-98.2417319198839
 30
0.0
  0
SEQEND
  5
95
330
92
100
AcDbEntity
  8
_U+30EC_U+30A4_U+30E4_U+30FC 1
 62
     7
420
 16777215
370
     9
  0
POLYLINE
  5
96
330
1F
100
AcDbEntity
  8
_U+30EC_U+30A4_U+30E4_U+30FC 1
 62
     7
420
 16777215
370
     9
100
AcDb2dPolyline
 66
     1
 10
0.0
 20
0.0
 30
0.0
  0
VERTEX
  5
97
330
96
100
AcDbEntity
  8
_U+30EC_U+30A4_U+30E4_U+30FC 1
 62
     7
420
 16777215
370
     9
100
AcDbVertex
100
AcDb2dVertex
 10
67.02675301222729
 20
-96.14192803152005
 30
0.0
  0
VERTEX
  5
98
330
96
100
AcDbEntity
  8
_U+30EC_U+30A4_U+30E4_U+30FC 1
 62
     7
420
 16777215
370
     9
100
AcDbVertex
100
AcDb2dVertex
 10
81.52680125341135
 20
-96.14192803152005
 30
0.0
  0
SEQEND
  5
99
330
96
100
AcDbEntity
  8
_U+30EC_U+30A4_U+30E4_U+30FC 1
 62
     7
420
 16777215
370
     9
  0
POLYLINE
  5
9A
330
1F
100
AcDbEntity
  8
_U+30EC_U+30A4_U+30E4_U+30FC 1
 62
     7
420
 16777215
370
     9
100
AcDb2dPolyline
 66
     1
 10
0.0
 20
0.0
 30
0.0
  0
VERTEX
  5
9B
330
9A
100
AcDbEntity
  8
_U+30EC_U+30A4_U+30E4_U+30FC 1
 62
     7
420
 16777215
370
     9
100
AcDbVertex
100
AcDb2dVertex
 10
67.02675301222729
 20
-98.2417319198839
 30
0.0
  0
VERTEX
  5
9C
330
9A
100
AcDbEntity
  8
_U+30EC_U+30A4_U+30E4_U+30FC 1
 62
     7
420
 16777215
370
     9
100
AcDbVertex
100
AcDb2dVertex
 10
81.52680125341135
 20
-98.2417319198839
 30
0.0
  0
SEQEND
  5
9D
330
9A
100
AcDbEntity
  8
_U+30EC_U+30A4_U+30E4_U+30FC 1
 62
     7
420
 16777215
370
     9
  0
INSERT
  5
9F
330
1F
100
AcDbEntity
  8
_U+30EC_U+30A4_U+30E4_U+30FC 1
100
AcDbBlockReference
  2
block 4
 10
0.0
 20
0.0
 30
0.0
  0
POLYLINE
  5
A4
330
1F
100
AcDbEntity
  8
_U+30EC_U+30A4_U+30E4_U+30FC 1
 62
     7
420
 16777215
370
     9
100
AcDb2dPolyline
 66
     1
 10
0.0
 20
0.0
 30
0.0
  0
VERTEX
  5
A5
330
A4
100
AcDbEntity
  8
_U+30EC_U+30A4_U+30E4_U+30FC 1
 62
     7
420
 16777215
370
     9
100
AcDbVertex
100
AcDb2dVertex
 10
80.52702905669544
 20
-83.14185525699239
 30
0.0
  0
VERTEX
  5
A6
330
A4
100
AcDbEntity
  8
_U+30EC_U+30A4_U+30E4_U+30FC 1
 62
     7
420
 16777215
370
     9
100
AcDbVertex
100
AcDb2dVertex
 10
80.52702905669544
 20
-78.14200636935335
 30
0.0
  0
SEQEND
  5
A7
330
A4
100
AcDbEntity
  8
_U+30EC_U+30A4_U+30E4_U+30FC 1
 62
     7
420
 16777215
370
     9
  0
POLYLINE
  5
A8
330
1F
100
AcDbEntity
  8
_U+30EC_U+30A4_U+30E4_U+30FC 1
 62
     7
420
 16777215
370
     9
100
AcDb2dPolyline
 66
     1
 10
0.0
 20
0.0
 30
0.0
  0
VERTEX
  5
A9
330
A8
100
AcDbEntity
  8
_U+30EC_U+30A4_U+30E4_U+30FC 1
 62
     7
420
 16777215
370
     9
100
AcDbVertex
100
AcDb2dVertex
 10
79.06702498023338
 20
-82.14176553502024
 30
0.0
  0
VERTEX
  5
AA
330
A8
100
AcDbEntity
  8
_U+30EC_U+30A4_U+30E4_U+30FC 1
 62
     7
420
 16777215
370
     9
100
AcDbVertex
100
AcDb2dVertex
 10
81.52680125341135
 20
-82.14176553502024
 30
0.0
  0
SEQEND
  5
AB
330
A8
100
AcDbEntity
  8
_U+30EC_U+30A4_U+30E4_U+30FC 1
 62
     7
420
 16777215
370
     9
  0
INSERT
  5
AD
330
1F
100
AcDbEntity
  8
_U+30EC_U+30A4_U+30E4_U+30FC 1
100
AcDbBlockReference
  2
block 5
 10
0.0
 20
0.0
 30
0.0
  0
POLYLINE
  5
B2
330
1F
100
AcDbEntity
  8
_U+30EC_U+30A4_U+30E4_U+30FC 1
 62
     7
420
 16777215
370
     9
100
AcDb2dPolyline
 66
     1
 10
0.0
 20
0.0
 30
0.0
  0
VERTEX
  5
B3
330
B2
100
AcDbEntity
  8
_U+30EC_U+30A4_U+30E4_U+30FC 1
 62
     7
420
 16777215
370
     9
100
AcDbVertex
100
AcDb2dVertex
 10
46.52704853521833
 20
-78.04174692493396
 30
0.0
  0
VERTEX
  5
B4
330
B2
100
AcDbEntity
  8
_U+30EC_U+30A4_U+30E4_U+30FC 1
 62
     7
420
 16777215
370
     9
100
AcDbVertex
100
AcDb2dVertex
 10
76.52695249207923
 20
-78.04174692493396
 30
0.0
  0
SEQEND
  5
B5
330
B2
100
AcDbEntity
  8
_U+30EC_U+30A4_U+30E4_U+30FC 1
 62
     7
420
 16777215
370
     9
  0
POLYLINE
  5
B6
330
1F
100
AcDbEntity
  8
_U+30EC_U+30A4_U+30E4_U+30FC 1
 62
     7
420
 16777215
370
     9
100
AcDb2dPolyline
 66
     1
 10
0.0
 20
0.0
 30
0.0
  0
VERTEX
  5
B7
330
B6
100
AcDbEntity
  8
_U+30EC_U+30A4_U+30E4_U+30FC 1
 62
     7
420
 16777215
370
     9
100
AcDbVertex
100
AcDb2dVertex
 10
46.52704853521833
 20
-79.501788313458
 30
0.0
  0
VERTEX
  5
B8
330
B6
100
AcDbEntity
  8
_U+30EC_U+30A4_U+30E4_U+30FC 1
 62
     7
420
 16777215
370
     9
100
AcDbVertex
100
AcDb2dVertex
 10
46.52704853521833
 20
-77.04197470296174
 30
0.0
  0
SEQEND
  5
B9
330
B6
100
AcDbEntity
  8
_U+30EC_U+30A4_U+30E4_U+30FC 1
 62
     7
420
 16777215
370
     9
  0
POLYLINE
  5
BA
330
1F
100
AcDbEntity
  8
_U+30EC_U+30A4_U+30E4_U+30FC 1
 62
     7
420
 16777215
370
     9
100
AcDb2dPolyline
 66
     1
 10
0.0
 20
0.0
 30
0.0
  0
VERTEX
  5
BB
330
BA
100
AcDbEntity
  8
_U+30EC_U+30A4_U+30E4_U+30FC 1
 62
     7
420
 16777215
370
     9
100
AcDbVertex
100
AcDb2dVertex
 10
76.52695249207923
 20
-79.501788313458
 30
0.0
  0
VERTEX
  5
BC
330
BA
100
AcDbEntity
  8
_U+30EC_U+30A4_U+30E4_U+30FC 1
 62
     7
420
 16777215
370
     9
100
AcDbVertex
100
AcDb2dVertex
 10
76.52695249207923
 20
-77.04197470296174
 30
0.0
  0
SEQEND
  5
BD
330
BA
100
AcDbEntity
  8
_U+30EC_U+30A4_U+30E4_U+30FC 1
 62
     7
420
 16777215
370
     9
  0
INSERT
  5
BF
330
1F
100
AcDbEntity
  8
_U+30EC_U+30A4_U+30E4_U+30FC 1
100
AcDbBlockReference
  2
block 6
 10
0.0
 20
0.0
 30
0.0
  0
POLYLINE
  5
C7
330
1F
100
AcDbEntity
  8
_U+30EC_U+30A4_U+30E4_U+30FC 1
 62
     7
420
 16777215
370
     9
100
AcDb2dPolyline
 66
     1
 10
0.0
 20
0.0
 30
0.0
  0
VERTEX
  5
C8
330
C7
100
AcDbEntity
  8
_U+30EC_U+30A4_U+30E4_U+30FC 1
 62
     7
420
 16777215
370
     9
100
AcDbVertex
100
AcDb2dVertex
 10
80.52702905669544
 20
-96.14192803152005
 30
0.0
  0
VERTEX
  5
C9
330
C7
100
AcDbEntity
  8
_U+30EC_U+30A4_U+30E4_U+30FC 1
 62
     7
420
 16777215
370
     9
100
AcDbVertex
100
AcDb2dVertex
 10
80.52702905669544
 20
-83.14185525699239
 30
0.0
  0
SEQEND
  5
CA
330
C7
100
AcDbEntity
  8
_U+30EC_U+30A4_U+30E4_U+30FC 1
 62
     7
420
 16777215
370
     9
  0
POLYLINE
  5
CB
330
1F
100
AcDbEntity
  8
_U+30EC_U+30A4_U+30E4_U+30FC 1
 62
     7
420
 16777215
370
     9
100
AcDb2dPolyline
 66
     1
 10
0.0
 20
0.0
 30
0.0
  0
VERTEX
  5
CC
330
CB
100
AcDbEntity
  8
_U+30EC_U+30A4_U+30E4_U+30FC 1
 62
     7
420
 16777215
370
     9
100
AcDbVertex
100
AcDb2dVertex
 10
79.06702498023338
 20
-83.14185525699239
 30
0.0
  0
VERTEX
  5
CD
330
CB
100
AcDbEntity
  8
_U+30EC_U+30A4_U+30E4_U+30FC 1
 62
     7
420
 16777215
370
     9
100
AcDbVertex
100
AcDb2dVertex
 10
81.52680125341135
 20
-83.14185525699239
 30
0.0
  0
SEQEND
  5
CE
330
CB
100
AcDbEntity
  8
_U+30EC_U+30A4_U+30E4_U+30FC 1
 62
     7
420
 16777215
370
     9
  0
INSERT
  5
D0
330
1F
100
AcDbEntity
  8
_U+30EC_U+30A4_U+30E4_U+30FC 1
100
AcDbBlockReference
  2
block 7
 10
0.0
 20
0.0
 30
0.0
  0
ENDSEC
  0
SECTION
  2
OBJECTS
  0
DICTIONARY
  5
C
330
0
100
AcDbDictionary
281
     1
  3
ACAD_GROUP
350
D
  3
ACAD_LAYOUT
350
1A
  3
ACAD_MATERIAL
350
3B
  3
ACAD_MLEADERSTYLE
350
D8
  3
ACAD_MLINESTYLE
350
17
  3
ACAD_PLOTSETTINGS
350
19
  3
ACAD_PLOTSTYLENAME
350
E
  3
ACAD_TABLESTYLE
350
D7
  3
ACAD_VISUALSTYLE
350
2A
  0
SUN
  5
3F
330
29
100
AcDbSun
 90
        1
290
     0
 63
     7
421
 16777215
 40
1.0
291
     1
 91
  2455826
 92
 54000000
292
     0
 70
     2
 71
   256
280
     1
  0
DICTIONARY
  5
D
102
{ACAD_REACTORS
330
C
102
}
330
C
100
AcDbDictionary
281
     1
  0
DICTIONARY
  5
1A
102
{ACAD_REACTORS
330
C
102
}
330
C
100
AcDbDictionary
281
     1
  3
Layout1
350
1E
  3
Layout2
350
26
  3
Model
350
22
  0
DICTIONARY
  5
3B
102
{ACAD_REACTORS
330
C
102
}
330
C
100
AcDbDictionary
281
     1
  3
ByBlock
350
3D
  3
ByLayer
350
3C
  3
Global
350
3E
  0
DICTIONARY
  5
D8
102
{ACAD_REACTORS
330
C
102
}
330
C
100
AcDbDictionary
281
     1
  0
DICTIONARY
  5
17
102
{ACAD_REACTORS
330
C
102
}
330
C
100
AcDbDictionary
281
     1
  3
Standard
350
18
  0
DICTIONARY
  5
19
102
{ACAD_REACTORS
330
C
102
}
330
C
100
AcDbDictionary
281
     1
  0
ACDBDICTIONARYWDFLT
  5
E
102
{ACAD_REACTORS
330
C
102
}
330
C
100
AcDbDictionary
281
     1
  3
Normal
350
F
100
AcDbDictionaryWithDefault
340
F
  0
DICTIONARY
  5
D7
102
{ACAD_REACTORS
330
C
102
}
330
C
100
AcDbDictionary
281
     1
  0
DICTIONARY
  5
2A
102
{ACAD_REACTORS
330
C
102
}
330
C
100
AcDbDictionary
281
     1
  3
2dWireframe
350
2F
  3
3D Hidden
350
31
  3
3dWireframe
350
30
  3
Basic
350
32
  3
Brighten
350
36
  3
ColorChange
350
3A
  3
Conceptual
350
34
  3
Dim
350
35
  3
Facepattern
350
39
  3
Flat
350
2B
  3
FlatWithEdges
350
2C
  3
Gouraud
350
2D
  3
GouraudWithEdges
350
2E
  3
Linepattern
350
38
  3
Realistic
350
33
  3
Thicken
350
37
  0
LAYOUT
  5
1E
102
{ACAD_REACTORS
330
1A
102
}
330
1A
100
AcDbPlotSettings
  1

  2
none_device
  4

  6

 40
0.0
 41
0.0
 42
0.0
 43
0.0
 44
0.0
 45
0.0
 46
0.0
 47
0.0
 48
0.0
 49
0.0
140
0.0
141
0.0
142
1.0
143
1.0
 70
   688
 72
     0
 73
     0
 74
     5
  7

 75
    16
 76
     0
 77
     2
 78
   300
147
1.0
148
0.0
149
0.0
100
AcDbLayout
  1
Layout1
 70
     1
 71
     1
 10
0.0
 20
0.0
 11
12.0
 21
9.0
 12
0.0
 22
0.0
 32
0.0
 14
1.000000000000000E+20
 24
1.000000000000000E+20
 34
1.000000000000000E+20
 15
-1.000000000000000E+20
 25
-1.000000000000000E+20
 35
-1.000000000000000E+20
146
0.0
 13
0.0
 23
0.0
 33
0.0
 16
1.0
 26
0.0
 36
0.0
 17
0.0
 27
1.0
 37
0.0
 76
     0
330
1B
  0
LAYOUT
  5
26
102
{ACAD_REACTORS
330
1A
102
}
330
1A
100
AcDbPlotSettings
  1

  2
none_device
  4

  6

 40
0.0
 41
0.0
 42
0.0
 43
0.0
 44
0.0
 45
0.0
 46
0.0
 47
0.0
 48
0.0
 49
0.0
140
0.0
141
0.0
142
1.0
143
1.0
 70
   688
 72
     0
 73
     0
 74
     5
  7

 75
    16
 76
     0
 77
     2
 78
   300
147
1.0
148
0.0
149
0.0
100
AcDbLayout
  1
Layout2
 70
     1
 71
     2
 10
0.0
 20
0.0
 11
0.0
 21
0.0
 12
0.0
 22
0.0
 32
0.0
 14
0.0
 24
0.0
 34
0.0
 15
0.0
 25
0.0
 35
0.0
146
0.0
 13
0.0
 23
0.0
 33
0.0
 16
1.0
 26
0.0
 36
0.0
 17
0.0
 27
1.0
 37
0.0
 76
     0
330
23
  0
LAYOUT
  5
22
102
{ACAD_REACTORS
330
1A
102
}
330
1A
100
AcDbPlotSettings
  1

  2
none_device
  4

  6

 40
0.0
 41
0.0
 42
0.0
 43
0.0
 44
0.0
 45
0.0
 46
0.0
 47
0.0
 48
0.0
 49
0.0
140
0.0
141
0.0
142
1.0
143
1.0
 70
  1712
 72
     0
 73
     0
 74
     0
  7

 75
     0
 76
     0
 77
     2
 78
   300
147
1.0
148
0.0
149
0.0
100
AcDbLayout
  1
Model
 70
     1
 71
     0
 10
0.0
 20
0.0
 11
12.0
 21
9.0
 12
0.0
 22
0.0
 32
0.0
 14
1.000000000000000E+20
 24
1.000000000000000E+20
 34
1.000000000000000E+20
 15
-1.000000000000000E+20
 25
-1.000000000000000E+20
 35
-1.000000000000000E+20
146
0.0
 13
0.0
 23
0.0
 33
0.0
 16
1.0
 26
0.0
 36
0.0
 17
0.0
 27
1.0
 37
0.0
 76
     0
330
1F
331
29
  0
MATERIAL
  5
3D
102
{ACAD_REACTORS
330
3B
102
}
330
3B
100
AcDbMaterial
  1
ByBlock
 72
     1
 94
      127
  0
MATERIAL
  5
3C
102
{ACAD_REACTORS
330
3B
102
}
330
3B
100
AcDbMaterial
  1
ByLayer
 72
     1
 94
      127
  0
MATERIAL
  5
3E
102
{ACAD_REACTORS
330
3B
102
}
330
3B
100
AcDbMaterial
  1
Global
 72
     1
 94
      127
  0
MLINESTYLE
  5
18
102
{ACAD_REACTORS
330
17
102
}
330
17
100
AcDbMlineStyle
  2
Standard
 70
     0
  3

 62
   256
 51
90.0
 52
90.0
 71
     2
 49
0.5
 62
   256
  6
BYLAYER
 49
-0.5
 62
   256
  6
BYLAYER
  0
ACDBPLACEHOLDER
  5
F
102
{ACAD_REACTORS
330
E
102
}
330
E
  0
VISUALSTYLE
  5
2F
102
{ACAD_REACTORS
330
2A
102
}
330
2A
100
AcDbVisualStyle
  2
2dWireframe
 70
     4
177
     2
291
     0
 71
     0
176
     1
 72
     2
176
     1
 73
     0
176
     1
 90
        0
176
     1
 40
-0.6
176
     1
 41
-30.0
176
     1
 62
     5
 63
     7
421
 16777215
176
     1
 74
     1
176
     1
 91
        4
176
     1
 64
     7
176
     1
 65
   257
176
     1
 75
     1
176
     1
175
     1
176
     1
 42
1.0
176
     1
 92
        0
176
     1
 66
   257
176
     1
 43
1.0
176
     1
 76
     1
176
     1
 77
     6
176
     1
 78
     2
176
     1
 67
     7
176
     1
 79
     5
176
     1
170
     0
176
     1
171
     0
176
     1
290
     0
176
     1
 93
        1
176
     1
 44
0.0
176
     1
173
     0
176
     1
  0
VISUALSTYLE
  5
31
102
{ACAD_REACTORS
330
2A
102
}
330
2A
100
AcDbVisualStyle
  2
3D Hidden
 70
     6
177
     2
291
     0
 71
     1
176
     1
 72
     2
176
     1
 73
     2
176
     1
 90
        0
176
     1
 40
-0.6
176
     1
 41
-30.0
176
     1
 62
     5
 63
     7
421
 16777215
176
     1
 74
     2
176
     1
 91
        2
176
     1
 64
     7
176
     1
 65
   257
176
     1
 75
     2
176
     1
175
     1
176
     1
 42
40.0
176
     1
 92
        0
176
     1
 66
   257
176
     1
 43
1.0
176
     1
 76
     1
176
     1
 77
     6
176
     1
 78
     2
176
     1
 67
     7
176
     1
 79
     3
176
     1
170
     0
176
     1
171
     0
176
     1
290
     0
176
     1
 93
        1
176
     1
 44
0.0
176
     1
173
     0
176
     1
  0
VISUALSTYLE
  5
30
102
{ACAD_REACTORS
330
2A
102
}
330
2A
100
AcDbVisualStyle
  2
3dWireframe
 70
     5
177
     2
291
     0
 71
     0
176
     1
 72
     2
176
     1
 73
     0
176
     1
 90
        0
176
     1
 40
-0.6
176
     1
 41
-30.0
176
     1
 62
     5
 63
     7
421
 16777215
176
     1
 74
     1
176
     1
 91
        4
176
     1
 64
     7
176
     1
 65
   257
176
     1
 75
     1
176
     1
175
     1
176
     1
 42
1.0
176
     1
 92
        0
176
     1
 66
   257
176
     1
 43
1.0
176
     1
 76
     1
176
     1
 77
     6
176
     1
 78
     2
176
     1
 67
     7
176
     1
 79
     5
176
     1
170
     0
176
     1
171
     0
176
     1
290
     0
176
     1
 93
        1
176
     1
 44
0.0
176
     1
173
     0
176
     1
  0
VISUALSTYLE
  5
32
102
{ACAD_REACTORS
330
2A
102
}
330
2A
100
AcDbVisualStyle
  2
Basic
 70
     7
177
     2
291
     1
 71
     1
176
     1
 72
     0
176
     1
 73
     1
176
     1
 90
        0
176
     1
 40
-0.6
176
     1
 41
-30.0
176
     1
 62
     5
 63
     7
421
 16777215
176
     1
 74
     0
176
     1
 91
        4
176
     1
 64
     7
176
     1
 65
   257
176
     1
 75
     1
176
     1
175
     1
176
     1
 42
1.0
176
     1
 92
        8
176
     1
 66
     7
176
     1
 43
1.0
176
     1
 76
     1
176
     1
 77
     6
176
     1
 78
     2
176
     1
 67
     7
176
     1
 79
     5
176
     1
170
     0
176
     1
171
     0
176
     1
290
     0
176
     1
 93
        1
176
     1
 44
0.0
176
     1
173
     0
176
     1
  0
VISUALSTYLE
  5
36
102
{ACAD_REACTORS
330
2A
102
}
330
2A
100
AcDbVisualStyle
  2
Brighten
 70
    12
177
     2
291
     1
 71
     2
176
     1
 72
     2
176
     1
 73
     0
176
     1
 90
        0
176
     1
 40
-0.6
176
     1
 41
-30.0
176
     1
 62
     5
 63
     7
421
 16777215
176
     1
 74
     1
176
     1
 91
        4
176
     1
 64
     7
176
     1
 65
   257
176
     1
 75
     1
176
     1
175
     1
176
     1
 42
1.0
176
     1
 92
        8
176
     1
 66
     7
176
     1
 43
1.0
176
     1
 76
     1
176
     1
 77
     6
176
     1
 78
     2
176
     1
 67
     7
176
     1
 79
     5
176
     1
170
     0
176
     1
171
     0
176
     1
290
     0
176
     1
 93
        1
176
     1
 44
50.0
176
     1
173
     0
176
     1
  0
VISUALSTYLE
  5
3A
102
{ACAD_REACTORS
330
2A
102
}
330
2A
100
AcDbVisualStyle
  2
ColorChange
 70
    16
177
     2
291
     1
 71
     2
176
     1
 72
     2
176
     1
 73
     3
176
     1
 90
        0
176
     1
 40
-0.6
176
     1
 41
-30.0
176
     1
 62
     5
 63
     8
421
  8421504
176
     1
 74
     1
176
     1
 91
        4
176
     1
 64
     7
176
     1
 65
   257
176
     1
 75
     1
176
     1
175
     1
176
     1
 42
1.0
176
     1
 92
        8
176
     1
 66
     8
424
  8421504
176
     1
 43
1.0
176
     1
 76
     1
176
     1
 77
     6
176
     1
 78
     2
176
     1
 67
     7
176
     1
 79
     5
176
     1
170
     0
176
     1
171
     0
176
     1
290
     0
176
     1
 93
        1
176
     1
 44
0.0
176
     1
173
     0
176
     1
  0
VISUALSTYLE
  5
34
102
{ACAD_REACTORS
330
2A
102
}
330
2A
100
AcDbVisualStyle
  2
Conceptual
 70
     9
177
     2
291
     0
 71
     3
176
     1
 72
     2
176
     1
 73
     0
176
     1
 90
        0
176
     1
 40
-0.6
176
     1
 41
-30.0
176
     1
 62
     5
 63
     7
421
 16777215
176
     1
 74
     2
176
     1
 91
        2
176
     1
 64
     7
176
     1
 65
   257
176
     1
 75
     1
176
     1
175
     1
176
     1
 42
40.0
176
     1
 92
        8
176
     1
 66
     7
176
     1
 43
1.0
176
     1
 76
     1
176
     1
 77
     6
176
     1
 78
     2
176
     1
 67
     7
176
     1
 79
     3
176
     1
170
     0
176
     1
171
     0
176
     1
290
     0
176
     1
 93
        1
176
     1
 44
0.0
176
     1
173
     0
176
     1
  0
VISUALSTYLE
  5
35
102
{ACAD_REACTORS
330
2A
102
}
330
2A
100
AcDbVisualStyle
  2
Dim
 70
    11
177
     2
291
     1
 71
     2
176
     1
 72
     2
176
     1
 73
     0
176
     1
 90
        0
176
     1
 40
-0.6
176
     1
 41
-30.0
176
     1
 62
     5
 63
     7
421
 16777215
176
     1
 74
     1
176
     1
 91
        4
176
     1
 64
     7
176
     1
 65
   257
176
     1
 75
     1
176
     1
175
     1
176
     1
 42
1.0
176
     1
 92
        8
176
     1
 66
     7
176
     1
 43
1.0
176
     1
 76
     1
176
     1
 77
     6
176
     1
 78
     2
176
     1
 67
     7
176
     1
 79
     5
176
     1
170
     0
176
     1
171
     0
176
     1
290
     0
176
     1
 93
        1
176
     1
 44
-50.0
176
     1
173
     0
176
     1
  0
VISUALSTYLE
  5
39
102
{ACAD_REACTORS
330
2A
102
}
330
2A
100
AcDbVisualStyle
  2
Facepattern
 70
    15
177
     2
291
     1
 71
     2
176
     1
 72
     2
176
     1
 73
     0
176
     1
 90
        0
176
     1
 40
-0.6
176
     1
 41
-30.0
176
     1
 62
     5
 63
     7
421
 16777215
176
     1
 74
     1
176
     1
 91
        4
176
     1
 64
     7
176
     1
 65
   257
176
     1
 75
     1
176
     1
175
     1
176
     1
 42
1.0
176
     1
 92
        8
176
     1
 66
     7
176
     1
 43
1.0
176
     1
 76
     1
176
     1
 77
     6
176
     1
 78
     2
176
     1
 67
     7
176
     1
 79
     5
176
     1
170
     0
176
     1
171
     0
176
     1
290
     0
176
     1
 93
        1
176
     1
 44
0.0
176
     1
173
     0
176
     1
  0
VISUALSTYLE
  5
2B
102
{ACAD_REACTORS
330
2A
102
}
330
2A
100
AcDbVisualStyle
  2
Flat
 70
     0
177
     2
291
     1
 71
     2
176
     1
 72
     1
176
     1
 73
     1
176
     1
 90
        2
176
     1
 40
-0.6
176
     1
 41
30.0
176
     1
 62
     5
 63
     7
421
 16777215
176
     1
 74
     0
176
     1
 91
        4
176
     1
 64
     7
176
     1
 65
   257
176
     1
 75
     1
176
     1
175
     1
176
     1
 42
1.0
176
     1
 92
        8
176
     1
 66
     7
176
     1
 43
1.0
176
     1
 76
     1
176
     1
 77
     6
176
     1
 78
     2
176
     1
 67
     7
176
     1
 79
     5
176
     1
170
     0
176
     1
171
     0
176
     1
290
     0
176
     1
 93
       13
176
     1
 44
0.0
176
     1
173
     0
176
     1
  0
VISUALSTYLE
  5
2C
102
{ACAD_REACTORS
330
2A
102
}
330
2A
100
AcDbVisualStyle
  2
FlatWithEdges
 70
     1
177
     2
291
     1
 71
     2
176
     1
 72
     1
176
     1
 73
     1
176
     1
 90
        2
176
     1
 40
-0.6
176
     1
 41
30.0
176
     1
 62
     5
 63
     7
421
 16777215
176
     1
 74
     1
176
     1
 91
        4
176
     1
 64
     7
176
     1
 65
   257
176
     1
 75
     1
176
     1
175
     1
176
     1
 42
1.0
176
     1
 92
        0
176
     1
 66
   257
176
     1
 43
1.0
176
     1
 76
     1
176
     1
 77
     6
176
     1
 78
     2
176
     1
 67
     7
176
     1
 79
     5
176
     1
170
     0
176
     1
171
     0
176
     1
290
     0
176
     1
 93
       13
176
     1
 44
0.0
176
     1
173
     0
176
     1
  0
VISUALSTYLE
  5
2D
102
{ACAD_REACTORS
330
2A
102
}
330
2A
100
AcDbVisualStyle
  2
Gouraud
 70
     2
177
     2
291
     1
 71
     2
176
     1
 72
     2
176
     1
 73
     1
176
     1
 90
        2
176
     1
 40
-0.6
176
     1
 41
30.0
176
     1
 62
     5
 63
     7
421
 16777215
176
     1
 74
     0
176
     1
 91
        4
176
     1
 64
     7
176
     1
 65
   257
176
     1
 75
     1
176
     1
175
     1
176
     1
 42
1.0
176
     1
 92
        0
176
     1
 66
     7
176
     1
 43
1.0
176
     1
 76
     1
176
     1
 77
     6
176
     1
 78
     2
176
     1
 67
     7
176
     1
 79
     5
176
     1
170
     0
176
     1
171
     0
176
     1
290
     0
176
     1
 93
       13
176
     1
 44
0.0
176
     1
173
     0
176
     1
  0
VISUALSTYLE
  5
2E
102
{ACAD_REACTORS
330
2A
102
}
330
2A
100
AcDbVisualStyle
  2
GouraudWithEdges
 70
     3
177
     2
291
     1
 71
     2
176
     1
 72
     2
176
     1
 73
     1
176
     1
 90
        2
176
     1
 40
-0.6
176
     1
 41
30.0
176
     1
 62
     5
 63
     7
421
 16777215
176
     1
 74
     1
176
     1
 91
        4
176
     1
 64
     7
176
     1
 65
   257
176
     1
 75
     1
176
     1
175
     1
176
     1
 42
1.0
176
     1
 92
        0
176
     1
 66
   257
176
     1
 43
1.0
176
     1
 76
     1
176
     1
 77
     6
176
     1
 78
     2
176
     1
 67
     7
176
     1
 79
     5
176
     1
170
     0
176
     1
171
     0
176
     1
290
     0
176
     1
 93
       13
176
     1
 44
0.0
176
     1
173
     0
176
     1
  0
VISUALSTYLE
  5
38
102
{ACAD_REACTORS
330
2A
102
}
330
2A
100
AcDbVisualStyle
  2
Linepattern
 70
    14
177
     2
291
     1
 71
     2
176
     1
 72
     2
176
     1
 73
     0
176
     1
 90
        0
176
     1
 40
-0.6
176
     1
 41
-30.0
176
     1
 62
     5
 63
     7
421
 16777215
176
     1
 74
     1
176
     1
 91
        4
176
     1
 64
     7
176
     1
 65
   257
176
     1
 75
     7
176
     1
175
     7
176
     1
 42
1.0
176
     1
 92
        8
176
     1
 66
     7
176
     1
 43
1.0
176
     1
 76
     1
176
     1
 77
     6
176
     1
 78
     2
176
     1
 67
     7
176
     1
 79
     5
176
     1
170
     0
176
     1
171
     0
176
     1
290
     0
176
     1
 93
        1
176
     1
 44
0.0
176
     1
173
     0
176
     1
  0
VISUALSTYLE
  5
33
102
{ACAD_REACTORS
330
2A
102
}
330
2A
100
AcDbVisualStyle
  2
Realistic
 70
     8
177
     2
291
     0
 71
     2
176
     1
 72
     2
176
     1
 73
     0
176
     1
 90
        0
176
     1
 40
-0.6
176
     1
 41
-30.0
176
     1
 62
     5
 63
     7
421
 16777215
176
     1
 74
     1
176
     1
 91
        0
176
     1
 64
     7
176
     1
 65
   257
176
     1
 75
     1
176
     1
175
     1
176
     1
 42
1.0
176
     1
 92
        8
176
     1
 66
     8
424
  7895160
176
     1
 43
1.0
176
     1
 76
     1
176
     1
 77
     6
176
     1
 78
     2
176
     1
 67
     7
176
     1
 79
     5
176
     1
170
     0
176
     1
171
     0
176
     1
290
     0
176
     1
 93
       13
176
     1
 44
0.0
176
     1
173
     0
176
     1
  0
VISUALSTYLE
  5
37
102
{ACAD_REACTORS
330
2A
102
}
330
2A
100
AcDbVisualStyle
  2
Thicken
 70
    13
177
     2
291
     1
 71
     2
176
     1
 72
     2
176
     1
 73
     0
176
     1
 90
        0
176
     1
 40
-0.6
176
     1
 41
-30.0
176
     1
 62
     5
 63
     7
421
 16777215
176
     1
 74
     1
176
     1
 91
        4
176
     1
 64
     7
176
     1
 65
   257
176
     1
 75
     1
176
     1
175
     1
176
     1
 42
1.0
176
     1
 92
       12
176
     1
 66
     7
176
     1
 43
1.0
176
     1
 76
     1
176
     1
 77
     6
176
     1
 78
     2
176
     1
 67
     7
176
     1
 79
     5
176
     1
170
     0
176
     1
171
     0
176
     1
290
     0
176
     1
 93
        1
176
     1
 44
0.0
176
     1
173
     0
176
     1
  0
ENDSEC
  0
EOF
