  0
SECTION
  2
HEADER
  9
$ACADVER
  1
AC1024
  9
$ACADMAINTVER
 70
     6
  9
$DWGCODEPAGE
  3
UNDEFINED
  9
$INSBASE
 10
0.0
 20
0.0
 30
0.0
  9
$EXTMIN
 10
1.000000000000000E+20
 20
1.000000000000000E+20
 30
1.000000000000000E+20
  9
$EXTMAX
 10
-1.000000000000000E+20
 20
-1.000000000000000E+20
 30
-1.000000000000000E+20
  9
$LIMMIN
 10
0.0
 20
0.0
  9
$LIMMAX
 10
12.0
 20
9.0
  9
$ORTHOMODE
 70
     0
  9
$REGENMODE
 70
     1
  9
$FILLMODE
 70
     1
  9
$QTEXTMODE
 70
     0
  9
$MIRRTEXT
 70
     1
  9
$LTSCALE
 40
1.0
  9
$ATTMODE
 70
     1
  9
$TEXTSIZE
 40
0.2
  9
$TRACEWID
 40
0.05
  9
$TEXTSTYLE
  7
Standard
  9
$CLAYER
  8
0
  9
$CELTYPE
  6
ByLayer
  9
$CECOLOR
 62
   256
  9
$CELTSCALE
 40
1.0
  9
$DISPSILH
 70
     0
  9
$DIMSCALE
 40
1.0
  9
$DIMASZ
 40
0.18
  9
$DIMEXO
 40
0.0625
  9
$DIMDLI
 40
0.38
  9
$DIMRND
 40
0.0
  9
$DIMDLE
 40
0.0
  9
$DIMEXE
 40
0.18
  9
$DIMTP
 40
0.0
  9
$DIMTM
 40
0.0
  9
$DIMTXT
 40
0.18
  9
$DIMCEN
 40
0.09
  9
$DIMTSZ
 40
0.0
  9
$DIMTOL
 70
     0
  9
$DIMLIM
 70
     0
  9
$DIMTIH
 70
     1
  9
$DIMTOH
 70
     1
  9
$DIMSE1
 70
     0
  9
$DIMSE2
 70
     0
  9
$DIMTAD
 70
     0
  9
$DIMZIN
 70
     0
  9
$DIMBLK
  1

  9
$DIMASO
 70
     1
  9
$DIMSHO
 70
     1
  9
$DIMPOST
  1

  9
$DIMAPOST
  1

  9
$DIMALT
 70
     0
  9
$DIMALTD
 70
     2
  9
$DIMALTF
 40
25.4
  9
$DIMLFAC
 40
1.0
  9
$DIMTOFL
 70
     0
  9
$DIMTVP
 40
0.0
  9
$DIMTIX
 70
     0
  9
$DIMSOXD
 70
     0
  9
$DIMSAH
 70
     0
  9
$DIMBLK1
  1

  9
$DIMBLK2
  1

  9
$DIMSTYLE
  2
Standard
  9
$DIMCLRD
 70
     0
  9
$DIMCLRE
 70
     0
  9
$DIMCLRT
 70
     0
  9
$DIMTFAC
 40
1.0
  9
$DIMGAP
 40
0.09
  9
$DIMJUST
 70
     0
  9
$DIMSD1
 70
     0
  9
$DIMSD2
 70
     0
  9
$DIMTOLJ
 70
     1
  9
$DIMTZIN
 70
     0
  9
$DIMALTZ
 70
     0
  9
$DIMALTTZ
 70
     0
  9
$DIMUPT
 70
     0
  9
$DIMDEC
 70
     4
  9
$DIMTDEC
 70
     4
  9
$DIMALTU
 70
     2
  9
$DIMALTTD
 70
     2
  9
$DIMTXSTY
  7
Standard
  9
$DIMAUNIT
 70
     0
  9
$DIMADEC
 70
     0
  9
$DIMALTRND
 40
0.0
  9
$DIMAZIN
 70
     0
  9
$DIMDSEP
 70
    46
  9
$DIMATFIT
 70
     3
  9
$DIMFRAC
 70
     0
  9
$DIMLDRBLK
  1

  9
$DIMLUNIT
 70
     2
  9
$DIMLWD
 70
    -2
  9
$DIMLWE
 70
    -2
  9
$DIMTMOVE
 70
     0
  9
$DIMFXL
 40
1.0
  9
$DIMFXLON
 70
     0
  9
$DIMJOGANG
 40
0.7853981633974483
  9
$DIMTFILL
 70
     0
  9
$DIMTFILLCLR
 70
     0
  9
$DIMARCSYM
 70
     0
  9
$DIMLTYPE
  6

  9
$DIMLTEX1
  6

  9
$DIMLTEX2
  6

  9
$DIMTXTDIRECTION
 70
     0
  9
$LUNITS
 70
     2
  9
$LUPREC
 70
     4
  9
$SKETCHINC
 40
0.1
  9
$FILLETRAD
 40
0.5
  9
$AUNITS
 70
     0
  9
$AUPREC
 70
     0
  9
$MENU
  1
.
  9
$ELEVATION
 40
0.0
  9
$PELEVATION
 40
0.0
  9
$THICKNESS
 40
0.0
  9
$LIMCHECK
 70
     0
  9
$CHAMFERA
 40
0.5
  9
$CHAMFERB
 40
0.5
  9
$CHAMFERC
 40
1.0
  9
$CHAMFERD
 40
0.0
  9
$SKPOLY
 70
     0
  9
$TDCREATE
 40
2458263.574780081
  9
$TDUCREATE
 40
2458263.199780093
  9
$TDUPDATE
 40
2458263.574780081
  9
$TDUUPDATE
 40
2458263.199780093
  9
$TDINDWG
 40
0.0000000116
  9
$TDUSRTIMER
 40
0.0000000116
  9
$USRTIMER
 70
     1
  9
$ANGBASE
 50
0.0
  9
$ANGDIR
 70
     0
  9
$PDMODE
 70
     0
  9
$PDSIZE
 40
0.0
  9
$PLINEWID
 40
0.0
  9
$SPLFRAME
 70
     0
  9
$SPLINETYPE
 70
     6
  9
$SPLINESEGS
 70
     8
  9
$HANDSEED
  5
DE
  9
$SURFTAB1
 70
     6
  9
$SURFTAB2
 70
     6
  9
$SURFTYPE
 70
     6
  9
$SURFU
 70
     6
  9
$SURFV
 70
     6
  9
$UCSBASE
  2

  9
$UCSNAME
  2

  9
$UCSORG
 10
0.0
 20
0.0
 30
0.0
  9
$UCSXDIR
 10
1.0
 20
0.0
 30
0.0
  9
$UCSYDIR
 10
0.0
 20
1.0
 30
0.0
  9
$UCSORTHOREF
  2

  9
$UCSORTHOVIEW
 70
     0
  9
$UCSORGTOP
 10
0.0
 20
0.0
 30
0.0
  9
$UCSORGBOTTOM
 10
0.0
 20
0.0
 30
0.0
  9
$UCSORGLEFT
 10
0.0
 20
0.0
 30
0.0
  9
$UCSORGRIGHT
 10
0.0
 20
0.0
 30
0.0
  9
$UCSORGFRONT
 10
0.0
 20
0.0
 30
0.0
  9
$UCSORGBACK
 10
0.0
 20
0.0
 30
0.0
  9
$PUCSBASE
  2

  9
$PUCSNAME
  2

  9
$PUCSORG
 10
0.0
 20
0.0
 30
0.0
  9
$PUCSXDIR
 10
1.0
 20
0.0
 30
0.0
  9
$PUCSYDIR
 10
0.0
 20
1.0
 30
0.0
  9
$PUCSORTHOREF
  2

  9
$PUCSORTHOVIEW
 70
     0
  9
$PUCSORGTOP
 10
0.0
 20
0.0
 30
0.0
  9
$PUCSORGBOTTOM
 10
0.0
 20
0.0
 30
0.0
  9
$PUCSORGLEFT
 10
0.0
 20
0.0
 30
0.0
  9
$PUCSORGRIGHT
 10
0.0
 20
0.0
 30
0.0
  9
$PUCSORGFRONT
 10
0.0
 20
0.0
 30
0.0
  9
$PUCSORGBACK
 10
0.0
 20
0.0
 30
0.0
  9
$USERI1
 70
     0
  9
$USERI2
 70
     0
  9
$USERI3
 70
     0
  9
$USERI4
 70
     0
  9
$USERI5
 70
     0
  9
$USERR1
 40
0.0
  9
$USERR2
 40
0.0
  9
$USERR3
 40
0.0
  9
$USERR4
 40
0.0
  9
$USERR5
 40
0.0
  9
$WORLDVIEW
 70
     1
  9
$SHADEDGE
 70
     3
  9
$SHADEDIF
 70
    70
  9
$TILEMODE
 70
     1
  9
$MAXACTVP
 70
    64
  9
$PINSBASE
 10
0.0
 20
0.0
 30
0.0
  9
$PLIMCHECK
 70
     0
  9
$PEXTMIN
 10
1.000000000000000E+20
 20
1.000000000000000E+20
 30
1.000000000000000E+20
  9
$PEXTMAX
 10
-1.000000000000000E+20
 20
-1.000000000000000E+20
 30
-1.000000000000000E+20
  9
$PLIMMIN
 10
0.0
 20
0.0
  9
$PLIMMAX
 10
12.0
 20
9.0
  9
$UNITMODE
 70
     0
  9
$VISRETAIN
 70
     1
  9
$PLINEGEN
 70
     0
  9
$PSLTSCALE
 70
     1
  9
$TREEDEPTH
 70
  3020
  9
$CMLSTYLE
  2
Standard
  9
$CMLJUST
 70
     0
  9
$CMLSCALE
 40
1.0
  9
$PROXYGRAPHICS
 70
     1
  9
$MEASUREMENT
 70
     0
  9
$CELWEIGHT
370
    -1
  9
$ENDCAPS
280
     0
  9
$JOINSTYLE
280
     0
  9
$LWDISPLAY
290
     1
  9
$INSUNITS
 70
     1
  9
$HYPERLINKBASE
  1

  9
$STYLESHEET
  1

  9
$XEDIT
290
     1
  9
$CEPSNTYPE
380
     0
  9
$PSTYLEMODE
290
     1
  9
$FINGERPRINTGUID
  2
{6EB53E93-2D26-09FE-0138-EDB76BAB4E63}
  9
$VERSIONGUID
  2
{FAEB1C32-E019-11D5-929B-00C0DF256EC4}
  9
$EXTNAMES
290
     1
  9
$PSVPSCALE
 40
0.0
  9
$OLESTARTUP
290
     0
  9
$SORTENTS
280
   127
  9
$INDEXCTL
280
     0
  9
$HIDETEXT
280
     1
  9
$XCLIPFRAME
280
     2
  9
$HALOGAP
280
     0
  9
$OBSCOLOR
 70
   257
  9
$OBSLTYPE
280
     0
  9
$INTERSECTIONDISPLAY
280
     0
  9
$INTERSECTIONCOLOR
 70
   257
  9
$DIMASSOC
280
     2
  9
$PROJECTNAME
  1

  9
$CAMERADISPLAY
290
     0
  9
$LENSLENGTH
 40
50.0
  9
$CAMERAHEIGHT
 40
0.0
  9
$STEPSPERSEC
 40
2.0
  9
$STEPSIZE
 40
6.0
  9
$3DDWFPREC
 40
2.0
  9
$PSOLWIDTH
 40
0.25
  9
$PSOLHEIGHT
 40
4.0
  9
$LOFTANG1
 40
1.570796326794897
  9
$LOFTANG2
 40
1.570796326794897
  9
$LOFTMAG1
 40
0.0
  9
$LOFTMAG2
 40
0.0
  9
$LOFTPARAM
 70
     7
  9
$LOFTNORMALS
280
     1
  9
$LATITUDE
 40
37.795
  9
$LONGITUDE
 40
-122.394
  9
$NORTHDIRECTION
 40
0.0
  9
$TIMEZONE
 70
 -8000
  9
$LIGHTGLYPHDISPLAY
280
     1
  9
$TILEMODELIGHTSYNCH
280
     1
  9
$CMATERIAL
347
3C
  9
$SOLIDHIST
280
     1
  9
$SHOWHIST
280
     1
  9
$DWFFRAME
280
     2
  9
$DGNFRAME
280
     2
  9
$REALWORLDSCALE
290
     1
  9
$INTERFERECOLOR
 62
   256
  9
$CSHADOW
280
     0
  9
$SHADOWPLANELOCATION
 40
0.0
  0
ENDSEC
  0
SECTION
  2
CLASSES
  0
CLASS
  1
ACDBDICTIONARYWDFLT
  2
AcDbDictionaryWithDefault
  3
ObjectDBX Classes
 90
        0
 91
        4
280
     0
281
     0
  0
CLASS
  1
VISUALSTYLE
  2
AcDbVisualStyle
  3
ObjectDBX Classes
 90
     4095
 91
        4
280
     0
281
     0
  0
CLASS
  1
MATERIAL
  2
AcDbMaterial
  3
ObjectDBX Classes
 90
     1153
 91
        4
280
     0
281
     0
  0
CLASS
  1
SUN
  2
AcDbSun
  3
SCENEOE
 90
     1024
 91
        4
280
     0
281
     0
  0
ENDSEC
  0
SECTION
  2
TABLES
  0
TABLE
  2
VPORT
  5
8
330
0
100
AcDbSymbolTable
 70
     1
  0
VPORT
  5
29
330
8
100
AcDbSymbolTableRecord
100
AcDbViewportTableRecord
  2
*Active
 70
     0
 10
0.0
 20
0.0
 11
1.0
 21
1.0
 12
0.0
 22
0.0
 13
0.0
 23
0.0
 14
0.5
 24
0.5
 15
0.5
 25
0.5
 16
0.0
 26
0.0
 36
1.0
 17
105.0007777515277
 27
-148.5000416295416
 37
0.0
 40
297.0000832590831
 41
0.7070757462376333
 42
50.0
 43
0.0
 44
0.0
 50
0.0
 51
0.0
 71
     0
 72
   100
 73
     1
 74
     3
 75
     0
 76
     0
 77
     0
 78
     0
281
     0
 65
     1
110
0.0
120
0.0
130
0.0
111
1.0
121
0.0
131
0.0
112
0.0
122
1.0
132
0.0
 79
     0
146
0.0
 60
     3
 61
     5
292
     1
282
     1
141
0.0
142
0.0
 63
   250
361
3F
  0
ENDTAB
  0
TABLE
  2
LTYPE
  5
5
330
0
100
AcDbSymbolTable
 70
     1
  0
LTYPE
  5
14
330
5
100
AcDbSymbolTableRecord
100
AcDbLinetypeTableRecord
  2
ByBlock
 70
     0
  3

 72
    65
 73
     0
 40
0.0
  0
LTYPE
  5
15
330
5
100
AcDbSymbolTableRecord
100
AcDbLinetypeTableRecord
  2
ByLayer
 70
     0
  3

 72
    65
 73
     0
 40
0.0
  0
LTYPE
  5
16
330
5
100
AcDbSymbolTableRecord
100
AcDbLinetypeTableRecord
  2
Continuous
 70
     0
  3
Solid line
 72
    65
 73
     0
 40
0.0
  0
ENDTAB
  0
TABLE
  2
LAYER
  5
2
330
0
100
AcDbSymbolTable
 70
     2
  0
LAYER
  5
10
330
2
100
AcDbSymbolTableRecord
100
AcDbLayerTableRecord
  2
0
 70
     0
 62
     7
  6
Continuous
370
    -3
390
F
347
3E
  0
LAYER
  5
40
330
2
100
AcDbSymbolTableRecord
100
AcDbLayerTableRecord
  2
_U+30EC_U+30A4_U+30E4_U+30FC 1
 70
     0
 62
     7
  6
Continuous
370
    -3
390
F
347
3E
  0
ENDTAB
  0
TABLE
  2
STYLE
  5
3
330
0
100
AcDbSymbolTable
 70
     1
  0
STYLE
  5
11
330
3
100
AcDbSymbolTableRecord
100
AcDbTextStyleTableRecord
  2
Standard
 70
     0
 40
0.0
 41
1.0
 50
0.0
 71
     0
 42
0.2
  3
txt
  4

  0
ENDTAB
  0
TABLE
  2
VIEW
  5
6
330
0
100
AcDbSymbolTable
 70
     0
  0
ENDTAB
  0
TABLE
  2
UCS
  5
7
330
0
100
AcDbSymbolTable
 70
     0
  0
ENDTAB
  0
TABLE
  2
APPID
  5
9
330
0
100
AcDbSymbolTable
 70
     1
  0
APPID
  5
12
330
9
100
AcDbSymbolTableRecord
100
AcDbRegAppTableRecord
  2
ACAD
 70
     0
  0
ENDTAB
  0
TABLE
  2
DIMSTYLE
  5
A
330
0
100
AcDbSymbolTable
 70
     1
100
AcDbDimStyleTable
  0
DIMSTYLE
105
27
330
A
100
AcDbSymbolTableRecord
100
AcDbDimStyleTableRecord
  2
Standard
 70
     0
178
     0
340
11
  0
ENDTAB
  0
TABLE
  2
BLOCK_RECORD
  5
1
330
0
100
AcDbSymbolTable
 70
     6
  0
BLOCK_RECORD
  5
1F
330
1
100
AcDbSymbolTableRecord
100
AcDbBlockTableRecord
  2
*Model_Space
340
22
 70
     0
280
     1
281
     0
  0
BLOCK_RECORD
  5
1B
330
1
100
AcDbSymbolTableRecord
100
AcDbBlockTableRecord
  2
*Paper_Space
340
1E
 70
     0
280
     1
281
     0
  0
BLOCK_RECORD
  5
23
330
1
100
AcDbSymbolTableRecord
100
AcDbBlockTableRecord
  2
*Paper_Space0
340
26
 70
     0
280
     1
281
     0
  0
BLOCK_RECORD
  5
85
330
1
100
AcDbSymbolTableRecord
100
AcDbBlockTableRecord
  2
block 2
340
0
102
{BLKREFS
331
86
102
}
 70
     0
280
     1
281
     0
  0
BLOCK_RECORD
  5
9A
330
1
100
AcDbSymbolTableRecord
100
AcDbBlockTableRecord
  2
block 3
340
0
102
{BLKREFS
331
9B
102
}
 70
     0
280
     1
281
     0
  0
BLOCK_RECORD
  5
A8
330
1
100
AcDbSymbolTableRecord
100
AcDbBlockTableRecord
  2
block 4
340
0
102
{BLKREFS
331
A9
102
}
 70
     0
280
     1
281
     0
  0
BLOCK_RECORD
  5
BA
330
1
100
AcDbSymbolTableRecord
100
AcDbBlockTableRecord
  2
block 5
340
0
102
{BLKREFS
331
BB
102
}
 70
     0
280
     1
281
     0
  0
BLOCK_RECORD
  5
CB
330
1
100
AcDbSymbolTableRecord
100
AcDbBlockTableRecord
  2
block 6
340
0
102
{BLKREFS
331
CC
102
}
 70
     0
280
     1
281
     0
  0
ENDTAB
  0
ENDSEC
  0
SECTION
  2
BLOCKS
  0
BLOCK
  5
20
330
1F
100
AcDbEntity
  8
0
100
AcDbBlockBegin
  2
*Model_Space
 70
     0
 10
0.0
 20
0.0
 30
0.0
  3
*Model_Space
  1

  0
ENDBLK
  5
21
330
1F
100
AcDbEntity
  8
0
100
AcDbBlockEnd
  0
BLOCK
  5
1C
330
1B
100
AcDbEntity
 67
     1
  8
0
100
AcDbBlockBegin
  2
*Paper_Space
 70
     0
 10
0.0
 20
0.0
 30
0.0
  3
*Paper_Space
  1

  0
ENDBLK
  5
1D
330
1B
100
AcDbEntity
 67
     1
  8
0
100
AcDbBlockEnd
  0
BLOCK
  5
24
330
23
100
AcDbEntity
  8
0
100
AcDbBlockBegin
  2
*Paper_Space0
 70
     0
 10
0.0
 20
0.0
 30
0.0
  3
*Paper_Space0
  1

  0
ENDBLK
  5
25
330
23
100
AcDbEntity
  8
0
100
AcDbBlockEnd
  0
BLOCK
  5
87
330
85
100
AcDbEntity
  8
0
100
AcDbBlockBegin
  2
block 2
 70
     0
 10
0.0
 20
0.0
 30
0.0
  3
block 2
  1

  0
SPLINE
  5
89
330
85
100
AcDbEntity
  8
_U+30EC_U+30A4_U+30E4_U+30FC 1
370
     0
100
AcDbSpline
210
0.0
220
0.0
230
1.0
 70
    11
 71
     3
 72
    44
 73
    40
 74
     0
 42
0.0000000001
 43
0.0000000001
 12
1.0
 22
0.0
 32
0.0
 13
1.0
 23
0.0
 33
0.0
 40
0.0
 40
0.0
 40
0.0
 40
0.0
 40
1.0
 40
1.0
 40
1.0
 40
2.0
 40
2.0
 40
2.0
 40
3.0
 40
3.0
 40
3.0
 40
4.0
 40
4.0
 40
4.0
 40
5.0
 40
5.0
 40
5.0
 40
6.0
 40
6.0
 40
6.0
 40
7.0
 40
7.0
 40
7.0
 40
8.0
 40
8.0
 40
8.0
 40
9.0
 40
9.0
 40
9.0
 40
10.0
 40
10.0
 40
10.0
 40
11.0
 40
11.0
 40
11.0
 40
12.0
 40
12.0
 40
12.0
 40
13.0
 40
13.0
 40
13.0
 40
13.0
 10
96.26526961569063
 20
-157.4370740708838
 30
0.0
 10
96.04736732624858
 20
-157.5958929727538
 30
0.0
 10
95.95417749337257
 20
-157.6699625256867
 30
0.0
 10
95.90560164703055
 20
-157.8136230074216
 30
0.0
 10
95.90560164703055
 20
-157.8136230074216
 30
0.0
 10
96.68402097192275
 20
-157.8136230074216
 30
0.0
 10
96.68402097192275
 20
-157.8136230074216
 30
0.0
 10
96.68402097192275
 20
-157.8136230074216
 30
0.0
 10
96.68402097192275
 20
-158.0189506983425
 30
0.0
 10
96.68402097192275
 20
-158.0189506983425
 30
0.0
 10
96.68402097192275
 20
-158.0189506983425
 30
0.0
 10
95.65600447912419
 20
-158.0189506983425
 30
0.0
 10
95.65600447912419
 20
-158.0189506983425
 30
0.0
 10
95.6876993575885
 20
-157.6613497869735
 30
0.0
 10
95.7533284265825
 20
-157.5831461194584
 30
0.0
 10
96.13831784705917
 20
-157.2848008504357
 30
0.0
 10
96.39428844161324
 20
-157.0860188409368
 30
0.0
 10
96.45974525583298
 20
-157.0181504598774
 30
0.0
 10
96.45974525583298
 20
-156.8806911500159
 30
0.0
 10
96.45974525583298
 20
-156.7621798653234
 30
0.0
 10
96.38791501496553
 20
-156.6312662368838
 30
0.0
 10
96.19120006275776
 20
-156.6312662368838
 30
0.0
 10
95.93092309884713
 20
-156.6312662368838
 30
0.0
 10
95.92248261490828
 20
-156.8617431248471
 30
0.0
 10
95.9181762455517
 20
-156.9781873522485
 30
0.0
 10
95.9181762455517
 20
-156.9781873522485
 30
0.0
 10
95.69407278423621
 20
-156.9781873522485
 30
0.0
 10
95.69407278423621
 20
-156.9781873522485
 30
0.0
 10
95.70251326817507
 20
-156.8510633288428
 30
0.0
 10
95.71302080940508
 20
-156.7390977255722
 30
0.0
 10
95.79346378898566
 20
-156.6205864408796
 30
0.0
 10
95.90336233496514
 20
-156.4597004817184
 30
0.0
 10
96.0895697459429
 20
-156.425938545963
 30
0.0
 10
96.20601397334434
 20
-156.425938545963
 30
0.0
 10
96.48317190513268
 20
-156.425938545963
 30
0.0
 10
96.69039439857046
 20
-156.6099066448753
 30
0.0
 10
96.69039439857046
 20
-156.8827582073071
 30
0.0
 10
96.69039439857046
 20
-157.1115125475277
 30
0.0
 10
96.57412242594327
 20
-157.2107312975029
 30
0.0
 10
96.26526961569063
 20
-157.4370740708838
 30
0.0
  0
HATCH
  5
8A
330
85
100
AcDbEntity
  8
_U+30EC_U+30A4_U+30E4_U+30FC 1
 62
   179
420
  2234388
100
AcDbHatch
 10
0.0
 20
0.0
 30
0.0
210
0.0
220
0.0
230
1.0
  2
SOLID
 70
     1
 71
     0
 91
        1
 92
        1
 93
        1
 72
     4
 94
        3
 73
     0
 74
     1
 95
       44
 96
       40
 40
0.0
 40
0.0
 40
0.0
 40
0.0
 40
1.0
 40
1.0
 40
1.0
 40
2.0
 40
2.0
 40
2.0
 40
3.0
 40
3.0
 40
3.0
 40
4.0
 40
4.0
 40
4.0
 40
5.0
 40
5.0
 40
5.0
 40
6.0
 40
6.0
 40
6.0
 40
7.0
 40
7.0
 40
7.0
 40
8.0
 40
8.0
 40
8.0
 40
9.0
 40
9.0
 40
9.0
 40
10.0
 40
10.0
 40
10.0
 40
11.0
 40
11.0
 40
11.0
 40
12.0
 40
12.0
 40
12.0
 40
13.0
 40
13.0
 40
13.0
 40
13.0
 10
96.26526961569063
 20
-157.4370740708838
 10
96.04736732624858
 20
-157.5958929727538
 10
95.95417749337257
 20
-157.6699625256867
 10
95.90560164703055
 20
-157.8136230074216
 10
95.90560164703055
 20
-157.8136230074216
 10
96.68402097192275
 20
-157.8136230074216
 10
96.68402097192275
 20
-157.8136230074216
 10
96.68402097192275
 20
-157.8136230074216
 10
96.68402097192275
 20
-158.0189506983425
 10
96.68402097192275
 20
-158.0189506983425
 10
96.68402097192275
 20
-158.0189506983425
 10
95.65600447912419
 20
-158.0189506983425
 10
95.65600447912419
 20
-158.0189506983425
 10
95.6876993575885
 20
-157.6613497869735
 10
95.7533284265825
 20
-157.5831461194584
 10
96.13831784705917
 20
-157.2848008504357
 10
96.39428844161324
 20
-157.0860188409368
 10
96.45974525583298
 20
-157.0181504598774
 10
96.45974525583298
 20
-156.8806911500159
 10
96.45974525583298
 20
-156.7621798653234
 10
96.38791501496553
 20
-156.6312662368838
 10
96.19120006275776
 20
-156.6312662368838
 10
95.93092309884713
 20
-156.6312662368838
 10
95.92248261490828
 20
-156.8617431248471
 10
95.9181762455517
 20
-156.9781873522485
 10
95.9181762455517
 20
-156.9781873522485
 10
95.69407278423621
 20
-156.9781873522485
 10
95.69407278423621
 20
-156.9781873522485
 10
95.70251326817507
 20
-156.8510633288428
 10
95.71302080940508
 20
-156.7390977255722
 10
95.79346378898566
 20
-156.6205864408796
 10
95.90336233496514
 20
-156.4597004817184
 10
96.0895697459429
 20
-156.425938545963
 10
96.20601397334434
 20
-156.425938545963
 10
96.48317190513268
 20
-156.425938545963
 10
96.69039439857046
 20
-156.6099066448753
 10
96.69039439857046
 20
-156.8827582073071
 10
96.69039439857046
 20
-157.1115125475277
 10
96.57412242594327
 20
-157.2107312975029
 10
96.26526961569063
 20
-157.4370740708838
 97
        0
 97
        0
 75
     2
 76
     1
 98
        0
  0
SPLINE
  5
8B
330
85
100
AcDbEntity
  8
_U+30EC_U+30A4_U+30E4_U+30FC 1
370
     0
100
AcDbSpline
210
0.0
220
0.0
230
1.0
 70
    11
 71
     3
 72
    29
 73
    25
 74
     0
 42
0.0000000001
 43
0.0000000001
 12
1.0
 22
0.0
 32
0.0
 13
1.0
 23
0.0
 33
0.0
 40
0.0
 40
0.0
 40
0.0
 40
0.0
 40
1.0
 40
1.0
 40
1.0
 40
2.0
 40
2.0
 40
2.0
 40
3.0
 40
3.0
 40
3.0
 40
4.0
 40
4.0
 40
4.0
 40
5.0
 40
5.0
 40
5.0
 40
6.0
 40
6.0
 40
6.0
 40
7.0
 40
7.0
 40
7.0
 40
8.0
 40
8.0
 40
8.0
 40
8.0
 10
97.74666067434806
 20
-157.8411837713036
 30
0.0
 10
97.63882918565974
 20
-158.0506455768068
 30
0.0
 10
97.46536862797741
 20
-158.0695936019757
 30
0.0
 10
97.34892440057597
 20
-158.0695936019757
 30
0.0
 10
97.18821069618906
 20
-158.0695936019757
 30
0.0
 10
97.04644501697103
 20
-158.0230848129248
 30
0.0
 10
96.95118812680387
 20
-157.8411837713036
 30
0.0
 10
96.84766300747212
 20
-157.646535876387
 30
0.0
 10
96.82854272752898
 20
-157.4098578165503
 30
0.0
 10
96.82854272752898
 20
-157.246904800098
 30
0.0
 10
96.82854272752898
 20
-157.1028998088146
 30
0.0
 10
96.84542369540671
 20
-156.8510633288428
 30
0.0
 10
96.95118812680387
 20
-156.6522813193439
 30
0.0
 10
97.05919187026646
 20
-156.4493651952627
 30
0.0
 10
97.21990557465337
 20
-156.425938545963
 30
0.0
 10
97.34892440057597
 20
-156.425938545963
 30
0.0
 10
97.50757104767172
 20
-156.425938545963
 30
0.0
 10
97.6514037841809
 20
-156.4703802777227
 30
0.0
 10
97.74666067434806
 20
-156.6522813193439
 30
0.0
 10
97.84605167909751
 20
-156.8448621569694
 30
0.0
 10
97.86930607362295
 20
-157.0732719876414
 30
0.0
 10
97.86930607362295
 20
-157.246904800098
 30
0.0
 10
97.86930607362295
 20
-157.4181260457149
 30
0.0
 10
97.84829099116293
 20
-157.6486029336781
 30
0.0
 10
97.74666067434806
 20
-157.8411837713036
 30
0.0
  0
SPLINE
  5
8C
330
85
100
AcDbEntity
  8
_U+30EC_U+30A4_U+30E4_U+30FC 1
370
     0
100
AcDbSpline
210
0.0
220
0.0
230
1.0
 70
    11
 71
     3
 72
    17
 73
    13
 74
     0
 42
0.0000000001
 43
0.0000000001
 12
1.0
 22
0.0
 32
0.0
 13
1.0
 23
0.0
 33
0.0
 40
0.0
 40
0.0
 40
0.0
 40
0.0
 40
1.0
 40
1.0
 40
1.0
 40
2.0
 40
2.0
 40
2.0
 40
3.0
 40
3.0
 40
3.0
 40
4.0
 40
4.0
 40
4.0
 40
4.0
 10
97.34892440057597
 20
-156.6185193835884
 30
0.0
 10
97.09932723266962
 20
-156.6185193835884
 30
0.0
 10
97.05281844361875
 20
-156.9020507420245
 30
0.0
 10
97.05281844361875
 20
-157.246904800098
 30
0.0
 10
97.05281844361875
 20
-157.5662651515807
 30
0.0
 10
97.08881969143961
 20
-157.8749457070591
 30
0.0
 10
97.34892440057597
 20
-157.8749457070591
 30
0.0
 10
97.59645451119117
 20
-157.8749457070591
 30
0.0
 10
97.64520261230746
 20
-157.5938259154627
 30
0.0
 10
97.64520261230746
 20
-157.246904800098
 30
0.0
 10
97.64520261230746
 20
-156.9271999390668
 30
0.0
 10
97.60713430719544
 20
-156.6185193835884
 30
0.0
 10
97.34892440057597
 20
-156.6185193835884
 30
0.0
  0
HATCH
  5
8D
330
85
100
AcDbEntity
  8
_U+30EC_U+30A4_U+30E4_U+30FC 1
 62
   179
420
  2234388
100
AcDbHatch
 10
0.0
 20
0.0
 30
0.0
210
0.0
220
0.0
230
1.0
  2
SOLID
 70
     1
 71
     0
 91
        2
 92
        1
 93
        1
 72
     4
 94
        3
 73
     0
 74
     1
 95
       29
 96
       25
 40
0.0
 40
0.0
 40
0.0
 40
0.0
 40
1.0
 40
1.0
 40
1.0
 40
2.0
 40
2.0
 40
2.0
 40
3.0
 40
3.0
 40
3.0
 40
4.0
 40
4.0
 40
4.0
 40
5.0
 40
5.0
 40
5.0
 40
6.0
 40
6.0
 40
6.0
 40
7.0
 40
7.0
 40
7.0
 40
8.0
 40
8.0
 40
8.0
 40
8.0
 10
97.74666067434806
 20
-157.8411837713036
 10
97.63882918565974
 20
-158.0506455768068
 10
97.46536862797741
 20
-158.0695936019757
 10
97.34892440057597
 20
-158.0695936019757
 10
97.18821069618906
 20
-158.0695936019757
 10
97.04644501697103
 20
-158.0230848129248
 10
96.95118812680387
 20
-157.8411837713036
 10
96.84766300747212
 20
-157.646535876387
 10
96.82854272752898
 20
-157.4098578165503
 10
96.82854272752898
 20
-157.246904800098
 10
96.82854272752898
 20
-157.1028998088146
 10
96.84542369540671
 20
-156.8510633288428
 10
96.95118812680387
 20
-156.6522813193439
 10
97.05919187026646
 20
-156.4493651952627
 10
97.21990557465337
 20
-156.425938545963
 10
97.34892440057597
 20
-156.425938545963
 10
97.50757104767172
 20
-156.425938545963
 10
97.6514037841809
 20
-156.4703802777227
 10
97.74666067434806
 20
-156.6522813193439
 10
97.84605167909751
 20
-156.8448621569694
 10
97.86930607362295
 20
-157.0732719876414
 10
97.86930607362295
 20
-157.246904800098
 10
97.86930607362295
 20
-157.4181260457149
 10
97.84829099116293
 20
-157.6486029336781
 10
97.74666067434806
 20
-157.8411837713036
 97
        0
 97
        0
 92
        1
 93
        1
 72
     4
 94
        3
 73
     0
 74
     1
 95
       17
 96
       13
 40
0.0
 40
0.0
 40
0.0
 40
0.0
 40
1.0
 40
1.0
 40
1.0
 40
2.0
 40
2.0
 40
2.0
 40
3.0
 40
3.0
 40
3.0
 40
4.0
 40
4.0
 40
4.0
 40
4.0
 10
97.34892440057597
 20
-156.6185193835884
 10
97.09932723266962
 20
-156.6185193835884
 10
97.05281844361875
 20
-156.9020507420245
 10
97.05281844361875
 20
-157.246904800098
 10
97.05281844361875
 20
-157.5662651515807
 10
97.08881969143961
 20
-157.8749457070591
 10
97.34892440057597
 20
-157.8749457070591
 10
97.59645451119117
 20
-157.8749457070591
 10
97.64520261230746
 20
-157.5938259154627
 10
97.64520261230746
 20
-157.246904800098
 10
97.64520261230746
 20
-156.9271999390668
 10
97.60713430719544
 20
-156.6185193835884
 10
97.34892440057597
 20
-156.6185193835884
 97
        0
 97
        0
 75
     2
 76
     1
 98
        0
  0
ENDBLK
  5
88
330
85
100
AcDbEntity
  8
0
100
AcDbBlockEnd
  0
BLOCK
  5
9C
330
9A
100
AcDbEntity
  8
0
100
AcDbBlockBegin
  2
block 3
 70
     0
 10
0.0
 20
0.0
 30
0.0
  3
block 3
  1

  0
SPLINE
  5
9E
330
9A
100
AcDbEntity
  8
_U+30EC_U+30A4_U+30E4_U+30FC 1
370
     0
100
AcDbSpline
210
0.0
220
0.0
230
1.0
 70
    11
 71
     3
 72
    44
 73
    40
 74
     0
 42
0.0000000001
 43
0.0000000001
 12
1.0
 22
0.0
 32
0.0
 13
1.0
 23
0.0
 33
0.0
 40
0.0
 40
0.0
 40
0.0
 40
0.0
 40
1.0
 40
1.0
 40
1.0
 40
2.0
 40
2.0
 40
2.0
 40
3.0
 40
3.0
 40
3.0
 40
4.0
 40
4.0
 40
4.0
 40
5.0
 40
5.0
 40
5.0
 40
6.0
 40
6.0
 40
6.0
 40
7.0
 40
7.0
 40
7.0
 40
8.0
 40
8.0
 40
8.0
 40
9.0
 40
9.0
 40
9.0
 40
10.0
 40
10.0
 40
10.0
 40
11.0
 40
11.0
 40
11.0
 40
12.0
 40
12.0
 40
12.0
 40
13.0
 40
13.0
 40
13.0
 40
13.0
 10
120.7984835852518
 20
-153.5702988982394
 30
0.0
 10
120.9573024871218
 20
-153.7883734424557
 30
0.0
 10
121.0313720400547
 20
-153.8813910205574
 30
0.0
 10
121.1750325217896
 20
-153.9299668668995
 30
0.0
 10
121.1750325217896
 20
-153.9299668668995
 30
0.0
 10
121.1750325217896
 20
-153.1517197967815
 30
0.0
 10
121.1750325217896
 20
-153.1517197967815
 30
0.0
 10
121.1750325217896
 20
-153.1517197967815
 30
0.0
 10
121.3803602127105
 20
-153.1517197967815
 30
0.0
 10
121.3803602127105
 20
-153.1517197967815
 30
0.0
 10
121.3803602127105
 20
-153.1517197967815
 30
0.0
 10
121.3803602127105
 20
-154.1797362895801
 30
0.0
 10
121.3803602127105
 20
-154.1797362895801
 30
0.0
 10
121.0227593013415
 20
-154.1480414111158
 30
0.0
 10
120.9445556338264
 20
-154.0822400873475
 30
0.0
 10
120.6462103648037
 20
-153.6974229216451
 30
0.0
 10
120.4474283553048
 20
-153.4411078175425
 30
0.0
 10
120.3795599742454
 20
-153.3756510033228
 30
0.0
 10
120.2421006643839
 20
-153.3756510033228
 30
0.0
 10
120.1235893796913
 20
-153.3756510033228
 30
0.0
 10
119.9926757512518
 20
-153.4476534989645
 30
0.0
 10
119.9926757512518
 20
-153.6443684511723
 30
0.0
 10
119.9926757512518
 20
-153.9048176698571
 30
0.0
 10
120.223152639215
 20
-153.9130858990217
 30
0.0
 10
120.3395968666165
 20
-153.917220013604
 30
0.0
 10
120.3395968666165
 20
-153.917220013604
 30
0.0
 10
120.3395968666165
 20
-154.1414957296938
 30
0.0
 10
120.3395968666165
 20
-154.1414957296938
 30
0.0
 10
120.2124728432108
 20
-154.1328829909807
 30
0.0
 10
120.1005072399402
 20
-154.1225477045249
 30
0.0
 10
119.9819959552476
 20
-154.0419324701701
 30
0.0
 10
119.8211099960864
 20
-153.9323784337391
 30
0.0
 10
119.7873480603309
 20
-153.7459987679871
 30
0.0
 10
119.7873480603309
 20
-153.6295545405857
 30
0.0
 10
119.7873480603309
 20
-153.3522243540231
 30
0.0
 10
119.9713161592433
 20
-153.1451741153595
 30
0.0
 10
120.2441677216751
 20
-153.1451741153595
 30
0.0
 10
120.4729220618957
 20
-153.1451741153595
 30
0.0
 10
120.5721408118709
 20
-153.2612738332125
 30
0.0
 10
120.7984835852518
 20
-153.5702988982394
 30
0.0
  0
HATCH
  5
9F
330
9A
100
AcDbEntity
  8
_U+30EC_U+30A4_U+30E4_U+30FC 1
 62
   179
420
  2234388
100
AcDbHatch
 10
0.0
 20
0.0
 30
0.0
210
0.0
220
0.0
230
1.0
  2
SOLID
 70
     1
 71
     0
 91
        1
 92
        1
 93
        1
 72
     4
 94
        3
 73
     0
 74
     1
 95
       44
 96
       40
 40
0.0
 40
0.0
 40
0.0
 40
0.0
 40
1.0
 40
1.0
 40
1.0
 40
2.0
 40
2.0
 40
2.0
 40
3.0
 40
3.0
 40
3.0
 40
4.0
 40
4.0
 40
4.0
 40
5.0
 40
5.0
 40
5.0
 40
6.0
 40
6.0
 40
6.0
 40
7.0
 40
7.0
 40
7.0
 40
8.0
 40
8.0
 40
8.0
 40
9.0
 40
9.0
 40
9.0
 40
10.0
 40
10.0
 40
10.0
 40
11.0
 40
11.0
 40
11.0
 40
12.0
 40
12.0
 40
12.0
 40
13.0
 40
13.0
 40
13.0
 40
13.0
 10
120.7984835852518
 20
-153.5702988982394
 10
120.9573024871218
 20
-153.7883734424557
 10
121.0313720400547
 20
-153.8813910205574
 10
121.1750325217896
 20
-153.9299668668995
 10
121.1750325217896
 20
-153.9299668668995
 10
121.1750325217896
 20
-153.1517197967815
 10
121.1750325217896
 20
-153.1517197967815
 10
121.1750325217896
 20
-153.1517197967815
 10
121.3803602127105
 20
-153.1517197967815
 10
121.3803602127105
 20
-153.1517197967815
 10
121.3803602127105
 20
-153.1517197967815
 10
121.3803602127105
 20
-154.1797362895801
 10
121.3803602127105
 20
-154.1797362895801
 10
121.0227593013415
 20
-154.1480414111158
 10
120.9445556338264
 20
-154.0822400873475
 10
120.6462103648037
 20
-153.6974229216451
 10
120.4474283553048
 20
-153.4411078175425
 10
120.3795599742454
 20
-153.3756510033228
 10
120.2421006643839
 20
-153.3756510033228
 10
120.1235893796913
 20
-153.3756510033228
 10
119.9926757512518
 20
-153.4476534989645
 10
119.9926757512518
 20
-153.6443684511723
 10
119.9926757512518
 20
-153.9048176698571
 10
120.223152639215
 20
-153.9130858990217
 10
120.3395968666165
 20
-153.917220013604
 10
120.3395968666165
 20
-153.917220013604
 10
120.3395968666165
 20
-154.1414957296938
 10
120.3395968666165
 20
-154.1414957296938
 10
120.2124728432108
 20
-154.1328829909807
 10
120.1005072399402
 20
-154.1225477045249
 10
119.9819959552476
 20
-154.0419324701701
 10
119.8211099960864
 20
-153.9323784337391
 10
119.7873480603309
 20
-153.7459987679871
 10
119.7873480603309
 20
-153.6295545405857
 10
119.7873480603309
 20
-153.3522243540231
 10
119.9713161592433
 20
-153.1451741153595
 10
120.2441677216751
 20
-153.1451741153595
 10
120.4729220618957
 20
-153.1451741153595
 10
120.5721408118709
 20
-153.2612738332125
 10
120.7984835852518
 20
-153.5702988982394
 97
        0
 97
        0
 75
     2
 76
     1
 98
        0
  0
ENDBLK
  5
9D
330
9A
100
AcDbEntity
  8
0
100
AcDbBlockEnd
  0
BLOCK
  5
AA
330
A8
100
AcDbEntity
  8
0
100
AcDbBlockBegin
  2
block 4
 70
     0
 10
0.0
 20
0.0
 30
0.0
  3
block 4
  1

  0
SPLINE
  5
AC
330
A8
100
AcDbEntity
  8
_U+30EC_U+30A4_U+30E4_U+30FC 1
370
     0
100
AcDbSpline
210
0.0
220
0.0
230
1.0
 70
    11
 71
     3
 72
    26
 73
    22
 74
     0
 42
0.0000000001
 43
0.0000000001
 12
1.0
 22
0.0
 32
0.0
 13
1.0
 23
0.0
 33
0.0
 40
0.0
 40
0.0
 40
0.0
 40
0.0
 40
1.0
 40
1.0
 40
1.0
 40
2.0
 40
2.0
 40
2.0
 40
3.0
 40
3.0
 40
3.0
 40
4.0
 40
4.0
 40
4.0
 40
5.0
 40
5.0
 40
5.0
 40
6.0
 40
6.0
 40
6.0
 40
7.0
 40
7.0
 40
7.0
 40
7.0
 10
121.3803602127105
 20
-143.0670640375839
 30
0.0
 10
121.3803602127105
 20
-143.0670640375839
 30
0.0
 10
120.2762071096879
 20
-143.0670640375839
 30
0.0
 10
120.2762071096879
 20
-143.0670640375839
 30
0.0
 10
120.2762071096879
 20
-143.0670640375839
 30
0.0
 10
120.2762071096879
 20
-143.3971041850709
 30
0.0
 10
120.2762071096879
 20
-143.3971041850709
 30
0.0
 10
120.2762071096879
 20
-143.3971041850709
 30
0.0
 10
120.1280680038222
 20
-143.3971041850709
 30
0.0
 10
120.1280680038222
 20
-143.3971041850709
 30
0.0
 10
120.1132540932356
 20
-143.0649969802928
 30
0.0
 10
119.9503010767833
 20
-143.0184881912419
 30
0.0
 10
119.835923906673
 20
-142.9888603700687
 30
0.0
 10
119.835923906673
 20
-142.9888603700687
 30
0.0
 10
119.835923906673
 20
-142.8427883214942
 30
0.0
 10
119.835923906673
 20
-142.8427883214942
 30
0.0
 10
119.835923906673
 20
-142.8427883214942
 30
0.0
 10
121.3803602127105
 20
-142.8427883214942
 30
0.0
 10
121.3803602127105
 20
-142.8427883214942
 30
0.0
 10
121.3803602127105
 20
-142.8427883214942
 30
0.0
 10
121.3803602127105
 20
-143.0670640375839
 30
0.0
 10
121.3803602127105
 20
-143.0670640375839
 30
0.0
  0
HATCH
  5
AD
330
A8
100
AcDbEntity
  8
_U+30EC_U+30A4_U+30E4_U+30FC 1
 62
   179
420
  2234388
100
AcDbHatch
 10
0.0
 20
0.0
 30
0.0
210
0.0
220
0.0
230
1.0
  2
SOLID
 70
     1
 71
     0
 91
        1
 92
        1
 93
        1
 72
     4
 94
        3
 73
     0
 74
     1
 95
       26
 96
       22
 40
0.0
 40
0.0
 40
0.0
 40
0.0
 40
1.0
 40
1.0
 40
1.0
 40
2.0
 40
2.0
 40
2.0
 40
3.0
 40
3.0
 40
3.0
 40
4.0
 40
4.0
 40
4.0
 40
5.0
 40
5.0
 40
5.0
 40
6.0
 40
6.0
 40
6.0
 40
7.0
 40
7.0
 40
7.0
 40
7.0
 10
121.3803602127105
 20
-143.0670640375839
 10
121.3803602127105
 20
-143.0670640375839
 10
120.2762071096879
 20
-143.0670640375839
 10
120.2762071096879
 20
-143.0670640375839
 10
120.2762071096879
 20
-143.0670640375839
 10
120.2762071096879
 20
-143.3971041850709
 10
120.2762071096879
 20
-143.3971041850709
 10
120.2762071096879
 20
-143.3971041850709
 10
120.1280680038222
 20
-143.3971041850709
 10
120.1280680038222
 20
-143.3971041850709
 10
120.1132540932356
 20
-143.0649969802928
 10
119.9503010767833
 20
-143.0184881912419
 10
119.835923906673
 20
-142.9888603700687
 10
119.835923906673
 20
-142.9888603700687
 10
119.835923906673
 20
-142.8427883214942
 10
119.835923906673
 20
-142.8427883214942
 10
119.835923906673
 20
-142.8427883214942
 10
121.3803602127105
 20
-142.8427883214942
 10
121.3803602127105
 20
-142.8427883214942
 10
121.3803602127105
 20
-142.8427883214942
 10
121.3803602127105
 20
-143.0670640375839
 10
121.3803602127105
 20
-143.0670640375839
 97
        0
 97
        0
 75
     2
 76
     1
 98
        0
  0
ENDBLK
  5
AB
330
A8
100
AcDbEntity
  8
0
100
AcDbBlockEnd
  0
BLOCK
  5
BC
330
BA
100
AcDbEntity
  8
0
100
AcDbBlockBegin
  2
block 5
 70
     0
 10
0.0
 20
0.0
 30
0.0
  3
block 5
  1

  0
SPLINE
  5
BE
330
BA
100
AcDbEntity
  8
_U+30EC_U+30A4_U+30E4_U+30FC 1
370
     0
100
AcDbSpline
210
0.0
220
0.0
230
1.0
 70
    11
 71
     3
 72
    62
 73
    58
 74
     0
 42
0.0000000001
 43
0.0000000001
 12
1.0
 22
0.0
 32
0.0
 13
1.0
 23
0.0
 33
0.0
 40
0.0
 40
0.0
 40
0.0
 40
0.0
 40
1.0
 40
1.0
 40
1.0
 40
2.0
 40
2.0
 40
2.0
 40
3.0
 40
3.0
 40
3.0
 40
4.0
 40
4.0
 40
4.0
 40
5.0
 40
5.0
 40
5.0
 40
6.0
 40
6.0
 40
6.0
 40
7.0
 40
7.0
 40
7.0
 40
8.0
 40
8.0
 40
8.0
 40
9.0
 40
9.0
 40
9.0
 40
10.0
 40
10.0
 40
10.0
 40
11.0
 40
11.0
 40
11.0
 40
12.0
 40
12.0
 40
12.0
 40
13.0
 40
13.0
 40
13.0
 40
14.0
 40
14.0
 40
14.0
 40
15.0
 40
15.0
 40
15.0
 40
16.0
 40
16.0
 40
16.0
 40
17.0
 40
17.0
 40
17.0
 40
18.0
 40
18.0
 40
18.0
 40
19.0
 40
19.0
 40
19.0
 40
19.0
 10
102.7224120836944
 20
-140.2903170764726
 30
0.0
 10
102.6271551935272
 20
-140.2903170764726
 30
0.0
 10
102.4092529040852
 20
-140.2693019940126
 30
0.0
 10
102.2845404475191
 20
-140.083266837809
 30
0.0
 10
102.2104708945863
 20
-139.9709567249899
 30
0.0
 10
102.2061645252297
 20
-139.8717379750147
 30
0.0
 10
102.2020304106474
 20
-139.7869886260776
 30
0.0
 10
102.2020304106474
 20
-139.7869886260776
 30
0.0
 10
102.4219997573806
 20
-139.7869886260776
 30
0.0
 10
102.4219997573806
 20
-139.7869886260776
 30
0.0
 10
102.4240668146718
 20
-139.8610581790104
 30
0.0
 10
102.434746610676
 20
-140.095669181556
 30
0.0
 10
102.7182779691121
 20
-140.095669181556
 30
0.0
 10
102.8557372789736
 20
-140.095669181556
 30
0.0
 10
103.0080104994216
 20
-140.0260782527539
 30
0.0
 10
103.0080104994216
 20
-139.7976684220818
 30
0.0
 10
103.0080104994216
 20
-139.6812241946804
 30
0.0
 10
102.9699421943096
 20
-139.6326483483384
 30
0.0
 10
102.9382473158453
 20
-139.6009534698741
 30
0.0
 10
102.8641777629124
 20
-139.5268839169412
 30
0.0
 10
102.747733535511
 20
-139.5141370636458
 30
0.0
 10
102.6927842625213
 20
-139.5141370636458
 30
0.0
 10
102.6738362373524
 20
-139.5141370636458
 30
0.0
 10
102.6378349895315
 20
-139.5162041209369
 30
0.0
 10
102.6102742256495
 20
-139.5203382355192
 30
0.0
 10
102.6102742256495
 20
-139.5203382355192
 30
0.0
 10
102.6102742256495
 20
-139.3256903406026
 30
0.0
 10
102.6102742256495
 20
-139.3256903406026
 30
0.0
 10
102.6483425307615
 20
-139.3322360220246
 30
0.0
 10
102.6907172052301
 20
-139.3343030793157
 30
0.0
 10
102.6970906318778
 20
-139.3343030793157
 30
0.0
 10
102.7625474460976
 20
-139.3343030793157
 30
0.0
 10
102.9615017103707
 20
-139.3129434873072
 30
0.0
 10
102.9615017103707
 20
-139.0762654274705
 30
0.0
 10
102.9615017103707
 20
-138.8984985004316
 30
0.0
 10
102.8302435723827
 20
-138.8433769726676
 30
0.0
 10
102.7203450264033
 20
-138.8433769726676
 30
0.0
 10
102.4559339479103
 20
-138.8433769726676
 30
0.0
 10
102.4474934639715
 20
-139.0762654274705
 30
0.0
 10
102.4431870946149
 20
-139.1479234135637
 30
0.0
 10
102.4431870946149
 20
-139.1479234135637
 30
0.0
 10
102.2400987157594
 20
-139.1479234135637
 30
0.0
 10
102.2400987157594
 20
-139.1479234135637
 30
0.0
 10
102.2485391996983
 20
-139.0232109569977
 30
0.0
 10
102.2760999635803
 20
-138.6466620204599
 30
0.0
 10
102.7329196249244
 20
-138.6466620204599
 30
0.0
 10
102.9571953410142
 20
-138.6466620204599
 30
0.0
 10
103.1983520249817
 20
-138.7737860438656
 30
0.0
 10
103.1983520249817
 20
-139.0697197460485
 30
0.0
 10
103.1983520249817
 20
-139.2560994118006
 30
0.0
 10
103.1032673895888
 20
-139.338437193898
 30
0.0
 10
103.003704130065
 20
-139.3997598935355
 30
0.0
 10
103.0651990844768
 20
-139.4273206574175
 30
0.0
 10
103.2471001260979
 20
-139.5075913822238
 30
0.0
 10
103.2471001260979
 20
-139.7849215687864
 30
0.0
 10
103.2471001260979
 20
-140.1232299454379
 30
0.0
 10
102.9995700154827
 20
-140.2903170764726
 30
0.0
 10
102.7224120836944
 20
-140.2903170764726
 30
0.0
  0
HATCH
  5
BF
330
BA
100
AcDbEntity
  8
_U+30EC_U+30A4_U+30E4_U+30FC 1
 62
   179
420
  2234388
100
AcDbHatch
 10
0.0
 20
0.0
 30
0.0
210
0.0
220
0.0
230
1.0
  2
SOLID
 70
     1
 71
     0
 91
        1
 92
        1
 93
        1
 72
     4
 94
        3
 73
     0
 74
     1
 95
       62
 96
       58
 40
0.0
 40
0.0
 40
0.0
 40
0.0
 40
1.0
 40
1.0
 40
1.0
 40
2.0
 40
2.0
 40
2.0
 40
3.0
 40
3.0
 40
3.0
 40
4.0
 40
4.0
 40
4.0
 40
5.0
 40
5.0
 40
5.0
 40
6.0
 40
6.0
 40
6.0
 40
7.0
 40
7.0
 40
7.0
 40
8.0
 40
8.0
 40
8.0
 40
9.0
 40
9.0
 40
9.0
 40
10.0
 40
10.0
 40
10.0
 40
11.0
 40
11.0
 40
11.0
 40
12.0
 40
12.0
 40
12.0
 40
13.0
 40
13.0
 40
13.0
 40
14.0
 40
14.0
 40
14.0
 40
15.0
 40
15.0
 40
15.0
 40
16.0
 40
16.0
 40
16.0
 40
17.0
 40
17.0
 40
17.0
 40
18.0
 40
18.0
 40
18.0
 40
19.0
 40
19.0
 40
19.0
 40
19.0
 10
102.7224120836944
 20
-140.2903170764726
 10
102.6271551935272
 20
-140.2903170764726
 10
102.4092529040852
 20
-140.2693019940126
 10
102.2845404475191
 20
-140.083266837809
 10
102.2104708945863
 20
-139.9709567249899
 10
102.2061645252297
 20
-139.8717379750147
 10
102.2020304106474
 20
-139.7869886260776
 10
102.2020304106474
 20
-139.7869886260776
 10
102.4219997573806
 20
-139.7869886260776
 10
102.4219997573806
 20
-139.7869886260776
 10
102.4240668146718
 20
-139.8610581790104
 10
102.434746610676
 20
-140.095669181556
 10
102.7182779691121
 20
-140.095669181556
 10
102.8557372789736
 20
-140.095669181556
 10
103.0080104994216
 20
-140.0260782527539
 10
103.0080104994216
 20
-139.7976684220818
 10
103.0080104994216
 20
-139.6812241946804
 10
102.9699421943096
 20
-139.6326483483384
 10
102.9382473158453
 20
-139.6009534698741
 10
102.8641777629124
 20
-139.5268839169412
 10
102.747733535511
 20
-139.5141370636458
 10
102.6927842625213
 20
-139.5141370636458
 10
102.6738362373524
 20
-139.5141370636458
 10
102.6378349895315
 20
-139.5162041209369
 10
102.6102742256495
 20
-139.5203382355192
 10
102.6102742256495
 20
-139.5203382355192
 10
102.6102742256495
 20
-139.3256903406026
 10
102.6102742256495
 20
-139.3256903406026
 10
102.6483425307615
 20
-139.3322360220246
 10
102.6907172052301
 20
-139.3343030793157
 10
102.6970906318778
 20
-139.3343030793157
 10
102.7625474460976
 20
-139.3343030793157
 10
102.9615017103707
 20
-139.3129434873072
 10
102.9615017103707
 20
-139.0762654274705
 10
102.9615017103707
 20
-138.8984985004316
 10
102.8302435723827
 20
-138.8433769726676
 10
102.7203450264033
 20
-138.8433769726676
 10
102.4559339479103
 20
-138.8433769726676
 10
102.4474934639715
 20
-139.0762654274705
 10
102.4431870946149
 20
-139.1479234135637
 10
102.4431870946149
 20
-139.1479234135637
 10
102.2400987157594
 20
-139.1479234135637
 10
102.2400987157594
 20
-139.1479234135637
 10
102.2485391996983
 20
-139.0232109569977
 10
102.2760999635803
 20
-138.6466620204599
 10
102.7329196249244
 20
-138.6466620204599
 10
102.9571953410142
 20
-138.6466620204599
 10
103.1983520249817
 20
-138.7737860438656
 10
103.1983520249817
 20
-139.0697197460485
 10
103.1983520249817
 20
-139.2560994118006
 10
103.1032673895888
 20
-139.338437193898
 10
103.003704130065
 20
-139.3997598935355
 10
103.0651990844768
 20
-139.4273206574175
 10
103.2471001260979
 20
-139.5075913822238
 10
103.2471001260979
 20
-139.7849215687864
 10
103.2471001260979
 20
-140.1232299454379
 10
102.9995700154827
 20
-140.2903170764726
 10
102.7224120836944
 20
-140.2903170764726
 97
        0
 97
        0
 75
     2
 76
     1
 98
        0
  0
SPLINE
  5
C0
330
BA
100
AcDbEntity
  8
_U+30EC_U+30A4_U+30E4_U+30FC 1
370
     0
100
AcDbSpline
210
0.0
220
0.0
230
1.0
 70
    11
 71
     3
 72
    29
 73
    25
 74
     0
 42
0.0000000001
 43
0.0000000001
 12
1.0
 22
0.0
 32
0.0
 13
1.0
 23
0.0
 33
0.0
 40
0.0
 40
0.0
 40
0.0
 40
0.0
 40
1.0
 40
1.0
 40
1.0
 40
2.0
 40
2.0
 40
2.0
 40
3.0
 40
3.0
 40
3.0
 40
4.0
 40
4.0
 40
4.0
 40
5.0
 40
5.0
 40
5.0
 40
6.0
 40
6.0
 40
6.0
 40
7.0
 40
7.0
 40
7.0
 40
8.0
 40
8.0
 40
8.0
 40
8.0
 10
104.3054334591667
 20
-140.0619072458005
 30
0.0
 10
104.1976019704784
 20
-140.2713690513037
 30
0.0
 10
104.0241414127961
 20
-140.2903170764726
 30
0.0
 10
103.9076971853946
 20
-140.2903170764726
 30
0.0
 10
103.7469834810077
 20
-140.2903170764726
 30
0.0
 10
103.6052178017897
 20
-140.2438082874217
 30
0.0
 10
103.5099609116225
 20
-140.0619072458005
 30
0.0
 10
103.4064357922908
 20
-139.8672593508839
 30
0.0
 10
103.3873155123476
 20
-139.6305812910472
 30
0.0
 10
103.3873155123476
 20
-139.4676282745949
 30
0.0
 10
103.3873155123476
 20
-139.3236232833115
 30
0.0
 10
103.4041964802253
 20
-139.0717868033397
 30
0.0
 10
103.5099609116225
 20
-138.8730047938408
 30
0.0
 10
103.6179646550851
 20
-138.6700886697596
 30
0.0
 10
103.778678359472
 20
-138.6466620204599
 30
0.0
 10
103.9076971853946
 20
-138.6466620204599
 30
0.0
 10
104.0663438324904
 20
-138.6466620204599
 30
0.0
 10
104.2101765689995
 20
-138.6911037522196
 30
0.0
 10
104.3054334591667
 20
-138.8730047938408
 30
0.0
 10
104.4048244639162
 20
-139.0655856314663
 30
0.0
 10
104.4280788584416
 20
-139.2939954621383
 30
0.0
 10
104.4280788584416
 20
-139.4676282745949
 30
0.0
 10
104.4280788584416
 20
-139.6388495202118
 30
0.0
 10
104.4070637759816
 20
-139.869326408175
 30
0.0
 10
104.3054334591667
 20
-140.0619072458005
 30
0.0
  0
SPLINE
  5
C1
330
BA
100
AcDbEntity
  8
_U+30EC_U+30A4_U+30E4_U+30FC 1
370
     0
100
AcDbSpline
210
0.0
220
0.0
230
1.0
 70
    11
 71
     3
 72
    17
 73
    13
 74
     0
 42
0.0000000001
 43
0.0000000001
 12
1.0
 22
0.0
 32
0.0
 13
1.0
 23
0.0
 33
0.0
 40
0.0
 40
0.0
 40
0.0
 40
0.0
 40
1.0
 40
1.0
 40
1.0
 40
2.0
 40
2.0
 40
2.0
 40
3.0
 40
3.0
 40
3.0
 40
4.0
 40
4.0
 40
4.0
 40
4.0
 10
103.9076971853946
 20
-138.8392428580853
 30
0.0
 10
103.6581000174883
 20
-138.8392428580853
 30
0.0
 10
103.6115912284374
 20
-139.1227742165214
 30
0.0
 10
103.6115912284374
 20
-139.4676282745949
 30
0.0
 10
103.6115912284374
 20
-139.7869886260776
 30
0.0
 10
103.6475924762582
 20
-140.095669181556
 30
0.0
 10
103.9076971853946
 20
-140.095669181556
 30
0.0
 10
104.1552272960098
 20
-140.095669181556
 30
0.0
 10
104.2039753971261
 20
-139.8145493899596
 30
0.0
 10
104.2039753971261
 20
-139.4676282745949
 30
0.0
 10
104.2039753971261
 20
-139.1479234135637
 30
0.0
 10
104.1659070920141
 20
-138.8392428580853
 30
0.0
 10
103.9076971853946
 20
-138.8392428580853
 30
0.0
  0
HATCH
  5
C2
330
BA
100
AcDbEntity
  8
_U+30EC_U+30A4_U+30E4_U+30FC 1
 62
   179
420
  2234388
100
AcDbHatch
 10
0.0
 20
0.0
 30
0.0
210
0.0
220
0.0
230
1.0
  2
SOLID
 70
     1
 71
     0
 91
        2
 92
        1
 93
        1
 72
     4
 94
        3
 73
     0
 74
     1
 95
       29
 96
       25
 40
0.0
 40
0.0
 40
0.0
 40
0.0
 40
1.0
 40
1.0
 40
1.0
 40
2.0
 40
2.0
 40
2.0
 40
3.0
 40
3.0
 40
3.0
 40
4.0
 40
4.0
 40
4.0
 40
5.0
 40
5.0
 40
5.0
 40
6.0
 40
6.0
 40
6.0
 40
7.0
 40
7.0
 40
7.0
 40
8.0
 40
8.0
 40
8.0
 40
8.0
 10
104.3054334591667
 20
-140.0619072458005
 10
104.1976019704784
 20
-140.2713690513037
 10
104.0241414127961
 20
-140.2903170764726
 10
103.9076971853946
 20
-140.2903170764726
 10
103.7469834810077
 20
-140.2903170764726
 10
103.6052178017897
 20
-140.2438082874217
 10
103.5099609116225
 20
-140.0619072458005
 10
103.4064357922908
 20
-139.8672593508839
 10
103.3873155123476
 20
-139.6305812910472
 10
103.3873155123476
 20
-139.4676282745949
 10
103.3873155123476
 20
-139.3236232833115
 10
103.4041964802253
 20
-139.0717868033397
 10
103.5099609116225
 20
-138.8730047938408
 10
103.6179646550851
 20
-138.6700886697596
 10
103.778678359472
 20
-138.6466620204599
 10
103.9076971853946
 20
-138.6466620204599
 10
104.0663438324904
 20
-138.6466620204599
 10
104.2101765689995
 20
-138.6911037522196
 10
104.3054334591667
 20
-138.8730047938408
 10
104.4048244639162
 20
-139.0655856314663
 10
104.4280788584416
 20
-139.2939954621383
 10
104.4280788584416
 20
-139.4676282745949
 10
104.4280788584416
 20
-139.6388495202118
 10
104.4070637759816
 20
-139.869326408175
 10
104.3054334591667
 20
-140.0619072458005
 97
        0
 97
        0
 92
        1
 93
        1
 72
     4
 94
        3
 73
     0
 74
     1
 95
       17
 96
       13
 40
0.0
 40
0.0
 40
0.0
 40
0.0
 40
1.0
 40
1.0
 40
1.0
 40
2.0
 40
2.0
 40
2.0
 40
3.0
 40
3.0
 40
3.0
 40
4.0
 40
4.0
 40
4.0
 40
4.0
 10
103.9076971853946
 20
-138.8392428580853
 10
103.6581000174883
 20
-138.8392428580853
 10
103.6115912284374
 20
-139.1227742165214
 10
103.6115912284374
 20
-139.4676282745949
 10
103.6115912284374
 20
-139.7869886260776
 10
103.6475924762582
 20
-140.095669181556
 10
103.9076971853946
 20
-140.095669181556
 10
104.1552272960098
 20
-140.095669181556
 10
104.2039753971261
 20
-139.8145493899596
 10
104.2039753971261
 20
-139.4676282745949
 10
104.2039753971261
 20
-139.1479234135637
 10
104.1659070920141
 20
-138.8392428580853
 10
103.9076971853946
 20
-138.8392428580853
 97
        0
 97
        0
 75
     2
 76
     1
 98
        0
  0
ENDBLK
  5
BD
330
BA
100
AcDbEntity
  8
0
100
AcDbBlockEnd
  0
BLOCK
  5
CD
330
CB
100
AcDbEntity
  8
0
100
AcDbBlockBegin
  2
block 6
 70
     0
 10
0.0
 20
0.0
 30
0.0
  3
block 6
  1

  0
SPLINE
  5
CF
330
CB
100
AcDbEntity
  8
_U+30EC_U+30A4_U+30E4_U+30FC 1
370
     0
100
AcDbSpline
210
0.0
220
0.0
230
1.0
 70
    11
 71
     3
 72
    32
 73
    28
 74
     0
 42
0.0000000001
 43
0.0000000001
 12
1.0
 22
0.0
 32
0.0
 13
1.0
 23
0.0
 33
0.0
 40
0.0
 40
0.0
 40
0.0
 40
0.0
 40
1.0
 40
1.0
 40
1.0
 40
2.0
 40
2.0
 40
2.0
 40
3.0
 40
3.0
 40
3.0
 40
4.0
 40
4.0
 40
4.0
 40
5.0
 40
5.0
 40
5.0
 40
6.0
 40
6.0
 40
6.0
 40
7.0
 40
7.0
 40
7.0
 40
8.0
 40
8.0
 40
8.0
 40
9.0
 40
9.0
 40
9.0
 40
9.0
 10
121.4313476258922
 20
-150.1269259607322
 30
0.0
 10
121.4313476258922
 20
-150.6430012644226
 30
0.0
 10
120.877376271864
 20
-150.6516140031357
 30
0.0
 10
120.6630913326815
 20
-150.6516140031357
 30
0.0
 10
120.4329589542668
 20
-150.6516140031357
 30
0.0
 10
119.7852810030398
 20
-150.6326659779668
 30
0.0
 10
119.7852810030398
 20
-150.0890299103944
 30
0.0
 10
119.7852810030398
 20
-149.9153970979378
 30
0.0
 10
119.8555609509389
 20
-149.670106299388
 30
0.0
 10
120.187668155717
 20
-149.6318657395018
 30
0.0
 10
120.187668155717
 20
-149.6318657395018
 30
0.0
 10
120.187668155717
 20
-149.8458061691358
 30
0.0
 10
120.187668155717
 20
-149.8458061691358
 30
0.0
 10
120.1304795706618
 20
-149.8561414555915
 30
0.0
 10
119.9823404647961
 20
-149.8878363340558
 30
0.0
 10
119.9823404647961
 20
-150.0910969676856
 30
0.0
 10
119.9823404647961
 20
-150.3828965552862
 30
0.0
 10
120.3103135549919
 20
-150.4232041724636
 30
0.0
 10
120.5149522268157
 20
-150.4356065162106
 30
0.0
 10
120.4370930688491
 20
-150.3425889381088
 30
0.0
 10
120.3778374265028
 20
-150.2750650665979
 30
0.0
 10
120.3778374265028
 20
-150.0931640249767
 30
0.0
 10
120.3778374265028
 20
-149.9133300406467
 30
0.0
 10
120.4860134247396
 20
-149.6108506570417
 30
0.0
 10
120.8918456729021
 20
-149.6108506570417
 30
0.0
 10
121.2115505339332
 20
-149.6108506570417
 30
0.0
 10
121.4313476258922
 20
-149.8096326665407
 30
0.0
 10
121.4313476258922
 20
-150.1269259607322
 30
0.0
  0
SPLINE
  5
D0
330
CB
100
AcDbEntity
  8
_U+30EC_U+30A4_U+30E4_U+30FC 1
370
     0
100
AcDbSpline
210
0.0
220
0.0
230
1.0
 70
    11
 71
     3
 72
    17
 73
    13
 74
     0
 42
0.0000000001
 43
0.0000000001
 12
1.0
 22
0.0
 32
0.0
 13
1.0
 23
0.0
 33
0.0
 40
0.0
 40
0.0
 40
0.0
 40
0.0
 40
1.0
 40
1.0
 40
1.0
 40
2.0
 40
2.0
 40
2.0
 40
3.0
 40
3.0
 40
3.0
 40
4.0
 40
4.0
 40
4.0
 40
4.0
 10
120.5721408118709
 20
-150.1100449928544
 30
0.0
 10
120.5721408118709
 20
-150.3722167592819
 30
0.0
 10
120.7836696746652
 20
-150.4104573191682
 30
0.0
 10
120.9001139020666
 20
-150.4104573191682
 30
0.0
 10
121.0758137718144
 20
-150.4104573191682
 30
0.0
 10
121.2391112978152
 20
-150.3150281742268
 30
0.0
 10
121.2391112978152
 20
-150.1310600753145
 30
0.0
 10
121.2391112978152
 20
-150.0104817333307
 30
0.0
 10
121.1798556554689
 20
-149.834781863583
 30
0.0
 10
120.8939127301932
 20
-149.834781863583
 30
0.0
 10
120.669981523652
 20
-149.834781863583
 30
0.0
 10
120.5721408118709
 20
-149.9746527402841
 30
0.0
 10
120.5721408118709
 20
-150.1100449928544
 30
0.0
  0
HATCH
  5
D1
330
CB
100
AcDbEntity
  8
_U+30EC_U+30A4_U+30E4_U+30FC 1
 62
   179
420
  2234388
100
AcDbHatch
 10
0.0
 20
0.0
 30
0.0
210
0.0
220
0.0
230
1.0
  2
SOLID
 70
     1
 71
     0
 91
        2
 92
        1
 93
        1
 72
     4
 94
        3
 73
     0
 74
     1
 95
       32
 96
       28
 40
0.0
 40
0.0
 40
0.0
 40
0.0
 40
1.0
 40
1.0
 40
1.0
 40
2.0
 40
2.0
 40
2.0
 40
3.0
 40
3.0
 40
3.0
 40
4.0
 40
4.0
 40
4.0
 40
5.0
 40
5.0
 40
5.0
 40
6.0
 40
6.0
 40
6.0
 40
7.0
 40
7.0
 40
7.0
 40
8.0
 40
8.0
 40
8.0
 40
9.0
 40
9.0
 40
9.0
 40
9.0
 10
121.4313476258922
 20
-150.1269259607322
 10
121.4313476258922
 20
-150.6430012644226
 10
120.877376271864
 20
-150.6516140031357
 10
120.6630913326815
 20
-150.6516140031357
 10
120.4329589542668
 20
-150.6516140031357
 10
119.7852810030398
 20
-150.6326659779668
 10
119.7852810030398
 20
-150.0890299103944
 10
119.7852810030398
 20
-149.9153970979378
 10
119.8555609509389
 20
-149.670106299388
 10
120.187668155717
 20
-149.6318657395018
 10
120.187668155717
 20
-149.6318657395018
 10
120.187668155717
 20
-149.8458061691358
 10
120.187668155717
 20
-149.8458061691358
 10
120.1304795706618
 20
-149.8561414555915
 10
119.9823404647961
 20
-149.8878363340558
 10
119.9823404647961
 20
-150.0910969676856
 10
119.9823404647961
 20
-150.3828965552862
 10
120.3103135549919
 20
-150.4232041724636
 10
120.5149522268157
 20
-150.4356065162106
 10
120.4370930688491
 20
-150.3425889381088
 10
120.3778374265028
 20
-150.2750650665979
 10
120.3778374265028
 20
-150.0931640249767
 10
120.3778374265028
 20
-149.9133300406467
 10
120.4860134247396
 20
-149.6108506570417
 10
120.8918456729021
 20
-149.6108506570417
 10
121.2115505339332
 20
-149.6108506570417
 10
121.4313476258922
 20
-149.8096326665407
 10
121.4313476258922
 20
-150.1269259607322
 97
        0
 97
        0
 92
        1
 93
        1
 72
     4
 94
        3
 73
     0
 74
     1
 95
       17
 96
       13
 40
0.0
 40
0.0
 40
0.0
 40
0.0
 40
1.0
 40
1.0
 40
1.0
 40
2.0
 40
2.0
 40
2.0
 40
3.0
 40
3.0
 40
3.0
 40
4.0
 40
4.0
 40
4.0
 40
4.0
 10
120.5721408118709
 20
-150.1100449928544
 10
120.5721408118709
 20
-150.3722167592819
 10
120.7836696746652
 20
-150.4104573191682
 10
120.9001139020666
 20
-150.4104573191682
 10
121.0758137718144
 20
-150.4104573191682
 10
121.2391112978152
 20
-150.3150281742268
 10
121.2391112978152
 20
-150.1310600753145
 10
121.2391112978152
 20
-150.0104817333307
 10
121.1798556554689
 20
-149.834781863583
 10
120.8939127301932
 20
-149.834781863583
 10
120.669981523652
 20
-149.834781863583
 10
120.5721408118709
 20
-149.9746527402841
 10
120.5721408118709
 20
-150.1100449928544
 97
        0
 97
        0
 75
     2
 76
     1
 98
        0
  0
POLYLINE
  5
D2
330
CB
100
AcDbEntity
  8
_U+30EC_U+30A4_U+30E4_U+30FC 1
370
     0
100
AcDb2dPolyline
 66
     1
 10
0.0
 20
0.0
 30
0.0
  0
VERTEX
  5
D3
330
D2
100
AcDbEntity
  8
_U+30EC_U+30A4_U+30E4_U+30FC 1
370
     0
100
AcDbVertex
100
AcDb2dVertex
 10
121.3803602127105
 20
-149.394498660568
 30
0.0
  0
VERTEX
  5
D4
330
D2
100
AcDbEntity
  8
_U+30EC_U+30A4_U+30E4_U+30FC 1
370
     0
100
AcDbVertex
100
AcDb2dVertex
 10
121.1288682422872
 20
-149.394498660568
 30
0.0
  0
VERTEX
  5
D5
330
D2
100
AcDbEntity
  8
_U+30EC_U+30A4_U+30E4_U+30FC 1
370
     0
100
AcDbVertex
100
AcDb2dVertex
 10
121.1288682422872
 20
-149.1426621805963
 30
0.0
  0
VERTEX
  5
D6
330
D2
100
AcDbEntity
  8
_U+30EC_U+30A4_U+30E4_U+30FC 1
370
     0
100
AcDbVertex
100
AcDb2dVertex
 10
121.3803602127105
 20
-149.1426621805963
 30
0.0
  0
VERTEX
  5
D7
330
D2
100
AcDbEntity
  8
_U+30EC_U+30A4_U+30E4_U+30FC 1
370
     0
100
AcDbVertex
100
AcDb2dVertex
 10
121.3803602127105
 20
-149.394498660568
 30
0.0
  0
SEQEND
  5
D8
330
D2
100
AcDbEntity
  8
_U+30EC_U+30A4_U+30E4_U+30FC 1
370
     0
  0
HATCH
  5
D9
330
CB
100
AcDbEntity
  8
_U+30EC_U+30A4_U+30E4_U+30FC 1
 62
   179
420
  2234388
100
AcDbHatch
 10
0.0
 20
0.0
 30
0.0
210
0.0
220
0.0
230
1.0
  2
SOLID
 70
     1
 71
     0
 91
        1
 92
        1
 93
        4
 72
     1
 10
121.3803602127105
 20
-149.394498660568
 11
121.1288682422872
 21
-149.394498660568
 72
     1
 10
121.1288682422872
 20
-149.394498660568
 11
121.1288682422872
 21
-149.1426621805963
 72
     1
 10
121.1288682422872
 20
-149.1426621805963
 11
121.3803602127105
 21
-149.1426621805963
 72
     1
 10
121.3803602127105
 20
-149.1426621805963
 11
121.3803602127105
 21
-149.394498660568
 97
        0
 75
     2
 76
     1
 98
        0
  0
SPLINE
  5
DA
330
CB
100
AcDbEntity
  8
_U+30EC_U+30A4_U+30E4_U+30FC 1
370
     0
100
AcDbSpline
210
0.0
220
0.0
230
1.0
 70
    11
 71
     3
 72
    53
 73
    49
 74
     0
 42
0.0000000001
 43
0.0000000001
 12
1.0
 22
0.0
 32
0.0
 13
1.0
 23
0.0
 33
0.0
 40
0.0
 40
0.0
 40
0.0
 40
0.0
 40
1.0
 40
1.0
 40
1.0
 40
2.0
 40
2.0
 40
2.0
 40
3.0
 40
3.0
 40
3.0
 40
4.0
 40
4.0
 40
4.0
 40
5.0
 40
5.0
 40
5.0
 40
6.0
 40
6.0
 40
6.0
 40
7.0
 40
7.0
 40
7.0
 40
8.0
 40
8.0
 40
8.0
 40
9.0
 40
9.0
 40
9.0
 40
10.0
 40
10.0
 40
10.0
 40
11.0
 40
11.0
 40
11.0
 40
12.0
 40
12.0
 40
12.0
 40
13.0
 40
13.0
 40
13.0
 40
14.0
 40
14.0
 40
14.0
 40
15.0
 40
15.0
 40
15.0
 40
16.0
 40
16.0
 40
16.0
 40
16.0
 10
121.4313476258922
 20
-148.4250487910188
 30
0.0
 10
121.4313476258922
 20
-148.5034247133082
 30
0.0
 10
121.4141221484659
 20
-148.6048827753488
 30
0.0
 10
121.3507323915373
 20
-148.7065130921636
 30
0.0
 10
121.2411783551064
 20
-148.8798013950717
 30
0.0
 10
121.1095757075698
 20
-148.9011609870803
 30
0.0
 10
121.00208872843
 20
-148.9201090122492
 30
0.0
 10
121.00208872843
 20
-148.9201090122492
 30
0.0
 10
121.00208872843
 20
-148.6980726082248
 30
0.0
 10
121.00208872843
 20
-148.6980726082248
 30
0.0
 10
121.2005262283804
 20
-148.6429510804608
 30
0.0
 10
121.2301540495536
 20
-148.5159993118293
 30
0.0
 10
121.2301540495536
 20
-148.4229817337276
 30
0.0
 10
121.2301540495536
 20
-148.283455366575
 30
0.0
 10
121.1309352995784
 20
-148.1310098913527
 30
0.0
 10
120.8980468447755
 20
-148.1310098913527
 30
0.0
 10
120.64242075977
 20
-148.1310098913527
 30
0.0
 10
120.5721408118709
 20
-148.3108438756827
 30
0.0
 10
120.5721408118709
 20
-148.4314222176665
 30
0.0
 10
120.5721408118709
 20
-148.4631170961308
 30
0.0
 10
120.5721408118709
 20
-148.6048827753488
 30
0.0
 10
120.7016764021162
 20
-148.6937662388682
 30
0.0
 10
120.7016764021162
 20
-148.6937662388682
 30
0.0
 10
120.6823838673989
 20
-148.8692938538417
 30
0.0
 10
120.6823838673989
 20
-148.8692938538417
 30
0.0
 10
120.6823838673989
 20
-148.8692938538417
 30
0.0
 10
119.8362684162215
 20
-148.748715511858
 30
0.0
 10
119.8362684162215
 20
-148.748715511858
 30
0.0
 10
119.8362684162215
 20
-148.748715511858
 30
0.0
 10
119.8362684162215
 20
-147.9702961869658
 30
0.0
 10
119.8362684162215
 20
-147.9702961869658
 30
0.0
 10
119.8362684162215
 20
-147.9702961869658
 30
0.0
 10
120.0305718015896
 20
-147.9702961869658
 30
0.0
 10
120.0305718015896
 20
-147.9702961869658
 30
0.0
 10
120.0305718015896
 20
-147.9702961869658
 30
0.0
 10
120.0305718015896
 20
-148.5859347501799
 30
0.0
 10
120.0305718015896
 20
-148.5859347501799
 30
0.0
 10
120.0305718015896
 20
-148.5859347501799
 30
0.0
 10
120.4536295271783
 20
-148.6513915643997
 30
0.0
 10
120.4536295271783
 20
-148.6513915643997
 30
0.0
 10
120.4198675914228
 20
-148.5900688647622
 30
0.0
 10
120.3799044837939
 20
-148.5075588278905
 30
0.0
 10
120.3799044837939
 20
-148.3892197979721
 30
0.0
 10
120.3799044837939
 20
-148.1353162607092
 30
0.0
 10
120.5659396399974
 20
-147.8982936913241
 30
0.0
 10
120.8794433291552
 20
-147.8982936913241
 30
0.0
 10
121.1963921137981
 20
-147.8982936913241
 30
0.0
 10
121.4313476258922
 20
-148.1225694074138
 30
0.0
 10
121.4313476258922
 20
-148.4250487910188
 30
0.0
  0
HATCH
  5
DB
330
CB
100
AcDbEntity
  8
_U+30EC_U+30A4_U+30E4_U+30FC 1
 62
   179
420
  2234388
100
AcDbHatch
 10
0.0
 20
0.0
 30
0.0
210
0.0
220
0.0
230
1.0
  2
SOLID
 70
     1
 71
     0
 91
        1
 92
        1
 93
        1
 72
     4
 94
        3
 73
     0
 74
     1
 95
       53
 96
       49
 40
0.0
 40
0.0
 40
0.0
 40
0.0
 40
1.0
 40
1.0
 40
1.0
 40
2.0
 40
2.0
 40
2.0
 40
3.0
 40
3.0
 40
3.0
 40
4.0
 40
4.0
 40
4.0
 40
5.0
 40
5.0
 40
5.0
 40
6.0
 40
6.0
 40
6.0
 40
7.0
 40
7.0
 40
7.0
 40
8.0
 40
8.0
 40
8.0
 40
9.0
 40
9.0
 40
9.0
 40
10.0
 40
10.0
 40
10.0
 40
11.0
 40
11.0
 40
11.0
 40
12.0
 40
12.0
 40
12.0
 40
13.0
 40
13.0
 40
13.0
 40
14.0
 40
14.0
 40
14.0
 40
15.0
 40
15.0
 40
15.0
 40
16.0
 40
16.0
 40
16.0
 40
16.0
 10
121.4313476258922
 20
-148.4250487910188
 10
121.4313476258922
 20
-148.5034247133082
 10
121.4141221484659
 20
-148.6048827753488
 10
121.3507323915373
 20
-148.7065130921636
 10
121.2411783551064
 20
-148.8798013950717
 10
121.1095757075698
 20
-148.9011609870803
 10
121.00208872843
 20
-148.9201090122492
 10
121.00208872843
 20
-148.9201090122492
 10
121.00208872843
 20
-148.6980726082248
 10
121.00208872843
 20
-148.6980726082248
 10
121.2005262283804
 20
-148.6429510804608
 10
121.2301540495536
 20
-148.5159993118293
 10
121.2301540495536
 20
-148.4229817337276
 10
121.2301540495536
 20
-148.283455366575
 10
121.1309352995784
 20
-148.1310098913527
 10
120.8980468447755
 20
-148.1310098913527
 10
120.64242075977
 20
-148.1310098913527
 10
120.5721408118709
 20
-148.3108438756827
 10
120.5721408118709
 20
-148.4314222176665
 10
120.5721408118709
 20
-148.4631170961308
 10
120.5721408118709
 20
-148.6048827753488
 10
120.7016764021162
 20
-148.6937662388682
 10
120.7016764021162
 20
-148.6937662388682
 10
120.6823838673989
 20
-148.8692938538417
 10
120.6823838673989
 20
-148.8692938538417
 10
120.6823838673989
 20
-148.8692938538417
 10
119.8362684162215
 20
-148.748715511858
 10
119.8362684162215
 20
-148.748715511858
 10
119.8362684162215
 20
-148.748715511858
 10
119.8362684162215
 20
-147.9702961869658
 10
119.8362684162215
 20
-147.9702961869658
 10
119.8362684162215
 20
-147.9702961869658
 10
120.0305718015896
 20
-147.9702961869658
 10
120.0305718015896
 20
-147.9702961869658
 10
120.0305718015896
 20
-147.9702961869658
 10
120.0305718015896
 20
-148.5859347501799
 10
120.0305718015896
 20
-148.5859347501799
 10
120.0305718015896
 20
-148.5859347501799
 10
120.4536295271783
 20
-148.6513915643997
 10
120.4536295271783
 20
-148.6513915643997
 10
120.4198675914228
 20
-148.5900688647622
 10
120.3799044837939
 20
-148.5075588278905
 10
120.3799044837939
 20
-148.3892197979721
 10
120.3799044837939
 20
-148.1353162607092
 10
120.5659396399974
 20
-147.8982936913241
 10
120.8794433291552
 20
-147.8982936913241
 10
121.1963921137981
 20
-147.8982936913241
 10
121.4313476258922
 20
-148.1225694074138
 10
121.4313476258922
 20
-148.4250487910188
 97
        0
 97
        0
 75
     2
 76
     1
 98
        0
  0
ENDBLK
  5
CE
330
CB
100
AcDbEntity
  8
0
100
AcDbBlockEnd
  0
ENDSEC
  0
SECTION
  2
ENTITIES
  0
POLYLINE
  5
41
330
1F
100
AcDbEntity
  8
_U+30EC_U+30A4_U+30E4_U+30FC 1
 62
   179
420
  2234388
370
    25
100
AcDb2dPolyline
 66
     1
 10
0.0
 20
0.0
 30
0.0
  0
VERTEX
  5
42
330
41
100
AcDbEntity
  8
_U+30EC_U+30A4_U+30E4_U+30FC 1
 62
   179
420
  2234388
370
    25
100
AcDbVertex
100
AcDb2dVertex
 10
105.7611208757271
 20
-152.465876647132
 30
0.0
  0
VERTEX
  5
43
330
41
100
AcDbEntity
  8
_U+30EC_U+30A4_U+30E4_U+30FC 1
 62
   179
420
  2234388
370
    25
100
AcDbVertex
100
AcDb2dVertex
 10
106.7608929685083
 20
-152.465876647132
 30
0.0
  0
SEQEND
  5
44
330
41
100
AcDbEntity
  8
_U+30EC_U+30A4_U+30E4_U+30FC 1
 62
   179
420
  2234388
370
    25
  0
POLYLINE
  5
45
330
1F
100
AcDbEntity
  8
_U+30EC_U+30A4_U+30E4_U+30FC 1
 62
   179
420
  2234388
370
    25
100
AcDb2dPolyline
 66
     1
 10
0.0
 20
0.0
 30
0.0
  0
VERTEX
  5
46
330
45
100
AcDbEntity
  8
_U+30EC_U+30A4_U+30E4_U+30FC 1
 62
   179
420
  2234388
370
    25
100
AcDbVertex
100
AcDb2dVertex
 10
86.76089712729014
 20
-154.6655808803874
 30
0.0
  0
VERTEX
  5
47
330
45
100
AcDbEntity
  8
_U+30EC_U+30A4_U+30E4_U+30FC 1
 62
   179
420
  2234388
370
    25
100
AcDbVertex
100
AcDb2dVertex
 10
106.7609252662785
 20
-154.6655808803874
 30
0.0
  0
SEQEND
  5
48
330
45
100
AcDbEntity
  8
_U+30EC_U+30A4_U+30E4_U+30FC 1
 62
   179
420
  2234388
370
    25
  0
POLYLINE
  5
49
330
1F
100
AcDbEntity
  8
_U+30EC_U+30A4_U+30E4_U+30FC 1
 62
   179
420
  2234388
370
    25
100
AcDb2dPolyline
 66
     1
 10
0.0
 20
0.0
 30
0.0
  0
VERTEX
  5
4A
330
49
100
AcDbEntity
  8
_U+30EC_U+30A4_U+30E4_U+30FC 1
 62
   179
420
  2234388
370
    25
100
AcDbVertex
100
AcDb2dVertex
 10
106.7608929685083
 20
-152.465876647132
 30
0.0
  0
VERTEX
  5
4B
330
49
100
AcDbEntity
  8
_U+30EC_U+30A4_U+30E4_U+30FC 1
 62
   179
420
  2234388
370
    25
100
AcDbVertex
100
AcDb2dVertex
 10
106.7608929685083
 20
-154.6654516893067
 30
0.0
  0
SEQEND
  5
4C
330
49
100
AcDbEntity
  8
_U+30EC_U+30A4_U+30E4_U+30FC 1
 62
   179
420
  2234388
370
    25
  0
POLYLINE
  5
4D
330
1F
100
AcDbEntity
  8
_U+30EC_U+30A4_U+30E4_U+30FC 1
 62
   179
420
  2234388
370
    25
100
AcDb2dPolyline
 66
     1
 10
0.0
 20
0.0
 30
0.0
  0
VERTEX
  5
4E
330
4D
100
AcDbEntity
  8
_U+30EC_U+30A4_U+30E4_U+30FC 1
 62
   179
420
  2234388
370
    25
100
AcDbVertex
100
AcDb2dVertex
 10
86.76089712729014
 20
-153.6658141705679
 30
0.0
  0
VERTEX
  5
4F
330
4D
100
AcDbEntity
  8
_U+30EC_U+30A4_U+30E4_U+30FC 1
 62
   179
420
  2234388
370
    25
100
AcDbVertex
100
AcDb2dVertex
 10
86.76089712729014
 20
-154.6655916463108
 30
0.0
  0
SEQEND
  5
50
330
4D
100
AcDbEntity
  8
_U+30EC_U+30A4_U+30E4_U+30FC 1
 62
   179
420
  2234388
370
    25
  0
POLYLINE
  5
51
330
1F
100
AcDbEntity
  8
_U+30EC_U+30A4_U+30E4_U+30FC 1
 62
   179
420
  2234388
370
    25
100
AcDb2dPolyline
 66
     1
 10
0.0
 20
0.0
 30
0.0
  0
VERTEX
  5
52
330
51
100
AcDbEntity
  8
_U+30EC_U+30A4_U+30E4_U+30FC 1
 62
   179
420
  2234388
370
    25
100
AcDbVertex
100
AcDb2dVertex
 10
86.76089712729014
 20
-153.6658141705679
 30
0.0
  0
VERTEX
  5
53
330
51
100
AcDbEntity
  8
_U+30EC_U+30A4_U+30E4_U+30FC 1
 62
   179
420
  2234388
370
    25
100
AcDbVertex
100
AcDb2dVertex
 10
87.26113575767148
 20
-153.6658141705679
 30
0.0
  0
SEQEND
  5
54
330
51
100
AcDbEntity
  8
_U+30EC_U+30A4_U+30E4_U+30FC 1
 62
   179
420
  2234388
370
    25
  0
POLYLINE
  5
55
330
1F
100
AcDbEntity
  8
_U+30EC_U+30A4_U+30E4_U+30FC 1
 62
   179
420
  2234388
370
    25
100
AcDb2dPolyline
 66
     1
 10
0.0
 20
0.0
 30
0.0
  0
VERTEX
  5
56
330
55
100
AcDbEntity
  8
_U+30EC_U+30A4_U+30E4_U+30FC 1
 62
   179
420
  2234388
370
    25
100
AcDbVertex
100
AcDb2dVertex
 10
88.26743469150873
 20
-153.6658141705679
 30
0.0
  0
VERTEX
  5
57
330
55
100
AcDbEntity
  8
_U+30EC_U+30A4_U+30E4_U+30FC 1
 62
   179
420
  2234388
370
    25
100
AcDbVertex
100
AcDb2dVertex
 10
105.7609755357614
 20
-153.6658141705679
 30
0.0
  0
SEQEND
  5
58
330
55
100
AcDbEntity
  8
_U+30EC_U+30A4_U+30E4_U+30FC 1
 62
   179
420
  2234388
370
    25
  0
POLYLINE
  5
59
330
1F
100
AcDbEntity
  8
_U+30EC_U+30A4_U+30E4_U+30FC 1
 62
   179
420
  2234388
370
    25
100
AcDb2dPolyline
 66
     1
 10
0.0
 20
0.0
 30
0.0
  0
VERTEX
  5
5A
330
59
100
AcDbEntity
  8
_U+30EC_U+30A4_U+30E4_U+30FC 1
 62
   179
420
  2234388
370
    25
100
AcDbVertex
100
AcDb2dVertex
 10
105.7611208757271
 20
-152.465876647132
 30
0.0
  0
VERTEX
  5
5B
330
59
100
AcDbEntity
  8
_U+30EC_U+30A4_U+30E4_U+30FC 1
 62
   179
420
  2234388
370
    25
100
AcDbVertex
100
AcDb2dVertex
 10
105.7611208757271
 20
-153.6656742135638
 30
0.0
  0
SEQEND
  5
5C
330
59
100
AcDbEntity
  8
_U+30EC_U+30A4_U+30E4_U+30FC 1
 62
   179
420
  2234388
370
    25
  0
POLYLINE
  5
5D
330
1F
100
AcDbEntity
  8
_U+30EC_U+30A4_U+30E4_U+30FC 1
 62
   179
420
  2234388
370
    25
100
AcDb2dPolyline
 66
     1
 10
0.0
 20
0.0
 30
0.0
  0
VERTEX
  5
5E
330
5D
100
AcDbEntity
  8
_U+30EC_U+30A4_U+30E4_U+30FC 1
 62
   179
420
  2234388
370
    25
100
AcDbVertex
100
AcDb2dVertex
 10
89.21241900015106
 20
-145.8861103117002
 30
0.0
  0
VERTEX
  5
5F
330
5D
100
AcDbEntity
  8
_U+30EC_U+30A4_U+30E4_U+30FC 1
 62
   179
420
  2234388
370
    25
100
AcDbVertex
100
AcDb2dVertex
 10
118.3190537474792
 20
-145.8861103117002
 30
0.0
  0
SEQEND
  5
60
330
5D
100
AcDbEntity
  8
_U+30EC_U+30A4_U+30E4_U+30FC 1
 62
   179
420
  2234388
370
    25
  0
POLYLINE
  5
61
330
1F
100
AcDbEntity
  8
_U+30EC_U+30A4_U+30E4_U+30FC 1
 62
   179
420
  2234388
370
    25
100
AcDb2dPolyline
 66
     1
 10
0.0
 20
0.0
 30
0.0
  0
VERTEX
  5
62
330
61
100
AcDbEntity
  8
_U+30EC_U+30A4_U+30E4_U+30FC 1
 62
   179
420
  2234388
370
    25
100
AcDbVertex
100
AcDb2dVertex
 10
118.3191990874449
 20
-144.8860206241789
 30
0.0
  0
VERTEX
  5
63
330
61
100
AcDbEntity
  8
_U+30EC_U+30A4_U+30E4_U+30FC 1
 62
   179
420
  2234388
370
    25
100
AcDbVertex
100
AcDb2dVertex
 10
118.3191990874449
 20
-145.8861533753937
 30
0.0
  0
SEQEND
  5
64
330
61
100
AcDbEntity
  8
_U+30EC_U+30A4_U+30E4_U+30FC 1
 62
   179
420
  2234388
370
    25
  0
POLYLINE
  5
65
330
1F
100
AcDbEntity
  8
_U+30EC_U+30A4_U+30E4_U+30FC 1
 62
   179
420
  2234388
370
    25
100
AcDb2dPolyline
 66
     1
 10
0.0
 20
0.0
 30
0.0
  0
VERTEX
  5
66
330
65
100
AcDbEntity
  8
_U+30EC_U+30A4_U+30E4_U+30FC 1
 62
   179
420
  2234388
370
    25
100
AcDbVertex
100
AcDb2dVertex
 10
88.3198216747313
 20
-144.8860206241789
 30
0.0
  0
VERTEX
  5
67
330
65
100
AcDbEntity
  8
_U+30EC_U+30A4_U+30E4_U+30FC 1
 62
   179
420
  2234388
370
    25
100
AcDbVertex
100
AcDb2dVertex
 10
118.319339044449
 20
-144.8860206241789
 30
0.0
  0
SEQEND
  5
68
330
65
100
AcDbEntity
  8
_U+30EC_U+30A4_U+30E4_U+30FC 1
 62
   179
420
  2234388
370
    25
  0
POLYLINE
  5
69
330
1F
100
AcDbEntity
  8
_U+30EC_U+30A4_U+30E4_U+30FC 1
 62
   179
420
  2234388
370
    25
100
AcDb2dPolyline
 66
     1
 10
0.0
 20
0.0
 30
0.0
  0
VERTEX
  5
6A
330
69
100
AcDbEntity
  8
_U+30EC_U+30A4_U+30E4_U+30FC 1
 62
   179
420
  2234388
370
    25
100
AcDbVertex
100
AcDb2dVertex
 10
88.3198216747313
 20
-144.8860206241789
 30
0.0
  0
VERTEX
  5
6B
330
69
100
AcDbEntity
  8
_U+30EC_U+30A4_U+30E4_U+30FC 1
 62
   179
420
  2234388
370
    25
100
AcDbVertex
100
AcDb2dVertex
 10
87.26113306619064
 20
-153.665954127572
 30
0.0
  0
SEQEND
  5
6C
330
69
100
AcDbEntity
  8
_U+30EC_U+30A4_U+30E4_U+30FC 1
 62
   179
420
  2234388
370
    25
  0
POLYLINE
  5
6D
330
1F
100
AcDbEntity
  8
_U+30EC_U+30A4_U+30E4_U+30FC 1
 62
   179
420
  2234388
370
    25
100
AcDb2dPolyline
 66
     1
 10
0.0
 20
0.0
 30
0.0
  0
VERTEX
  5
6E
330
6D
100
AcDbEntity
  8
_U+30EC_U+30A4_U+30E4_U+30FC 1
 62
   179
420
  2234388
370
    25
100
AcDbVertex
100
AcDb2dVertex
 10
89.21241900015106
 20
-145.8861103117002
 30
0.0
  0
VERTEX
  5
6F
330
6D
100
AcDbEntity
  8
_U+30EC_U+30A4_U+30E4_U+30FC 1
 62
   179
420
  2234388
370
    25
100
AcDbVertex
100
AcDb2dVertex
 10
88.2673270322748
 20
-153.6659218298018
 30
0.0
  0
SEQEND
  5
70
330
6D
100
AcDbEntity
  8
_U+30EC_U+30A4_U+30E4_U+30FC 1
 62
   179
420
  2234388
370
    25
  0
SPLINE
  5
71
330
1F
100
AcDbEntity
  8
_U+30EC_U+30A4_U+30E4_U+30FC 1
 62
   179
420
  2234388
370
     9
100
AcDbSpline
210
0.0
220
0.0
230
1.0
 70
    11
 71
     3
 72
    17
 73
    13
 74
     0
 42
0.0000000001
 43
0.0000000001
 12
1.0
 22
0.0
 32
0.0
 13
1.0
 23
0.0
 33
0.0
 40
0.0
 40
0.0
 40
0.0
 40
0.0
 40
1.0
 40
1.0
 40
1.0
 40
2.0
 40
2.0
 40
2.0
 40
3.0
 40
3.0
 40
3.0
 40
4.0
 40
4.0
 40
4.0
 40
4.0
 10
106.7608929685083
 20
-158.6656920142344
 30
0.0
 10
106.7608929685083
 20
-158.6106619968192
 30
0.0
 10
106.7160851953533
 20
-158.5658596066259
 30
0.0
 10
106.6610551779382
 20
-158.5658596066259
 30
0.0
 10
106.6060197775613
 20
-158.5658596066259
 30
0.0
 10
106.5612173873679
 20
-158.6106619968192
 30
0.0
 10
106.5612173873679
 20
-158.6656920142344
 30
0.0
 10
106.5612173873679
 20
-158.7207274146113
 30
0.0
 10
106.6060197775613
 20
-158.7655298048046
 30
0.0
 10
106.6610551779382
 20
-158.7655298048046
 30
0.0
 10
106.7160851953533
 20
-158.7655298048046
 30
0.0
 10
106.7608929685083
 20
-158.7207274146113
 30
0.0
 10
106.7608929685083
 20
-158.6656920142344
 30
0.0
  0
SPLINE
  5
72
330
1F
100
AcDbEntity
  8
_U+30EC_U+30A4_U+30E4_U+30FC 1
 62
   179
420
  2234388
370
     9
100
AcDbSpline
210
0.0
220
0.0
230
1.0
 70
    11
 71
     3
 72
    17
 73
    13
 74
     0
 42
0.0000000001
 43
0.0000000001
 12
1.0
 22
0.0
 32
0.0
 13
1.0
 23
0.0
 33
0.0
 40
0.0
 40
0.0
 40
0.0
 40
0.0
 40
1.0
 40
1.0
 40
1.0
 40
2.0
 40
2.0
 40
2.0
 40
3.0
 40
3.0
 40
3.0
 40
4.0
 40
4.0
 40
4.0
 40
4.0
 10
86.86080220488121
 20
-158.6656920142344
 30
0.0
 10
86.86080220488121
 20
-158.6106619968192
 30
0.0
 10
86.81599712320703
 20
-158.5658596066259
 30
0.0
 10
86.760964414311
 20
-158.5658596066259
 30
0.0
 10
86.705931705415
 20
-158.5658596066259
 30
0.0
 10
86.66112931522166
 20
-158.6106619968192
 30
0.0
 10
86.66112931522166
 20
-158.6656920142344
 30
0.0
 10
86.66112931522166
 20
-158.7207274146113
 30
0.0
 10
86.705931705415
 20
-158.7655298048046
 30
0.0
 10
86.760964414311
 20
-158.7655298048046
 30
0.0
 10
86.81599712320703
 20
-158.7655298048046
 30
0.0
 10
86.86080220488121
 20
-158.7207274146113
 30
0.0
 10
86.86080220488121
 20
-158.6656920142344
 30
0.0
  0
SPLINE
  5
73
330
1F
100
AcDbEntity
  8
_U+30EC_U+30A4_U+30E4_U+30FC 1
 62
   179
420
  2234388
370
     9
100
AcDbSpline
210
0.0
220
0.0
230
1.0
 70
    11
 71
     3
 72
    17
 73
    13
 74
     0
 42
0.0000000001
 43
0.0000000001
 12
1.0
 22
0.0
 32
0.0
 13
1.0
 23
0.0
 33
0.0
 40
0.0
 40
0.0
 40
0.0
 40
0.0
 40
1.0
 40
1.0
 40
1.0
 40
2.0
 40
2.0
 40
2.0
 40
3.0
 40
3.0
 40
3.0
 40
4.0
 40
4.0
 40
4.0
 40
4.0
 10
122.4195355851042
 20
-144.8860206241789
 30
0.0
 10
122.4195355851042
 20
-144.8309959897257
 30
0.0
 10
122.3747278119492
 20
-144.7861882165704
 30
0.0
 10
122.319697794534
 20
-144.7861882165704
 30
0.0
 10
122.263957226175
 20
-144.7861882165704
 30
0.0
 10
122.2191548359817
 20
-144.8309959897257
 30
0.0
 10
122.2191548359817
 20
-144.8860206241789
 30
0.0
 10
122.2191548359817
 20
-144.941411300028
 30
0.0
 10
122.263957226175
 20
-144.9858637977108
 30
0.0
 10
122.319697794534
 20
-144.9858637977108
 30
0.0
 10
122.3747278119492
 20
-144.9858637977108
 30
0.0
 10
122.4195355851042
 20
-144.941411300028
 30
0.0
 10
122.4195355851042
 20
-144.8860206241789
 30
0.0
  0
SPLINE
  5
74
330
1F
100
AcDbEntity
  8
_U+30EC_U+30A4_U+30E4_U+30FC 1
 62
   179
420
  2234388
370
     9
100
AcDbSpline
210
0.0
220
0.0
230
1.0
 70
    11
 71
     3
 72
    17
 73
    13
 74
     0
 42
0.0000000001
 43
0.0000000001
 12
1.0
 22
0.0
 32
0.0
 13
1.0
 23
0.0
 33
0.0
 40
0.0
 40
0.0
 40
0.0
 40
0.0
 40
1.0
 40
1.0
 40
1.0
 40
2.0
 40
2.0
 40
2.0
 40
3.0
 40
3.0
 40
3.0
 40
4.0
 40
4.0
 40
4.0
 40
4.0
 10
122.4195355851042
 20
-145.885722738458
 30
0.0
 10
122.4195355851042
 20
-145.8306981040046
 30
0.0
 10
122.3747278119492
 20
-145.7858903308499
 30
0.0
 10
122.319697794534
 20
-145.7858903308499
 30
0.0
 10
122.263957226175
 20
-145.7858903308499
 30
0.0
 10
122.2191548359817
 20
-145.8306981040046
 30
0.0
 10
122.2191548359817
 20
-145.885722738458
 30
0.0
 10
122.2191548359817
 20
-145.9411134143068
 30
0.0
 10
122.263957226175
 20
-145.9859211874619
 30
0.0
 10
122.319697794534
 20
-145.9859211874619
 30
0.0
 10
122.3747278119492
 20
-145.9859211874619
 30
0.0
 10
122.4195355851042
 20
-145.9411134143068
 30
0.0
 10
122.4195355851042
 20
-145.885722738458
 30
0.0
  0
SPLINE
  5
75
330
1F
100
AcDbEntity
  8
_U+30EC_U+30A4_U+30E4_U+30FC 1
 62
   179
420
  2234388
370
     9
100
AcDbSpline
210
0.0
220
0.0
230
1.0
 70
    11
 71
     3
 72
    17
 73
    13
 74
     0
 42
0.0000000001
 43
0.0000000001
 12
1.0
 22
0.0
 32
0.0
 13
1.0
 23
0.0
 33
0.0
 40
0.0
 40
0.0
 40
0.0
 40
0.0
 40
1.0
 40
1.0
 40
1.0
 40
2.0
 40
2.0
 40
2.0
 40
3.0
 40
3.0
 40
3.0
 40
4.0
 40
4.0
 40
4.0
 40
4.0
 10
122.4181575469101
 20
-152.5657736502809
 30
0.0
 10
122.4181575469101
 20
-152.5107490158274
 30
0.0
 10
122.3733497737551
 20
-152.4659412426724
 30
0.0
 10
122.3183197563399
 20
-152.4659412426724
 30
0.0
 10
122.2625791879809
 20
-152.4659412426724
 30
0.0
 10
122.2177767977876
 20
-152.5107490158274
 30
0.0
 10
122.2177767977876
 20
-152.5657736502809
 30
0.0
 10
122.2177767977876
 20
-152.6208090506577
 30
0.0
 10
122.2625791879809
 20
-152.6656168238128
 30
0.0
 10
122.3183197563399
 20
-152.6656168238128
 30
0.0
 10
122.3733497737551
 20
-152.6656168238128
 30
0.0
 10
122.4181575469101
 20
-152.6208090506577
 30
0.0
 10
122.4181575469101
 20
-152.5657736502809
 30
0.0
  0
SPLINE
  5
76
330
1F
100
AcDbEntity
  8
_U+30EC_U+30A4_U+30E4_U+30FC 1
 62
   179
420
  2234388
370
     9
100
AcDbSpline
210
0.0
220
0.0
230
1.0
 70
    11
 71
     3
 72
    17
 73
    13
 74
     0
 42
0.0000000001
 43
0.0000000001
 12
1.0
 22
0.0
 32
0.0
 13
1.0
 23
0.0
 33
0.0
 40
0.0
 40
0.0
 40
0.0
 40
0.0
 40
1.0
 40
1.0
 40
1.0
 40
2.0
 40
2.0
 40
2.0
 40
3.0
 40
3.0
 40
3.0
 40
4.0
 40
4.0
 40
4.0
 40
4.0
 10
122.4181575469101
 20
-154.6655808803874
 30
0.0
 10
122.4181575469101
 20
-154.610556245934
 30
0.0
 10
122.3733497737551
 20
-154.5657484727789
 30
0.0
 10
122.3183197563399
 20
-154.5657484727789
 30
0.0
 10
122.2625791879809
 20
-154.5657484727789
 30
0.0
 10
122.2177767977876
 20
-154.610556245934
 30
0.0
 10
122.2177767977876
 20
-154.6655808803874
 30
0.0
 10
122.2177767977876
 20
-154.7209715562362
 30
0.0
 10
122.2625791879809
 20
-154.7657793293913
 30
0.0
 10
122.3183197563399
 20
-154.7657793293913
 30
0.0
 10
122.3733497737551
 20
-154.7657793293913
 30
0.0
 10
122.4181575469101
 20
-154.7209715562362
 30
0.0
 10
122.4181575469101
 20
-154.6655808803874
 30
0.0
  0
SPLINE
  5
77
330
1F
100
AcDbEntity
  8
_U+30EC_U+30A4_U+30E4_U+30FC 1
 62
   179
420
  2234388
370
     9
100
AcDbSpline
210
0.0
220
0.0
230
1.0
 70
    11
 71
     3
 72
    17
 73
    13
 74
     0
 42
0.0000000001
 43
0.0000000001
 12
1.0
 22
0.0
 32
0.0
 13
1.0
 23
0.0
 33
0.0
 40
0.0
 40
0.0
 40
0.0
 40
0.0
 40
1.0
 40
1.0
 40
1.0
 40
2.0
 40
2.0
 40
2.0
 40
3.0
 40
3.0
 40
3.0
 40
4.0
 40
4.0
 40
4.0
 40
4.0
 10
118.4191014735555
 20
-140.8862539998804
 30
0.0
 10
118.4191014735555
 20
-140.830874089955
 30
0.0
 10
118.3742937004005
 20
-140.7860663168
 30
0.0
 10
118.3192636829853
 20
-140.7860663168
 30
0.0
 10
118.2642282826084
 20
-140.7860663168
 30
0.0
 10
118.2194258924151
 20
-140.830874089955
 30
0.0
 10
118.2194258924151
 20
-140.8862539998804
 30
0.0
 10
118.2194258924151
 20
-140.9412894002573
 30
0.0
 10
118.2642282826084
 20
-140.9860971734126
 30
0.0
 10
118.3192636829853
 20
-140.9860971734126
 30
0.0
 10
118.3742937004005
 20
-140.9860971734126
 30
0.0
 10
118.4191014735555
 20
-140.9412894002573
 30
0.0
 10
118.4191014735555
 20
-140.8862539998804
 30
0.0
  0
SPLINE
  5
78
330
1F
100
AcDbEntity
  8
_U+30EC_U+30A4_U+30E4_U+30FC 1
 62
   179
420
  2234388
370
     9
100
AcDbSpline
210
0.0
220
0.0
230
1.0
 70
    11
 71
     3
 72
    17
 73
    13
 74
     0
 42
0.0000000001
 43
0.0000000001
 12
1.0
 22
0.0
 32
0.0
 13
1.0
 23
0.0
 33
0.0
 40
0.0
 40
0.0
 40
0.0
 40
0.0
 40
1.0
 40
1.0
 40
1.0
 40
2.0
 40
2.0
 40
2.0
 40
3.0
 40
3.0
 40
3.0
 40
4.0
 40
4.0
 40
4.0
 40
4.0
 10
88.41972944380355
 20
-140.8862539998804
 30
0.0
 10
88.41972944380355
 20
-140.830874089955
 30
0.0
 10
88.37492436212969
 20
-140.7860663168
 30
0.0
 10
88.31989165323334
 20
-140.7860663168
 30
0.0
 10
88.26450636034626
 20
-140.7860663168
 30
0.0
 10
88.21970397015292
 20
-140.830874089955
 30
0.0
 10
88.21970397015292
 20
-140.8862539998804
 30
0.0
 10
88.21970397015292
 20
-140.9412894002573
 30
0.0
 10
88.26450636034626
 20
-140.9860971734126
 30
0.0
 10
88.31989165323334
 20
-140.9860971734126
 30
0.0
 10
88.37492436212969
 20
-140.9860971734126
 30
0.0
 10
88.41972944380355
 20
-140.9412894002573
 30
0.0
 10
88.41972944380355
 20
-140.8862539998804
 30
0.0
  0
POLYLINE
  5
79
330
1F
100
AcDbEntity
  8
_U+30EC_U+30A4_U+30E4_U+30FC 1
 62
   179
420
  2234388
370
     9
100
AcDb2dPolyline
 66
     1
 10
0.0
 20
0.0
 30
0.0
  0
VERTEX
  5
7A
330
79
100
AcDbEntity
  8
_U+30EC_U+30A4_U+30E4_U+30FC 1
 62
   179
420
  2234388
370
     9
100
AcDbVertex
100
AcDb2dVertex
 10
86.76089712729014
 20
-158.6656920142344
 30
0.0
  0
VERTEX
  5
7B
330
79
100
AcDbEntity
  8
_U+30EC_U+30A4_U+30E4_U+30FC 1
 62
   179
420
  2234388
370
     9
100
AcDbVertex
100
AcDb2dVertex
 10
106.7609252662785
 20
-158.6656920142344
 30
0.0
  0
SEQEND
  5
7C
330
79
100
AcDbEntity
  8
_U+30EC_U+30A4_U+30E4_U+30FC 1
 62
   179
420
  2234388
370
     9
  0
POLYLINE
  5
7D
330
1F
100
AcDbEntity
  8
_U+30EC_U+30A4_U+30E4_U+30FC 1
 62
   179
420
  2234388
370
     9
100
AcDb2dPolyline
 66
     1
 10
0.0
 20
0.0
 30
0.0
  0
VERTEX
  5
7E
330
7D
100
AcDbEntity
  8
_U+30EC_U+30A4_U+30E4_U+30FC 1
 62
   179
420
  2234388
370
     9
100
AcDbVertex
100
AcDb2dVertex
 10
86.76089712729014
 20
-157.2056551646238
 30
0.0
  0
VERTEX
  5
7F
330
7D
100
AcDbEntity
  8
_U+30EC_U+30A4_U+30E4_U+30FC 1
 62
   179
420
  2234388
370
     9
100
AcDbVertex
100
AcDb2dVertex
 10
86.76089712729014
 20
-159.6662823171933
 30
0.0
  0
SEQEND
  5
80
330
7D
100
AcDbEntity
  8
_U+30EC_U+30A4_U+30E4_U+30FC 1
 62
   179
420
  2234388
370
     9
  0
POLYLINE
  5
81
330
1F
100
AcDbEntity
  8
_U+30EC_U+30A4_U+30E4_U+30FC 1
 62
   179
420
  2234388
370
     9
100
AcDb2dPolyline
 66
     1
 10
0.0
 20
0.0
 30
0.0
  0
VERTEX
  5
82
330
81
100
AcDbEntity
  8
_U+30EC_U+30A4_U+30E4_U+30FC 1
 62
   179
420
  2234388
370
     9
100
AcDbVertex
100
AcDb2dVertex
 10
106.6609851994361
 20
-157.2056551646238
 30
0.0
  0
VERTEX
  5
83
330
81
100
AcDbEntity
  8
_U+30EC_U+30A4_U+30E4_U+30FC 1
 62
   179
420
  2234388
370
     9
100
AcDbVertex
100
AcDb2dVertex
 10
106.6609851994361
 20
-159.6662823171933
 30
0.0
  0
SEQEND
  5
84
330
81
100
AcDbEntity
  8
_U+30EC_U+30A4_U+30E4_U+30FC 1
 62
   179
420
  2234388
370
     9
  0
INSERT
  5
86
330
1F
100
AcDbEntity
  8
_U+30EC_U+30A4_U+30E4_U+30FC 1
100
AcDbBlockReference
  2
block 2
 10
0.0
 20
0.0
 30
0.0
  0
POLYLINE
  5
8E
330
1F
100
AcDbEntity
  8
_U+30EC_U+30A4_U+30E4_U+30FC 1
 62
   179
420
  2234388
370
     9
100
AcDb2dPolyline
 66
     1
 10
0.0
 20
0.0
 30
0.0
  0
VERTEX
  5
8F
330
8E
100
AcDbEntity
  8
_U+30EC_U+30A4_U+30E4_U+30FC 1
 62
   179
420
  2234388
370
     9
100
AcDbVertex
100
AcDb2dVertex
 10
122.3182497778379
 20
-152.6657244830467
 30
0.0
  0
VERTEX
  5
90
330
8E
100
AcDbEntity
  8
_U+30EC_U+30A4_U+30E4_U+30FC 1
 62
   179
420
  2234388
370
     9
100
AcDbVertex
100
AcDb2dVertex
 10
122.3182497778379
 20
-154.665623944081
 30
0.0
  0
SEQEND
  5
91
330
8E
100
AcDbEntity
  8
_U+30EC_U+30A4_U+30E4_U+30FC 1
 62
   179
420
  2234388
370
     9
  0
POLYLINE
  5
92
330
1F
100
AcDbEntity
  8
_U+30EC_U+30A4_U+30E4_U+30FC 1
 62
   179
420
  2234388
370
     9
100
AcDb2dPolyline
 66
     1
 10
0.0
 20
0.0
 30
0.0
  0
VERTEX
  5
93
330
92
100
AcDbEntity
  8
_U+30EC_U+30A4_U+30E4_U+30FC 1
 62
   179
420
  2234388
370
     9
100
AcDbVertex
100
AcDb2dVertex
 10
109.2608157414565
 20
-152.5657736502809
 30
0.0
  0
VERTEX
  5
94
330
92
100
AcDbEntity
  8
_U+30EC_U+30A4_U+30E4_U+30FC 1
 62
   179
420
  2234388
370
     9
100
AcDbVertex
100
AcDb2dVertex
 10
123.317951892117
 20
-152.5657736502809
 30
0.0
  0
SEQEND
  5
95
330
92
100
AcDbEntity
  8
_U+30EC_U+30A4_U+30E4_U+30FC 1
 62
   179
420
  2234388
370
     9
  0
POLYLINE
  5
96
330
1F
100
AcDbEntity
  8
_U+30EC_U+30A4_U+30E4_U+30FC 1
 62
   179
420
  2234388
370
     9
100
AcDb2dPolyline
 66
     1
 10
0.0
 20
0.0
 30
0.0
  0
VERTEX
  5
97
330
96
100
AcDbEntity
  8
_U+30EC_U+30A4_U+30E4_U+30FC 1
 62
   179
420
  2234388
370
     9
100
AcDbVertex
100
AcDb2dVertex
 10
109.2608157414565
 20
-154.6655808803874
 30
0.0
  0
VERTEX
  5
98
330
96
100
AcDbEntity
  8
_U+30EC_U+30A4_U+30E4_U+30FC 1
 62
   179
420
  2234388
370
     9
100
AcDbVertex
100
AcDb2dVertex
 10
123.317951892117
 20
-154.6655808803874
 30
0.0
  0
SEQEND
  5
99
330
96
100
AcDbEntity
  8
_U+30EC_U+30A4_U+30E4_U+30FC 1
 62
   179
420
  2234388
370
     9
  0
INSERT
  5
9B
330
1F
100
AcDbEntity
  8
_U+30EC_U+30A4_U+30E4_U+30FC 1
100
AcDbBlockReference
  2
block 3
 10
0.0
 20
0.0
 30
0.0
  0
POLYLINE
  5
A0
330
1F
100
AcDbEntity
  8
_U+30EC_U+30A4_U+30E4_U+30FC 1
 62
   179
420
  2234388
370
     9
100
AcDb2dPolyline
 66
     1
 10
0.0
 20
0.0
 30
0.0
  0
VERTEX
  5
A1
330
A0
100
AcDbEntity
  8
_U+30EC_U+30A4_U+30E4_U+30FC 1
 62
   179
420
  2234388
370
     9
100
AcDbVertex
100
AcDb2dVertex
 10
122.319627816032
 20
-145.9860180807724
 30
0.0
  0
VERTEX
  5
A2
330
A0
100
AcDbEntity
  8
_U+30EC_U+30A4_U+30E4_U+30FC 1
 62
   179
420
  2234388
370
     9
100
AcDbVertex
100
AcDb2dVertex
 10
122.319627816032
 20
-140.9861079393357
 30
0.0
  0
SEQEND
  5
A3
330
A0
100
AcDbEntity
  8
_U+30EC_U+30A4_U+30E4_U+30FC 1
 62
   179
420
  2234388
370
     9
  0
POLYLINE
  5
A4
330
1F
100
AcDbEntity
  8
_U+30EC_U+30A4_U+30E4_U+30FC 1
 62
   179
420
  2234388
370
     9
100
AcDb2dPolyline
 66
     1
 10
0.0
 20
0.0
 30
0.0
  0
VERTEX
  5
A5
330
A4
100
AcDbEntity
  8
_U+30EC_U+30A4_U+30E4_U+30FC 1
 62
   179
420
  2234388
370
     9
100
AcDbVertex
100
AcDb2dVertex
 10
120.8595855834597
 20
-144.8860206241789
 30
0.0
  0
VERTEX
  5
A6
330
A4
100
AcDbEntity
  8
_U+30EC_U+30A4_U+30E4_U+30FC 1
 62
   179
420
  2234388
370
     9
100
AcDbVertex
100
AcDb2dVertex
 10
123.3195021850854
 20
-144.8860206241789
 30
0.0
  0
SEQEND
  5
A7
330
A4
100
AcDbEntity
  8
_U+30EC_U+30A4_U+30E4_U+30FC 1
 62
   179
420
  2234388
370
     9
  0
INSERT
  5
A9
330
1F
100
AcDbEntity
  8
_U+30EC_U+30A4_U+30E4_U+30FC 1
100
AcDbBlockReference
  2
block 4
 10
0.0
 20
0.0
 30
0.0
  0
POLYLINE
  5
AE
330
1F
100
AcDbEntity
  8
_U+30EC_U+30A4_U+30E4_U+30FC 1
 62
   179
420
  2234388
370
     9
100
AcDb2dPolyline
 66
     1
 10
0.0
 20
0.0
 30
0.0
  0
VERTEX
  5
AF
330
AE
100
AcDbEntity
  8
_U+30EC_U+30A4_U+30E4_U+30FC 1
 62
   179
420
  2234388
370
     9
100
AcDbVertex
100
AcDb2dVertex
 10
88.3198216747313
 20
-140.8862539998804
 30
0.0
  0
VERTEX
  5
B0
330
AE
100
AcDbEntity
  8
_U+30EC_U+30A4_U+30E4_U+30FC 1
 62
   179
420
  2234388
370
     9
100
AcDbVertex
100
AcDb2dVertex
 10
118.319339044449
 20
-140.8862539998804
 30
0.0
  0
SEQEND
  5
B1
330
AE
100
AcDbEntity
  8
_U+30EC_U+30A4_U+30E4_U+30FC 1
 62
   179
420
  2234388
370
     9
  0
POLYLINE
  5
B2
330
1F
100
AcDbEntity
  8
_U+30EC_U+30A4_U+30E4_U+30FC 1
 62
   179
420
  2234388
370
     9
100
AcDb2dPolyline
 66
     1
 10
0.0
 20
0.0
 30
0.0
  0
VERTEX
  5
B3
330
B2
100
AcDbEntity
  8
_U+30EC_U+30A4_U+30E4_U+30FC 1
 62
   179
420
  2234388
370
     9
100
AcDbVertex
100
AcDb2dVertex
 10
88.3198216747313
 20
-142.3462639346825
 30
0.0
  0
VERTEX
  5
B4
330
B2
100
AcDbEntity
  8
_U+30EC_U+30A4_U+30E4_U+30FC 1
 62
   179
420
  2234388
370
     9
100
AcDbVertex
100
AcDb2dVertex
 10
88.3198216747313
 20
-139.8859920575852
 30
0.0
  0
SEQEND
  5
B5
330
B2
100
AcDbEntity
  8
_U+30EC_U+30A4_U+30E4_U+30FC 1
 62
   179
420
  2234388
370
     9
  0
POLYLINE
  5
B6
330
1F
100
AcDbEntity
  8
_U+30EC_U+30A4_U+30E4_U+30FC 1
 62
   179
420
  2234388
370
     9
100
AcDb2dPolyline
 66
     1
 10
0.0
 20
0.0
 30
0.0
  0
VERTEX
  5
B7
330
B6
100
AcDbEntity
  8
_U+30EC_U+30A4_U+30E4_U+30FC 1
 62
   179
420
  2234388
370
     9
100
AcDbVertex
100
AcDb2dVertex
 10
118.3191990874449
 20
-142.3462639346825
 30
0.0
  0
VERTEX
  5
B8
330
B6
100
AcDbEntity
  8
_U+30EC_U+30A4_U+30E4_U+30FC 1
 62
   179
420
  2234388
370
     9
100
AcDbVertex
100
AcDb2dVertex
 10
118.3191990874449
 20
-139.8859920575852
 30
0.0
  0
SEQEND
  5
B9
330
B6
100
AcDbEntity
  8
_U+30EC_U+30A4_U+30E4_U+30FC 1
 62
   179
420
  2234388
370
     9
  0
INSERT
  5
BB
330
1F
100
AcDbEntity
  8
_U+30EC_U+30A4_U+30E4_U+30FC 1
100
AcDbBlockReference
  2
block 5
 10
0.0
 20
0.0
 30
0.0
  0
POLYLINE
  5
C3
330
1F
100
AcDbEntity
  8
_U+30EC_U+30A4_U+30E4_U+30FC 1
 62
   179
420
  2234388
370
     9
100
AcDb2dPolyline
 66
     1
 10
0.0
 20
0.0
 30
0.0
  0
VERTEX
  5
C4
330
C3
100
AcDbEntity
  8
_U+30EC_U+30A4_U+30E4_U+30FC 1
 62
   179
420
  2234388
370
     9
100
AcDbVertex
100
AcDb2dVertex
 10
122.319627816032
 20
-145.9860180807724
 30
0.0
  0
VERTEX
  5
C5
330
C3
100
AcDbEntity
  8
_U+30EC_U+30A4_U+30E4_U+30FC 1
 62
   179
420
  2234388
370
     9
100
AcDbVertex
100
AcDb2dVertex
 10
122.318212097106
 20
-152.5656767569704
 30
0.0
  0
SEQEND
  5
C6
330
C3
100
AcDbEntity
  8
_U+30EC_U+30A4_U+30E4_U+30FC 1
 62
   179
420
  2234388
370
     9
  0
POLYLINE
  5
C7
330
1F
100
AcDbEntity
  8
_U+30EC_U+30A4_U+30E4_U+30FC 1
 62
   179
420
  2234388
370
     9
100
AcDb2dPolyline
 66
     1
 10
0.0
 20
0.0
 30
0.0
  0
VERTEX
  5
C8
330
C7
100
AcDbEntity
  8
_U+30EC_U+30A4_U+30E4_U+30FC 1
 62
   179
420
  2234388
370
     9
100
AcDbVertex
100
AcDb2dVertex
 10
120.8595855834597
 20
-145.885722738458
 30
0.0
  0
VERTEX
  5
C9
330
C7
100
AcDbEntity
  8
_U+30EC_U+30A4_U+30E4_U+30FC 1
 62
   179
420
  2234388
370
     9
100
AcDbVertex
100
AcDb2dVertex
 10
123.3195021850854
 20
-145.885722738458
 30
0.0
  0
SEQEND
  5
CA
330
C7
100
AcDbEntity
  8
_U+30EC_U+30A4_U+30E4_U+30FC 1
 62
   179
420
  2234388
370
     9
  0
INSERT
  5
CC
330
1F
100
AcDbEntity
  8
_U+30EC_U+30A4_U+30E4_U+30FC 1
100
AcDbBlockReference
  2
block 6
 10
0.0
 20
0.0
 30
0.0
  0
ENDSEC
  0
SECTION
  2
OBJECTS
  0
DICTIONARY
  5
C
330
0
100
AcDbDictionary
281
     1
  3
ACAD_GROUP
350
D
  3
ACAD_LAYOUT
350
1A
  3
ACAD_MATERIAL
350
3B
  3
ACAD_MLEADERSTYLE
350
DD
  3
ACAD_MLINESTYLE
350
17
  3
ACAD_PLOTSETTINGS
350
19
  3
ACAD_PLOTSTYLENAME
350
E
  3
ACAD_TABLESTYLE
350
DC
  3
ACAD_VISUALSTYLE
350
2A
  0
SUN
  5
3F
330
29
100
AcDbSun
 90
        1
290
     0
 63
     7
421
 16777215
 40
1.0
291
     1
 91
  2455826
 92
 54000000
292
     0
 70
     2
 71
   256
280
     1
  0
DICTIONARY
  5
D
102
{ACAD_REACTORS
330
C
102
}
330
C
100
AcDbDictionary
281
     1
  0
DICTIONARY
  5
1A
102
{ACAD_REACTORS
330
C
102
}
330
C
100
AcDbDictionary
281
     1
  3
Layout1
350
1E
  3
Layout2
350
26
  3
Model
350
22
  0
DICTIONARY
  5
3B
102
{ACAD_REACTORS
330
C
102
}
330
C
100
AcDbDictionary
281
     1
  3
ByBlock
350
3D
  3
ByLayer
350
3C
  3
Global
350
3E
  0
DICTIONARY
  5
DD
102
{ACAD_REACTORS
330
C
102
}
330
C
100
AcDbDictionary
281
     1
  0
DICTIONARY
  5
17
102
{ACAD_REACTORS
330
C
102
}
330
C
100
AcDbDictionary
281
     1
  3
Standard
350
18
  0
DICTIONARY
  5
19
102
{ACAD_REACTORS
330
C
102
}
330
C
100
AcDbDictionary
281
     1
  0
ACDBDICTIONARYWDFLT
  5
E
102
{ACAD_REACTORS
330
C
102
}
330
C
100
AcDbDictionary
281
     1
  3
Normal
350
F
100
AcDbDictionaryWithDefault
340
F
  0
DICTIONARY
  5
DC
102
{ACAD_REACTORS
330
C
102
}
330
C
100
AcDbDictionary
281
     1
  0
DICTIONARY
  5
2A
102
{ACAD_REACTORS
330
C
102
}
330
C
100
AcDbDictionary
281
     1
  3
2dWireframe
350
2F
  3
3D Hidden
350
31
  3
3dWireframe
350
30
  3
Basic
350
32
  3
Brighten
350
36
  3
ColorChange
350
3A
  3
Conceptual
350
34
  3
Dim
350
35
  3
Facepattern
350
39
  3
Flat
350
2B
  3
FlatWithEdges
350
2C
  3
Gouraud
350
2D
  3
GouraudWithEdges
350
2E
  3
Linepattern
350
38
  3
Realistic
350
33
  3
Thicken
350
37
  0
LAYOUT
  5
1E
102
{ACAD_REACTORS
330
1A
102
}
330
1A
100
AcDbPlotSettings
  1

  2
none_device
  4

  6

 40
0.0
 41
0.0
 42
0.0
 43
0.0
 44
0.0
 45
0.0
 46
0.0
 47
0.0
 48
0.0
 49
0.0
140
0.0
141
0.0
142
1.0
143
1.0
 70
   688
 72
     0
 73
     0
 74
     5
  7

 75
    16
 76
     0
 77
     2
 78
   300
147
1.0
148
0.0
149
0.0
100
AcDbLayout
  1
Layout1
 70
     1
 71
     1
 10
0.0
 20
0.0
 11
12.0
 21
9.0
 12
0.0
 22
0.0
 32
0.0
 14
1.000000000000000E+20
 24
1.000000000000000E+20
 34
1.000000000000000E+20
 15
-1.000000000000000E+20
 25
-1.000000000000000E+20
 35
-1.000000000000000E+20
146
0.0
 13
0.0
 23
0.0
 33
0.0
 16
1.0
 26
0.0
 36
0.0
 17
0.0
 27
1.0
 37
0.0
 76
     0
330
1B
  0
LAYOUT
  5
26
102
{ACAD_REACTORS
330
1A
102
}
330
1A
100
AcDbPlotSettings
  1

  2
none_device
  4

  6

 40
0.0
 41
0.0
 42
0.0
 43
0.0
 44
0.0
 45
0.0
 46
0.0
 47
0.0
 48
0.0
 49
0.0
140
0.0
141
0.0
142
1.0
143
1.0
 70
   688
 72
     0
 73
     0
 74
     5
  7

 75
    16
 76
     0
 77
     2
 78
   300
147
1.0
148
0.0
149
0.0
100
AcDbLayout
  1
Layout2
 70
     1
 71
     2
 10
0.0
 20
0.0
 11
0.0
 21
0.0
 12
0.0
 22
0.0
 32
0.0
 14
0.0
 24
0.0
 34
0.0
 15
0.0
 25
0.0
 35
0.0
146
0.0
 13
0.0
 23
0.0
 33
0.0
 16
1.0
 26
0.0
 36
0.0
 17
0.0
 27
1.0
 37
0.0
 76
     0
330
23
  0
LAYOUT
  5
22
102
{ACAD_REACTORS
330
1A
102
}
330
1A
100
AcDbPlotSettings
  1

  2
none_device
  4

  6

 40
0.0
 41
0.0
 42
0.0
 43
0.0
 44
0.0
 45
0.0
 46
0.0
 47
0.0
 48
0.0
 49
0.0
140
0.0
141
0.0
142
1.0
143
1.0
 70
  1712
 72
     0
 73
     0
 74
     0
  7

 75
     0
 76
     0
 77
     2
 78
   300
147
1.0
148
0.0
149
0.0
100
AcDbLayout
  1
Model
 70
     1
 71
     0
 10
0.0
 20
0.0
 11
12.0
 21
9.0
 12
0.0
 22
0.0
 32
0.0
 14
1.000000000000000E+20
 24
1.000000000000000E+20
 34
1.000000000000000E+20
 15
-1.000000000000000E+20
 25
-1.000000000000000E+20
 35
-1.000000000000000E+20
146
0.0
 13
0.0
 23
0.0
 33
0.0
 16
1.0
 26
0.0
 36
0.0
 17
0.0
 27
1.0
 37
0.0
 76
     0
330
1F
331
29
  0
MATERIAL
  5
3D
102
{ACAD_REACTORS
330
3B
102
}
330
3B
100
AcDbMaterial
  1
ByBlock
 72
     1
 94
      127
  0
MATERIAL
  5
3C
102
{ACAD_REACTORS
330
3B
102
}
330
3B
100
AcDbMaterial
  1
ByLayer
 72
     1
 94
      127
  0
MATERIAL
  5
3E
102
{ACAD_REACTORS
330
3B
102
}
330
3B
100
AcDbMaterial
  1
Global
 72
     1
 94
      127
  0
MLINESTYLE
  5
18
102
{ACAD_REACTORS
330
17
102
}
330
17
100
AcDbMlineStyle
  2
Standard
 70
     0
  3

 62
   256
 51
90.0
 52
90.0
 71
     2
 49
0.5
 62
   256
  6
BYLAYER
 49
-0.5
 62
   256
  6
BYLAYER
  0
ACDBPLACEHOLDER
  5
F
102
{ACAD_REACTORS
330
E
102
}
330
E
  0
VISUALSTYLE
  5
2F
102
{ACAD_REACTORS
330
2A
102
}
330
2A
100
AcDbVisualStyle
  2
2dWireframe
 70
     4
177
     2
291
     0
 71
     0
176
     1
 72
     2
176
     1
 73
     0
176
     1
 90
        0
176
     1
 40
-0.6
176
     1
 41
-30.0
176
     1
 62
     5
 63
     7
421
 16777215
176
     1
 74
     1
176
     1
 91
        4
176
     1
 64
     7
176
     1
 65
   257
176
     1
 75
     1
176
     1
175
     1
176
     1
 42
1.0
176
     1
 92
        0
176
     1
 66
   257
176
     1
 43
1.0
176
     1
 76
     1
176
     1
 77
     6
176
     1
 78
     2
176
     1
 67
     7
176
     1
 79
     5
176
     1
170
     0
176
     1
171
     0
176
     1
290
     0
176
     1
 93
        1
176
     1
 44
0.0
176
     1
173
     0
176
     1
  0
VISUALSTYLE
  5
31
102
{ACAD_REACTORS
330
2A
102
}
330
2A
100
AcDbVisualStyle
  2
3D Hidden
 70
     6
177
     2
291
     0
 71
     1
176
     1
 72
     2
176
     1
 73
     2
176
     1
 90
        0
176
     1
 40
-0.6
176
     1
 41
-30.0
176
     1
 62
     5
 63
     7
421
 16777215
176
     1
 74
     2
176
     1
 91
        2
176
     1
 64
     7
176
     1
 65
   257
176
     1
 75
     2
176
     1
175
     1
176
     1
 42
40.0
176
     1
 92
        0
176
     1
 66
   257
176
     1
 43
1.0
176
     1
 76
     1
176
     1
 77
     6
176
     1
 78
     2
176
     1
 67
     7
176
     1
 79
     3
176
     1
170
     0
176
     1
171
     0
176
     1
290
     0
176
     1
 93
        1
176
     1
 44
0.0
176
     1
173
     0
176
     1
  0
VISUALSTYLE
  5
30
102
{ACAD_REACTORS
330
2A
102
}
330
2A
100
AcDbVisualStyle
  2
3dWireframe
 70
     5
177
     2
291
     0
 71
     0
176
     1
 72
     2
176
     1
 73
     0
176
     1
 90
        0
176
     1
 40
-0.6
176
     1
 41
-30.0
176
     1
 62
     5
 63
     7
421
 16777215
176
     1
 74
     1
176
     1
 91
        4
176
     1
 64
     7
176
     1
 65
   257
176
     1
 75
     1
176
     1
175
     1
176
     1
 42
1.0
176
     1
 92
        0
176
     1
 66
   257
176
     1
 43
1.0
176
     1
 76
     1
176
     1
 77
     6
176
     1
 78
     2
176
     1
 67
     7
176
     1
 79
     5
176
     1
170
     0
176
     1
171
     0
176
     1
290
     0
176
     1
 93
        1
176
     1
 44
0.0
176
     1
173
     0
176
     1
  0
VISUALSTYLE
  5
32
102
{ACAD_REACTORS
330
2A
102
}
330
2A
100
AcDbVisualStyle
  2
Basic
 70
     7
177
     2
291
     1
 71
     1
176
     1
 72
     0
176
     1
 73
     1
176
     1
 90
        0
176
     1
 40
-0.6
176
     1
 41
-30.0
176
     1
 62
     5
 63
     7
421
 16777215
176
     1
 74
     0
176
     1
 91
        4
176
     1
 64
     7
176
     1
 65
   257
176
     1
 75
     1
176
     1
175
     1
176
     1
 42
1.0
176
     1
 92
        8
176
     1
 66
     7
176
     1
 43
1.0
176
     1
 76
     1
176
     1
 77
     6
176
     1
 78
     2
176
     1
 67
     7
176
     1
 79
     5
176
     1
170
     0
176
     1
171
     0
176
     1
290
     0
176
     1
 93
        1
176
     1
 44
0.0
176
     1
173
     0
176
     1
  0
VISUALSTYLE
  5
36
102
{ACAD_REACTORS
330
2A
102
}
330
2A
100
AcDbVisualStyle
  2
Brighten
 70
    12
177
     2
291
     1
 71
     2
176
     1
 72
     2
176
     1
 73
     0
176
     1
 90
        0
176
     1
 40
-0.6
176
     1
 41
-30.0
176
     1
 62
     5
 63
     7
421
 16777215
176
     1
 74
     1
176
     1
 91
        4
176
     1
 64
     7
176
     1
 65
   257
176
     1
 75
     1
176
     1
175
     1
176
     1
 42
1.0
176
     1
 92
        8
176
     1
 66
     7
176
     1
 43
1.0
176
     1
 76
     1
176
     1
 77
     6
176
     1
 78
     2
176
     1
 67
     7
176
     1
 79
     5
176
     1
170
     0
176
     1
171
     0
176
     1
290
     0
176
     1
 93
        1
176
     1
 44
50.0
176
     1
173
     0
176
     1
  0
VISUALSTYLE
  5
3A
102
{ACAD_REACTORS
330
2A
102
}
330
2A
100
AcDbVisualStyle
  2
ColorChange
 70
    16
177
     2
291
     1
 71
     2
176
     1
 72
     2
176
     1
 73
     3
176
     1
 90
        0
176
     1
 40
-0.6
176
     1
 41
-30.0
176
     1
 62
     5
 63
     8
421
  8421504
176
     1
 74
     1
176
     1
 91
        4
176
     1
 64
     7
176
     1
 65
   257
176
     1
 75
     1
176
     1
175
     1
176
     1
 42
1.0
176
     1
 92
        8
176
     1
 66
     8
424
  8421504
176
     1
 43
1.0
176
     1
 76
     1
176
     1
 77
     6
176
     1
 78
     2
176
     1
 67
     7
176
     1
 79
     5
176
     1
170
     0
176
     1
171
     0
176
     1
290
     0
176
     1
 93
        1
176
     1
 44
0.0
176
     1
173
     0
176
     1
  0
VISUALSTYLE
  5
34
102
{ACAD_REACTORS
330
2A
102
}
330
2A
100
AcDbVisualStyle
  2
Conceptual
 70
     9
177
     2
291
     0
 71
     3
176
     1
 72
     2
176
     1
 73
     0
176
     1
 90
        0
176
     1
 40
-0.6
176
     1
 41
-30.0
176
     1
 62
     5
 63
     7
421
 16777215
176
     1
 74
     2
176
     1
 91
        2
176
     1
 64
     7
176
     1
 65
   257
176
     1
 75
     1
176
     1
175
     1
176
     1
 42
40.0
176
     1
 92
        8
176
     1
 66
     7
176
     1
 43
1.0
176
     1
 76
     1
176
     1
 77
     6
176
     1
 78
     2
176
     1
 67
     7
176
     1
 79
     3
176
     1
170
     0
176
     1
171
     0
176
     1
290
     0
176
     1
 93
        1
176
     1
 44
0.0
176
     1
173
     0
176
     1
  0
VISUALSTYLE
  5
35
102
{ACAD_REACTORS
330
2A
102
}
330
2A
100
AcDbVisualStyle
  2
Dim
 70
    11
177
     2
291
     1
 71
     2
176
     1
 72
     2
176
     1
 73
     0
176
     1
 90
        0
176
     1
 40
-0.6
176
     1
 41
-30.0
176
     1
 62
     5
 63
     7
421
 16777215
176
     1
 74
     1
176
     1
 91
        4
176
     1
 64
     7
176
     1
 65
   257
176
     1
 75
     1
176
     1
175
     1
176
     1
 42
1.0
176
     1
 92
        8
176
     1
 66
     7
176
     1
 43
1.0
176
     1
 76
     1
176
     1
 77
     6
176
     1
 78
     2
176
     1
 67
     7
176
     1
 79
     5
176
     1
170
     0
176
     1
171
     0
176
     1
290
     0
176
     1
 93
        1
176
     1
 44
-50.0
176
     1
173
     0
176
     1
  0
VISUALSTYLE
  5
39
102
{ACAD_REACTORS
330
2A
102
}
330
2A
100
AcDbVisualStyle
  2
Facepattern
 70
    15
177
     2
291
     1
 71
     2
176
     1
 72
     2
176
     1
 73
     0
176
     1
 90
        0
176
     1
 40
-0.6
176
     1
 41
-30.0
176
     1
 62
     5
 63
     7
421
 16777215
176
     1
 74
     1
176
     1
 91
        4
176
     1
 64
     7
176
     1
 65
   257
176
     1
 75
     1
176
     1
175
     1
176
     1
 42
1.0
176
     1
 92
        8
176
     1
 66
     7
176
     1
 43
1.0
176
     1
 76
     1
176
     1
 77
     6
176
     1
 78
     2
176
     1
 67
     7
176
     1
 79
     5
176
     1
170
     0
176
     1
171
     0
176
     1
290
     0
176
     1
 93
        1
176
     1
 44
0.0
176
     1
173
     0
176
     1
  0
VISUALSTYLE
  5
2B
102
{ACAD_REACTORS
330
2A
102
}
330
2A
100
AcDbVisualStyle
  2
Flat
 70
     0
177
     2
291
     1
 71
     2
176
     1
 72
     1
176
     1
 73
     1
176
     1
 90
        2
176
     1
 40
-0.6
176
     1
 41
30.0
176
     1
 62
     5
 63
     7
421
 16777215
176
     1
 74
     0
176
     1
 91
        4
176
     1
 64
     7
176
     1
 65
   257
176
     1
 75
     1
176
     1
175
     1
176
     1
 42
1.0
176
     1
 92
        8
176
     1
 66
     7
176
     1
 43
1.0
176
     1
 76
     1
176
     1
 77
     6
176
     1
 78
     2
176
     1
 67
     7
176
     1
 79
     5
176
     1
170
     0
176
     1
171
     0
176
     1
290
     0
176
     1
 93
       13
176
     1
 44
0.0
176
     1
173
     0
176
     1
  0
VISUALSTYLE
  5
2C
102
{ACAD_REACTORS
330
2A
102
}
330
2A
100
AcDbVisualStyle
  2
FlatWithEdges
 70
     1
177
     2
291
     1
 71
     2
176
     1
 72
     1
176
     1
 73
     1
176
     1
 90
        2
176
     1
 40
-0.6
176
     1
 41
30.0
176
     1
 62
     5
 63
     7
421
 16777215
176
     1
 74
     1
176
     1
 91
        4
176
     1
 64
     7
176
     1
 65
   257
176
     1
 75
     1
176
     1
175
     1
176
     1
 42
1.0
176
     1
 92
        0
176
     1
 66
   257
176
     1
 43
1.0
176
     1
 76
     1
176
     1
 77
     6
176
     1
 78
     2
176
     1
 67
     7
176
     1
 79
     5
176
     1
170
     0
176
     1
171
     0
176
     1
290
     0
176
     1
 93
       13
176
     1
 44
0.0
176
     1
173
     0
176
     1
  0
VISUALSTYLE
  5
2D
102
{ACAD_REACTORS
330
2A
102
}
330
2A
100
AcDbVisualStyle
  2
Gouraud
 70
     2
177
     2
291
     1
 71
     2
176
     1
 72
     2
176
     1
 73
     1
176
     1
 90
        2
176
     1
 40
-0.6
176
     1
 41
30.0
176
     1
 62
     5
 63
     7
421
 16777215
176
     1
 74
     0
176
     1
 91
        4
176
     1
 64
     7
176
     1
 65
   257
176
     1
 75
     1
176
     1
175
     1
176
     1
 42
1.0
176
     1
 92
        0
176
     1
 66
     7
176
     1
 43
1.0
176
     1
 76
     1
176
     1
 77
     6
176
     1
 78
     2
176
     1
 67
     7
176
     1
 79
     5
176
     1
170
     0
176
     1
171
     0
176
     1
290
     0
176
     1
 93
       13
176
     1
 44
0.0
176
     1
173
     0
176
     1
  0
VISUALSTYLE
  5
2E
102
{ACAD_REACTORS
330
2A
102
}
330
2A
100
AcDbVisualStyle
  2
GouraudWithEdges
 70
     3
177
     2
291
     1
 71
     2
176
     1
 72
     2
176
     1
 73
     1
176
     1
 90
        2
176
     1
 40
-0.6
176
     1
 41
30.0
176
     1
 62
     5
 63
     7
421
 16777215
176
     1
 74
     1
176
     1
 91
        4
176
     1
 64
     7
176
     1
 65
   257
176
     1
 75
     1
176
     1
175
     1
176
     1
 42
1.0
176
     1
 92
        0
176
     1
 66
   257
176
     1
 43
1.0
176
     1
 76
     1
176
     1
 77
     6
176
     1
 78
     2
176
     1
 67
     7
176
     1
 79
     5
176
     1
170
     0
176
     1
171
     0
176
     1
290
     0
176
     1
 93
       13
176
     1
 44
0.0
176
     1
173
     0
176
     1
  0
VISUALSTYLE
  5
38
102
{ACAD_REACTORS
330
2A
102
}
330
2A
100
AcDbVisualStyle
  2
Linepattern
 70
    14
177
     2
291
     1
 71
     2
176
     1
 72
     2
176
     1
 73
     0
176
     1
 90
        0
176
     1
 40
-0.6
176
     1
 41
-30.0
176
     1
 62
     5
 63
     7
421
 16777215
176
     1
 74
     1
176
     1
 91
        4
176
     1
 64
     7
176
     1
 65
   257
176
     1
 75
     7
176
     1
175
     7
176
     1
 42
1.0
176
     1
 92
        8
176
     1
 66
     7
176
     1
 43
1.0
176
     1
 76
     1
176
     1
 77
     6
176
     1
 78
     2
176
     1
 67
     7
176
     1
 79
     5
176
     1
170
     0
176
     1
171
     0
176
     1
290
     0
176
     1
 93
        1
176
     1
 44
0.0
176
     1
173
     0
176
     1
  0
VISUALSTYLE
  5
33
102
{ACAD_REACTORS
330
2A
102
}
330
2A
100
AcDbVisualStyle
  2
Realistic
 70
     8
177
     2
291
     0
 71
     2
176
     1
 72
     2
176
     1
 73
     0
176
     1
 90
        0
176
     1
 40
-0.6
176
     1
 41
-30.0
176
     1
 62
     5
 63
     7
421
 16777215
176
     1
 74
     1
176
     1
 91
        0
176
     1
 64
     7
176
     1
 65
   257
176
     1
 75
     1
176
     1
175
     1
176
     1
 42
1.0
176
     1
 92
        8
176
     1
 66
     8
424
  7895160
176
     1
 43
1.0
176
     1
 76
     1
176
     1
 77
     6
176
     1
 78
     2
176
     1
 67
     7
176
     1
 79
     5
176
     1
170
     0
176
     1
171
     0
176
     1
290
     0
176
     1
 93
       13
176
     1
 44
0.0
176
     1
173
     0
176
     1
  0
VISUALSTYLE
  5
37
102
{ACAD_REACTORS
330
2A
102
}
330
2A
100
AcDbVisualStyle
  2
Thicken
 70
    13
177
     2
291
     1
 71
     2
176
     1
 72
     2
176
     1
 73
     0
176
     1
 90
        0
176
     1
 40
-0.6
176
     1
 41
-30.0
176
     1
 62
     5
 63
     7
421
 16777215
176
     1
 74
     1
176
     1
 91
        4
176
     1
 64
     7
176
     1
 65
   257
176
     1
 75
     1
176
     1
175
     1
176
     1
 42
1.0
176
     1
 92
       12
176
     1
 66
     7
176
     1
 43
1.0
176
     1
 76
     1
176
     1
 77
     6
176
     1
 78
     2
176
     1
 67
     7
176
     1
 79
     5
176
     1
170
     0
176
     1
171
     0
176
     1
290
     0
176
     1
 93
        1
176
     1
 44
0.0
176
     1
173
     0
176
     1
  0
ENDSEC
  0
EOF
