  0
SECTION
  2
HEADER
  9
$ACADVER
  1
AC1024
  9
$ACADMAINTVER
 70
     6
  9
$DWGCODEPAGE
  3
UNDEFINED
  9
$INSBASE
 10
0.0
 20
0.0
 30
0.0
  9
$EXTMIN
 10
1.000000000000000E+20
 20
1.000000000000000E+20
 30
1.000000000000000E+20
  9
$EXTMAX
 10
-1.000000000000000E+20
 20
-1.000000000000000E+20
 30
-1.000000000000000E+20
  9
$LIMMIN
 10
0.0
 20
0.0
  9
$LIMMAX
 10
12.0
 20
9.0
  9
$ORTHOMODE
 70
     0
  9
$REGENMODE
 70
     1
  9
$FILLMODE
 70
     1
  9
$QTEXTMODE
 70
     0
  9
$MIRRTEXT
 70
     1
  9
$LTSCALE
 40
1.0
  9
$ATTMODE
 70
     1
  9
$TEXTSIZE
 40
0.2
  9
$TRACEWID
 40
0.05
  9
$TEXTSTYLE
  7
Standard
  9
$CLAYER
  8
0
  9
$CELTYPE
  6
ByLayer
  9
$CECOLOR
 62
   256
  9
$CELTSCALE
 40
1.0
  9
$DISPSILH
 70
     0
  9
$DIMSCALE
 40
1.0
  9
$DIMASZ
 40
0.18
  9
$DIMEXO
 40
0.0625
  9
$DIMDLI
 40
0.38
  9
$DIMRND
 40
0.0
  9
$DIMDLE
 40
0.0
  9
$DIMEXE
 40
0.18
  9
$DIMTP
 40
0.0
  9
$DIMTM
 40
0.0
  9
$DIMTXT
 40
0.18
  9
$DIMCEN
 40
0.09
  9
$DIMTSZ
 40
0.0
  9
$DIMTOL
 70
     0
  9
$DIMLIM
 70
     0
  9
$DIMTIH
 70
     1
  9
$DIMTOH
 70
     1
  9
$DIMSE1
 70
     0
  9
$DIMSE2
 70
     0
  9
$DIMTAD
 70
     0
  9
$DIMZIN
 70
     0
  9
$DIMBLK
  1

  9
$DIMASO
 70
     1
  9
$DIMSHO
 70
     1
  9
$DIMPOST
  1

  9
$DIMAPOST
  1

  9
$DIMALT
 70
     0
  9
$DIMALTD
 70
     2
  9
$DIMALTF
 40
25.4
  9
$DIMLFAC
 40
1.0
  9
$DIMTOFL
 70
     0
  9
$DIMTVP
 40
0.0
  9
$DIMTIX
 70
     0
  9
$DIMSOXD
 70
     0
  9
$DIMSAH
 70
     0
  9
$DIMBLK1
  1

  9
$DIMBLK2
  1

  9
$DIMSTYLE
  2
Standard
  9
$DIMCLRD
 70
     0
  9
$DIMCLRE
 70
     0
  9
$DIMCLRT
 70
     0
  9
$DIMTFAC
 40
1.0
  9
$DIMGAP
 40
0.09
  9
$DIMJUST
 70
     0
  9
$DIMSD1
 70
     0
  9
$DIMSD2
 70
     0
  9
$DIMTOLJ
 70
     1
  9
$DIMTZIN
 70
     0
  9
$DIMALTZ
 70
     0
  9
$DIMALTTZ
 70
     0
  9
$DIMUPT
 70
     0
  9
$DIMDEC
 70
     4
  9
$DIMTDEC
 70
     4
  9
$DIMALTU
 70
     2
  9
$DIMALTTD
 70
     2
  9
$DIMTXSTY
  7
Standard
  9
$DIMAUNIT
 70
     0
  9
$DIMADEC
 70
     0
  9
$DIMALTRND
 40
0.0
  9
$DIMAZIN
 70
     0
  9
$DIMDSEP
 70
    46
  9
$DIMATFIT
 70
     3
  9
$DIMFRAC
 70
     0
  9
$DIMLDRBLK
  1

  9
$DIMLUNIT
 70
     2
  9
$DIMLWD
 70
    -2
  9
$DIMLWE
 70
    -2
  9
$DIMTMOVE
 70
     0
  9
$DIMFXL
 40
1.0
  9
$DIMFXLON
 70
     0
  9
$DIMJOGANG
 40
0.7853981633974483
  9
$DIMTFILL
 70
     0
  9
$DIMTFILLCLR
 70
     0
  9
$DIMARCSYM
 70
     0
  9
$DIMLTYPE
  6

  9
$DIMLTEX1
  6

  9
$DIMLTEX2
  6

  9
$DIMTXTDIRECTION
 70
     0
  9
$LUNITS
 70
     2
  9
$LUPREC
 70
     4
  9
$SKETCHINC
 40
0.1
  9
$FILLETRAD
 40
0.5
  9
$AUNITS
 70
     0
  9
$AUPREC
 70
     0
  9
$MENU
  1
.
  9
$ELEVATION
 40
0.0
  9
$PELEVATION
 40
0.0
  9
$THICKNESS
 40
0.0
  9
$LIMCHECK
 70
     0
  9
$CHAMFERA
 40
0.5
  9
$CHAMFERB
 40
0.5
  9
$CHAMFERC
 40
1.0
  9
$CHAMFERD
 40
0.0
  9
$SKPOLY
 70
     0
  9
$TDCREATE
 40
2457917.587835636
  9
$TDUCREATE
 40
2457917.212835648
  9
$TDUPDATE
 40
2457917.587835636
  9
$TDUUPDATE
 40
2457917.212835648
  9
$TDINDWG
 40
0.0000000116
  9
$TDUSRTIMER
 40
0.0000000116
  9
$USRTIMER
 70
     1
  9
$ANGBASE
 50
0.0
  9
$ANGDIR
 70
     0
  9
$PDMODE
 70
     0
  9
$PDSIZE
 40
0.0
  9
$PLINEWID
 40
0.0
  9
$SPLFRAME
 70
     0
  9
$SPLINETYPE
 70
     6
  9
$SPLINESEGS
 70
     8
  9
$HANDSEED
  5
F4
  9
$SURFTAB1
 70
     6
  9
$SURFTAB2
 70
     6
  9
$SURFTYPE
 70
     6
  9
$SURFU
 70
     6
  9
$SURFV
 70
     6
  9
$UCSBASE
  2

  9
$UCSNAME
  2

  9
$UCSORG
 10
0.0
 20
0.0
 30
0.0
  9
$UCSXDIR
 10
1.0
 20
0.0
 30
0.0
  9
$UCSYDIR
 10
0.0
 20
1.0
 30
0.0
  9
$UCSORTHOREF
  2

  9
$UCSORTHOVIEW
 70
     0
  9
$UCSORGTOP
 10
0.0
 20
0.0
 30
0.0
  9
$UCSORGBOTTOM
 10
0.0
 20
0.0
 30
0.0
  9
$UCSORGLEFT
 10
0.0
 20
0.0
 30
0.0
  9
$UCSORGRIGHT
 10
0.0
 20
0.0
 30
0.0
  9
$UCSORGFRONT
 10
0.0
 20
0.0
 30
0.0
  9
$UCSORGBACK
 10
0.0
 20
0.0
 30
0.0
  9
$PUCSBASE
  2

  9
$PUCSNAME
  2

  9
$PUCSORG
 10
0.0
 20
0.0
 30
0.0
  9
$PUCSXDIR
 10
1.0
 20
0.0
 30
0.0
  9
$PUCSYDIR
 10
0.0
 20
1.0
 30
0.0
  9
$PUCSORTHOREF
  2

  9
$PUCSORTHOVIEW
 70
     0
  9
$PUCSORGTOP
 10
0.0
 20
0.0
 30
0.0
  9
$PUCSORGBOTTOM
 10
0.0
 20
0.0
 30
0.0
  9
$PUCSORGLEFT
 10
0.0
 20
0.0
 30
0.0
  9
$PUCSORGRIGHT
 10
0.0
 20
0.0
 30
0.0
  9
$PUCSORGFRONT
 10
0.0
 20
0.0
 30
0.0
  9
$PUCSORGBACK
 10
0.0
 20
0.0
 30
0.0
  9
$USERI1
 70
     0
  9
$USERI2
 70
     0
  9
$USERI3
 70
     0
  9
$USERI4
 70
     0
  9
$USERI5
 70
     0
  9
$USERR1
 40
0.0
  9
$USERR2
 40
0.0
  9
$USERR3
 40
0.0
  9
$USERR4
 40
0.0
  9
$USERR5
 40
0.0
  9
$WORLDVIEW
 70
     1
  9
$SHADEDGE
 70
     3
  9
$SHADEDIF
 70
    70
  9
$TILEMODE
 70
     1
  9
$MAXACTVP
 70
    64
  9
$PINSBASE
 10
0.0
 20
0.0
 30
0.0
  9
$PLIMCHECK
 70
     0
  9
$PEXTMIN
 10
1.000000000000000E+20
 20
1.000000000000000E+20
 30
1.000000000000000E+20
  9
$PEXTMAX
 10
-1.000000000000000E+20
 20
-1.000000000000000E+20
 30
-1.000000000000000E+20
  9
$PLIMMIN
 10
0.0
 20
0.0
  9
$PLIMMAX
 10
12.0
 20
9.0
  9
$UNITMODE
 70
     0
  9
$VISRETAIN
 70
     1
  9
$PLINEGEN
 70
     0
  9
$PSLTSCALE
 70
     1
  9
$TREEDEPTH
 70
  3020
  9
$CMLSTYLE
  2
Standard
  9
$CMLJUST
 70
     0
  9
$CMLSCALE
 40
1.0
  9
$PROXYGRAPHICS
 70
     1
  9
$MEASUREMENT
 70
     0
  9
$CELWEIGHT
370
    -1
  9
$ENDCAPS
280
     0
  9
$JOINSTYLE
280
     0
  9
$LWDISPLAY
290
     1
  9
$INSUNITS
 70
     1
  9
$HYPERLINKBASE
  1

  9
$STYLESHEET
  1

  9
$XEDIT
290
     1
  9
$CEPSNTYPE
380
     0
  9
$PSTYLEMODE
290
     1
  9
$FINGERPRINTGUID
  2
{3527F376-880C-617D-3189-781256D793CB}
  9
$VERSIONGUID
  2
{FAEB1C32-E019-11D5-929B-00C0DF256EC4}
  9
$EXTNAMES
290
     1
  9
$PSVPSCALE
 40
0.0
  9
$OLESTARTUP
290
     0
  9
$SORTENTS
280
   127
  9
$INDEXCTL
280
     0
  9
$HIDETEXT
280
     1
  9
$XCLIPFRAME
280
     2
  9
$HALOGAP
280
     0
  9
$OBSCOLOR
 70
   257
  9
$OBSLTYPE
280
     0
  9
$INTERSECTIONDISPLAY
280
     0
  9
$INTERSECTIONCOLOR
 70
   257
  9
$DIMASSOC
280
     2
  9
$PROJECTNAME
  1

  9
$CAMERADISPLAY
290
     0
  9
$LENSLENGTH
 40
50.0
  9
$CAMERAHEIGHT
 40
0.0
  9
$STEPSPERSEC
 40
2.0
  9
$STEPSIZE
 40
6.0
  9
$3DDWFPREC
 40
2.0
  9
$PSOLWIDTH
 40
0.25
  9
$PSOLHEIGHT
 40
4.0
  9
$LOFTANG1
 40
1.570796326794897
  9
$LOFTANG2
 40
1.570796326794897
  9
$LOFTMAG1
 40
0.0
  9
$LOFTMAG2
 40
0.0
  9
$LOFTPARAM
 70
     7
  9
$LOFTNORMALS
280
     1
  9
$LATITUDE
 40
37.795
  9
$LONGITUDE
 40
-122.394
  9
$NORTHDIRECTION
 40
0.0
  9
$TIMEZONE
 70
 -8000
  9
$LIGHTGLYPHDISPLAY
280
     1
  9
$TILEMODELIGHTSYNCH
280
     1
  9
$CMATERIAL
347
3C
  9
$SOLIDHIST
280
     1
  9
$SHOWHIST
280
     1
  9
$DWFFRAME
280
     2
  9
$DGNFRAME
280
     2
  9
$REALWORLDSCALE
290
     1
  9
$INTERFERECOLOR
 62
   256
  9
$CSHADOW
280
     0
  9
$SHADOWPLANELOCATION
 40
0.0
  0
ENDSEC
  0
SECTION
  2
CLASSES
  0
CLASS
  1
ACDBDICTIONARYWDFLT
  2
AcDbDictionaryWithDefault
  3
ObjectDBX Classes
 90
        0
 91
        4
280
     0
281
     0
  0
CLASS
  1
VISUALSTYLE
  2
AcDbVisualStyle
  3
ObjectDBX Classes
 90
     4095
 91
        4
280
     0
281
     0
  0
CLASS
  1
MATERIAL
  2
AcDbMaterial
  3
ObjectDBX Classes
 90
     1153
 91
        4
280
     0
281
     0
  0
CLASS
  1
SUN
  2
AcDbSun
  3
SCENEOE
 90
     1024
 91
        4
280
     0
281
     0
  0
ENDSEC
  0
SECTION
  2
TABLES
  0
TABLE
  2
VPORT
  5
8
330
0
100
AcDbSymbolTable
 70
     1
  0
VPORT
  5
29
330
8
100
AcDbSymbolTableRecord
100
AcDbViewportTableRecord
  2
*Active
 70
     0
 10
0.0
 20
0.0
 11
1.0
 21
1.0
 12
0.0
 22
0.0
 13
0.0
 23
0.0
 14
0.5
 24
0.5
 15
0.5
 25
0.5
 16
0.0
 26
0.0
 36
1.0
 17
63.499999984125
 27
-89.00059456108309
 37
0.0
 40
178.0011891221662
 41
0.7134783795241226
 42
50.0
 43
0.0
 44
0.0
 50
0.0
 51
0.0
 71
     0
 72
   100
 73
     1
 74
     3
 75
     0
 76
     0
 77
     0
 78
     0
281
     0
 65
     1
110
0.0
120
0.0
130
0.0
111
1.0
121
0.0
131
0.0
112
0.0
122
1.0
132
0.0
 79
     0
146
0.0
 60
     3
 61
     5
292
     1
282
     1
141
0.0
142
0.0
 63
   250
361
3F
  0
ENDTAB
  0
TABLE
  2
LTYPE
  5
5
330
0
100
AcDbSymbolTable
 70
     1
  0
LTYPE
  5
14
330
5
100
AcDbSymbolTableRecord
100
AcDbLinetypeTableRecord
  2
ByBlock
 70
     0
  3

 72
    65
 73
     0
 40
0.0
  0
LTYPE
  5
15
330
5
100
AcDbSymbolTableRecord
100
AcDbLinetypeTableRecord
  2
ByLayer
 70
     0
  3

 72
    65
 73
     0
 40
0.0
  0
LTYPE
  5
16
330
5
100
AcDbSymbolTableRecord
100
AcDbLinetypeTableRecord
  2
Continuous
 70
     0
  3
Solid line
 72
    65
 73
     0
 40
0.0
  0
ENDTAB
  0
TABLE
  2
LAYER
  5
2
330
0
100
AcDbSymbolTable
 70
     2
  0
LAYER
  5
10
330
2
100
AcDbSymbolTableRecord
100
AcDbLayerTableRecord
  2
0
 70
     0
 62
     7
  6
Continuous
370
    -3
390
F
347
3E
  0
LAYER
  5
40
330
2
100
AcDbSymbolTableRecord
100
AcDbLayerTableRecord
  2
_U+30EC_U+30A4_U+30E4_U+30FC 1
 70
     0
 62
     7
  6
Continuous
370
    -3
390
F
347
3E
  0
ENDTAB
  0
TABLE
  2
STYLE
  5
3
330
0
100
AcDbSymbolTable
 70
     1
  0
STYLE
  5
11
330
3
100
AcDbSymbolTableRecord
100
AcDbTextStyleTableRecord
  2
Standard
 70
     0
 40
0.0
 41
1.0
 50
0.0
 71
     0
 42
0.2
  3
txt
  4

  0
ENDTAB
  0
TABLE
  2
VIEW
  5
6
330
0
100
AcDbSymbolTable
 70
     0
  0
ENDTAB
  0
TABLE
  2
UCS
  5
7
330
0
100
AcDbSymbolTable
 70
     0
  0
ENDTAB
  0
TABLE
  2
APPID
  5
9
330
0
100
AcDbSymbolTable
 70
     1
  0
APPID
  5
12
330
9
100
AcDbSymbolTableRecord
100
AcDbRegAppTableRecord
  2
ACAD
 70
     0
  0
ENDTAB
  0
TABLE
  2
DIMSTYLE
  5
A
330
0
100
AcDbSymbolTable
 70
     1
100
AcDbDimStyleTable
  0
DIMSTYLE
105
27
330
A
100
AcDbSymbolTableRecord
100
AcDbDimStyleTableRecord
  2
Standard
 70
     0
178
     0
340
11
  0
ENDTAB
  0
TABLE
  2
BLOCK_RECORD
  5
1
330
0
100
AcDbSymbolTable
 70
     6
  0
BLOCK_RECORD
  5
1F
330
1
100
AcDbSymbolTableRecord
100
AcDbBlockTableRecord
  2
*Model_Space
340
22
 70
     0
280
     1
281
     0
  0
BLOCK_RECORD
  5
1B
330
1
100
AcDbSymbolTableRecord
100
AcDbBlockTableRecord
  2
*Paper_Space
340
1E
 70
     0
280
     1
281
     0
  0
BLOCK_RECORD
  5
23
330
1
100
AcDbSymbolTableRecord
100
AcDbBlockTableRecord
  2
*Paper_Space0
340
26
 70
     0
280
     1
281
     0
  0
BLOCK_RECORD
  5
78
330
1
100
AcDbSymbolTableRecord
100
AcDbBlockTableRecord
  2
block 2
340
0
102
{BLKREFS
331
79
102
}
 70
     0
280
     1
281
     0
  0
BLOCK_RECORD
  5
8A
330
1
100
AcDbSymbolTableRecord
100
AcDbBlockTableRecord
  2
block 3
340
0
102
{BLKREFS
331
8B
102
}
 70
     0
280
     1
281
     0
  0
BLOCK_RECORD
  5
AF
330
1
100
AcDbSymbolTableRecord
100
AcDbBlockTableRecord
  2
block 4
340
0
102
{BLKREFS
331
B0
102
}
 70
     0
280
     1
281
     0
  0
BLOCK_RECORD
  5
BF
330
1
100
AcDbSymbolTableRecord
100
AcDbBlockTableRecord
  2
block 5
340
0
102
{BLKREFS
331
C0
102
}
 70
     0
280
     1
281
     0
  0
BLOCK_RECORD
  5
DF
330
1
100
AcDbSymbolTableRecord
100
AcDbBlockTableRecord
  2
block 6
340
0
102
{BLKREFS
331
E0
102
}
 70
     0
280
     1
281
     0
  0
ENDTAB
  0
ENDSEC
  0
SECTION
  2
BLOCKS
  0
BLOCK
  5
20
330
1F
100
AcDbEntity
  8
0
100
AcDbBlockBegin
  2
*Model_Space
 70
     0
 10
0.0
 20
0.0
 30
0.0
  3
*Model_Space
  1

  0
ENDBLK
  5
21
330
1F
100
AcDbEntity
  8
0
100
AcDbBlockEnd
  0
BLOCK
  5
1C
330
1B
100
AcDbEntity
 67
     1
  8
0
100
AcDbBlockBegin
  2
*Paper_Space
 70
     0
 10
0.0
 20
0.0
 30
0.0
  3
*Paper_Space
  1

  0
ENDBLK
  5
1D
330
1B
100
AcDbEntity
 67
     1
  8
0
100
AcDbBlockEnd
  0
BLOCK
  5
24
330
23
100
AcDbEntity
  8
0
100
AcDbBlockBegin
  2
*Paper_Space0
 70
     0
 10
0.0
 20
0.0
 30
0.0
  3
*Paper_Space0
  1

  0
ENDBLK
  5
25
330
23
100
AcDbEntity
  8
0
100
AcDbBlockEnd
  0
BLOCK
  5
7A
330
78
100
AcDbEntity
  8
0
100
AcDbBlockBegin
  2
block 2
 70
     0
 10
0.0
 20
0.0
 30
0.0
  3
block 2
  1

  0
SPLINE
  5
7C
330
78
100
AcDbEntity
  8
_U+30EC_U+30A4_U+30E4_U+30FC 1
370
     0
100
AcDbSpline
210
0.0
220
0.0
230
1.0
 70
    11
 71
     3
 72
    26
 73
    22
 74
     0
 42
0.0000000001
 43
0.0000000001
 12
1.0
 22
0.0
 32
0.0
 13
1.0
 23
0.0
 33
0.0
 40
0.0
 40
0.0
 40
0.0
 40
0.0
 40
1.0
 40
1.0
 40
1.0
 40
2.0
 40
2.0
 40
2.0
 40
3.0
 40
3.0
 40
3.0
 40
4.0
 40
4.0
 40
4.0
 40
5.0
 40
5.0
 40
5.0
 40
6.0
 40
6.0
 40
6.0
 40
7.0
 40
7.0
 40
7.0
 40
7.0
 10
79.2048122631849
 20
-81.66753877081575
 30
0.0
 10
79.2048122631849
 20
-81.66753877081575
 30
0.0
 10
78.10065916016234
 20
-81.66753877081575
 30
0.0
 10
78.10065916016234
 20
-81.66753877081575
 30
0.0
 10
78.10065916016234
 20
-81.66753877081575
 30
0.0
 10
78.10065916016234
 20
-82.02031654850533
 30
0.0
 10
78.10065916016234
 20
-82.02031654850533
 30
0.0
 10
78.10065916016234
 20
-82.02031654850533
 30
0.0
 10
77.9525200542966
 20
-82.02031654850533
 30
0.0
 10
77.9525200542966
 20
-82.02031654850533
 30
0.0
 10
77.93770614371002
 20
-81.66529945875034
 30
0.0
 10
77.77475312725771
 20
-81.61551782898849
 30
0.0
 10
77.66037595714741
 20
-81.58399520529845
 30
0.0
 10
77.66037595714741
 20
-81.58399520529845
 30
0.0
 10
77.66037595714741
 20
-81.42793237981664
 30
0.0
 10
77.66037595714741
 20
-81.42793237981664
 30
0.0
 10
77.66037595714741
 20
-81.42793237981664
 30
0.0
 10
79.2048122631849
 20
-81.42793237981664
 30
0.0
 10
79.2048122631849
 20
-81.42793237981664
 30
0.0
 10
79.2048122631849
 20
-81.42793237981664
 30
0.0
 10
79.2048122631849
 20
-81.66753877081575
 30
0.0
 10
79.2048122631849
 20
-81.66753877081575
 30
0.0
  0
HATCH
  5
7D
330
78
100
AcDbEntity
  8
_U+30EC_U+30A4_U+30E4_U+30FC 1
 62
   179
420
  2234388
100
AcDbHatch
 10
0.0
 20
0.0
 30
0.0
210
0.0
220
0.0
230
1.0
  2
SOLID
 70
     1
 71
     0
 91
        1
 92
        1
 93
        1
 72
     4
 94
        3
 73
     0
 74
     1
 95
       26
 96
       22
 40
0.0
 40
0.0
 40
0.0
 40
0.0
 40
1.0
 40
1.0
 40
1.0
 40
2.0
 40
2.0
 40
2.0
 40
3.0
 40
3.0
 40
3.0
 40
4.0
 40
4.0
 40
4.0
 40
5.0
 40
5.0
 40
5.0
 40
6.0
 40
6.0
 40
6.0
 40
7.0
 40
7.0
 40
7.0
 40
7.0
 10
79.2048122631849
 20
-81.66753877081575
 10
79.2048122631849
 20
-81.66753877081575
 10
78.10065916016234
 20
-81.66753877081575
 10
78.10065916016234
 20
-81.66753877081575
 10
78.10065916016234
 20
-81.66753877081575
 10
78.10065916016234
 20
-82.02031654850533
 10
78.10065916016234
 20
-82.02031654850533
 10
78.10065916016234
 20
-82.02031654850533
 10
77.9525200542966
 20
-82.02031654850533
 10
77.9525200542966
 20
-82.02031654850533
 10
77.93770614371002
 20
-81.66529945875034
 10
77.77475312725771
 20
-81.61551782898849
 10
77.66037595714741
 20
-81.58399520529845
 10
77.66037595714741
 20
-81.58399520529845
 10
77.66037595714741
 20
-81.42793237981664
 10
77.66037595714741
 20
-81.42793237981664
 10
77.66037595714741
 20
-81.42793237981664
 10
79.2048122631849
 20
-81.42793237981664
 10
79.2048122631849
 20
-81.42793237981664
 10
79.2048122631849
 20
-81.42793237981664
 10
79.2048122631849
 20
-81.66753877081575
 10
79.2048122631849
 20
-81.66753877081575
 97
        0
 97
        0
 75
     2
 76
     1
 98
        0
  0
ENDBLK
  5
7B
330
78
100
AcDbEntity
  8
0
100
AcDbBlockEnd
  0
BLOCK
  5
8C
330
8A
100
AcDbEntity
  8
0
100
AcDbBlockBegin
  2
block 3
 70
     0
 10
0.0
 20
0.0
 30
0.0
  3
block 3
  1

  0
POLYLINE
  5
8E
330
8A
100
AcDbEntity
  8
_U+30EC_U+30A4_U+30E4_U+30FC 1
370
     0
100
AcDb2dPolyline
 66
     1
 10
0.0
 20
0.0
 30
0.0
  0
VERTEX
  5
8F
330
8E
100
AcDbEntity
  8
_U+30EC_U+30A4_U+30E4_U+30FC 1
370
     0
100
AcDbVertex
100
AcDb2dVertex
 10
55.19818113854421
 20
-97.91478133402825
 30
0.0
  0
VERTEX
  5
90
330
8E
100
AcDbEntity
  8
_U+30EC_U+30A4_U+30E4_U+30FC 1
370
     0
100
AcDbVertex
100
AcDb2dVertex
 10
55.19818113854421
 20
-98.26170244939291
 30
0.0
  0
VERTEX
  5
91
330
8E
100
AcDbEntity
  8
_U+30EC_U+30A4_U+30E4_U+30FC 1
370
     0
100
AcDbVertex
100
AcDb2dVertex
 10
54.96546493851558
 20
-98.26170244939291
 30
0.0
  0
VERTEX
  5
92
330
8E
100
AcDbEntity
  8
_U+30EC_U+30A4_U+30E4_U+30FC 1
370
     0
100
AcDbVertex
100
AcDb2dVertex
 10
54.96546493851558
 20
-97.91478133402825
 30
0.0
  0
VERTEX
  5
93
330
8E
100
AcDbEntity
  8
_U+30EC_U+30A4_U+30E4_U+30FC 1
370
     0
100
AcDbVertex
100
AcDb2dVertex
 10
54.2645602620415
 20
-97.91478133402825
 30
0.0
  0
VERTEX
  5
94
330
8E
100
AcDbEntity
  8
_U+30EC_U+30A4_U+30E4_U+30FC 1
370
     0
100
AcDbVertex
100
AcDb2dVertex
 10
54.2645602620415
 20
-97.69050561793848
 30
0.0
  0
VERTEX
  5
95
330
8E
100
AcDbEntity
  8
_U+30EC_U+30A4_U+30E4_U+30FC 1
370
     0
100
AcDbVertex
100
AcDb2dVertex
 10
54.99026962600938
 20
-96.71726614335542
 30
0.0
  0
VERTEX
  5
96
330
8E
100
AcDbEntity
  8
_U+30EC_U+30A4_U+30E4_U+30FC 1
370
     0
100
AcDbVertex
100
AcDb2dVertex
 10
55.19818113854421
 20
-96.71726614335542
 30
0.0
  0
VERTEX
  5
97
330
8E
100
AcDbEntity
  8
_U+30EC_U+30A4_U+30E4_U+30FC 1
370
     0
100
AcDbVertex
100
AcDb2dVertex
 10
55.19818113854421
 20
-97.71599932452934
 30
0.0
  0
VERTEX
  5
98
330
8E
100
AcDbEntity
  8
_U+30EC_U+30A4_U+30E4_U+30FC 1
370
     0
100
AcDbVertex
100
AcDb2dVertex
 10
55.41987303302003
 20
-97.71599932452934
 30
0.0
  0
VERTEX
  5
99
330
8E
100
AcDbEntity
  8
_U+30EC_U+30A4_U+30E4_U+30FC 1
370
     0
100
AcDbVertex
100
AcDb2dVertex
 10
55.41987303302003
 20
-97.91478133402825
 30
0.0
  0
VERTEX
  5
9A
330
8E
100
AcDbEntity
  8
_U+30EC_U+30A4_U+30E4_U+30FC 1
370
     0
100
AcDbVertex
100
AcDb2dVertex
 10
55.19818113854421
 20
-97.91478133402825
 30
0.0
  0
SEQEND
  5
9B
330
8E
100
AcDbEntity
  8
_U+30EC_U+30A4_U+30E4_U+30FC 1
370
     0
  0
POLYLINE
  5
9C
330
8A
100
AcDbEntity
  8
_U+30EC_U+30A4_U+30E4_U+30FC 1
370
     0
100
AcDb2dPolyline
 66
     1
 10
0.0
 20
0.0
 30
0.0
  0
VERTEX
  5
9D
330
9C
100
AcDbEntity
  8
_U+30EC_U+30A4_U+30E4_U+30FC 1
370
     0
100
AcDbVertex
100
AcDb2dVertex
 10
54.96546493851558
 20
-97.06005314413777
 30
0.0
  0
VERTEX
  5
9E
330
9C
100
AcDbEntity
  8
_U+30EC_U+30A4_U+30E4_U+30FC 1
370
     0
100
AcDbVertex
100
AcDb2dVertex
 10
54.47695039870715
 20
-97.71599932452934
 30
0.0
  0
VERTEX
  5
9F
330
9C
100
AcDbEntity
  8
_U+30EC_U+30A4_U+30E4_U+30FC 1
370
     0
100
AcDbVertex
100
AcDb2dVertex
 10
54.96546493851558
 20
-97.71599932452934
 30
0.0
  0
VERTEX
  5
A0
330
9C
100
AcDbEntity
  8
_U+30EC_U+30A4_U+30E4_U+30FC 1
370
     0
100
AcDbVertex
100
AcDb2dVertex
 10
54.96546493851558
 20
-97.06005314413777
 30
0.0
  0
SEQEND
  5
A1
330
9C
100
AcDbEntity
  8
_U+30EC_U+30A4_U+30E4_U+30FC 1
370
     0
  0
HATCH
  5
A2
330
8A
100
AcDbEntity
  8
_U+30EC_U+30A4_U+30E4_U+30FC 1
 62
   179
420
  2234388
100
AcDbHatch
 10
0.0
 20
0.0
 30
0.0
210
0.0
220
0.0
230
1.0
  2
SOLID
 70
     1
 71
     0
 91
        2
 92
        1
 93
       11
 72
     1
 10
55.19818113854421
 20
-97.91478133402825
 11
55.19818113854421
 21
-98.26170244939291
 72
     1
 10
55.19818113854421
 20
-98.26170244939291
 11
54.96546493851558
 21
-98.26170244939291
 72
     1
 10
54.96546493851558
 20
-98.26170244939291
 11
54.96546493851558
 21
-97.91478133402825
 72
     1
 10
54.96546493851558
 20
-97.91478133402825
 11
54.2645602620415
 21
-97.91478133402825
 72
     1
 10
54.2645602620415
 20
-97.91478133402825
 11
54.2645602620415
 21
-97.69050561793848
 72
     1
 10
54.2645602620415
 20
-97.69050561793848
 11
54.99026962600938
 21
-96.71726614335542
 72
     1
 10
54.99026962600938
 20
-96.71726614335542
 11
55.19818113854421
 21
-96.71726614335542
 72
     1
 10
55.19818113854421
 20
-96.71726614335542
 11
55.19818113854421
 21
-97.71599932452934
 72
     1
 10
55.19818113854421
 20
-97.71599932452934
 11
55.41987303302003
 21
-97.71599932452934
 72
     1
 10
55.41987303302003
 20
-97.71599932452934
 11
55.41987303302003
 21
-97.91478133402825
 72
     1
 10
55.41987303302003
 20
-97.91478133402825
 11
55.19818113854421
 21
-97.91478133402825
 97
        0
 92
        1
 93
        3
 72
     1
 10
54.96546493851558
 20
-97.06005314413777
 11
54.47695039870715
 21
-97.71599932452934
 72
     1
 10
54.47695039870715
 20
-97.71599932452934
 11
54.96546493851558
 21
-97.71599932452934
 72
     1
 10
54.96546493851558
 20
-97.71599932452934
 11
54.96546493851558
 21
-97.06005314413777
 97
        0
 75
     2
 76
     1
 98
        0
  0
ENDBLK
  5
8D
330
8A
100
AcDbEntity
  8
0
100
AcDbBlockEnd
  0
BLOCK
  5
B1
330
AF
100
AcDbEntity
  8
0
100
AcDbBlockBegin
  2
block 4
 70
     0
 10
0.0
 20
0.0
 30
0.0
  3
block 4
  1

  0
SPLINE
  5
B3
330
AF
100
AcDbEntity
  8
_U+30EC_U+30A4_U+30E4_U+30FC 1
370
     0
100
AcDbSpline
210
0.0
220
0.0
230
1.0
 70
    11
 71
     3
 72
    44
 73
    40
 74
     0
 42
0.0000000001
 43
0.0000000001
 12
1.0
 22
0.0
 32
0.0
 13
1.0
 23
0.0
 33
0.0
 40
0.0
 40
0.0
 40
0.0
 40
0.0
 40
1.0
 40
1.0
 40
1.0
 40
2.0
 40
2.0
 40
2.0
 40
3.0
 40
3.0
 40
3.0
 40
4.0
 40
4.0
 40
4.0
 40
5.0
 40
5.0
 40
5.0
 40
6.0
 40
6.0
 40
6.0
 40
7.0
 40
7.0
 40
7.0
 40
8.0
 40
8.0
 40
8.0
 40
9.0
 40
9.0
 40
9.0
 40
10.0
 40
10.0
 40
10.0
 40
11.0
 40
11.0
 40
11.0
 40
12.0
 40
12.0
 40
12.0
 40
13.0
 40
13.0
 40
13.0
 40
13.0
 10
63.77629664204204
 20
-79.4804199020049
 30
0.0
 10
63.54340818723915
 20
-79.63923880387492
 30
0.0
 10
63.44384492771543
 20
-79.71330835680779
 30
0.0
 10
63.39182398588816
 20
-79.85696883854271
 30
0.0
 10
63.39182398588816
 20
-79.85696883854271
 30
0.0
 10
64.22415905512452
 20
-79.85696883854271
 30
0.0
 10
64.22415905512452
 20
-79.85696883854271
 30
0.0
 10
64.22415905512452
 20
-79.85696883854271
 30
0.0
 10
64.22415905512452
 20
-80.0622965294636
 30
0.0
 10
64.22415905512452
 20
-80.0622965294636
 30
0.0
 10
64.22415905512452
 20
-80.0622965294636
 30
0.0
 10
63.12517359532982
 20
-80.0622965294636
 30
0.0
 10
63.12517359532982
 20
-80.0622965294636
 30
0.0
 10
63.1592800406338
 20
-79.70469561809466
 30
0.0
 10
63.22921547898437
 20
-79.62649195057949
 30
0.0
 10
63.6405598799232
 20
-79.32814668155686
 30
0.0
 10
63.91410046145203
 20
-79.12936467205795
 30
0.0
 10
63.98438040935113
 20
-79.06149629099852
 30
0.0
 10
63.98438040935113
 20
-78.92403698113705
 30
0.0
 10
63.98438040935113
 20
-78.80552569644446
 30
0.0
 10
63.90755478003006
 20
-78.67461206800496
 30
0.0
 10
63.69705944588129
 20
-78.67461206800496
 30
0.0
 10
63.41904024022163
 20
-78.67461206800496
 30
0.0
 10
63.41008299195998
 20
-78.90508895596818
 30
0.0
 10
63.40560436782916
 20
-79.02153318336963
 30
0.0
 10
63.40560436782916
 20
-79.02153318336963
 30
0.0
 10
63.16582572205577
 20
-79.02153318336963
 30
0.0
 10
63.16582572205577
 20
-79.02153318336963
 30
0.0
 10
63.17478297031742
 20
-78.8944091599639
 30
0.0
 10
63.18615178541874
 20
-78.78244355669328
 30
0.0
 10
63.27227917254999
 20
-78.6639322720007
 30
0.0
 10
63.38975692859701
 20
-78.50304631283952
 30
0.0
 10
63.58853893809592
 20
-78.46928437708407
 30
0.0
 10
63.71290688511344
 20
-78.46928437708407
 30
0.0
 10
64.00918509684493
 20
-78.46928437708407
 30
0.0
 10
64.2307047365465
 20
-78.65325247599641
 30
0.0
 10
64.2307047365465
 20
-78.9261040384282
 30
0.0
 10
64.2307047365465
 20
-79.15485837864878
 30
0.0
 10
64.10633678952897
 20
-79.25407712862399
 30
0.0
 10
63.77629664204204
 20
-79.4804199020049
 30
0.0
  0
HATCH
  5
B4
330
AF
100
AcDbEntity
  8
_U+30EC_U+30A4_U+30E4_U+30FC 1
 62
   179
420
  2234388
100
AcDbHatch
 10
0.0
 20
0.0
 30
0.0
210
0.0
220
0.0
230
1.0
  2
SOLID
 70
     1
 71
     0
 91
        1
 92
        1
 93
        1
 72
     4
 94
        3
 73
     0
 74
     1
 95
       44
 96
       40
 40
0.0
 40
0.0
 40
0.0
 40
0.0
 40
1.0
 40
1.0
 40
1.0
 40
2.0
 40
2.0
 40
2.0
 40
3.0
 40
3.0
 40
3.0
 40
4.0
 40
4.0
 40
4.0
 40
5.0
 40
5.0
 40
5.0
 40
6.0
 40
6.0
 40
6.0
 40
7.0
 40
7.0
 40
7.0
 40
8.0
 40
8.0
 40
8.0
 40
9.0
 40
9.0
 40
9.0
 40
10.0
 40
10.0
 40
10.0
 40
11.0
 40
11.0
 40
11.0
 40
12.0
 40
12.0
 40
12.0
 40
13.0
 40
13.0
 40
13.0
 40
13.0
 10
63.77629664204204
 20
-79.4804199020049
 10
63.54340818723915
 20
-79.63923880387492
 10
63.44384492771543
 20
-79.71330835680779
 10
63.39182398588816
 20
-79.85696883854271
 10
63.39182398588816
 20
-79.85696883854271
 10
64.22415905512452
 20
-79.85696883854271
 10
64.22415905512452
 20
-79.85696883854271
 10
64.22415905512452
 20
-79.85696883854271
 10
64.22415905512452
 20
-80.0622965294636
 10
64.22415905512452
 20
-80.0622965294636
 10
64.22415905512452
 20
-80.0622965294636
 10
63.12517359532982
 20
-80.0622965294636
 10
63.12517359532982
 20
-80.0622965294636
 10
63.1592800406338
 20
-79.70469561809466
 10
63.22921547898437
 20
-79.62649195057949
 10
63.6405598799232
 20
-79.32814668155686
 10
63.91410046145203
 20
-79.12936467205795
 10
63.98438040935113
 20
-79.06149629099852
 10
63.98438040935113
 20
-78.92403698113705
 10
63.98438040935113
 20
-78.80552569644446
 10
63.90755478003006
 20
-78.67461206800496
 10
63.69705944588129
 20
-78.67461206800496
 10
63.41904024022163
 20
-78.67461206800496
 10
63.41008299195998
 20
-78.90508895596818
 10
63.40560436782916
 20
-79.02153318336963
 10
63.40560436782916
 20
-79.02153318336963
 10
63.16582572205577
 20
-79.02153318336963
 10
63.16582572205577
 20
-79.02153318336963
 10
63.17478297031742
 20
-78.8944091599639
 10
63.18615178541874
 20
-78.78244355669328
 10
63.27227917254999
 20
-78.6639322720007
 10
63.38975692859701
 20
-78.50304631283952
 10
63.58853893809592
 20
-78.46928437708407
 10
63.71290688511344
 20
-78.46928437708407
 10
64.00918509684493
 20
-78.46928437708407
 10
64.2307047365465
 20
-78.65325247599641
 10
64.2307047365465
 20
-78.9261040384282
 10
64.2307047365465
 20
-79.15485837864878
 10
64.10633678952897
 20
-79.25407712862399
 10
63.77629664204204
 20
-79.4804199020049
 97
        0
 97
        0
 75
     2
 76
     1
 98
        0
  0
SPLINE
  5
B5
330
AF
100
AcDbEntity
  8
_U+30EC_U+30A4_U+30E4_U+30FC 1
370
     0
100
AcDbSpline
210
0.0
220
0.0
230
1.0
 70
    11
 71
     3
 72
    62
 73
    58
 74
     0
 42
0.0000000001
 43
0.0000000001
 12
1.0
 22
0.0
 32
0.0
 13
1.0
 23
0.0
 33
0.0
 40
0.0
 40
0.0
 40
0.0
 40
0.0
 40
1.0
 40
1.0
 40
1.0
 40
2.0
 40
2.0
 40
2.0
 40
3.0
 40
3.0
 40
3.0
 40
4.0
 40
4.0
 40
4.0
 40
5.0
 40
5.0
 40
5.0
 40
6.0
 40
6.0
 40
6.0
 40
7.0
 40
7.0
 40
7.0
 40
8.0
 40
8.0
 40
8.0
 40
9.0
 40
9.0
 40
9.0
 40
10.0
 40
10.0
 40
10.0
 40
11.0
 40
11.0
 40
11.0
 40
12.0
 40
12.0
 40
12.0
 40
13.0
 40
13.0
 40
13.0
 40
14.0
 40
14.0
 40
14.0
 40
15.0
 40
15.0
 40
15.0
 40
16.0
 40
16.0
 40
16.0
 40
17.0
 40
17.0
 40
17.0
 40
18.0
 40
18.0
 40
18.0
 40
19.0
 40
19.0
 40
19.0
 40
19.0
 10
64.92558049592138
 20
-80.11293943309677
 30
0.0
 10
64.82395017910652
 20
-80.11293943309677
 30
0.0
 10
64.59106172430363
 20
-80.09192435063675
 30
0.0
 10
64.45773652902446
 20
-79.90588919443326
 30
0.0
 10
64.37849933286371
 20
-79.79357908161411
 30
0.0
 10
64.37402070873289
 20
-79.69436033163892
 30
0.0
 10
64.36954208460206
 20
-79.60961098270177
 30
0.0
 10
64.36954208460206
 20
-79.60961098270177
 30
0.0
 10
64.6044975966961
 20
-79.60961098270177
 30
0.0
 10
64.6044975966961
 20
-79.60961098270177
 30
0.0
 10
64.60690916353578
 20
-79.68368053563464
 30
0.0
 10
64.6182779786371
 20
-79.91829153818016
 30
0.0
 10
64.92110187179055
 20
-79.91829153818016
 30
0.0
 10
65.06820744901073
 20
-79.91829153818016
 30
0.0
 10
65.23081595591452
 20
-79.84870060937811
 30
0.0
 10
65.23081595591452
 20
-79.62029077870604
 30
0.0
 10
65.23081595591452
 20
-79.50384655130459
 30
0.0
 10
65.19016382918858
 20
-79.45527070496257
 30
0.0
 10
65.15640189343313
 20
-79.42357582649828
 30
0.0
 10
65.07716469727238
 20
-79.34950627356541
 30
0.0
 10
64.95279675025486
 20
-79.33675942026998
 30
0.0
 10
64.89388561745709
 20
-79.33675942026998
 30
0.0
 10
64.87355955409411
 20
-79.33675942026998
 30
0.0
 10
64.83531899420784
 20
-79.33882647756113
 30
0.0
 10
64.80569117303469
 20
-79.34296059214343
 30
0.0
 10
64.80569117303469
 20
-79.34296059214343
 30
0.0
 10
64.80569117303469
 20
-79.14831269722681
 30
0.0
 10
64.80569117303469
 20
-79.14831269722681
 30
0.0
 10
64.84634329976063
 20
-79.15485837864878
 30
0.0
 10
64.89181856016593
 20
-79.15692543593994
 30
0.0
 10
64.89836424158791
 20
-79.15692543593994
 30
0.0
 10
64.96864418948701
 20
-79.15692543593994
 30
0.0
 10
65.18120658092693
 20
-79.13556584393139
 30
0.0
 10
65.18120658092693
 20
-78.89888778409473
 30
0.0
 10
65.18120658092693
 20
-78.72112085705584
 30
0.0
 10
65.04099119467726
 20
-78.66599932929184
 30
0.0
 10
64.92351343863024
 20
-78.66599932929184
 30
0.0
 10
64.64067109929123
 20
-78.66599932929184
 30
0.0
 10
64.63171385102957
 20
-78.89888778409473
 30
0.0
 10
64.62723522689875
 20
-78.97054577018793
 30
0.0
 10
64.62723522689875
 20
-78.97054577018793
 30
0.0
 10
64.410194211328
 20
-78.97054577018793
 30
0.0
 10
64.410194211328
 20
-78.97054577018793
 30
0.0
 10
64.41915145958966
 20
-78.84583331362188
 30
0.0
 10
64.44843477121428
 20
-78.46928437708407
 30
0.0
 10
64.93694931102272
 20
-78.46928437708407
 30
0.0
 10
65.1767279567961
 20
-78.46928437708407
 30
0.0
 10
65.43442109909279
 20
-78.59640840048979
 30
0.0
 10
65.43442109909279
 20
-78.89234210267276
 30
0.0
 10
65.43442109909279
 20
-79.07872176842477
 30
0.0
 10
65.33244627272938
 20
-79.16105955052224
 30
0.0
 10
65.2263373317837
 20
-79.22238225015968
 30
0.0
 10
65.29179414600344
 20
-79.24994301404169
 30
0.0
 10
65.48644204092005
 20
-79.330213738848
 30
0.0
 10
65.48644204092005
 20
-79.60754392541062
 30
0.0
 10
65.48644204092005
 20
-79.94585230206215
 30
0.0
 10
65.22185870765287
 20
-80.11293943309677
 30
0.0
 10
64.92558049592138
 20
-80.11293943309677
 30
0.0
  0
HATCH
  5
B6
330
AF
100
AcDbEntity
  8
_U+30EC_U+30A4_U+30E4_U+30FC 1
 62
   179
420
  2234388
100
AcDbHatch
 10
0.0
 20
0.0
 30
0.0
210
0.0
220
0.0
230
1.0
  2
SOLID
 70
     1
 71
     0
 91
        1
 92
        1
 93
        1
 72
     4
 94
        3
 73
     0
 74
     1
 95
       62
 96
       58
 40
0.0
 40
0.0
 40
0.0
 40
0.0
 40
1.0
 40
1.0
 40
1.0
 40
2.0
 40
2.0
 40
2.0
 40
3.0
 40
3.0
 40
3.0
 40
4.0
 40
4.0
 40
4.0
 40
5.0
 40
5.0
 40
5.0
 40
6.0
 40
6.0
 40
6.0
 40
7.0
 40
7.0
 40
7.0
 40
8.0
 40
8.0
 40
8.0
 40
9.0
 40
9.0
 40
9.0
 40
10.0
 40
10.0
 40
10.0
 40
11.0
 40
11.0
 40
11.0
 40
12.0
 40
12.0
 40
12.0
 40
13.0
 40
13.0
 40
13.0
 40
14.0
 40
14.0
 40
14.0
 40
15.0
 40
15.0
 40
15.0
 40
16.0
 40
16.0
 40
16.0
 40
17.0
 40
17.0
 40
17.0
 40
18.0
 40
18.0
 40
18.0
 40
19.0
 40
19.0
 40
19.0
 40
19.0
 10
64.92558049592138
 20
-80.11293943309677
 10
64.82395017910652
 20
-80.11293943309677
 10
64.59106172430363
 20
-80.09192435063675
 10
64.45773652902446
 20
-79.90588919443326
 10
64.37849933286371
 20
-79.79357908161411
 10
64.37402070873289
 20
-79.69436033163892
 10
64.36954208460206
 20
-79.60961098270177
 10
64.36954208460206
 20
-79.60961098270177
 10
64.6044975966961
 20
-79.60961098270177
 10
64.6044975966961
 20
-79.60961098270177
 10
64.60690916353578
 20
-79.68368053563464
 10
64.6182779786371
 20
-79.91829153818016
 10
64.92110187179055
 20
-79.91829153818016
 10
65.06820744901073
 20
-79.91829153818016
 10
65.23081595591452
 20
-79.84870060937811
 10
65.23081595591452
 20
-79.62029077870604
 10
65.23081595591452
 20
-79.50384655130459
 10
65.19016382918858
 20
-79.45527070496257
 10
65.15640189343313
 20
-79.42357582649828
 10
65.07716469727238
 20
-79.34950627356541
 10
64.95279675025486
 20
-79.33675942026998
 10
64.89388561745709
 20
-79.33675942026998
 10
64.87355955409411
 20
-79.33675942026998
 10
64.83531899420784
 20
-79.33882647756113
 10
64.80569117303469
 20
-79.34296059214343
 10
64.80569117303469
 20
-79.34296059214343
 10
64.80569117303469
 20
-79.14831269722681
 10
64.80569117303469
 20
-79.14831269722681
 10
64.84634329976063
 20
-79.15485837864878
 10
64.89181856016593
 20
-79.15692543593994
 10
64.89836424158791
 20
-79.15692543593994
 10
64.96864418948701
 20
-79.15692543593994
 10
65.18120658092693
 20
-79.13556584393139
 10
65.18120658092693
 20
-78.89888778409473
 10
65.18120658092693
 20
-78.72112085705584
 10
65.04099119467726
 20
-78.66599932929184
 10
64.92351343863024
 20
-78.66599932929184
 10
64.64067109929123
 20
-78.66599932929184
 10
64.63171385102957
 20
-78.89888778409473
 10
64.62723522689875
 20
-78.97054577018793
 10
64.62723522689875
 20
-78.97054577018793
 10
64.410194211328
 20
-78.97054577018793
 10
64.410194211328
 20
-78.97054577018793
 10
64.41915145958966
 20
-78.84583331362188
 10
64.44843477121428
 20
-78.46928437708407
 10
64.93694931102272
 20
-78.46928437708407
 10
65.1767279567961
 20
-78.46928437708407
 10
65.43442109909279
 20
-78.59640840048979
 10
65.43442109909279
 20
-78.89234210267276
 10
65.43442109909279
 20
-79.07872176842477
 10
65.33244627272938
 20
-79.16105955052224
 10
65.2263373317837
 20
-79.22238225015968
 10
65.29179414600344
 20
-79.24994301404169
 10
65.48644204092005
 20
-79.330213738848
 10
65.48644204092005
 20
-79.60754392541062
 10
65.48644204092005
 20
-79.94585230206215
 10
65.22185870765287
 20
-80.11293943309677
 10
64.92558049592138
 20
-80.11293943309677
 97
        0
 97
        0
 75
     2
 76
     1
 98
        0
  0
ENDBLK
  5
B2
330
AF
100
AcDbEntity
  8
0
100
AcDbBlockEnd
  0
BLOCK
  5
C1
330
BF
100
AcDbEntity
  8
0
100
AcDbBlockBegin
  2
block 5
 70
     0
 10
0.0
 20
0.0
 30
0.0
  3
block 5
  1

  0
SPLINE
  5
C3
330
BF
100
AcDbEntity
  8
_U+30EC_U+30A4_U+30E4_U+30FC 1
370
     0
100
AcDbSpline
210
0.0
220
0.0
230
1.0
 70
    11
 71
     3
 72
    29
 73
    25
 74
     0
 42
0.0000000001
 43
0.0000000001
 12
1.0
 22
0.0
 32
0.0
 13
1.0
 23
0.0
 33
0.0
 40
0.0
 40
0.0
 40
0.0
 40
0.0
 40
1.0
 40
1.0
 40
1.0
 40
2.0
 40
2.0
 40
2.0
 40
3.0
 40
3.0
 40
3.0
 40
4.0
 40
4.0
 40
4.0
 40
5.0
 40
5.0
 40
5.0
 40
6.0
 40
6.0
 40
6.0
 40
7.0
 40
7.0
 40
7.0
 40
8.0
 40
8.0
 40
8.0
 40
8.0
 10
79.25511065726955
 20
-90.84165579326181
 30
0.0
 10
79.25511065726955
 20
-91.12656518989198
 30
0.0
 10
79.11765134740808
 20
-91.39769420458114
 30
0.0
 10
78.76866317475228
 20
-91.39769420458114
 30
0.0
 10
78.51269258019822
 20
-91.39769420458114
 30
0.0
 10
78.41760794480533
 20
-91.24611000323014
 30
0.0
 10
78.35628524516788
 20
-91.13311087131395
 30
0.0
 10
78.29702960282158
 20
-91.26643606659312
 30
0.0
 10
78.18265243271128
 20
-91.34808482959353
 30
0.0
 10
78.02176647355012
 20
-91.34808482959353
 30
0.0
 10
77.74684785382718
 20
-91.34808482959353
 30
0.0
 10
77.61145560125686
 20
-91.13552243815363
 30
0.0
 10
77.61145560125686
 20
-90.84165579326181
 30
0.0
 10
77.61145560125686
 20
-90.53848739055982
 30
0.0
 10
77.7554605925403
 20
-90.33522675693008
 30
0.0
 10
78.02176647355012
 20
-90.33522675693008
 30
0.0
 10
78.18265243271128
 20
-90.33522675693008
 30
0.0
 10
78.29702960282158
 20
-90.41859806767313
 30
0.0
 10
78.35628524516788
 20
-90.55226777250083
 30
0.0
 10
78.40692814880104
 20
-90.45718313710793
 30
0.0
 10
78.50201278419395
 20
-90.28768443923364
 30
0.0
 10
78.76452906016998
 20
-90.28768443923364
 30
0.0
 10
79.13901093941664
 20
-90.28768443923364
 30
0.0
 10
79.25511065726955
 20
-90.58602970825628
 30
0.0
 10
79.25511065726955
 20
-90.84165579326181
 30
0.0
  0
SPLINE
  5
C4
330
BF
100
AcDbEntity
  8
_U+30EC_U+30A4_U+30E4_U+30FC 1
370
     0
100
AcDbSpline
210
0.0
220
0.0
230
1.0
 70
    11
 71
     3
 72
    17
 73
    13
 74
     0
 42
0.0000000001
 43
0.0000000001
 12
1.0
 22
0.0
 32
0.0
 13
1.0
 23
0.0
 33
0.0
 40
0.0
 40
0.0
 40
0.0
 40
0.0
 40
1.0
 40
1.0
 40
1.0
 40
2.0
 40
2.0
 40
2.0
 40
3.0
 40
3.0
 40
3.0
 40
4.0
 40
4.0
 40
4.0
 40
4.0
 10
77.80403643888232
 20
-90.84165579326181
 30
0.0
 10
77.80403643888232
 20
-91.01770017255808
 30
0.0
 10
77.89912107427523
 20
-91.10830618382015
 30
0.0
 10
78.03451332684554
 20
-91.10830618382015
 30
0.0
 10
78.15715872612044
 20
-91.10830618382015
 30
0.0
 10
78.27567001081303
 20
-91.03148055449908
 30
0.0
 10
78.27567001081303
 20
-90.84165579326181
 30
0.0
 10
78.27567001081303
 20
-90.65148652247602
 30
0.0
 10
78.15715872612044
 20
-90.57466089315496
 30
0.0
 10
78.03451332684554
 20
-90.57466089315496
 30
0.0
 10
77.89912107427523
 20
-90.57466089315496
 30
0.0
 10
77.80403643888232
 20
-90.66733396170817
 30
0.0
 10
77.80403643888232
 20
-90.84165579326181
 30
0.0
  0
SPLINE
  5
C5
330
BF
100
AcDbEntity
  8
_U+30EC_U+30A4_U+30E4_U+30FC 1
370
     0
100
AcDbSpline
210
0.0
220
0.0
230
1.0
 70
    11
 71
     3
 72
    17
 73
    13
 74
     0
 42
0.0000000001
 43
0.0000000001
 12
1.0
 22
0.0
 32
0.0
 13
1.0
 23
0.0
 33
0.0
 40
0.0
 40
0.0
 40
0.0
 40
0.0
 40
1.0
 40
1.0
 40
1.0
 40
2.0
 40
2.0
 40
2.0
 40
3.0
 40
3.0
 40
3.0
 40
4.0
 40
4.0
 40
4.0
 40
4.0
 10
78.4641167338562
 20
-90.84165579326181
 30
0.0
 10
78.4641167338562
 20
-90.99530705190395
 30
0.0
 10
78.5509331400845
 20
-91.15791555880774
 30
0.0
 10
78.75384926416571
 20
-91.15791555880774
 30
0.0
 10
78.9591769550866
 20
-91.15791555880774
 30
0.0
 10
79.06046276235294
 20
-91.02252330623743
 30
0.0
 10
79.06046276235294
 20
-90.84165579326181
 30
0.0
 10
79.06046276235294
 20
-90.64252927421437
 30
0.0
 10
78.93781736307805
 20
-90.52505151816736
 30
0.0
 10
78.76005043603915
 20
-90.52505151816736
 30
0.0
 10
78.53818628678907
 20
-90.52505151816736
 30
0.0
 10
78.4641167338562
 20
-90.69902884017247
 30
0.0
 10
78.4641167338562
 20
-90.84165579326181
 30
0.0
  0
HATCH
  5
C6
330
BF
100
AcDbEntity
  8
_U+30EC_U+30A4_U+30E4_U+30FC 1
 62
   179
420
  2234388
100
AcDbHatch
 10
0.0
 20
0.0
 30
0.0
210
0.0
220
0.0
230
1.0
  2
SOLID
 70
     1
 71
     0
 91
        3
 92
        1
 93
        1
 72
     4
 94
        3
 73
     0
 74
     1
 95
       29
 96
       25
 40
0.0
 40
0.0
 40
0.0
 40
0.0
 40
1.0
 40
1.0
 40
1.0
 40
2.0
 40
2.0
 40
2.0
 40
3.0
 40
3.0
 40
3.0
 40
4.0
 40
4.0
 40
4.0
 40
5.0
 40
5.0
 40
5.0
 40
6.0
 40
6.0
 40
6.0
 40
7.0
 40
7.0
 40
7.0
 40
8.0
 40
8.0
 40
8.0
 40
8.0
 10
79.25511065726955
 20
-90.84165579326181
 10
79.25511065726955
 20
-91.12656518989198
 10
79.11765134740808
 20
-91.39769420458114
 10
78.76866317475228
 20
-91.39769420458114
 10
78.51269258019822
 20
-91.39769420458114
 10
78.41760794480533
 20
-91.24611000323014
 10
78.35628524516788
 20
-91.13311087131395
 10
78.29702960282158
 20
-91.26643606659312
 10
78.18265243271128
 20
-91.34808482959353
 10
78.02176647355012
 20
-91.34808482959353
 10
77.74684785382718
 20
-91.34808482959353
 10
77.61145560125686
 20
-91.13552243815363
 10
77.61145560125686
 20
-90.84165579326181
 10
77.61145560125686
 20
-90.53848739055982
 10
77.7554605925403
 20
-90.33522675693008
 10
78.02176647355012
 20
-90.33522675693008
 10
78.18265243271128
 20
-90.33522675693008
 10
78.29702960282158
 20
-90.41859806767313
 10
78.35628524516788
 20
-90.55226777250083
 10
78.40692814880104
 20
-90.45718313710793
 10
78.50201278419395
 20
-90.28768443923364
 10
78.76452906016998
 20
-90.28768443923364
 10
79.13901093941664
 20
-90.28768443923364
 10
79.25511065726955
 20
-90.58602970825628
 10
79.25511065726955
 20
-90.84165579326181
 97
        0
 97
        0
 92
        1
 93
        1
 72
     4
 94
        3
 73
     0
 74
     1
 95
       17
 96
       13
 40
0.0
 40
0.0
 40
0.0
 40
0.0
 40
1.0
 40
1.0
 40
1.0
 40
2.0
 40
2.0
 40
2.0
 40
3.0
 40
3.0
 40
3.0
 40
4.0
 40
4.0
 40
4.0
 40
4.0
 10
77.80403643888232
 20
-90.84165579326181
 10
77.80403643888232
 20
-91.01770017255808
 10
77.89912107427523
 20
-91.10830618382015
 10
78.03451332684554
 20
-91.10830618382015
 10
78.15715872612044
 20
-91.10830618382015
 10
78.27567001081303
 20
-91.03148055449908
 10
78.27567001081303
 20
-90.84165579326181
 10
78.27567001081303
 20
-90.65148652247602
 10
78.15715872612044
 20
-90.57466089315496
 10
78.03451332684554
 20
-90.57466089315496
 10
77.89912107427523
 20
-90.57466089315496
 10
77.80403643888232
 20
-90.66733396170817
 10
77.80403643888232
 20
-90.84165579326181
 97
        0
 97
        0
 92
        1
 93
        1
 72
     4
 94
        3
 73
     0
 74
     1
 95
       17
 96
       13
 40
0.0
 40
0.0
 40
0.0
 40
0.0
 40
1.0
 40
1.0
 40
1.0
 40
2.0
 40
2.0
 40
2.0
 40
3.0
 40
3.0
 40
3.0
 40
4.0
 40
4.0
 40
4.0
 40
4.0
 10
78.4641167338562
 20
-90.84165579326181
 10
78.4641167338562
 20
-90.99530705190395
 10
78.5509331400845
 20
-91.15791555880774
 10
78.75384926416571
 20
-91.15791555880774
 10
78.9591769550866
 20
-91.15791555880774
 10
79.06046276235294
 20
-91.02252330623743
 10
79.06046276235294
 20
-90.84165579326181
 10
79.06046276235294
 20
-90.64252927421437
 10
78.93781736307805
 20
-90.52505151816736
 10
78.76005043603915
 20
-90.52505151816736
 10
78.53818628678907
 20
-90.52505151816736
 10
78.4641167338562
 20
-90.69902884017247
 10
78.4641167338562
 20
-90.84165579326181
 97
        0
 97
        0
 75
     2
 76
     1
 98
        0
  0
POLYLINE
  5
C7
330
BF
100
AcDbEntity
  8
_U+30EC_U+30A4_U+30E4_U+30FC 1
370
     0
100
AcDb2dPolyline
 66
     1
 10
0.0
 20
0.0
 30
0.0
  0
VERTEX
  5
C8
330
C7
100
AcDbEntity
  8
_U+30EC_U+30A4_U+30E4_U+30FC 1
370
     0
100
AcDbVertex
100
AcDb2dVertex
 10
79.2044677536364
 20
-90.0541069653337
 30
0.0
  0
VERTEX
  5
C9
330
C7
100
AcDbEntity
  8
_U+30EC_U+30A4_U+30E4_U+30FC 1
370
     0
100
AcDbVertex
100
AcDb2dVertex
 10
78.95263127366462
 20
-90.0541069653337
 30
0.0
  0
VERTEX
  5
CA
330
C7
100
AcDbEntity
  8
_U+30EC_U+30A4_U+30E4_U+30FC 1
370
     0
100
AcDbVertex
100
AcDb2dVertex
 10
78.95263127366462
 20
-89.7850450079357
 30
0.0
  0
VERTEX
  5
CB
330
C7
100
AcDbEntity
  8
_U+30EC_U+30A4_U+30E4_U+30FC 1
370
     0
100
AcDbVertex
100
AcDb2dVertex
 10
79.2044677536364
 20
-89.7850450079357
 30
0.0
  0
VERTEX
  5
CC
330
C7
100
AcDbEntity
  8
_U+30EC_U+30A4_U+30E4_U+30FC 1
370
     0
100
AcDbVertex
100
AcDb2dVertex
 10
79.2044677536364
 20
-90.0541069653337
 30
0.0
  0
SEQEND
  5
CD
330
C7
100
AcDbEntity
  8
_U+30EC_U+30A4_U+30E4_U+30FC 1
370
     0
  0
HATCH
  5
CE
330
BF
100
AcDbEntity
  8
_U+30EC_U+30A4_U+30E4_U+30FC 1
 62
   179
420
  2234388
100
AcDbHatch
 10
0.0
 20
0.0
 30
0.0
210
0.0
220
0.0
230
1.0
  2
SOLID
 70
     1
 71
     0
 91
        1
 92
        1
 93
        4
 72
     1
 10
79.2044677536364
 20
-90.0541069653337
 11
78.95263127366462
 21
-90.0541069653337
 72
     1
 10
78.95263127366462
 20
-90.0541069653337
 11
78.95263127366462
 21
-89.7850450079357
 72
     1
 10
78.95263127366462
 20
-89.7850450079357
 11
79.2044677536364
 21
-89.7850450079357
 72
     1
 10
79.2044677536364
 20
-89.7850450079357
 11
79.2044677536364
 21
-90.0541069653337
 97
        0
 75
     2
 76
     1
 98
        0
  0
SPLINE
  5
CF
330
BF
100
AcDbEntity
  8
_U+30EC_U+30A4_U+30E4_U+30FC 1
370
     0
100
AcDbSpline
210
0.0
220
0.0
230
1.0
 70
    11
 71
     3
 72
    44
 73
    40
 74
     0
 42
0.0000000001
 43
0.0000000001
 12
1.0
 22
0.0
 32
0.0
 13
1.0
 23
0.0
 33
0.0
 40
0.0
 40
0.0
 40
0.0
 40
0.0
 40
1.0
 40
1.0
 40
1.0
 40
2.0
 40
2.0
 40
2.0
 40
3.0
 40
3.0
 40
3.0
 40
4.0
 40
4.0
 40
4.0
 40
5.0
 40
5.0
 40
5.0
 40
6.0
 40
6.0
 40
6.0
 40
7.0
 40
7.0
 40
7.0
 40
8.0
 40
8.0
 40
8.0
 40
9.0
 40
9.0
 40
9.0
 40
10.0
 40
10.0
 40
10.0
 40
11.0
 40
11.0
 40
11.0
 40
12.0
 40
12.0
 40
12.0
 40
13.0
 40
13.0
 40
13.0
 40
13.0
 10
78.6225911261777
 20
-88.89827743003238
 30
0.0
 10
78.7814100280477
 20
-89.13116588483527
 30
0.0
 10
78.85547958098057
 20
-89.23072914435899
 30
0.0
 10
78.9991400627155
 20
-89.28275008618625
 30
0.0
 10
78.9991400627155
 20
-89.28275008618625
 30
0.0
 10
78.9991400627155
 20
-88.4504150169499
 30
0.0
 10
78.9991400627155
 20
-88.4504150169499
 30
0.0
 10
78.9991400627155
 20
-88.4504150169499
 30
0.0
 10
79.2044677536364
 20
-88.4504150169499
 30
0.0
 10
79.2044677536364
 20
-88.4504150169499
 30
0.0
 10
79.2044677536364
 20
-88.4504150169499
 30
0.0
 10
79.2044677536364
 20
-89.5494004767446
 30
0.0
 10
79.2044677536364
 20
-89.5494004767446
 30
0.0
 10
78.84686684226746
 20
-89.51529403144062
 30
0.0
 10
78.76866317475228
 20
-89.44535859309005
 30
0.0
 10
78.47031790572964
 20
-89.03401419215122
 30
0.0
 10
78.27153589623073
 20
-88.76047361062238
 30
0.0
 10
78.2036675151713
 20
-88.69019366272329
 30
0.0
 10
78.06620820530983
 20
-88.69019366272329
 30
0.0
 10
77.94769692061725
 20
-88.69019366272329
 30
0.0
 10
77.81678329217775
 20
-88.76701929204437
 30
0.0
 10
77.81678329217775
 20
-88.97751462619313
 30
0.0
 10
77.81678329217775
 20
-89.25553383185279
 30
0.0
 10
78.04726018014097
 20
-89.26449108011444
 30
0.0
 10
78.16370440754241
 20
-89.26896970424527
 30
0.0
 10
78.16370440754241
 20
-89.26896970424527
 30
0.0
 10
78.16370440754241
 20
-89.50874835001865
 30
0.0
 10
78.16370440754241
 20
-89.50874835001865
 30
0.0
 10
78.0365803841367
 20
-89.499791101757
 30
0.0
 10
77.92461478086607
 20
-89.48842228665568
 30
0.0
 10
77.80610349617348
 20
-89.40229489952443
 30
0.0
 10
77.64521753701231
 20
-89.28481714347741
 30
0.0
 10
77.61145560125686
 20
-89.0860351339785
 30
0.0
 10
77.61145560125686
 20
-88.96166718696098
 30
0.0
 10
77.61145560125686
 20
-88.66538897522949
 30
0.0
 10
77.79542370016921
 20
-88.44386933552792
 30
0.0
 10
78.06827526260099
 20
-88.44386933552792
 30
0.0
 10
78.29702960282158
 20
-88.44386933552792
 30
0.0
 10
78.39624835279677
 20
-88.56823728254544
 30
0.0
 10
78.6225911261777
 20
-88.89827743003238
 30
0.0
  0
HATCH
  5
D0
330
BF
100
AcDbEntity
  8
_U+30EC_U+30A4_U+30E4_U+30FC 1
 62
   179
420
  2234388
100
AcDbHatch
 10
0.0
 20
0.0
 30
0.0
210
0.0
220
0.0
230
1.0
  2
SOLID
 70
     1
 71
     0
 91
        1
 92
        1
 93
        1
 72
     4
 94
        3
 73
     0
 74
     1
 95
       44
 96
       40
 40
0.0
 40
0.0
 40
0.0
 40
0.0
 40
1.0
 40
1.0
 40
1.0
 40
2.0
 40
2.0
 40
2.0
 40
3.0
 40
3.0
 40
3.0
 40
4.0
 40
4.0
 40
4.0
 40
5.0
 40
5.0
 40
5.0
 40
6.0
 40
6.0
 40
6.0
 40
7.0
 40
7.0
 40
7.0
 40
8.0
 40
8.0
 40
8.0
 40
9.0
 40
9.0
 40
9.0
 40
10.0
 40
10.0
 40
10.0
 40
11.0
 40
11.0
 40
11.0
 40
12.0
 40
12.0
 40
12.0
 40
13.0
 40
13.0
 40
13.0
 40
13.0
 10
78.6225911261777
 20
-88.89827743003238
 10
78.7814100280477
 20
-89.13116588483527
 10
78.85547958098057
 20
-89.23072914435899
 10
78.9991400627155
 20
-89.28275008618625
 10
78.9991400627155
 20
-89.28275008618625
 10
78.9991400627155
 20
-88.4504150169499
 10
78.9991400627155
 20
-88.4504150169499
 10
78.9991400627155
 20
-88.4504150169499
 10
79.2044677536364
 20
-88.4504150169499
 10
79.2044677536364
 20
-88.4504150169499
 10
79.2044677536364
 20
-88.4504150169499
 10
79.2044677536364
 20
-89.5494004767446
 10
79.2044677536364
 20
-89.5494004767446
 10
78.84686684226746
 20
-89.51529403144062
 10
78.76866317475228
 20
-89.44535859309005
 10
78.47031790572964
 20
-89.03401419215122
 10
78.27153589623073
 20
-88.76047361062238
 10
78.2036675151713
 20
-88.69019366272329
 10
78.06620820530983
 20
-88.69019366272329
 10
77.94769692061725
 20
-88.69019366272329
 10
77.81678329217775
 20
-88.76701929204437
 10
77.81678329217775
 20
-88.97751462619313
 10
77.81678329217775
 20
-89.25553383185279
 10
78.04726018014097
 20
-89.26449108011444
 10
78.16370440754241
 20
-89.26896970424527
 10
78.16370440754241
 20
-89.26896970424527
 10
78.16370440754241
 20
-89.50874835001865
 10
78.16370440754241
 20
-89.50874835001865
 10
78.0365803841367
 20
-89.499791101757
 10
77.92461478086607
 20
-89.48842228665568
 10
77.80610349617348
 20
-89.40229489952443
 10
77.64521753701231
 20
-89.28481714347741
 10
77.61145560125686
 20
-89.0860351339785
 10
77.61145560125686
 20
-88.96166718696098
 10
77.61145560125686
 20
-88.66538897522949
 10
77.79542370016921
 20
-88.44386933552792
 10
78.06827526260099
 20
-88.44386933552792
 10
78.29702960282158
 20
-88.44386933552792
 10
78.39624835279677
 20
-88.56823728254544
 10
78.6225911261777
 20
-88.89827743003238
 97
        0
 97
        0
 75
     2
 76
     1
 98
        0
  0
ENDBLK
  5
C2
330
BF
100
AcDbEntity
  8
0
100
AcDbBlockEnd
  0
BLOCK
  5
E1
330
DF
100
AcDbEntity
  8
0
100
AcDbBlockBegin
  2
block 6
 70
     0
 10
0.0
 20
0.0
 30
0.0
  3
block 6
  1

  0
SPLINE
  5
E3
330
DF
100
AcDbEntity
  8
_U+30EC_U+30A4_U+30E4_U+30FC 1
370
     0
100
AcDbSpline
210
0.0
220
0.0
230
1.0
 70
    11
 71
     3
 72
    26
 73
    22
 74
     0
 42
0.0000000001
 43
0.0000000001
 12
1.0
 22
0.0
 32
0.0
 13
1.0
 23
0.0
 33
0.0
 40
0.0
 40
0.0
 40
0.0
 40
0.0
 40
1.0
 40
1.0
 40
1.0
 40
2.0
 40
2.0
 40
2.0
 40
3.0
 40
3.0
 40
3.0
 40
4.0
 40
4.0
 40
4.0
 40
5.0
 40
5.0
 40
5.0
 40
6.0
 40
6.0
 40
6.0
 40
7.0
 40
7.0
 40
7.0
 40
7.0
 10
48.24425590156741
 20
-91.36220972108306
 30
0.0
 10
48.24425590156741
 20
-91.36220972108306
 30
0.0
 10
47.13993054377057
 20
-91.36220972108306
 30
0.0
 10
47.13993054377057
 20
-91.36220972108306
 30
0.0
 10
47.13993054377057
 20
-91.36220972108306
 30
0.0
 10
47.13993054377057
 20
-91.71464298922412
 30
0.0
 10
47.13993054377057
 20
-91.71464298922412
 30
0.0
 10
47.13993054377057
 20
-91.71464298922412
 30
0.0
 10
46.99196369267909
 20
-91.71464298922412
 30
0.0
 10
46.99196369267909
 20
-91.71464298922412
 30
0.0
 10
46.97714978209252
 20
-91.35979815424339
 30
0.0
 10
46.8141967656402
 20
-91.3101887792558
 30
0.0
 10
46.69999185030417
 20
-91.27849390079149
 30
0.0
 10
46.69999185030417
 20
-91.27849390079149
 30
0.0
 10
46.69999185030417
 20
-91.12243107530968
 30
0.0
 10
46.69999185030417
 20
-91.12243107530968
 30
0.0
 10
46.69999185030417
 20
-91.12243107530968
 30
0.0
 10
48.24425590156741
 20
-91.12243107530968
 30
0.0
 10
48.24425590156741
 20
-91.12243107530968
 30
0.0
 10
48.24425590156741
 20
-91.12243107530968
 30
0.0
 10
48.24425590156741
 20
-91.36220972108306
 30
0.0
 10
48.24425590156741
 20
-91.36220972108306
 30
0.0
  0
HATCH
  5
E4
330
DF
100
AcDbEntity
  8
_U+30EC_U+30A4_U+30E4_U+30FC 1
 62
   179
420
  2234388
100
AcDbHatch
 10
0.0
 20
0.0
 30
0.0
210
0.0
220
0.0
230
1.0
  2
SOLID
 70
     1
 71
     0
 91
        1
 92
        1
 93
        1
 72
     4
 94
        3
 73
     0
 74
     1
 95
       26
 96
       22
 40
0.0
 40
0.0
 40
0.0
 40
0.0
 40
1.0
 40
1.0
 40
1.0
 40
2.0
 40
2.0
 40
2.0
 40
3.0
 40
3.0
 40
3.0
 40
4.0
 40
4.0
 40
4.0
 40
5.0
 40
5.0
 40
5.0
 40
6.0
 40
6.0
 40
6.0
 40
7.0
 40
7.0
 40
7.0
 40
7.0
 10
48.24425590156741
 20
-91.36220972108306
 10
48.24425590156741
 20
-91.36220972108306
 10
47.13993054377057
 20
-91.36220972108306
 10
47.13993054377057
 20
-91.36220972108306
 10
47.13993054377057
 20
-91.36220972108306
 10
47.13993054377057
 20
-91.71464298922412
 10
47.13993054377057
 20
-91.71464298922412
 10
47.13993054377057
 20
-91.71464298922412
 10
46.99196369267909
 20
-91.71464298922412
 10
46.99196369267909
 20
-91.71464298922412
 10
46.97714978209252
 20
-91.35979815424339
 10
46.8141967656402
 20
-91.3101887792558
 10
46.69999185030417
 20
-91.27849390079149
 10
46.69999185030417
 20
-91.27849390079149
 10
46.69999185030417
 20
-91.12243107530968
 10
46.69999185030417
 20
-91.12243107530968
 10
46.69999185030417
 20
-91.12243107530968
 10
48.24425590156741
 20
-91.12243107530968
 10
48.24425590156741
 20
-91.12243107530968
 10
48.24425590156741
 20
-91.12243107530968
 10
48.24425590156741
 20
-91.36220972108306
 10
48.24425590156741
 20
-91.36220972108306
 97
        0
 97
        0
 75
     2
 76
     1
 98
        0
  0
SPLINE
  5
E5
330
DF
100
AcDbEntity
  8
_U+30EC_U+30A4_U+30E4_U+30FC 1
370
     0
100
AcDbSpline
210
0.0
220
0.0
230
1.0
 70
    11
 71
     3
 72
    29
 73
    25
 74
     0
 42
0.0000000001
 43
0.0000000001
 12
1.0
 22
0.0
 32
0.0
 13
1.0
 23
0.0
 33
0.0
 40
0.0
 40
0.0
 40
0.0
 40
0.0
 40
1.0
 40
1.0
 40
1.0
 40
2.0
 40
2.0
 40
2.0
 40
3.0
 40
3.0
 40
3.0
 40
4.0
 40
4.0
 40
4.0
 40
5.0
 40
5.0
 40
5.0
 40
6.0
 40
6.0
 40
6.0
 40
7.0
 40
7.0
 40
7.0
 40
8.0
 40
8.0
 40
8.0
 40
8.0
 10
48.06648897452852
 20
-89.62725963471125
 30
0.0
 10
48.27595078003171
 20
-89.74267033346712
 30
0.0
 10
48.29489880520058
 20
-89.92801647057355
 30
0.0
 10
48.29489880520058
 20
-90.05238441759107
 30
0.0
 10
48.29489880520058
 20
-90.22395017275652
 30
0.0
 10
48.24839001614971
 20
-90.3755343741075
 30
0.0
 10
48.06648897452852
 20
-90.47716469092238
 30
0.0
 10
47.8718410796119
 20
-90.58809676554742
 30
0.0
 10
47.63499076500098
 20
-90.60842282891039
 30
0.0
 10
47.47203774854866
 20
-90.60842282891039
 30
0.0
 10
47.32820501203948
 20
-90.60842282891039
 30
0.0
 10
47.07654078684198
 20
-90.59016382283858
 30
0.0
 10
46.8775865225688
 20
-90.47716469092238
 30
0.0
 10
46.67449814371332
 20
-90.36209850171504
 30
0.0
 10
46.65124374918788
 20
-90.19018823700107
 30
0.0
 10
46.65124374918788
 20
-90.05238441759107
 30
0.0
 10
46.65124374918788
 20
-89.88254121016826
 30
0.0
 10
46.69568548094761
 20
-89.72888995152611
 30
0.0
 10
46.8775865225688
 20
-89.62725963471125
 30
0.0
 10
47.07016736019427
 20
-89.52080618421702
 30
0.0
 10
47.29857719086633
 20
-89.49600149672322
 30
0.0
 10
47.47203774854866
 20
-89.49600149672322
 30
0.0
 10
47.64343124893984
 20
-89.49600149672322
 30
0.0
 10
47.87408039167732
 20
-89.51873912692588
 30
0.0
 10
48.06648897452852
 20
-89.62725963471125
 30
0.0
  0
SPLINE
  5
E6
330
DF
100
AcDbEntity
  8
_U+30EC_U+30A4_U+30E4_U+30FC 1
370
     0
100
AcDbSpline
210
0.0
220
0.0
230
1.0
 70
    11
 71
     3
 72
    17
 73
    13
 74
     0
 42
0.0000000001
 43
0.0000000001
 12
1.0
 22
0.0
 32
0.0
 13
1.0
 23
0.0
 33
0.0
 40
0.0
 40
0.0
 40
0.0
 40
0.0
 40
1.0
 40
1.0
 40
1.0
 40
2.0
 40
2.0
 40
2.0
 40
3.0
 40
3.0
 40
3.0
 40
4.0
 40
4.0
 40
4.0
 40
4.0
 10
46.84382458681335
 20
-90.05238441759107
 30
0.0
 10
46.84382458681335
 20
-90.31903480814941
 30
0.0
 10
47.12735594524941
 20
-90.36864418313701
 30
0.0
 10
47.47203774854866
 20
-90.36864418313701
 30
0.0
 10
47.79157035480558
 20
-90.36864418313701
 30
0.0
 10
48.10042316505823
 20
-90.33040362325073
 30
0.0
 10
48.10042316505823
 20
-90.05238441759107
 30
0.0
 10
48.10042316505823
 20
-89.78780108432389
 30
0.0
 10
47.81895886391332
 20
-89.73578014249661
 30
0.0
 10
47.47203774854866
 20
-89.73578014249661
 30
0.0
 10
47.152677397066
 20
-89.73578014249661
 30
0.0
 10
46.84382458681335
 20
-89.77643226922257
 30
0.0
 10
46.84382458681335
 20
-90.05238441759107
 30
0.0
  0
HATCH
  5
E7
330
DF
100
AcDbEntity
  8
_U+30EC_U+30A4_U+30E4_U+30FC 1
 62
   179
420
  2234388
100
AcDbHatch
 10
0.0
 20
0.0
 30
0.0
210
0.0
220
0.0
230
1.0
  2
SOLID
 70
     1
 71
     0
 91
        2
 92
        1
 93
        1
 72
     4
 94
        3
 73
     0
 74
     1
 95
       29
 96
       25
 40
0.0
 40
0.0
 40
0.0
 40
0.0
 40
1.0
 40
1.0
 40
1.0
 40
2.0
 40
2.0
 40
2.0
 40
3.0
 40
3.0
 40
3.0
 40
4.0
 40
4.0
 40
4.0
 40
5.0
 40
5.0
 40
5.0
 40
6.0
 40
6.0
 40
6.0
 40
7.0
 40
7.0
 40
7.0
 40
8.0
 40
8.0
 40
8.0
 40
8.0
 10
48.06648897452852
 20
-89.62725963471125
 10
48.27595078003171
 20
-89.74267033346712
 10
48.29489880520058
 20
-89.92801647057355
 10
48.29489880520058
 20
-90.05238441759107
 10
48.29489880520058
 20
-90.22395017275652
 10
48.24839001614971
 20
-90.3755343741075
 10
48.06648897452852
 20
-90.47716469092238
 10
47.8718410796119
 20
-90.58809676554742
 10
47.63499076500098
 20
-90.60842282891039
 10
47.47203774854866
 20
-90.60842282891039
 10
47.32820501203948
 20
-90.60842282891039
 10
47.07654078684198
 20
-90.59016382283858
 10
46.8775865225688
 20
-90.47716469092238
 10
46.67449814371332
 20
-90.36209850171504
 10
46.65124374918788
 20
-90.19018823700107
 10
46.65124374918788
 20
-90.05238441759107
 10
46.65124374918788
 20
-89.88254121016826
 10
46.69568548094761
 20
-89.72888995152611
 10
46.8775865225688
 20
-89.62725963471125
 10
47.07016736019427
 20
-89.52080618421702
 10
47.29857719086633
 20
-89.49600149672322
 10
47.47203774854866
 20
-89.49600149672322
 10
47.64343124893984
 20
-89.49600149672322
 10
47.87408039167732
 20
-89.51873912692588
 10
48.06648897452852
 20
-89.62725963471125
 97
        0
 97
        0
 92
        1
 93
        1
 72
     4
 94
        3
 73
     0
 74
     1
 95
       17
 96
       13
 40
0.0
 40
0.0
 40
0.0
 40
0.0
 40
1.0
 40
1.0
 40
1.0
 40
2.0
 40
2.0
 40
2.0
 40
3.0
 40
3.0
 40
3.0
 40
4.0
 40
4.0
 40
4.0
 40
4.0
 10
46.84382458681335
 20
-90.05238441759107
 10
46.84382458681335
 20
-90.31903480814941
 10
47.12735594524941
 20
-90.36864418313701
 10
47.47203774854866
 20
-90.36864418313701
 10
47.79157035480558
 20
-90.36864418313701
 10
48.10042316505823
 20
-90.33040362325073
 10
48.10042316505823
 20
-90.05238441759107
 10
48.10042316505823
 20
-89.78780108432389
 10
47.81895886391332
 20
-89.73578014249661
 10
47.47203774854866
 20
-89.73578014249661
 10
47.152677397066
 20
-89.73578014249661
 10
46.84382458681335
 20
-89.77643226922257
 10
46.84382458681335
 20
-90.05238441759107
 97
        0
 97
        0
 75
     2
 76
     1
 98
        0
  0
POLYLINE
  5
E8
330
DF
100
AcDbEntity
  8
_U+30EC_U+30A4_U+30E4_U+30FC 1
370
     0
100
AcDb2dPolyline
 66
     1
 10
0.0
 20
0.0
 30
0.0
  0
VERTEX
  5
E9
330
E8
100
AcDbEntity
  8
_U+30EC_U+30A4_U+30E4_U+30FC 1
370
     0
100
AcDbVertex
100
AcDb2dVertex
 10
48.24425590156741
 20
-89.26483558966297
 30
0.0
  0
VERTEX
  5
EA
330
E8
100
AcDbEntity
  8
_U+30EC_U+30A4_U+30E4_U+30FC 1
370
     0
100
AcDbVertex
100
AcDb2dVertex
 10
47.99259167636991
 20
-89.26483558966297
 30
0.0
  0
VERTEX
  5
EB
330
E8
100
AcDbEntity
  8
_U+30EC_U+30A4_U+30E4_U+30FC 1
370
     0
100
AcDbVertex
100
AcDb2dVertex
 10
47.99259167636991
 20
-88.99577363226496
 30
0.0
  0
VERTEX
  5
EC
330
E8
100
AcDbEntity
  8
_U+30EC_U+30A4_U+30E4_U+30FC 1
370
     0
100
AcDbVertex
100
AcDb2dVertex
 10
48.24425590156741
 20
-88.99577363226496
 30
0.0
  0
VERTEX
  5
ED
330
E8
100
AcDbEntity
  8
_U+30EC_U+30A4_U+30E4_U+30FC 1
370
     0
100
AcDbVertex
100
AcDb2dVertex
 10
48.24425590156741
 20
-89.26483558966297
 30
0.0
  0
SEQEND
  5
EE
330
E8
100
AcDbEntity
  8
_U+30EC_U+30A4_U+30E4_U+30FC 1
370
     0
  0
HATCH
  5
EF
330
DF
100
AcDbEntity
  8
_U+30EC_U+30A4_U+30E4_U+30FC 1
 62
   179
420
  2234388
100
AcDbHatch
 10
0.0
 20
0.0
 30
0.0
210
0.0
220
0.0
230
1.0
  2
SOLID
 70
     1
 71
     0
 91
        1
 92
        1
 93
        4
 72
     1
 10
48.24425590156741
 20
-89.26483558966297
 11
47.99259167636991
 21
-89.26483558966297
 72
     1
 10
47.99259167636991
 20
-89.26483558966297
 11
47.99259167636991
 21
-88.99577363226496
 72
     1
 10
47.99259167636991
 20
-88.99577363226496
 11
48.24425590156741
 21
-88.99577363226496
 72
     1
 10
48.24425590156741
 20
-88.99577363226496
 11
48.24425590156741
 21
-89.26483558966297
 97
        0
 75
     2
 76
     1
 98
        0
  0
SPLINE
  5
F0
330
DF
100
AcDbEntity
  8
_U+30EC_U+30A4_U+30E4_U+30FC 1
370
     0
100
AcDbSpline
210
0.0
220
0.0
230
1.0
 70
    11
 71
     3
 72
    44
 73
    40
 74
     0
 42
0.0000000001
 43
0.0000000001
 12
1.0
 22
0.0
 32
0.0
 13
1.0
 23
0.0
 33
0.0
 40
0.0
 40
0.0
 40
0.0
 40
0.0
 40
1.0
 40
1.0
 40
1.0
 40
2.0
 40
2.0
 40
2.0
 40
3.0
 40
3.0
 40
3.0
 40
4.0
 40
4.0
 40
4.0
 40
5.0
 40
5.0
 40
5.0
 40
6.0
 40
6.0
 40
6.0
 40
7.0
 40
7.0
 40
7.0
 40
8.0
 40
8.0
 40
8.0
 40
9.0
 40
9.0
 40
9.0
 40
10.0
 40
10.0
 40
10.0
 40
11.0
 40
11.0
 40
11.0
 40
12.0
 40
12.0
 40
12.0
 40
13.0
 40
13.0
 40
13.0
 40
13.0
 10
47.66255152888298
 20
-88.10900605436164
 30
0.0
 10
47.82119817597873
 20
-88.34189450916453
 30
0.0
 10
47.89526772891161
 20
-88.44145776868825
 30
0.0
 10
48.03910046542078
 20
-88.49347871051552
 30
0.0
 10
48.03910046542078
 20
-88.49347871051552
 30
0.0
 10
48.03910046542078
 20
-87.66114364127917
 30
0.0
 10
48.03910046542078
 20
-87.66114364127917
 30
0.0
 10
48.03910046542078
 20
-87.66114364127917
 30
0.0
 10
48.24425590156741
 20
-87.66114364127917
 30
0.0
 10
48.24425590156741
 20
-87.66114364127917
 30
0.0
 10
48.24425590156741
 20
-87.66114364127917
 30
0.0
 10
48.24425590156741
 20
-88.76012910107386
 30
0.0
 10
48.24425590156741
 20
-88.76012910107386
 30
0.0
 10
47.88665499019848
 20
-88.72602265576988
 30
0.0
 10
47.8084513226833
 20
-88.65608721741931
 30
0.0
 10
47.51010605366067
 20
-88.24474281648048
 30
0.0
 10
47.31132404416176
 20
-87.97120223495165
 30
0.0
 10
47.24362791787659
 20
-87.90092228705255
 30
0.0
 10
47.10616860801512
 20
-87.90092228705255
 30
0.0
 10
46.98765732332253
 20
-87.90092228705255
 30
0.0
 10
46.85657144010877
 20
-87.97774791637362
 30
0.0
 10
46.85657144010877
 20
-88.18824325052239
 30
0.0
 10
46.85657144010877
 20
-88.46626245618205
 30
0.0
 10
47.08704832807199
 20
-88.4752197044437
 30
0.0
 10
47.20349255547343
 20
-88.47969832857453
 30
0.0
 10
47.20349255547343
 20
-88.47969832857453
 30
0.0
 10
47.20349255547343
 20
-88.71947697434791
 30
0.0
 10
47.20349255547343
 20
-88.71947697434791
 30
0.0
 10
47.07654078684198
 20
-88.71051972608626
 30
0.0
 10
46.96440292879709
 20
-88.69915091098494
 30
0.0
 10
46.8458916441045
 20
-88.6130235238537
 30
0.0
 10
46.6851779397176
 20
-88.49554576780668
 30
0.0
 10
46.65124374918788
 20
-88.29676375830776
 30
0.0
 10
46.65124374918788
 20
-88.17239581129024
 30
0.0
 10
46.65124374918788
 20
-87.87611759955875
 30
0.0
 10
46.83538410287449
 20
-87.65459795985718
 30
0.0
 10
47.10823566530627
 20
-87.65459795985718
 30
0.0
 10
47.33664549597834
 20
-87.65459795985718
 30
0.0
 10
47.43620875550206
 20
-87.7789659068747
 30
0.0
 10
47.66255152888298
 20
-88.10900605436164
 30
0.0
  0
HATCH
  5
F1
330
DF
100
AcDbEntity
  8
_U+30EC_U+30A4_U+30E4_U+30FC 1
 62
   179
420
  2234388
100
AcDbHatch
 10
0.0
 20
0.0
 30
0.0
210
0.0
220
0.0
230
1.0
  2
SOLID
 70
     1
 71
     0
 91
        1
 92
        1
 93
        1
 72
     4
 94
        3
 73
     0
 74
     1
 95
       44
 96
       40
 40
0.0
 40
0.0
 40
0.0
 40
0.0
 40
1.0
 40
1.0
 40
1.0
 40
2.0
 40
2.0
 40
2.0
 40
3.0
 40
3.0
 40
3.0
 40
4.0
 40
4.0
 40
4.0
 40
5.0
 40
5.0
 40
5.0
 40
6.0
 40
6.0
 40
6.0
 40
7.0
 40
7.0
 40
7.0
 40
8.0
 40
8.0
 40
8.0
 40
9.0
 40
9.0
 40
9.0
 40
10.0
 40
10.0
 40
10.0
 40
11.0
 40
11.0
 40
11.0
 40
12.0
 40
12.0
 40
12.0
 40
13.0
 40
13.0
 40
13.0
 40
13.0
 10
47.66255152888298
 20
-88.10900605436164
 10
47.82119817597873
 20
-88.34189450916453
 10
47.89526772891161
 20
-88.44145776868825
 10
48.03910046542078
 20
-88.49347871051552
 10
48.03910046542078
 20
-88.49347871051552
 10
48.03910046542078
 20
-87.66114364127917
 10
48.03910046542078
 20
-87.66114364127917
 10
48.03910046542078
 20
-87.66114364127917
 10
48.24425590156741
 20
-87.66114364127917
 10
48.24425590156741
 20
-87.66114364127917
 10
48.24425590156741
 20
-87.66114364127917
 10
48.24425590156741
 20
-88.76012910107386
 10
48.24425590156741
 20
-88.76012910107386
 10
47.88665499019848
 20
-88.72602265576988
 10
47.8084513226833
 20
-88.65608721741931
 10
47.51010605366067
 20
-88.24474281648048
 10
47.31132404416176
 20
-87.97120223495165
 10
47.24362791787659
 20
-87.90092228705255
 10
47.10616860801512
 20
-87.90092228705255
 10
46.98765732332253
 20
-87.90092228705255
 10
46.85657144010877
 20
-87.97774791637362
 10
46.85657144010877
 20
-88.18824325052239
 10
46.85657144010877
 20
-88.46626245618205
 10
47.08704832807199
 20
-88.4752197044437
 10
47.20349255547343
 20
-88.47969832857453
 10
47.20349255547343
 20
-88.47969832857453
 10
47.20349255547343
 20
-88.71947697434791
 10
47.20349255547343
 20
-88.71947697434791
 10
47.07654078684198
 20
-88.71051972608626
 10
46.96440292879709
 20
-88.69915091098494
 10
46.8458916441045
 20
-88.6130235238537
 10
46.6851779397176
 20
-88.49554576780668
 10
46.65124374918788
 20
-88.29676375830776
 10
46.65124374918788
 20
-88.17239581129024
 10
46.65124374918788
 20
-87.87611759955875
 10
46.83538410287449
 20
-87.65459795985718
 10
47.10823566530627
 20
-87.65459795985718
 10
47.33664549597834
 20
-87.65459795985718
 10
47.43620875550206
 20
-87.7789659068747
 10
47.66255152888298
 20
-88.10900605436164
 97
        0
 97
        0
 75
     2
 76
     1
 98
        0
  0
ENDBLK
  5
E2
330
DF
100
AcDbEntity
  8
0
100
AcDbBlockEnd
  0
ENDSEC
  0
SECTION
  2
ENTITIES
  0
POLYLINE
  5
41
330
1F
100
AcDbEntity
  8
_U+30EC_U+30A4_U+30E4_U+30FC 1
 62
   179
420
  2234388
370
    25
100
AcDb2dPolyline
 66
     1
 10
0.0
 20
0.0
 30
0.0
  0
VERTEX
  5
42
330
41
100
AcDbEntity
  8
_U+30EC_U+30A4_U+30E4_U+30FC 1
 62
   179
420
  2234388
370
    25
100
AcDbVertex
100
AcDb2dVertex
 10
52.80091893071411
 20
-84.65823525661317
 30
0.0
  0
VERTEX
  5
43
330
41
100
AcDbEntity
  8
_U+30EC_U+30A4_U+30E4_U+30FC 1
 62
   179
420
  2234388
370
    25
100
AcDbVertex
100
AcDb2dVertex
 10
75.80104167726543
 20
-84.65823525661317
 30
0.0
  0
SEQEND
  5
44
330
41
100
AcDbEntity
  8
_U+30EC_U+30A4_U+30E4_U+30FC 1
 62
   179
420
  2234388
370
    25
  0
POLYLINE
  5
45
330
1F
100
AcDbEntity
  8
_U+30EC_U+30A4_U+30E4_U+30FC 1
 62
   179
420
  2234388
370
    25
100
AcDb2dPolyline
 66
     1
 10
0.0
 20
0.0
 30
0.0
  0
VERTEX
  5
46
330
45
100
AcDbEntity
  8
_U+30EC_U+30A4_U+30E4_U+30FC 1
 62
   179
420
  2234388
370
    25
100
AcDbVertex
100
AcDb2dVertex
 10
52.80091893071411
 20
-84.65823525661317
 30
0.0
  0
VERTEX
  5
47
330
45
100
AcDbEntity
  8
_U+30EC_U+30A4_U+30E4_U+30FC 1
 62
   179
420
  2234388
370
    25
100
AcDbVertex
100
AcDb2dVertex
 10
52.80091893071411
 20
-94.8579580318409
 30
0.0
  0
SEQEND
  5
48
330
45
100
AcDbEntity
  8
_U+30EC_U+30A4_U+30E4_U+30FC 1
 62
   179
420
  2234388
370
    25
  0
POLYLINE
  5
49
330
1F
100
AcDbEntity
  8
_U+30EC_U+30A4_U+30E4_U+30FC 1
 62
   179
420
  2234388
370
    25
100
AcDb2dPolyline
 66
     1
 10
0.0
 20
0.0
 30
0.0
  0
VERTEX
  5
4A
330
49
100
AcDbEntity
  8
_U+30EC_U+30A4_U+30E4_U+30FC 1
 62
   179
420
  2234388
370
    25
100
AcDbVertex
100
AcDb2dVertex
 10
75.80104167726543
 20
-84.65823525661317
 30
0.0
  0
VERTEX
  5
4B
330
49
100
AcDbEntity
  8
_U+30EC_U+30A4_U+30E4_U+30FC 1
 62
   179
420
  2234388
370
    25
100
AcDbVertex
100
AcDb2dVertex
 10
75.80104167726543
 20
-85.65800747858539
 30
0.0
  0
SEQEND
  5
4C
330
49
100
AcDbEntity
  8
_U+30EC_U+30A4_U+30E4_U+30FC 1
 62
   179
420
  2234388
370
    25
  0
POLYLINE
  5
4D
330
1F
100
AcDbEntity
  8
_U+30EC_U+30A4_U+30E4_U+30FC 1
 62
   179
420
  2234388
370
    25
100
AcDb2dPolyline
 66
     1
 10
0.0
 20
0.0
 30
0.0
  0
VERTEX
  5
4E
330
4D
100
AcDbEntity
  8
_U+30EC_U+30A4_U+30E4_U+30FC 1
 62
   179
420
  2234388
370
    25
100
AcDbVertex
100
AcDb2dVertex
 10
53.80100862742192
 20
-85.65800747858539
 30
0.0
  0
VERTEX
  5
4F
330
4D
100
AcDbEntity
  8
_U+30EC_U+30A4_U+30E4_U+30FC 1
 62
   179
420
  2234388
370
    25
100
AcDbVertex
100
AcDb2dVertex
 10
75.80104167726543
 20
-85.65800747858539
 30
0.0
  0
SEQEND
  5
50
330
4D
100
AcDbEntity
  8
_U+30EC_U+30A4_U+30E4_U+30FC 1
 62
   179
420
  2234388
370
    25
  0
POLYLINE
  5
51
330
1F
100
AcDbEntity
  8
_U+30EC_U+30A4_U+30E4_U+30FC 1
 62
   179
420
  2234388
370
    25
100
AcDb2dPolyline
 66
     1
 10
0.0
 20
0.0
 30
0.0
  0
VERTEX
  5
52
330
51
100
AcDbEntity
  8
_U+30EC_U+30A4_U+30E4_U+30FC 1
 62
   179
420
  2234388
370
    25
100
AcDbVertex
100
AcDb2dVertex
 10
56.80099549533032
 20
-93.858185809869
 30
0.0
  0
VERTEX
  5
53
330
51
100
AcDbEntity
  8
_U+30EC_U+30A4_U+30E4_U+30FC 1
 62
   179
420
  2234388
370
    25
100
AcDbVertex
100
AcDb2dVertex
 10
56.80099549533032
 20
-94.8579580318409
 30
0.0
  0
SEQEND
  5
54
330
51
100
AcDbEntity
  8
_U+30EC_U+30A4_U+30E4_U+30FC 1
 62
   179
420
  2234388
370
    25
  0
POLYLINE
  5
55
330
1F
100
AcDbEntity
  8
_U+30EC_U+30A4_U+30E4_U+30FC 1
 62
   179
420
  2234388
370
    25
100
AcDb2dPolyline
 66
     1
 10
0.0
 20
0.0
 30
0.0
  0
VERTEX
  5
56
330
55
100
AcDbEntity
  8
_U+30EC_U+30A4_U+30E4_U+30FC 1
 62
   179
420
  2234388
370
    25
100
AcDbVertex
100
AcDb2dVertex
 10
53.80100862742192
 20
-93.858185809869
 30
0.0
  0
VERTEX
  5
57
330
55
100
AcDbEntity
  8
_U+30EC_U+30A4_U+30E4_U+30FC 1
 62
   179
420
  2234388
370
    25
100
AcDbVertex
100
AcDb2dVertex
 10
56.80099549533032
 20
-93.858185809869
 30
0.0
  0
SEQEND
  5
58
330
55
100
AcDbEntity
  8
_U+30EC_U+30A4_U+30E4_U+30FC 1
 62
   179
420
  2234388
370
    25
  0
POLYLINE
  5
59
330
1F
100
AcDbEntity
  8
_U+30EC_U+30A4_U+30E4_U+30FC 1
 62
   179
420
  2234388
370
    25
100
AcDb2dPolyline
 66
     1
 10
0.0
 20
0.0
 30
0.0
  0
VERTEX
  5
5A
330
59
100
AcDbEntity
  8
_U+30EC_U+30A4_U+30E4_U+30FC 1
 62
   179
420
  2234388
370
    25
100
AcDbVertex
100
AcDb2dVertex
 10
53.80100862742192
 20
-85.65800747858539
 30
0.0
  0
VERTEX
  5
5B
330
59
100
AcDbEntity
  8
_U+30EC_U+30A4_U+30E4_U+30FC 1
 62
   179
420
  2234388
370
    25
100
AcDbVertex
100
AcDb2dVertex
 10
53.80100862742192
 20
-93.858185809869
 30
0.0
  0
SEQEND
  5
5C
330
59
100
AcDbEntity
  8
_U+30EC_U+30A4_U+30E4_U+30FC 1
 62
   179
420
  2234388
370
    25
  0
POLYLINE
  5
5D
330
1F
100
AcDbEntity
  8
_U+30EC_U+30A4_U+30E4_U+30FC 1
 62
   179
420
  2234388
370
    25
100
AcDb2dPolyline
 66
     1
 10
0.0
 20
0.0
 30
0.0
  0
VERTEX
  5
5E
330
5D
100
AcDbEntity
  8
_U+30EC_U+30A4_U+30E4_U+30FC 1
 62
   179
420
  2234388
370
    25
100
AcDbVertex
100
AcDb2dVertex
 10
52.80091893071411
 20
-94.8579580318409
 30
0.0
  0
VERTEX
  5
5F
330
5D
100
AcDbEntity
  8
_U+30EC_U+30A4_U+30E4_U+30FC 1
 62
   179
420
  2234388
370
    25
100
AcDbVertex
100
AcDb2dVertex
 10
56.80099549533032
 20
-94.8579580318409
 30
0.0
  0
SEQEND
  5
60
330
5D
100
AcDbEntity
  8
_U+30EC_U+30A4_U+30E4_U+30FC 1
 62
   179
420
  2234388
370
    25
  0
SPLINE
  5
61
330
1F
100
AcDbEntity
  8
_U+30EC_U+30A4_U+30E4_U+30FC 1
 62
   179
420
  2234388
370
     9
100
AcDbSpline
210
0.0
220
0.0
230
1.0
 70
    11
 71
     3
 72
    17
 73
    13
 74
     0
 42
0.0000000001
 43
0.0000000001
 12
1.0
 22
0.0
 32
0.0
 13
1.0
 23
0.0
 33
0.0
 40
0.0
 40
0.0
 40
0.0
 40
0.0
 40
1.0
 40
1.0
 40
1.0
 40
2.0
 40
2.0
 40
2.0
 40
3.0
 40
3.0
 40
3.0
 40
4.0
 40
4.0
 40
4.0
 40
4.0
 10
52.90082559483194
 20
-80.6577705353911
 30
0.0
 10
52.90082559483194
 20
-80.60266664651584
 30
0.0
 10
52.85602281819718
 20
-80.55786386874945
 30
0.0
 10
52.80091893071411
 20
-80.55786386874945
 30
0.0
 10
52.74577976545416
 20
-80.55786386874945
 30
0.0
 10
52.70101226659627
 20
-80.60266664651584
 30
0.0
 10
52.70101226659627
 20
-80.6577705353911
 30
0.0
 10
52.70101226659627
 20
-80.71326247982161
 30
0.0
 10
52.74577976545416
 20
-80.75802997981049
 30
0.0
 10
52.80091893071411
 20
-80.75802997981049
 30
0.0
 10
52.85602281819718
 20
-80.75802997981049
 30
0.0
 10
52.90082559483194
 20
-80.71326247982161
 30
0.0
 10
52.90082559483194
 20
-80.6577705353911
 30
0.0
  0
SPLINE
  5
62
330
1F
100
AcDbEntity
  8
_U+30EC_U+30A4_U+30E4_U+30FC 1
 62
   179
420
  2234388
370
     9
100
AcDbSpline
210
0.0
220
0.0
230
1.0
 70
    11
 71
     3
 72
    17
 73
    13
 74
     0
 42
0.0000000001
 43
0.0000000001
 12
1.0
 22
0.0
 32
0.0
 13
1.0
 23
0.0
 33
0.0
 40
0.0
 40
0.0
 40
0.0
 40
0.0
 40
1.0
 40
1.0
 40
1.0
 40
2.0
 40
2.0
 40
2.0
 40
3.0
 40
3.0
 40
3.0
 40
4.0
 40
4.0
 40
4.0
 40
4.0
 10
75.90094834138327
 20
-80.6577705353911
 30
0.0
 10
75.90094834138327
 20
-80.60266664651584
 30
0.0
 10
75.85618084252538
 20
-80.55786386874945
 30
0.0
 10
75.80104167726543
 20
-80.55786386874945
 30
0.0
 10
75.74593778978236
 20
-80.55786386874945
 30
0.0
 10
75.70113501314759
 20
-80.60266664651584
 30
0.0
 10
75.70113501314759
 20
-80.6577705353911
 30
0.0
 10
75.70113501314759
 20
-80.71326247982161
 30
0.0
 10
75.74593778978236
 20
-80.75802997981049
 30
0.0
 10
75.80104167726543
 20
-80.75802997981049
 30
0.0
 10
75.85618084252538
 20
-80.75802997981049
 30
0.0
 10
75.90094834138327
 20
-80.71326247982161
 30
0.0
 10
75.90094834138327
 20
-80.6577705353911
 30
0.0
  0
SPLINE
  5
63
330
1F
100
AcDbEntity
  8
_U+30EC_U+30A4_U+30E4_U+30FC 1
 62
   179
420
  2234388
370
     9
100
AcDbSpline
210
0.0
220
0.0
230
1.0
 70
    11
 71
     3
 72
    17
 73
    13
 74
     0
 42
0.0000000001
 43
0.0000000001
 12
1.0
 22
0.0
 32
0.0
 13
1.0
 23
0.0
 33
0.0
 40
0.0
 40
0.0
 40
0.0
 40
0.0
 40
1.0
 40
1.0
 40
1.0
 40
2.0
 40
2.0
 40
2.0
 40
3.0
 40
3.0
 40
3.0
 40
4.0
 40
4.0
 40
4.0
 40
4.0
 10
79.90106018377635
 20
-84.65823525661317
 30
0.0
 10
79.90106018377635
 20
-84.60274331218265
 30
0.0
 10
79.85629268491847
 20
-84.55797581219377
 30
0.0
 10
79.80115553560546
 20
-84.55797581219377
 30
0.0
 10
79.74534407663789
 20
-84.55797581219377
 30
0.0
 10
79.70057657778
 20
-84.60274331218265
 30
0.0
 10
79.70057657778
 20
-84.65823525661317
 30
0.0
 10
79.70057657778
 20
-84.7133391454884
 30
0.0
 10
79.74534407663789
 20
-84.75814192325481
 30
0.0
 10
79.80115553560546
 20
-84.75814192325481
 30
0.0
 10
79.85629268491847
 20
-84.75814192325481
 30
0.0
 10
79.90106018377635
 20
-84.7133391454884
 30
0.0
 10
79.90106018377635
 20
-84.65823525661317
 30
0.0
  0
SPLINE
  5
64
330
1F
100
AcDbEntity
  8
_U+30EC_U+30A4_U+30E4_U+30FC 1
 62
   179
420
  2234388
370
     9
100
AcDbSpline
210
0.0
220
0.0
230
1.0
 70
    11
 71
     3
 72
    17
 73
    13
 74
     0
 42
0.0000000001
 43
0.0000000001
 12
1.0
 22
0.0
 32
0.0
 13
1.0
 23
0.0
 33
0.0
 40
0.0
 40
0.0
 40
0.0
 40
0.0
 40
1.0
 40
1.0
 40
1.0
 40
2.0
 40
2.0
 40
2.0
 40
3.0
 40
3.0
 40
3.0
 40
4.0
 40
4.0
 40
4.0
 40
4.0
 10
79.90106018377635
 20
-85.65800747858539
 30
0.0
 10
79.90106018377635
 20
-85.60286831193264
 30
0.0
 10
79.85629268491847
 20
-85.55810081194376
 30
0.0
 10
79.80115553560546
 20
-85.55810081194376
 30
0.0
 10
79.74534407663789
 20
-85.55810081194376
 30
0.0
 10
79.70057657778
 20
-85.60286831193264
 30
0.0
 10
79.70057657778
 20
-85.65800747858539
 30
0.0
 10
79.70057657778
 20
-85.71311136746063
 30
0.0
 10
79.74534407663789
 20
-85.75791414522735
 30
0.0
 10
79.80115553560546
 20
-85.75791414522735
 30
0.0
 10
79.85629268491847
 20
-85.75791414522735
 30
0.0
 10
79.90106018377635
 20
-85.71311136746063
 30
0.0
 10
79.90106018377635
 20
-85.65800747858539
 30
0.0
  0
SPLINE
  5
65
330
1F
100
AcDbEntity
  8
_U+30EC_U+30A4_U+30E4_U+30FC 1
 62
   179
420
  2234388
370
     9
100
AcDbSpline
210
0.0
220
0.0
230
1.0
 70
    11
 71
     3
 72
    17
 73
    13
 74
     0
 42
0.0000000001
 43
0.0000000001
 12
1.0
 22
0.0
 32
0.0
 13
1.0
 23
0.0
 33
0.0
 40
0.0
 40
0.0
 40
0.0
 40
0.0
 40
1.0
 40
1.0
 40
1.0
 40
2.0
 40
2.0
 40
2.0
 40
3.0
 40
3.0
 40
3.0
 40
4.0
 40
4.0
 40
4.0
 40
4.0
 10
79.90106018377635
 20
-93.858185809869
 30
0.0
 10
79.90106018377635
 20
-93.80304664321592
 30
0.0
 10
79.85629268491847
 20
-93.75827914322737
 30
0.0
 10
79.80115553560546
 20
-93.75827914322737
 30
0.0
 10
79.74534407663789
 20
-93.75827914322737
 30
0.0
 10
79.70057657778
 20
-93.80304664321592
 30
0.0
 10
79.70057657778
 20
-93.858185809869
 30
0.0
 10
79.70057657778
 20
-93.91328969874392
 30
0.0
 10
79.74534407663789
 20
-93.95809247651064
 30
0.0
 10
79.80115553560546
 20
-93.95809247651064
 30
0.0
 10
79.85629268491847
 20
-93.95809247651064
 30
0.0
 10
79.90106018377635
 20
-93.91328969874392
 30
0.0
 10
79.90106018377635
 20
-93.858185809869
 30
0.0
  0
SPLINE
  5
66
330
1F
100
AcDbEntity
  8
_U+30EC_U+30A4_U+30E4_U+30FC 1
 62
   179
420
  2234388
370
     9
100
AcDbSpline
210
0.0
220
0.0
230
1.0
 70
    11
 71
     3
 72
    17
 73
    13
 74
     0
 42
0.0000000001
 43
0.0000000001
 12
1.0
 22
0.0
 32
0.0
 13
1.0
 23
0.0
 33
0.0
 40
0.0
 40
0.0
 40
0.0
 40
0.0
 40
1.0
 40
1.0
 40
1.0
 40
2.0
 40
2.0
 40
2.0
 40
3.0
 40
3.0
 40
3.0
 40
4.0
 40
4.0
 40
4.0
 40
4.0
 10
56.90125493721693
 20
-98.85771719750778
 30
0.0
 10
56.90125493721693
 20
-98.8025780308547
 30
0.0
 10
56.85648887467465
 20
-98.75781053086615
 30
0.0
 10
56.80099549533032
 20
-98.75781053086615
 30
0.0
 10
56.74553883007847
 20
-98.75781053086615
 30
0.0
 10
56.70108883121249
 20
-98.8025780308547
 30
0.0
 10
56.70108883121249
 20
-98.85771719750778
 30
0.0
 10
56.70108883121249
 20
-98.91352664193822
 30
0.0
 10
56.74553883007847
 20
-98.95829414192679
 30
0.0
 10
56.80099549533032
 20
-98.95829414192679
 30
0.0
 10
56.85648887467465
 20
-98.95829414192679
 30
0.0
 10
56.90125493721693
 20
-98.91352664193822
 30
0.0
 10
56.90125493721693
 20
-98.85771719750778
 30
0.0
  0
SPLINE
  5
67
330
1F
100
AcDbEntity
  8
_U+30EC_U+30A4_U+30E4_U+30FC 1
 62
   179
420
  2234388
370
     9
100
AcDbSpline
210
0.0
220
0.0
230
1.0
 70
    11
 71
     3
 72
    17
 73
    13
 74
     0
 42
0.0000000001
 43
0.0000000001
 12
1.0
 22
0.0
 32
0.0
 13
1.0
 23
0.0
 33
0.0
 40
0.0
 40
0.0
 40
0.0
 40
0.0
 40
1.0
 40
1.0
 40
1.0
 40
2.0
 40
2.0
 40
2.0
 40
3.0
 40
3.0
 40
3.0
 40
4.0
 40
4.0
 40
4.0
 40
4.0
 10
52.90082559483194
 20
-98.85771719750778
 30
0.0
 10
52.90082559483194
 20
-98.8025780308547
 30
0.0
 10
52.85602281819718
 20
-98.75781053086615
 30
0.0
 10
52.80091893071411
 20
-98.75781053086615
 30
0.0
 10
52.74577976545416
 20
-98.75781053086615
 30
0.0
 10
52.70101226659627
 20
-98.8025780308547
 30
0.0
 10
52.70101226659627
 20
-98.85771719750778
 30
0.0
 10
52.70101226659627
 20
-98.91352664193822
 30
0.0
 10
52.74577976545416
 20
-98.95829414192679
 30
0.0
 10
52.80091893071411
 20
-98.95829414192679
 30
0.0
 10
52.85602281819718
 20
-98.95829414192679
 30
0.0
 10
52.90082559483194
 20
-98.91352664193822
 30
0.0
 10
52.90082559483194
 20
-98.85771719750778
 30
0.0
  0
POLYLINE
  5
68
330
1F
100
AcDbEntity
  8
_U+30EC_U+30A4_U+30E4_U+30FC 1
 62
   179
420
  2234388
370
     9
100
AcDb2dPolyline
 66
     1
 10
0.0
 20
0.0
 30
0.0
  0
VERTEX
  5
69
330
68
100
AcDbEntity
  8
_U+30EC_U+30A4_U+30E4_U+30FC 1
 62
   179
420
  2234388
370
     9
100
AcDbVertex
100
AcDb2dVertex
 10
79.80115553560546
 20
-84.65823525661317
 30
0.0
  0
VERTEX
  5
6A
330
68
100
AcDbEntity
  8
_U+30EC_U+30A4_U+30E4_U+30FC 1
 62
   179
420
  2234388
370
     9
100
AcDbVertex
100
AcDb2dVertex
 10
79.80115553560546
 20
-80.88792275755576
 30
0.0
  0
SEQEND
  5
6B
330
68
100
AcDbEntity
  8
_U+30EC_U+30A4_U+30E4_U+30FC 1
 62
   179
420
  2234388
370
     9
  0
POLYLINE
  5
6C
330
1F
100
AcDbEntity
  8
_U+30EC_U+30A4_U+30E4_U+30FC 1
 62
   179
420
  2234388
370
     9
100
AcDb2dPolyline
 66
     1
 10
0.0
 20
0.0
 30
0.0
  0
VERTEX
  5
6D
330
6C
100
AcDbEntity
  8
_U+30EC_U+30A4_U+30E4_U+30FC 1
 62
   179
420
  2234388
370
     9
100
AcDbVertex
100
AcDb2dVertex
 10
79.80115553560546
 20
-84.65823525661317
 30
0.0
  0
VERTEX
  5
6E
330
6C
100
AcDbEntity
  8
_U+30EC_U+30A4_U+30E4_U+30FC 1
 62
   179
420
  2234388
370
     9
100
AcDbVertex
100
AcDb2dVertex
 10
79.80115553560546
 20
-85.65800747858539
 30
0.0
  0
SEQEND
  5
6F
330
6C
100
AcDbEntity
  8
_U+30EC_U+30A4_U+30E4_U+30FC 1
 62
   179
420
  2234388
370
     9
  0
POLYLINE
  5
70
330
1F
100
AcDbEntity
  8
_U+30EC_U+30A4_U+30E4_U+30FC 1
 62
   179
420
  2234388
370
     9
100
AcDb2dPolyline
 66
     1
 10
0.0
 20
0.0
 30
0.0
  0
VERTEX
  5
71
330
70
100
AcDbEntity
  8
_U+30EC_U+30A4_U+30E4_U+30FC 1
 62
   179
420
  2234388
370
     9
100
AcDbVertex
100
AcDb2dVertex
 10
78.34146494578717
 20
-84.65823525661317
 30
0.0
  0
VERTEX
  5
72
330
70
100
AcDbEntity
  8
_U+30EC_U+30A4_U+30E4_U+30FC 1
 62
   179
420
  2234388
370
     9
100
AcDbVertex
100
AcDb2dVertex
 10
80.80092775757736
 20
-84.65823525661317
 30
0.0
  0
SEQEND
  5
73
330
70
100
AcDbEntity
  8
_U+30EC_U+30A4_U+30E4_U+30FC 1
 62
   179
420
  2234388
370
     9
  0
POLYLINE
  5
74
330
1F
100
AcDbEntity
  8
_U+30EC_U+30A4_U+30E4_U+30FC 1
 62
   179
420
  2234388
370
     9
100
AcDb2dPolyline
 66
     1
 10
0.0
 20
0.0
 30
0.0
  0
VERTEX
  5
75
330
74
100
AcDbEntity
  8
_U+30EC_U+30A4_U+30E4_U+30FC 1
 62
   179
420
  2234388
370
     9
100
AcDbVertex
100
AcDb2dVertex
 10
78.34146494578717
 20
-85.65800747858539
 30
0.0
  0
VERTEX
  5
76
330
74
100
AcDbEntity
  8
_U+30EC_U+30A4_U+30E4_U+30FC 1
 62
   179
420
  2234388
370
     9
100
AcDbVertex
100
AcDb2dVertex
 10
80.80092775757736
 20
-85.65800747858539
 30
0.0
  0
SEQEND
  5
77
330
74
100
AcDbEntity
  8
_U+30EC_U+30A4_U+30E4_U+30FC 1
 62
   179
420
  2234388
370
     9
  0
INSERT
  5
79
330
1F
100
AcDbEntity
  8
_U+30EC_U+30A4_U+30E4_U+30FC 1
100
AcDbBlockReference
  2
block 2
 10
0.0
 20
0.0
 30
0.0
  0
POLYLINE
  5
7E
330
1F
100
AcDbEntity
  8
_U+30EC_U+30A4_U+30E4_U+30FC 1
 62
   179
420
  2234388
370
     9
100
AcDb2dPolyline
 66
     1
 10
0.0
 20
0.0
 30
0.0
  0
VERTEX
  5
7F
330
7E
100
AcDbEntity
  8
_U+30EC_U+30A4_U+30E4_U+30FC 1
 62
   179
420
  2234388
370
     9
100
AcDbVertex
100
AcDb2dVertex
 10
52.80091893071411
 20
-98.85771719750778
 30
0.0
  0
VERTEX
  5
80
330
7E
100
AcDbEntity
  8
_U+30EC_U+30A4_U+30E4_U+30FC 1
 62
   179
420
  2234388
370
     9
100
AcDbVertex
100
AcDb2dVertex
 10
56.80099549533032
 20
-98.85771719750778
 30
0.0
  0
SEQEND
  5
81
330
7E
100
AcDbEntity
  8
_U+30EC_U+30A4_U+30E4_U+30FC 1
 62
   179
420
  2234388
370
     9
  0
POLYLINE
  5
82
330
1F
100
AcDbEntity
  8
_U+30EC_U+30A4_U+30E4_U+30FC 1
 62
   179
420
  2234388
370
     9
100
AcDb2dPolyline
 66
     1
 10
0.0
 20
0.0
 30
0.0
  0
VERTEX
  5
83
330
82
100
AcDbEntity
  8
_U+30EC_U+30A4_U+30E4_U+30FC 1
 62
   179
420
  2234388
370
     9
100
AcDbVertex
100
AcDb2dVertex
 10
52.80091893071411
 20
-97.39834608676144
 30
0.0
  0
VERTEX
  5
84
330
82
100
AcDbEntity
  8
_U+30EC_U+30A4_U+30E4_U+30FC 1
 62
   179
420
  2234388
370
     9
100
AcDbVertex
100
AcDb2dVertex
 10
52.80091893071411
 20
-99.85815969725769
 30
0.0
  0
SEQEND
  5
85
330
82
100
AcDbEntity
  8
_U+30EC_U+30A4_U+30E4_U+30FC 1
 62
   179
420
  2234388
370
     9
  0
POLYLINE
  5
86
330
1F
100
AcDbEntity
  8
_U+30EC_U+30A4_U+30E4_U+30FC 1
 62
   179
420
  2234388
370
     9
100
AcDb2dPolyline
 66
     1
 10
0.0
 20
0.0
 30
0.0
  0
VERTEX
  5
87
330
86
100
AcDbEntity
  8
_U+30EC_U+30A4_U+30E4_U+30FC 1
 62
   179
420
  2234388
370
     9
100
AcDbVertex
100
AcDb2dVertex
 10
56.80099549533032
 20
-97.39834608676144
 30
0.0
  0
VERTEX
  5
88
330
86
100
AcDbEntity
  8
_U+30EC_U+30A4_U+30E4_U+30FC 1
 62
   179
420
  2234388
370
     9
100
AcDbVertex
100
AcDb2dVertex
 10
56.80099549533032
 20
-99.85815969725769
 30
0.0
  0
SEQEND
  5
89
330
86
100
AcDbEntity
  8
_U+30EC_U+30A4_U+30E4_U+30FC 1
 62
   179
420
  2234388
370
     9
  0
INSERT
  5
8B
330
1F
100
AcDbEntity
  8
_U+30EC_U+30A4_U+30E4_U+30FC 1
100
AcDbBlockReference
  2
block 3
 10
0.0
 20
0.0
 30
0.0
  0
POLYLINE
  5
A3
330
1F
100
AcDbEntity
  8
_U+30EC_U+30A4_U+30E4_U+30FC 1
 62
   179
420
  2234388
370
     9
100
AcDb2dPolyline
 66
     1
 10
0.0
 20
0.0
 30
0.0
  0
VERTEX
  5
A4
330
A3
100
AcDbEntity
  8
_U+30EC_U+30A4_U+30E4_U+30FC 1
 62
   179
420
  2234388
370
     9
100
AcDbVertex
100
AcDb2dVertex
 10
52.80091893071411
 20
-80.6577705353911
 30
0.0
  0
VERTEX
  5
A5
330
A3
100
AcDbEntity
  8
_U+30EC_U+30A4_U+30E4_U+30FC 1
 62
   179
420
  2234388
370
     9
100
AcDbVertex
100
AcDb2dVertex
 10
75.80104167726543
 20
-80.6577705353911
 30
0.0
  0
SEQEND
  5
A6
330
A3
100
AcDbEntity
  8
_U+30EC_U+30A4_U+30E4_U+30FC 1
 62
   179
420
  2234388
370
     9
  0
POLYLINE
  5
A7
330
1F
100
AcDbEntity
  8
_U+30EC_U+30A4_U+30E4_U+30FC 1
 62
   179
420
  2234388
370
     9
100
AcDb2dPolyline
 66
     1
 10
0.0
 20
0.0
 30
0.0
  0
VERTEX
  5
A8
330
A7
100
AcDbEntity
  8
_U+30EC_U+30A4_U+30E4_U+30FC 1
 62
   179
420
  2234388
370
     9
100
AcDbVertex
100
AcDb2dVertex
 10
52.80091893071411
 20
-82.11781192391511
 30
0.0
  0
VERTEX
  5
A9
330
A7
100
AcDbEntity
  8
_U+30EC_U+30A4_U+30E4_U+30FC 1
 62
   179
420
  2234388
370
     9
100
AcDbVertex
100
AcDb2dVertex
 10
52.80091893071411
 20
-79.65799831341887
 30
0.0
  0
SEQEND
  5
AA
330
A7
100
AcDbEntity
  8
_U+30EC_U+30A4_U+30E4_U+30FC 1
 62
   179
420
  2234388
370
     9
  0
POLYLINE
  5
AB
330
1F
100
AcDbEntity
  8
_U+30EC_U+30A4_U+30E4_U+30FC 1
 62
   179
420
  2234388
370
     9
100
AcDb2dPolyline
 66
     1
 10
0.0
 20
0.0
 30
0.0
  0
VERTEX
  5
AC
330
AB
100
AcDbEntity
  8
_U+30EC_U+30A4_U+30E4_U+30FC 1
 62
   179
420
  2234388
370
     9
100
AcDbVertex
100
AcDb2dVertex
 10
75.80104167726543
 20
-82.11781192391511
 30
0.0
  0
VERTEX
  5
AD
330
AB
100
AcDbEntity
  8
_U+30EC_U+30A4_U+30E4_U+30FC 1
 62
   179
420
  2234388
370
     9
100
AcDbVertex
100
AcDb2dVertex
 10
75.80104167726543
 20
-79.65799831341887
 30
0.0
  0
SEQEND
  5
AE
330
AB
100
AcDbEntity
  8
_U+30EC_U+30A4_U+30E4_U+30FC 1
 62
   179
420
  2234388
370
     9
  0
INSERT
  5
B0
330
1F
100
AcDbEntity
  8
_U+30EC_U+30A4_U+30E4_U+30FC 1
100
AcDbBlockReference
  2
block 4
 10
0.0
 20
0.0
 30
0.0
  0
POLYLINE
  5
B7
330
1F
100
AcDbEntity
  8
_U+30EC_U+30A4_U+30E4_U+30FC 1
 62
   179
420
  2234388
370
     9
100
AcDb2dPolyline
 66
     1
 10
0.0
 20
0.0
 30
0.0
  0
VERTEX
  5
B8
330
B7
100
AcDbEntity
  8
_U+30EC_U+30A4_U+30E4_U+30FC 1
 62
   179
420
  2234388
370
     9
100
AcDbVertex
100
AcDb2dVertex
 10
79.80115553560546
 20
-85.65800747858539
 30
0.0
  0
VERTEX
  5
B9
330
B7
100
AcDbEntity
  8
_U+30EC_U+30A4_U+30E4_U+30FC 1
 62
   179
420
  2234388
370
     9
100
AcDbVertex
100
AcDb2dVertex
 10
79.80115553560546
 20
-93.858185809869
 30
0.0
  0
SEQEND
  5
BA
330
B7
100
AcDbEntity
  8
_U+30EC_U+30A4_U+30E4_U+30FC 1
 62
   179
420
  2234388
370
     9
  0
POLYLINE
  5
BB
330
1F
100
AcDbEntity
  8
_U+30EC_U+30A4_U+30E4_U+30FC 1
 62
   179
420
  2234388
370
     9
100
AcDb2dPolyline
 66
     1
 10
0.0
 20
0.0
 30
0.0
  0
VERTEX
  5
BC
330
BB
100
AcDbEntity
  8
_U+30EC_U+30A4_U+30E4_U+30FC 1
 62
   179
420
  2234388
370
     9
100
AcDbVertex
100
AcDb2dVertex
 10
59.34106598608328
 20
-93.858185809869
 30
0.0
  0
VERTEX
  5
BD
330
BB
100
AcDbEntity
  8
_U+30EC_U+30A4_U+30E4_U+30FC 1
 62
   179
420
  2234388
370
     9
100
AcDbVertex
100
AcDb2dVertex
 10
80.80092775757736
 20
-93.858185809869
 30
0.0
  0
SEQEND
  5
BE
330
BB
100
AcDbEntity
  8
_U+30EC_U+30A4_U+30E4_U+30FC 1
 62
   179
420
  2234388
370
     9
  0
INSERT
  5
C0
330
1F
100
AcDbEntity
  8
_U+30EC_U+30A4_U+30E4_U+30FC 1
100
AcDbBlockReference
  2
block 5
 10
0.0
 20
0.0
 30
0.0
  0
SPLINE
  5
D1
330
1F
100
AcDbEntity
  8
_U+30EC_U+30A4_U+30E4_U+30FC 1
 62
   179
420
  2234388
370
     9
100
AcDbSpline
210
0.0
220
0.0
230
1.0
 70
    11
 71
     3
 72
    17
 73
    13
 74
     0
 42
0.0000000001
 43
0.0000000001
 12
1.0
 22
0.0
 32
0.0
 13
1.0
 23
0.0
 33
0.0
 40
0.0
 40
0.0
 40
0.0
 40
0.0
 40
1.0
 40
1.0
 40
1.0
 40
2.0
 40
2.0
 40
2.0
 40
3.0
 40
3.0
 40
3.0
 40
4.0
 40
4.0
 40
4.0
 40
4.0
 10
48.94086109887574
 20
-94.8579580318409
 30
0.0
 10
48.94086109887574
 20
-94.80281886518847
 30
0.0
 10
48.89605832110934
 20
-94.75805136519926
 30
0.0
 10
48.84095319840792
 20
-94.75805136519926
 30
0.0
 10
48.78581403314797
 20
-94.75805136519926
 30
0.0
 10
48.74104653429008
 20
-94.80281886518847
 30
0.0
 10
48.74104653429008
 20
-94.8579580318409
 30
0.0
 10
48.74104653429008
 20
-94.91341469849358
 30
0.0
 10
48.78581403314797
 20
-94.9582174762603
 30
0.0
 10
48.84095319840792
 20
-94.9582174762603
 30
0.0
 10
48.89605832110934
 20
-94.9582174762603
 30
0.0
 10
48.94086109887574
 20
-94.91341469849358
 30
0.0
 10
48.94086109887574
 20
-94.8579580318409
 30
0.0
  0
SPLINE
  5
D2
330
1F
100
AcDbEntity
  8
_U+30EC_U+30A4_U+30E4_U+30FC 1
 62
   179
420
  2234388
370
     9
100
AcDbSpline
210
0.0
220
0.0
230
1.0
 70
    11
 71
     3
 72
    17
 73
    13
 74
     0
 42
0.0000000001
 43
0.0000000001
 12
1.0
 22
0.0
 32
0.0
 13
1.0
 23
0.0
 33
0.0
 40
0.0
 40
0.0
 40
0.0
 40
0.0
 40
1.0
 40
1.0
 40
1.0
 40
2.0
 40
2.0
 40
2.0
 40
3.0
 40
3.0
 40
3.0
 40
4.0
 40
4.0
 40
4.0
 40
4.0
 10
48.94086109887574
 20
-84.65841164550206
 30
0.0
 10
48.94086109887574
 20
-84.60291970107154
 30
0.0
 10
48.89605832110934
 20
-84.55815220108265
 30
0.0
 10
48.84095319840792
 20
-84.55815220108265
 30
0.0
 10
48.78581403314797
 20
-84.55815220108265
 30
0.0
 10
48.74104653429008
 20
-84.60291970107154
 30
0.0
 10
48.74104653429008
 20
-84.65841164550206
 30
0.0
 10
48.74104653429008
 20
-84.7135155343773
 30
0.0
 10
48.78581403314797
 20
-84.75831831214369
 30
0.0
 10
48.84095319840792
 20
-84.75831831214369
 30
0.0
 10
48.89605832110934
 20
-84.75831831214369
 30
0.0
 10
48.94086109887574
 20
-84.7135155343773
 30
0.0
 10
48.94086109887574
 20
-84.65841164550206
 30
0.0
  0
POLYLINE
  5
D3
330
1F
100
AcDbEntity
  8
_U+30EC_U+30A4_U+30E4_U+30FC 1
 62
   179
420
  2234388
370
     9
100
AcDb2dPolyline
 66
     1
 10
0.0
 20
0.0
 30
0.0
  0
VERTEX
  5
D4
330
D3
100
AcDbEntity
  8
_U+30EC_U+30A4_U+30E4_U+30FC 1
 62
   179
420
  2234388
370
     9
100
AcDbVertex
100
AcDb2dVertex
 10
48.84095319840792
 20
-84.65841164550206
 30
0.0
  0
VERTEX
  5
D5
330
D3
100
AcDbEntity
  8
_U+30EC_U+30A4_U+30E4_U+30FC 1
 62
   179
420
  2234388
370
     9
100
AcDbVertex
100
AcDb2dVertex
 10
48.84095319840792
 20
-94.8579580318409
 30
0.0
  0
SEQEND
  5
D6
330
D3
100
AcDbEntity
  8
_U+30EC_U+30A4_U+30E4_U+30FC 1
 62
   179
420
  2234388
370
     9
  0
POLYLINE
  5
D7
330
1F
100
AcDbEntity
  8
_U+30EC_U+30A4_U+30E4_U+30FC 1
 62
   179
420
  2234388
370
     9
100
AcDb2dPolyline
 66
     1
 10
0.0
 20
0.0
 30
0.0
  0
VERTEX
  5
D8
330
D7
100
AcDbEntity
  8
_U+30EC_U+30A4_U+30E4_U+30FC 1
 62
   179
420
  2234388
370
     9
100
AcDbVertex
100
AcDb2dVertex
 10
50.30095927227117
 20
-84.65841164550206
 30
0.0
  0
VERTEX
  5
D9
330
D7
100
AcDbEntity
  8
_U+30EC_U+30A4_U+30E4_U+30FC 1
 62
   179
420
  2234388
370
     9
100
AcDbVertex
100
AcDb2dVertex
 10
47.84082822392323
 20
-84.65841164550206
 30
0.0
  0
SEQEND
  5
DA
330
D7
100
AcDbEntity
  8
_U+30EC_U+30A4_U+30E4_U+30FC 1
 62
   179
420
  2234388
370
     9
  0
POLYLINE
  5
DB
330
1F
100
AcDbEntity
  8
_U+30EC_U+30A4_U+30E4_U+30FC 1
 62
   179
420
  2234388
370
     9
100
AcDb2dPolyline
 66
     1
 10
0.0
 20
0.0
 30
0.0
  0
VERTEX
  5
DC
330
DB
100
AcDbEntity
  8
_U+30EC_U+30A4_U+30E4_U+30FC 1
 62
   179
420
  2234388
370
     9
100
AcDbVertex
100
AcDb2dVertex
 10
50.30095927227117
 20
-94.8579580318409
 30
0.0
  0
VERTEX
  5
DD
330
DB
100
AcDbEntity
  8
_U+30EC_U+30A4_U+30E4_U+30FC 1
 62
   179
420
  2234388
370
     9
100
AcDbVertex
100
AcDb2dVertex
 10
47.84082822392323
 20
-94.8579580318409
 30
0.0
  0
SEQEND
  5
DE
330
DB
100
AcDbEntity
  8
_U+30EC_U+30A4_U+30E4_U+30FC 1
 62
   179
420
  2234388
370
     9
  0
INSERT
  5
E0
330
1F
100
AcDbEntity
  8
_U+30EC_U+30A4_U+30E4_U+30FC 1
100
AcDbBlockReference
  2
block 6
 10
0.0
 20
0.0
 30
0.0
  0
ENDSEC
  0
SECTION
  2
OBJECTS
  0
DICTIONARY
  5
C
330
0
100
AcDbDictionary
281
     1
  3
ACAD_GROUP
350
D
  3
ACAD_LAYOUT
350
1A
  3
ACAD_MATERIAL
350
3B
  3
ACAD_MLEADERSTYLE
350
F3
  3
ACAD_MLINESTYLE
350
17
  3
ACAD_PLOTSETTINGS
350
19
  3
ACAD_PLOTSTYLENAME
350
E
  3
ACAD_TABLESTYLE
350
F2
  3
ACAD_VISUALSTYLE
350
2A
  0
SUN
  5
3F
330
29
100
AcDbSun
 90
        1
290
     0
 63
     7
421
 16777215
 40
1.0
291
     1
 91
  2455826
 92
 54000000
292
     0
 70
     2
 71
   256
280
     1
  0
DICTIONARY
  5
D
102
{ACAD_REACTORS
330
C
102
}
330
C
100
AcDbDictionary
281
     1
  0
DICTIONARY
  5
1A
102
{ACAD_REACTORS
330
C
102
}
330
C
100
AcDbDictionary
281
     1
  3
Layout1
350
1E
  3
Layout2
350
26
  3
Model
350
22
  0
DICTIONARY
  5
3B
102
{ACAD_REACTORS
330
C
102
}
330
C
100
AcDbDictionary
281
     1
  3
ByBlock
350
3D
  3
ByLayer
350
3C
  3
Global
350
3E
  0
DICTIONARY
  5
F3
102
{ACAD_REACTORS
330
C
102
}
330
C
100
AcDbDictionary
281
     1
  0
DICTIONARY
  5
17
102
{ACAD_REACTORS
330
C
102
}
330
C
100
AcDbDictionary
281
     1
  3
Standard
350
18
  0
DICTIONARY
  5
19
102
{ACAD_REACTORS
330
C
102
}
330
C
100
AcDbDictionary
281
     1
  0
ACDBDICTIONARYWDFLT
  5
E
102
{ACAD_REACTORS
330
C
102
}
330
C
100
AcDbDictionary
281
     1
  3
Normal
350
F
100
AcDbDictionaryWithDefault
340
F
  0
DICTIONARY
  5
F2
102
{ACAD_REACTORS
330
C
102
}
330
C
100
AcDbDictionary
281
     1
  0
DICTIONARY
  5
2A
102
{ACAD_REACTORS
330
C
102
}
330
C
100
AcDbDictionary
281
     1
  3
2dWireframe
350
2F
  3
3D Hidden
350
31
  3
3dWireframe
350
30
  3
Basic
350
32
  3
Brighten
350
36
  3
ColorChange
350
3A
  3
Conceptual
350
34
  3
Dim
350
35
  3
Facepattern
350
39
  3
Flat
350
2B
  3
FlatWithEdges
350
2C
  3
Gouraud
350
2D
  3
GouraudWithEdges
350
2E
  3
Linepattern
350
38
  3
Realistic
350
33
  3
Thicken
350
37
  0
LAYOUT
  5
1E
102
{ACAD_REACTORS
330
1A
102
}
330
1A
100
AcDbPlotSettings
  1

  2
none_device
  4

  6

 40
0.0
 41
0.0
 42
0.0
 43
0.0
 44
0.0
 45
0.0
 46
0.0
 47
0.0
 48
0.0
 49
0.0
140
0.0
141
0.0
142
1.0
143
1.0
 70
   688
 72
     0
 73
     0
 74
     5
  7

 75
    16
 76
     0
 77
     2
 78
   300
147
1.0
148
0.0
149
0.0
100
AcDbLayout
  1
Layout1
 70
     1
 71
     1
 10
0.0
 20
0.0
 11
12.0
 21
9.0
 12
0.0
 22
0.0
 32
0.0
 14
1.000000000000000E+20
 24
1.000000000000000E+20
 34
1.000000000000000E+20
 15
-1.000000000000000E+20
 25
-1.000000000000000E+20
 35
-1.000000000000000E+20
146
0.0
 13
0.0
 23
0.0
 33
0.0
 16
1.0
 26
0.0
 36
0.0
 17
0.0
 27
1.0
 37
0.0
 76
     0
330
1B
  0
LAYOUT
  5
26
102
{ACAD_REACTORS
330
1A
102
}
330
1A
100
AcDbPlotSettings
  1

  2
none_device
  4

  6

 40
0.0
 41
0.0
 42
0.0
 43
0.0
 44
0.0
 45
0.0
 46
0.0
 47
0.0
 48
0.0
 49
0.0
140
0.0
141
0.0
142
1.0
143
1.0
 70
   688
 72
     0
 73
     0
 74
     5
  7

 75
    16
 76
     0
 77
     2
 78
   300
147
1.0
148
0.0
149
0.0
100
AcDbLayout
  1
Layout2
 70
     1
 71
     2
 10
0.0
 20
0.0
 11
0.0
 21
0.0
 12
0.0
 22
0.0
 32
0.0
 14
0.0
 24
0.0
 34
0.0
 15
0.0
 25
0.0
 35
0.0
146
0.0
 13
0.0
 23
0.0
 33
0.0
 16
1.0
 26
0.0
 36
0.0
 17
0.0
 27
1.0
 37
0.0
 76
     0
330
23
  0
LAYOUT
  5
22
102
{ACAD_REACTORS
330
1A
102
}
330
1A
100
AcDbPlotSettings
  1

  2
none_device
  4

  6

 40
0.0
 41
0.0
 42
0.0
 43
0.0
 44
0.0
 45
0.0
 46
0.0
 47
0.0
 48
0.0
 49
0.0
140
0.0
141
0.0
142
1.0
143
1.0
 70
  1712
 72
     0
 73
     0
 74
     0
  7

 75
     0
 76
     0
 77
     2
 78
   300
147
1.0
148
0.0
149
0.0
100
AcDbLayout
  1
Model
 70
     1
 71
     0
 10
0.0
 20
0.0
 11
12.0
 21
9.0
 12
0.0
 22
0.0
 32
0.0
 14
1.000000000000000E+20
 24
1.000000000000000E+20
 34
1.000000000000000E+20
 15
-1.000000000000000E+20
 25
-1.000000000000000E+20
 35
-1.000000000000000E+20
146
0.0
 13
0.0
 23
0.0
 33
0.0
 16
1.0
 26
0.0
 36
0.0
 17
0.0
 27
1.0
 37
0.0
 76
     0
330
1F
331
29
  0
MATERIAL
  5
3D
102
{ACAD_REACTORS
330
3B
102
}
330
3B
100
AcDbMaterial
  1
ByBlock
 72
     1
 94
      127
  0
MATERIAL
  5
3C
102
{ACAD_REACTORS
330
3B
102
}
330
3B
100
AcDbMaterial
  1
ByLayer
 72
     1
 94
      127
  0
MATERIAL
  5
3E
102
{ACAD_REACTORS
330
3B
102
}
330
3B
100
AcDbMaterial
  1
Global
 72
     1
 94
      127
  0
MLINESTYLE
  5
18
102
{ACAD_REACTORS
330
17
102
}
330
17
100
AcDbMlineStyle
  2
Standard
 70
     0
  3

 62
   256
 51
90.0
 52
90.0
 71
     2
 49
0.5
 62
   256
  6
BYLAYER
 49
-0.5
 62
   256
  6
BYLAYER
  0
ACDBPLACEHOLDER
  5
F
102
{ACAD_REACTORS
330
E
102
}
330
E
  0
VISUALSTYLE
  5
2F
102
{ACAD_REACTORS
330
2A
102
}
330
2A
100
AcDbVisualStyle
  2
2dWireframe
 70
     4
177
     2
291
     0
 71
     0
176
     1
 72
     2
176
     1
 73
     0
176
     1
 90
        0
176
     1
 40
-0.6
176
     1
 41
-30.0
176
     1
 62
     5
 63
     7
421
 16777215
176
     1
 74
     1
176
     1
 91
        4
176
     1
 64
     7
176
     1
 65
   257
176
     1
 75
     1
176
     1
175
     1
176
     1
 42
1.0
176
     1
 92
        0
176
     1
 66
   257
176
     1
 43
1.0
176
     1
 76
     1
176
     1
 77
     6
176
     1
 78
     2
176
     1
 67
     7
176
     1
 79
     5
176
     1
170
     0
176
     1
171
     0
176
     1
290
     0
176
     1
 93
        1
176
     1
 44
0.0
176
     1
173
     0
176
     1
  0
VISUALSTYLE
  5
31
102
{ACAD_REACTORS
330
2A
102
}
330
2A
100
AcDbVisualStyle
  2
3D Hidden
 70
     6
177
     2
291
     0
 71
     1
176
     1
 72
     2
176
     1
 73
     2
176
     1
 90
        0
176
     1
 40
-0.6
176
     1
 41
-30.0
176
     1
 62
     5
 63
     7
421
 16777215
176
     1
 74
     2
176
     1
 91
        2
176
     1
 64
     7
176
     1
 65
   257
176
     1
 75
     2
176
     1
175
     1
176
     1
 42
40.0
176
     1
 92
        0
176
     1
 66
   257
176
     1
 43
1.0
176
     1
 76
     1
176
     1
 77
     6
176
     1
 78
     2
176
     1
 67
     7
176
     1
 79
     3
176
     1
170
     0
176
     1
171
     0
176
     1
290
     0
176
     1
 93
        1
176
     1
 44
0.0
176
     1
173
     0
176
     1
  0
VISUALSTYLE
  5
30
102
{ACAD_REACTORS
330
2A
102
}
330
2A
100
AcDbVisualStyle
  2
3dWireframe
 70
     5
177
     2
291
     0
 71
     0
176
     1
 72
     2
176
     1
 73
     0
176
     1
 90
        0
176
     1
 40
-0.6
176
     1
 41
-30.0
176
     1
 62
     5
 63
     7
421
 16777215
176
     1
 74
     1
176
     1
 91
        4
176
     1
 64
     7
176
     1
 65
   257
176
     1
 75
     1
176
     1
175
     1
176
     1
 42
1.0
176
     1
 92
        0
176
     1
 66
   257
176
     1
 43
1.0
176
     1
 76
     1
176
     1
 77
     6
176
     1
 78
     2
176
     1
 67
     7
176
     1
 79
     5
176
     1
170
     0
176
     1
171
     0
176
     1
290
     0
176
     1
 93
        1
176
     1
 44
0.0
176
     1
173
     0
176
     1
  0
VISUALSTYLE
  5
32
102
{ACAD_REACTORS
330
2A
102
}
330
2A
100
AcDbVisualStyle
  2
Basic
 70
     7
177
     2
291
     1
 71
     1
176
     1
 72
     0
176
     1
 73
     1
176
     1
 90
        0
176
     1
 40
-0.6
176
     1
 41
-30.0
176
     1
 62
     5
 63
     7
421
 16777215
176
     1
 74
     0
176
     1
 91
        4
176
     1
 64
     7
176
     1
 65
   257
176
     1
 75
     1
176
     1
175
     1
176
     1
 42
1.0
176
     1
 92
        8
176
     1
 66
     7
176
     1
 43
1.0
176
     1
 76
     1
176
     1
 77
     6
176
     1
 78
     2
176
     1
 67
     7
176
     1
 79
     5
176
     1
170
     0
176
     1
171
     0
176
     1
290
     0
176
     1
 93
        1
176
     1
 44
0.0
176
     1
173
     0
176
     1
  0
VISUALSTYLE
  5
36
102
{ACAD_REACTORS
330
2A
102
}
330
2A
100
AcDbVisualStyle
  2
Brighten
 70
    12
177
     2
291
     1
 71
     2
176
     1
 72
     2
176
     1
 73
     0
176
     1
 90
        0
176
     1
 40
-0.6
176
     1
 41
-30.0
176
     1
 62
     5
 63
     7
421
 16777215
176
     1
 74
     1
176
     1
 91
        4
176
     1
 64
     7
176
     1
 65
   257
176
     1
 75
     1
176
     1
175
     1
176
     1
 42
1.0
176
     1
 92
        8
176
     1
 66
     7
176
     1
 43
1.0
176
     1
 76
     1
176
     1
 77
     6
176
     1
 78
     2
176
     1
 67
     7
176
     1
 79
     5
176
     1
170
     0
176
     1
171
     0
176
     1
290
     0
176
     1
 93
        1
176
     1
 44
50.0
176
     1
173
     0
176
     1
  0
VISUALSTYLE
  5
3A
102
{ACAD_REACTORS
330
2A
102
}
330
2A
100
AcDbVisualStyle
  2
ColorChange
 70
    16
177
     2
291
     1
 71
     2
176
     1
 72
     2
176
     1
 73
     3
176
     1
 90
        0
176
     1
 40
-0.6
176
     1
 41
-30.0
176
     1
 62
     5
 63
     8
421
  8421504
176
     1
 74
     1
176
     1
 91
        4
176
     1
 64
     7
176
     1
 65
   257
176
     1
 75
     1
176
     1
175
     1
176
     1
 42
1.0
176
     1
 92
        8
176
     1
 66
     8
424
  8421504
176
     1
 43
1.0
176
     1
 76
     1
176
     1
 77
     6
176
     1
 78
     2
176
     1
 67
     7
176
     1
 79
     5
176
     1
170
     0
176
     1
171
     0
176
     1
290
     0
176
     1
 93
        1
176
     1
 44
0.0
176
     1
173
     0
176
     1
  0
VISUALSTYLE
  5
34
102
{ACAD_REACTORS
330
2A
102
}
330
2A
100
AcDbVisualStyle
  2
Conceptual
 70
     9
177
     2
291
     0
 71
     3
176
     1
 72
     2
176
     1
 73
     0
176
     1
 90
        0
176
     1
 40
-0.6
176
     1
 41
-30.0
176
     1
 62
     5
 63
     7
421
 16777215
176
     1
 74
     2
176
     1
 91
        2
176
     1
 64
     7
176
     1
 65
   257
176
     1
 75
     1
176
     1
175
     1
176
     1
 42
40.0
176
     1
 92
        8
176
     1
 66
     7
176
     1
 43
1.0
176
     1
 76
     1
176
     1
 77
     6
176
     1
 78
     2
176
     1
 67
     7
176
     1
 79
     3
176
     1
170
     0
176
     1
171
     0
176
     1
290
     0
176
     1
 93
        1
176
     1
 44
0.0
176
     1
173
     0
176
     1
  0
VISUALSTYLE
  5
35
102
{ACAD_REACTORS
330
2A
102
}
330
2A
100
AcDbVisualStyle
  2
Dim
 70
    11
177
     2
291
     1
 71
     2
176
     1
 72
     2
176
     1
 73
     0
176
     1
 90
        0
176
     1
 40
-0.6
176
     1
 41
-30.0
176
     1
 62
     5
 63
     7
421
 16777215
176
     1
 74
     1
176
     1
 91
        4
176
     1
 64
     7
176
     1
 65
   257
176
     1
 75
     1
176
     1
175
     1
176
     1
 42
1.0
176
     1
 92
        8
176
     1
 66
     7
176
     1
 43
1.0
176
     1
 76
     1
176
     1
 77
     6
176
     1
 78
     2
176
     1
 67
     7
176
     1
 79
     5
176
     1
170
     0
176
     1
171
     0
176
     1
290
     0
176
     1
 93
        1
176
     1
 44
-50.0
176
     1
173
     0
176
     1
  0
VISUALSTYLE
  5
39
102
{ACAD_REACTORS
330
2A
102
}
330
2A
100
AcDbVisualStyle
  2
Facepattern
 70
    15
177
     2
291
     1
 71
     2
176
     1
 72
     2
176
     1
 73
     0
176
     1
 90
        0
176
     1
 40
-0.6
176
     1
 41
-30.0
176
     1
 62
     5
 63
     7
421
 16777215
176
     1
 74
     1
176
     1
 91
        4
176
     1
 64
     7
176
     1
 65
   257
176
     1
 75
     1
176
     1
175
     1
176
     1
 42
1.0
176
     1
 92
        8
176
     1
 66
     7
176
     1
 43
1.0
176
     1
 76
     1
176
     1
 77
     6
176
     1
 78
     2
176
     1
 67
     7
176
     1
 79
     5
176
     1
170
     0
176
     1
171
     0
176
     1
290
     0
176
     1
 93
        1
176
     1
 44
0.0
176
     1
173
     0
176
     1
  0
VISUALSTYLE
  5
2B
102
{ACAD_REACTORS
330
2A
102
}
330
2A
100
AcDbVisualStyle
  2
Flat
 70
     0
177
     2
291
     1
 71
     2
176
     1
 72
     1
176
     1
 73
     1
176
     1
 90
        2
176
     1
 40
-0.6
176
     1
 41
30.0
176
     1
 62
     5
 63
     7
421
 16777215
176
     1
 74
     0
176
     1
 91
        4
176
     1
 64
     7
176
     1
 65
   257
176
     1
 75
     1
176
     1
175
     1
176
     1
 42
1.0
176
     1
 92
        8
176
     1
 66
     7
176
     1
 43
1.0
176
     1
 76
     1
176
     1
 77
     6
176
     1
 78
     2
176
     1
 67
     7
176
     1
 79
     5
176
     1
170
     0
176
     1
171
     0
176
     1
290
     0
176
     1
 93
       13
176
     1
 44
0.0
176
     1
173
     0
176
     1
  0
VISUALSTYLE
  5
2C
102
{ACAD_REACTORS
330
2A
102
}
330
2A
100
AcDbVisualStyle
  2
FlatWithEdges
 70
     1
177
     2
291
     1
 71
     2
176
     1
 72
     1
176
     1
 73
     1
176
     1
 90
        2
176
     1
 40
-0.6
176
     1
 41
30.0
176
     1
 62
     5
 63
     7
421
 16777215
176
     1
 74
     1
176
     1
 91
        4
176
     1
 64
     7
176
     1
 65
   257
176
     1
 75
     1
176
     1
175
     1
176
     1
 42
1.0
176
     1
 92
        0
176
     1
 66
   257
176
     1
 43
1.0
176
     1
 76
     1
176
     1
 77
     6
176
     1
 78
     2
176
     1
 67
     7
176
     1
 79
     5
176
     1
170
     0
176
     1
171
     0
176
     1
290
     0
176
     1
 93
       13
176
     1
 44
0.0
176
     1
173
     0
176
     1
  0
VISUALSTYLE
  5
2D
102
{ACAD_REACTORS
330
2A
102
}
330
2A
100
AcDbVisualStyle
  2
Gouraud
 70
     2
177
     2
291
     1
 71
     2
176
     1
 72
     2
176
     1
 73
     1
176
     1
 90
        2
176
     1
 40
-0.6
176
     1
 41
30.0
176
     1
 62
     5
 63
     7
421
 16777215
176
     1
 74
     0
176
     1
 91
        4
176
     1
 64
     7
176
     1
 65
   257
176
     1
 75
     1
176
     1
175
     1
176
     1
 42
1.0
176
     1
 92
        0
176
     1
 66
     7
176
     1
 43
1.0
176
     1
 76
     1
176
     1
 77
     6
176
     1
 78
     2
176
     1
 67
     7
176
     1
 79
     5
176
     1
170
     0
176
     1
171
     0
176
     1
290
     0
176
     1
 93
       13
176
     1
 44
0.0
176
     1
173
     0
176
     1
  0
VISUALSTYLE
  5
2E
102
{ACAD_REACTORS
330
2A
102
}
330
2A
100
AcDbVisualStyle
  2
GouraudWithEdges
 70
     3
177
     2
291
     1
 71
     2
176
     1
 72
     2
176
     1
 73
     1
176
     1
 90
        2
176
     1
 40
-0.6
176
     1
 41
30.0
176
     1
 62
     5
 63
     7
421
 16777215
176
     1
 74
     1
176
     1
 91
        4
176
     1
 64
     7
176
     1
 65
   257
176
     1
 75
     1
176
     1
175
     1
176
     1
 42
1.0
176
     1
 92
        0
176
     1
 66
   257
176
     1
 43
1.0
176
     1
 76
     1
176
     1
 77
     6
176
     1
 78
     2
176
     1
 67
     7
176
     1
 79
     5
176
     1
170
     0
176
     1
171
     0
176
     1
290
     0
176
     1
 93
       13
176
     1
 44
0.0
176
     1
173
     0
176
     1
  0
VISUALSTYLE
  5
38
102
{ACAD_REACTORS
330
2A
102
}
330
2A
100
AcDbVisualStyle
  2
Linepattern
 70
    14
177
     2
291
     1
 71
     2
176
     1
 72
     2
176
     1
 73
     0
176
     1
 90
        0
176
     1
 40
-0.6
176
     1
 41
-30.0
176
     1
 62
     5
 63
     7
421
 16777215
176
     1
 74
     1
176
     1
 91
        4
176
     1
 64
     7
176
     1
 65
   257
176
     1
 75
     7
176
     1
175
     7
176
     1
 42
1.0
176
     1
 92
        8
176
     1
 66
     7
176
     1
 43
1.0
176
     1
 76
     1
176
     1
 77
     6
176
     1
 78
     2
176
     1
 67
     7
176
     1
 79
     5
176
     1
170
     0
176
     1
171
     0
176
     1
290
     0
176
     1
 93
        1
176
     1
 44
0.0
176
     1
173
     0
176
     1
  0
VISUALSTYLE
  5
33
102
{ACAD_REACTORS
330
2A
102
}
330
2A
100
AcDbVisualStyle
  2
Realistic
 70
     8
177
     2
291
     0
 71
     2
176
     1
 72
     2
176
     1
 73
     0
176
     1
 90
        0
176
     1
 40
-0.6
176
     1
 41
-30.0
176
     1
 62
     5
 63
     7
421
 16777215
176
     1
 74
     1
176
     1
 91
        0
176
     1
 64
     7
176
     1
 65
   257
176
     1
 75
     1
176
     1
175
     1
176
     1
 42
1.0
176
     1
 92
        8
176
     1
 66
     8
424
  7895160
176
     1
 43
1.0
176
     1
 76
     1
176
     1
 77
     6
176
     1
 78
     2
176
     1
 67
     7
176
     1
 79
     5
176
     1
170
     0
176
     1
171
     0
176
     1
290
     0
176
     1
 93
       13
176
     1
 44
0.0
176
     1
173
     0
176
     1
  0
VISUALSTYLE
  5
37
102
{ACAD_REACTORS
330
2A
102
}
330
2A
100
AcDbVisualStyle
  2
Thicken
 70
    13
177
     2
291
     1
 71
     2
176
     1
 72
     2
176
     1
 73
     0
176
     1
 90
        0
176
     1
 40
-0.6
176
     1
 41
-30.0
176
     1
 62
     5
 63
     7
421
 16777215
176
     1
 74
     1
176
     1
 91
        4
176
     1
 64
     7
176
     1
 65
   257
176
     1
 75
     1
176
     1
175
     1
176
     1
 42
1.0
176
     1
 92
       12
176
     1
 66
     7
176
     1
 43
1.0
176
     1
 76
     1
176
     1
 77
     6
176
     1
 78
     2
176
     1
 67
     7
176
     1
 79
     5
176
     1
170
     0
176
     1
171
     0
176
     1
290
     0
176
     1
 93
        1
176
     1
 44
0.0
176
     1
173
     0
176
     1
  0
ENDSEC
  0
EOF
