  0
SECTION
  2
HEADER
  9
$ACADVER
  1
AC1024
  9
$ACADMAINTVER
 70
     6
  9
$DWGCODEPAGE
  3
UNDEFINED
  9
$INSBASE
 10
0.0
 20
0.0
 30
0.0
  9
$EXTMIN
 10
1.000000000000000E+20
 20
1.000000000000000E+20
 30
1.000000000000000E+20
  9
$EXTMAX
 10
-1.000000000000000E+20
 20
-1.000000000000000E+20
 30
-1.000000000000000E+20
  9
$LIMMIN
 10
0.0
 20
0.0
  9
$LIMMAX
 10
12.0
 20
9.0
  9
$ORTHOMODE
 70
     0
  9
$REGENMODE
 70
     1
  9
$FILLMODE
 70
     1
  9
$QTEXTMODE
 70
     0
  9
$MIRRTEXT
 70
     1
  9
$LTSCALE
 40
1.0
  9
$ATTMODE
 70
     1
  9
$TEXTSIZE
 40
0.2
  9
$TRACEWID
 40
0.05
  9
$TEXTSTYLE
  7
Standard
  9
$CLAYER
  8
0
  9
$CELTYPE
  6
ByLayer
  9
$CECOLOR
 62
   256
  9
$CELTSCALE
 40
1.0
  9
$DISPSILH
 70
     0
  9
$DIMSCALE
 40
1.0
  9
$DIMASZ
 40
0.18
  9
$DIMEXO
 40
0.0625
  9
$DIMDLI
 40
0.38
  9
$DIMRND
 40
0.0
  9
$DIMDLE
 40
0.0
  9
$DIMEXE
 40
0.18
  9
$DIMTP
 40
0.0
  9
$DIMTM
 40
0.0
  9
$DIMTXT
 40
0.18
  9
$DIMCEN
 40
0.09
  9
$DIMTSZ
 40
0.0
  9
$DIMTOL
 70
     0
  9
$DIMLIM
 70
     0
  9
$DIMTIH
 70
     1
  9
$DIMTOH
 70
     1
  9
$DIMSE1
 70
     0
  9
$DIMSE2
 70
     0
  9
$DIMTAD
 70
     0
  9
$DIMZIN
 70
     0
  9
$DIMBLK
  1

  9
$DIMASO
 70
     1
  9
$DIMSHO
 70
     1
  9
$DIMPOST
  1

  9
$DIMAPOST
  1

  9
$DIMALT
 70
     0
  9
$DIMALTD
 70
     2
  9
$DIMALTF
 40
25.4
  9
$DIMLFAC
 40
1.0
  9
$DIMTOFL
 70
     0
  9
$DIMTVP
 40
0.0
  9
$DIMTIX
 70
     0
  9
$DIMSOXD
 70
     0
  9
$DIMSAH
 70
     0
  9
$DIMBLK1
  1

  9
$DIMBLK2
  1

  9
$DIMSTYLE
  2
Standard
  9
$DIMCLRD
 70
     0
  9
$DIMCLRE
 70
     0
  9
$DIMCLRT
 70
     0
  9
$DIMTFAC
 40
1.0
  9
$DIMGAP
 40
0.09
  9
$DIMJUST
 70
     0
  9
$DIMSD1
 70
     0
  9
$DIMSD2
 70
     0
  9
$DIMTOLJ
 70
     1
  9
$DIMTZIN
 70
     0
  9
$DIMALTZ
 70
     0
  9
$DIMALTTZ
 70
     0
  9
$DIMUPT
 70
     0
  9
$DIMDEC
 70
     4
  9
$DIMTDEC
 70
     4
  9
$DIMALTU
 70
     2
  9
$DIMALTTD
 70
     2
  9
$DIMTXSTY
  7
Standard
  9
$DIMAUNIT
 70
     0
  9
$DIMADEC
 70
     0
  9
$DIMALTRND
 40
0.0
  9
$DIMAZIN
 70
     0
  9
$DIMDSEP
 70
    46
  9
$DIMATFIT
 70
     3
  9
$DIMFRAC
 70
     0
  9
$DIMLDRBLK
  1

  9
$DIMLUNIT
 70
     2
  9
$DIMLWD
 70
    -2
  9
$DIMLWE
 70
    -2
  9
$DIMTMOVE
 70
     0
  9
$DIMFXL
 40
1.0
  9
$DIMFXLON
 70
     0
  9
$DIMJOGANG
 40
0.7853981633974483
  9
$DIMTFILL
 70
     0
  9
$DIMTFILLCLR
 70
     0
  9
$DIMARCSYM
 70
     0
  9
$DIMLTYPE
  6

  9
$DIMLTEX1
  6

  9
$DIMLTEX2
  6

  9
$DIMTXTDIRECTION
 70
     0
  9
$LUNITS
 70
     2
  9
$LUPREC
 70
     4
  9
$SKETCHINC
 40
0.1
  9
$FILLETRAD
 40
0.5
  9
$AUNITS
 70
     0
  9
$AUPREC
 70
     0
  9
$MENU
  1
.
  9
$ELEVATION
 40
0.0
  9
$PELEVATION
 40
0.0
  9
$THICKNESS
 40
0.0
  9
$LIMCHECK
 70
     0
  9
$CHAMFERA
 40
0.5
  9
$CHAMFERB
 40
0.5
  9
$CHAMFERC
 40
1.0
  9
$CHAMFERD
 40
0.0
  9
$SKPOLY
 70
     0
  9
$TDCREATE
 40
2457917.587673599
  9
$TDUCREATE
 40
2457917.212673611
  9
$TDUPDATE
 40
2457917.587673599
  9
$TDUUPDATE
 40
2457917.212673611
  9
$TDINDWG
 40
0.0000000116
  9
$TDUSRTIMER
 40
0.0000000116
  9
$USRTIMER
 70
     1
  9
$ANGBASE
 50
0.0
  9
$ANGDIR
 70
     0
  9
$PDMODE
 70
     0
  9
$PDSIZE
 40
0.0
  9
$PLINEWID
 40
0.0
  9
$SPLFRAME
 70
     0
  9
$SPLINETYPE
 70
     6
  9
$SPLINESEGS
 70
     8
  9
$HANDSEED
  5
B7
  9
$SURFTAB1
 70
     6
  9
$SURFTAB2
 70
     6
  9
$SURFTYPE
 70
     6
  9
$SURFU
 70
     6
  9
$SURFV
 70
     6
  9
$UCSBASE
  2

  9
$UCSNAME
  2

  9
$UCSORG
 10
0.0
 20
0.0
 30
0.0
  9
$UCSXDIR
 10
1.0
 20
0.0
 30
0.0
  9
$UCSYDIR
 10
0.0
 20
1.0
 30
0.0
  9
$UCSORTHOREF
  2

  9
$UCSORTHOVIEW
 70
     0
  9
$UCSORGTOP
 10
0.0
 20
0.0
 30
0.0
  9
$UCSORGBOTTOM
 10
0.0
 20
0.0
 30
0.0
  9
$UCSORGLEFT
 10
0.0
 20
0.0
 30
0.0
  9
$UCSORGRIGHT
 10
0.0
 20
0.0
 30
0.0
  9
$UCSORGFRONT
 10
0.0
 20
0.0
 30
0.0
  9
$UCSORGBACK
 10
0.0
 20
0.0
 30
0.0
  9
$PUCSBASE
  2

  9
$PUCSNAME
  2

  9
$PUCSORG
 10
0.0
 20
0.0
 30
0.0
  9
$PUCSXDIR
 10
1.0
 20
0.0
 30
0.0
  9
$PUCSYDIR
 10
0.0
 20
1.0
 30
0.0
  9
$PUCSORTHOREF
  2

  9
$PUCSORTHOVIEW
 70
     0
  9
$PUCSORGTOP
 10
0.0
 20
0.0
 30
0.0
  9
$PUCSORGBOTTOM
 10
0.0
 20
0.0
 30
0.0
  9
$PUCSORGLEFT
 10
0.0
 20
0.0
 30
0.0
  9
$PUCSORGRIGHT
 10
0.0
 20
0.0
 30
0.0
  9
$PUCSORGFRONT
 10
0.0
 20
0.0
 30
0.0
  9
$PUCSORGBACK
 10
0.0
 20
0.0
 30
0.0
  9
$USERI1
 70
     0
  9
$USERI2
 70
     0
  9
$USERI3
 70
     0
  9
$USERI4
 70
     0
  9
$USERI5
 70
     0
  9
$USERR1
 40
0.0
  9
$USERR2
 40
0.0
  9
$USERR3
 40
0.0
  9
$USERR4
 40
0.0
  9
$USERR5
 40
0.0
  9
$WORLDVIEW
 70
     1
  9
$SHADEDGE
 70
     3
  9
$SHADEDIF
 70
    70
  9
$TILEMODE
 70
     1
  9
$MAXACTVP
 70
    64
  9
$PINSBASE
 10
0.0
 20
0.0
 30
0.0
  9
$PLIMCHECK
 70
     0
  9
$PEXTMIN
 10
1.000000000000000E+20
 20
1.000000000000000E+20
 30
1.000000000000000E+20
  9
$PEXTMAX
 10
-1.000000000000000E+20
 20
-1.000000000000000E+20
 30
-1.000000000000000E+20
  9
$PLIMMIN
 10
0.0
 20
0.0
  9
$PLIMMAX
 10
12.0
 20
9.0
  9
$UNITMODE
 70
     0
  9
$VISRETAIN
 70
     1
  9
$PLINEGEN
 70
     0
  9
$PSLTSCALE
 70
     1
  9
$TREEDEPTH
 70
  3020
  9
$CMLSTYLE
  2
Standard
  9
$CMLJUST
 70
     0
  9
$CMLSCALE
 40
1.0
  9
$PROXYGRAPHICS
 70
     1
  9
$MEASUREMENT
 70
     0
  9
$CELWEIGHT
370
    -1
  9
$ENDCAPS
280
     0
  9
$JOINSTYLE
280
     0
  9
$LWDISPLAY
290
     1
  9
$INSUNITS
 70
     1
  9
$HYPERLINKBASE
  1

  9
$STYLESHEET
  1

  9
$XEDIT
290
     1
  9
$CEPSNTYPE
380
     0
  9
$PSTYLEMODE
290
     1
  9
$FINGERPRINTGUID
  2
{4C456396-9FA1-DAEA-B951-C4F844729A54}
  9
$VERSIONGUID
  2
{FAEB1C32-E019-11D5-929B-00C0DF256EC4}
  9
$EXTNAMES
290
     1
  9
$PSVPSCALE
 40
0.0
  9
$OLESTARTUP
290
     0
  9
$SORTENTS
280
   127
  9
$INDEXCTL
280
     0
  9
$HIDETEXT
280
     1
  9
$XCLIPFRAME
280
     2
  9
$HALOGAP
280
     0
  9
$OBSCOLOR
 70
   257
  9
$OBSLTYPE
280
     0
  9
$INTERSECTIONDISPLAY
280
     0
  9
$INTERSECTIONCOLOR
 70
   257
  9
$DIMASSOC
280
     2
  9
$PROJECTNAME
  1

  9
$CAMERADISPLAY
290
     0
  9
$LENSLENGTH
 40
50.0
  9
$CAMERAHEIGHT
 40
0.0
  9
$STEPSPERSEC
 40
2.0
  9
$STEPSIZE
 40
6.0
  9
$3DDWFPREC
 40
2.0
  9
$PSOLWIDTH
 40
0.25
  9
$PSOLHEIGHT
 40
4.0
  9
$LOFTANG1
 40
1.570796326794897
  9
$LOFTANG2
 40
1.570796326794897
  9
$LOFTMAG1
 40
0.0
  9
$LOFTMAG2
 40
0.0
  9
$LOFTPARAM
 70
     7
  9
$LOFTNORMALS
280
     1
  9
$LATITUDE
 40
37.795
  9
$LONGITUDE
 40
-122.394
  9
$NORTHDIRECTION
 40
0.0
  9
$TIMEZONE
 70
 -8000
  9
$LIGHTGLYPHDISPLAY
280
     1
  9
$TILEMODELIGHTSYNCH
280
     1
  9
$CMATERIAL
347
3C
  9
$SOLIDHIST
280
     1
  9
$SHOWHIST
280
     1
  9
$DWFFRAME
280
     2
  9
$DGNFRAME
280
     2
  9
$REALWORLDSCALE
290
     1
  9
$INTERFERECOLOR
 62
   256
  9
$CSHADOW
280
     0
  9
$SHADOWPLANELOCATION
 40
0.0
  0
ENDSEC
  0
SECTION
  2
CLASSES
  0
CLASS
  1
ACDBDICTIONARYWDFLT
  2
AcDbDictionaryWithDefault
  3
ObjectDBX Classes
 90
        0
 91
        4
280
     0
281
     0
  0
CLASS
  1
VISUALSTYLE
  2
AcDbVisualStyle
  3
ObjectDBX Classes
 90
     4095
 91
        4
280
     0
281
     0
  0
CLASS
  1
MATERIAL
  2
AcDbMaterial
  3
ObjectDBX Classes
 90
     1153
 91
        4
280
     0
281
     0
  0
CLASS
  1
SUN
  2
AcDbSun
  3
SCENEOE
 90
     1024
 91
        4
280
     0
281
     0
  0
ENDSEC
  0
SECTION
  2
TABLES
  0
TABLE
  2
VPORT
  5
8
330
0
100
AcDbSymbolTable
 70
     1
  0
VPORT
  5
29
330
8
100
AcDbSymbolTableRecord
100
AcDbViewportTableRecord
  2
*Active
 70
     0
 10
0.0
 20
0.0
 11
1.0
 21
1.0
 12
0.0
 22
0.0
 13
0.0
 23
0.0
 14
0.5
 24
0.5
 15
0.5
 25
0.5
 16
0.0
 26
0.0
 36
1.0
 17
63.499999984125
 27
-89.00059456108309
 37
0.0
 40
178.0011891221662
 41
0.7134783795241226
 42
50.0
 43
0.0
 44
0.0
 50
0.0
 51
0.0
 71
     0
 72
   100
 73
     1
 74
     3
 75
     0
 76
     0
 77
     0
 78
     0
281
     0
 65
     1
110
0.0
120
0.0
130
0.0
111
1.0
121
0.0
131
0.0
112
0.0
122
1.0
132
0.0
 79
     0
146
0.0
 60
     3
 61
     5
292
     1
282
     1
141
0.0
142
0.0
 63
   250
361
3F
  0
ENDTAB
  0
TABLE
  2
LTYPE
  5
5
330
0
100
AcDbSymbolTable
 70
     1
  0
LTYPE
  5
14
330
5
100
AcDbSymbolTableRecord
100
AcDbLinetypeTableRecord
  2
ByBlock
 70
     0
  3

 72
    65
 73
     0
 40
0.0
  0
LTYPE
  5
15
330
5
100
AcDbSymbolTableRecord
100
AcDbLinetypeTableRecord
  2
ByLayer
 70
     0
  3

 72
    65
 73
     0
 40
0.0
  0
LTYPE
  5
16
330
5
100
AcDbSymbolTableRecord
100
AcDbLinetypeTableRecord
  2
Continuous
 70
     0
  3
Solid line
 72
    65
 73
     0
 40
0.0
  0
ENDTAB
  0
TABLE
  2
LAYER
  5
2
330
0
100
AcDbSymbolTable
 70
     2
  0
LAYER
  5
10
330
2
100
AcDbSymbolTableRecord
100
AcDbLayerTableRecord
  2
0
 70
     0
 62
     7
  6
Continuous
370
    -3
390
F
347
3E
  0
LAYER
  5
40
330
2
100
AcDbSymbolTableRecord
100
AcDbLayerTableRecord
  2
_U+30EC_U+30A4_U+30E4_U+30FC 1
 70
     0
 62
     7
  6
Continuous
370
    -3
390
F
347
3E
  0
ENDTAB
  0
TABLE
  2
STYLE
  5
3
330
0
100
AcDbSymbolTable
 70
     1
  0
STYLE
  5
11
330
3
100
AcDbSymbolTableRecord
100
AcDbTextStyleTableRecord
  2
Standard
 70
     0
 40
0.0
 41
1.0
 50
0.0
 71
     0
 42
0.2
  3
txt
  4

  0
ENDTAB
  0
TABLE
  2
VIEW
  5
6
330
0
100
AcDbSymbolTable
 70
     0
  0
ENDTAB
  0
TABLE
  2
UCS
  5
7
330
0
100
AcDbSymbolTable
 70
     0
  0
ENDTAB
  0
TABLE
  2
APPID
  5
9
330
0
100
AcDbSymbolTable
 70
     1
  0
APPID
  5
12
330
9
100
AcDbSymbolTableRecord
100
AcDbRegAppTableRecord
  2
ACAD
 70
     0
  0
ENDTAB
  0
TABLE
  2
DIMSTYLE
  5
A
330
0
100
AcDbSymbolTable
 70
     1
100
AcDbDimStyleTable
  0
DIMSTYLE
105
27
330
A
100
AcDbSymbolTableRecord
100
AcDbDimStyleTableRecord
  2
Standard
 70
     0
178
     0
340
11
  0
ENDTAB
  0
TABLE
  2
BLOCK_RECORD
  5
1
330
0
100
AcDbSymbolTable
 70
     7
  0
BLOCK_RECORD
  5
1F
330
1
100
AcDbSymbolTableRecord
100
AcDbBlockTableRecord
  2
*Model_Space
340
22
 70
     0
280
     1
281
     0
  0
BLOCK_RECORD
  5
1B
330
1
100
AcDbSymbolTableRecord
100
AcDbBlockTableRecord
  2
*Paper_Space
340
1E
 70
     0
280
     1
281
     0
  0
BLOCK_RECORD
  5
23
330
1
100
AcDbSymbolTableRecord
100
AcDbBlockTableRecord
  2
*Paper_Space0
340
26
 70
     0
280
     1
281
     0
  0
BLOCK_RECORD
  5
59
330
1
100
AcDbSymbolTableRecord
100
AcDbBlockTableRecord
  2
block 2
340
0
102
{BLKREFS
331
5A
102
}
 70
     0
280
     1
281
     0
  0
BLOCK_RECORD
  5
62
330
1
100
AcDbSymbolTableRecord
100
AcDbBlockTableRecord
  2
block 3
340
0
102
{BLKREFS
331
63
102
}
 70
     0
280
     1
281
     0
  0
BLOCK_RECORD
  5
68
330
1
100
AcDbSymbolTableRecord
100
AcDbBlockTableRecord
  2
block 4
340
0
102
{BLKREFS
331
69
102
}
 70
     0
280
     1
281
     0
  0
BLOCK_RECORD
  5
81
330
1
100
AcDbSymbolTableRecord
100
AcDbBlockTableRecord
  2
block 5
340
0
102
{BLKREFS
331
82
102
}
 70
     0
280
     1
281
     0
  0
BLOCK_RECORD
  5
89
330
1
100
AcDbSymbolTableRecord
100
AcDbBlockTableRecord
  2
block 6
340
0
102
{BLKREFS
331
8A
102
}
 70
     0
280
     1
281
     0
  0
BLOCK_RECORD
  5
9D
330
1
100
AcDbSymbolTableRecord
100
AcDbBlockTableRecord
  2
block 7
340
0
102
{BLKREFS
331
9E
102
}
 70
     0
280
     1
281
     0
  0
ENDTAB
  0
ENDSEC
  0
SECTION
  2
BLOCKS
  0
BLOCK
  5
20
330
1F
100
AcDbEntity
  8
0
100
AcDbBlockBegin
  2
*Model_Space
 70
     0
 10
0.0
 20
0.0
 30
0.0
  3
*Model_Space
  1

  0
ENDBLK
  5
21
330
1F
100
AcDbEntity
  8
0
100
AcDbBlockEnd
  0
BLOCK
  5
1C
330
1B
100
AcDbEntity
 67
     1
  8
0
100
AcDbBlockBegin
  2
*Paper_Space
 70
     0
 10
0.0
 20
0.0
 30
0.0
  3
*Paper_Space
  1

  0
ENDBLK
  5
1D
330
1B
100
AcDbEntity
 67
     1
  8
0
100
AcDbBlockEnd
  0
BLOCK
  5
24
330
23
100
AcDbEntity
  8
0
100
AcDbBlockBegin
  2
*Paper_Space0
 70
     0
 10
0.0
 20
0.0
 30
0.0
  3
*Paper_Space0
  1

  0
ENDBLK
  5
25
330
23
100
AcDbEntity
  8
0
100
AcDbBlockEnd
  0
BLOCK
  5
5B
330
59
100
AcDbEntity
  8
0
100
AcDbBlockBegin
  2
block 2
 70
     0
 10
0.0
 20
0.0
 30
0.0
  3
block 2
  1

  0
SPLINE
  5
5D
330
59
100
AcDbEntity
  8
_U+30EC_U+30A4_U+30E4_U+30FC 1
370
     0
100
AcDbSpline
210
0.0
220
0.0
230
1.0
 70
    11
 71
     3
 72
    26
 73
    22
 74
     0
 42
0.0000000001
 43
0.0000000001
 12
1.0
 22
0.0
 32
0.0
 13
1.0
 23
0.0
 33
0.0
 40
0.0
 40
0.0
 40
0.0
 40
0.0
 40
1.0
 40
1.0
 40
1.0
 40
2.0
 40
2.0
 40
2.0
 40
3.0
 40
3.0
 40
3.0
 40
4.0
 40
4.0
 40
4.0
 40
5.0
 40
5.0
 40
5.0
 40
6.0
 40
6.0
 40
6.0
 40
7.0
 40
7.0
 40
7.0
 40
7.0
 10
80.69137096507022
 20
-88.8338541444582
 30
0.0
 10
80.69137096507022
 20
-88.8338541444582
 30
0.0
 10
79.58721786204764
 20
-88.8338541444582
 30
0.0
 10
79.58721786204764
 20
-88.8338541444582
 30
0.0
 10
79.58721786204764
 20
-88.8338541444582
 30
0.0
 10
79.58721786204764
 20
-89.16389429194514
 30
0.0
 10
79.58721786204764
 20
-89.16389429194514
 30
0.0
 10
79.58721786204764
 20
-89.16389429194514
 30
0.0
 10
79.4390787561819
 20
-89.16389429194514
 30
0.0
 10
79.4390787561819
 20
-89.16389429194514
 30
0.0
 10
79.42426484559533
 20
-88.83178708716706
 30
0.0
 10
79.26131182914301
 20
-88.78527829811618
 30
0.0
 10
79.14693465903271
 20
-88.75565047694303
 30
0.0
 10
79.14693465903271
 20
-88.75565047694303
 30
0.0
 10
79.14693465903271
 20
-88.60957842836844
 30
0.0
 10
79.14693465903271
 20
-88.60957842836844
 30
0.0
 10
79.14693465903271
 20
-88.60957842836844
 30
0.0
 10
80.69137096507022
 20
-88.60957842836844
 30
0.0
 10
80.69137096507022
 20
-88.60957842836844
 30
0.0
 10
80.69137096507022
 20
-88.60957842836844
 30
0.0
 10
80.69137096507022
 20
-88.8338541444582
 30
0.0
 10
80.69137096507022
 20
-88.8338541444582
 30
0.0
  0
HATCH
  5
5E
330
59
100
AcDbEntity
  8
_U+30EC_U+30A4_U+30E4_U+30FC 1
 62
   179
420
  2234388
100
AcDbHatch
 10
0.0
 20
0.0
 30
0.0
210
0.0
220
0.0
230
1.0
  2
SOLID
 70
     1
 71
     0
 91
        1
 92
        1
 93
        1
 72
     4
 94
        3
 73
     0
 74
     1
 95
       26
 96
       22
 40
0.0
 40
0.0
 40
0.0
 40
0.0
 40
1.0
 40
1.0
 40
1.0
 40
2.0
 40
2.0
 40
2.0
 40
3.0
 40
3.0
 40
3.0
 40
4.0
 40
4.0
 40
4.0
 40
5.0
 40
5.0
 40
5.0
 40
6.0
 40
6.0
 40
6.0
 40
7.0
 40
7.0
 40
7.0
 40
7.0
 10
80.69137096507022
 20
-88.8338541444582
 10
80.69137096507022
 20
-88.8338541444582
 10
79.58721786204764
 20
-88.8338541444582
 10
79.58721786204764
 20
-88.8338541444582
 10
79.58721786204764
 20
-88.8338541444582
 10
79.58721786204764
 20
-89.16389429194514
 10
79.58721786204764
 20
-89.16389429194514
 10
79.58721786204764
 20
-89.16389429194514
 10
79.4390787561819
 20
-89.16389429194514
 10
79.4390787561819
 20
-89.16389429194514
 10
79.42426484559533
 20
-88.83178708716706
 10
79.26131182914301
 20
-88.78527829811618
 10
79.14693465903271
 20
-88.75565047694303
 10
79.14693465903271
 20
-88.75565047694303
 10
79.14693465903271
 20
-88.60957842836844
 10
79.14693465903271
 20
-88.60957842836844
 10
79.14693465903271
 20
-88.60957842836844
 10
80.69137096507022
 20
-88.60957842836844
 10
80.69137096507022
 20
-88.60957842836844
 10
80.69137096507022
 20
-88.60957842836844
 10
80.69137096507022
 20
-88.8338541444582
 10
80.69137096507022
 20
-88.8338541444582
 97
        0
 97
        0
 75
     2
 76
     1
 98
        0
  0
SPLINE
  5
5F
330
59
100
AcDbEntity
  8
_U+30EC_U+30A4_U+30E4_U+30FC 1
370
     0
100
AcDbSpline
210
0.0
220
0.0
230
1.0
 70
    11
 71
     3
 72
    29
 73
    25
 74
     0
 42
0.0000000001
 43
0.0000000001
 12
1.0
 22
0.0
 32
0.0
 13
1.0
 23
0.0
 33
0.0
 40
0.0
 40
0.0
 40
0.0
 40
0.0
 40
1.0
 40
1.0
 40
1.0
 40
2.0
 40
2.0
 40
2.0
 40
3.0
 40
3.0
 40
3.0
 40
4.0
 40
4.0
 40
4.0
 40
5.0
 40
5.0
 40
5.0
 40
6.0
 40
6.0
 40
6.0
 40
7.0
 40
7.0
 40
7.0
 40
8.0
 40
8.0
 40
8.0
 40
8.0
 10
80.51360403803133
 20
-87.21052515180848
 30
0.0
 10
80.72306584353451
 20
-87.31870115004533
 30
0.0
 10
80.7420138687034
 20
-87.49198945295339
 30
0.0
 10
80.7420138687034
 20
-87.60843368035484
 30
0.0
 10
80.7420138687034
 20
-87.76931963951601
 30
0.0
 10
80.69550507965252
 20
-87.91091306395978
 30
0.0
 10
80.51360403803133
 20
-88.00599769935268
 30
0.0
 10
80.3189561431147
 20
-88.1096950734587
 30
0.0
 10
80.08227808327804
 20
-88.12898760817609
 30
0.0
 10
79.91932506682573
 20
-88.12898760817609
 30
0.0
 10
79.77532007554228
 20
-88.12898760817609
 30
0.0
 10
79.52348359557053
 20
-88.11176213074984
 30
0.0
 10
79.32470158607161
 20
-88.00599769935268
 30
0.0
 10
79.12178546199038
 20
-87.89816621066436
 30
0.0
 10
79.09835881269069
 20
-87.73728025150318
 30
0.0
 10
79.09835881269069
 20
-87.60843368035484
 30
0.0
 10
79.09835881269069
 20
-87.44961477848483
 30
0.0
 10
79.14280054445041
 20
-87.3059542967499
 30
0.0
 10
79.32470158607161
 20
-87.21052515180848
 30
0.0
 10
79.51728242369707
 20
-87.11130640183329
 30
0.0
 10
79.74569225436913
 20
-87.0878797525336
 30
0.0
 10
79.91932506682573
 20
-87.0878797525336
 30
0.0
 10
80.09054631244264
 20
-87.0878797525336
 30
0.0
 10
80.32102320040586
 20
-87.10923934454213
 30
0.0
 10
80.51360403803133
 20
-87.21052515180848
 30
0.0
  0
SPLINE
  5
60
330
59
100
AcDbEntity
  8
_U+30EC_U+30A4_U+30E4_U+30FC 1
370
     0
100
AcDbSpline
210
0.0
220
0.0
230
1.0
 70
    11
 71
     3
 72
    17
 73
    13
 74
     0
 42
0.0000000001
 43
0.0000000001
 12
1.0
 22
0.0
 32
0.0
 13
1.0
 23
0.0
 33
0.0
 40
0.0
 40
0.0
 40
0.0
 40
0.0
 40
1.0
 40
1.0
 40
1.0
 40
2.0
 40
2.0
 40
2.0
 40
3.0
 40
3.0
 40
3.0
 40
4.0
 40
4.0
 40
4.0
 40
4.0
 10
79.29093965031616
 20
-87.60843368035484
 30
0.0
 10
79.29093965031616
 20
-87.85820310303545
 30
0.0
 10
79.57447100875221
 20
-87.90471189208633
 30
0.0
 10
79.91932506682573
 20
-87.90471189208633
 30
0.0
 10
80.23868541830839
 20
-87.90471189208633
 30
0.0
 10
80.54736597378677
 20
-87.8685383894912
 30
0.0
 10
80.54736597378677
 20
-87.60843368035484
 30
0.0
 10
80.54736597378677
 20
-87.36073131496538
 30
0.0
 10
80.26624618219039
 20
-87.31215546862336
 30
0.0
 10
79.91932506682573
 20
-87.31215546862336
 30
0.0
 10
79.59962020579454
 20
-87.31215546862336
 30
0.0
 10
79.29093965031616
 20
-87.35039602850962
 30
0.0
 10
79.29093965031616
 20
-87.60843368035484
 30
0.0
  0
HATCH
  5
61
330
59
100
AcDbEntity
  8
_U+30EC_U+30A4_U+30E4_U+30FC 1
 62
   179
420
  2234388
100
AcDbHatch
 10
0.0
 20
0.0
 30
0.0
210
0.0
220
0.0
230
1.0
  2
SOLID
 70
     1
 71
     0
 91
        2
 92
        1
 93
        1
 72
     4
 94
        3
 73
     0
 74
     1
 95
       29
 96
       25
 40
0.0
 40
0.0
 40
0.0
 40
0.0
 40
1.0
 40
1.0
 40
1.0
 40
2.0
 40
2.0
 40
2.0
 40
3.0
 40
3.0
 40
3.0
 40
4.0
 40
4.0
 40
4.0
 40
5.0
 40
5.0
 40
5.0
 40
6.0
 40
6.0
 40
6.0
 40
7.0
 40
7.0
 40
7.0
 40
8.0
 40
8.0
 40
8.0
 40
8.0
 10
80.51360403803133
 20
-87.21052515180848
 10
80.72306584353451
 20
-87.31870115004533
 10
80.7420138687034
 20
-87.49198945295339
 10
80.7420138687034
 20
-87.60843368035484
 10
80.7420138687034
 20
-87.76931963951601
 10
80.69550507965252
 20
-87.91091306395978
 10
80.51360403803133
 20
-88.00599769935268
 10
80.3189561431147
 20
-88.1096950734587
 10
80.08227808327804
 20
-88.12898760817609
 10
79.91932506682573
 20
-88.12898760817609
 10
79.77532007554228
 20
-88.12898760817609
 10
79.52348359557053
 20
-88.11176213074984
 10
79.32470158607161
 20
-88.00599769935268
 10
79.12178546199038
 20
-87.89816621066436
 10
79.09835881269069
 20
-87.73728025150318
 10
79.09835881269069
 20
-87.60843368035484
 10
79.09835881269069
 20
-87.44961477848483
 10
79.14280054445041
 20
-87.3059542967499
 10
79.32470158607161
 20
-87.21052515180848
 10
79.51728242369707
 20
-87.11130640183329
 10
79.74569225436913
 20
-87.0878797525336
 10
79.91932506682573
 20
-87.0878797525336
 10
80.09054631244264
 20
-87.0878797525336
 10
80.32102320040586
 20
-87.10923934454213
 10
80.51360403803133
 20
-87.21052515180848
 97
        0
 97
        0
 92
        1
 93
        1
 72
     4
 94
        3
 73
     0
 74
     1
 95
       17
 96
       13
 40
0.0
 40
0.0
 40
0.0
 40
0.0
 40
1.0
 40
1.0
 40
1.0
 40
2.0
 40
2.0
 40
2.0
 40
3.0
 40
3.0
 40
3.0
 40
4.0
 40
4.0
 40
4.0
 40
4.0
 10
79.29093965031616
 20
-87.60843368035484
 10
79.29093965031616
 20
-87.85820310303545
 10
79.57447100875221
 20
-87.90471189208633
 10
79.91932506682573
 20
-87.90471189208633
 10
80.23868541830839
 20
-87.90471189208633
 10
80.54736597378677
 20
-87.8685383894912
 10
80.54736597378677
 20
-87.60843368035484
 10
80.54736597378677
 20
-87.36073131496538
 10
80.26624618219039
 20
-87.31215546862336
 10
79.91932506682573
 20
-87.31215546862336
 10
79.59962020579454
 20
-87.31215546862336
 10
79.29093965031616
 20
-87.35039602850962
 10
79.29093965031616
 20
-87.60843368035484
 97
        0
 97
        0
 75
     2
 76
     1
 98
        0
  0
ENDBLK
  5
5C
330
59
100
AcDbEntity
  8
0
100
AcDbBlockEnd
  0
BLOCK
  5
64
330
62
100
AcDbEntity
  8
0
100
AcDbBlockBegin
  2
block 3
 70
     0
 10
0.0
 20
0.0
 30
0.0
  3
block 3
  1

  0
SPLINE
  5
66
330
62
100
AcDbEntity
  8
_U+30EC_U+30A4_U+30E4_U+30FC 1
370
     0
100
AcDbSpline
210
0.0
220
0.0
230
1.0
 70
    11
 71
     3
 72
    26
 73
    22
 74
     0
 42
0.0000000001
 43
0.0000000001
 12
1.0
 22
0.0
 32
0.0
 13
1.0
 23
0.0
 33
0.0
 40
0.0
 40
0.0
 40
0.0
 40
0.0
 40
1.0
 40
1.0
 40
1.0
 40
2.0
 40
2.0
 40
2.0
 40
3.0
 40
3.0
 40
3.0
 40
4.0
 40
4.0
 40
4.0
 40
5.0
 40
5.0
 40
5.0
 40
6.0
 40
6.0
 40
6.0
 40
7.0
 40
7.0
 40
7.0
 40
7.0
 10
80.69137096507022
 20
-79.19998912950557
 30
0.0
 10
80.69137096507022
 20
-79.19998912950557
 30
0.0
 10
79.58721786204764
 20
-79.19998912950557
 30
0.0
 10
79.58721786204764
 20
-79.19998912950557
 30
0.0
 10
79.58721786204764
 20
-79.19998912950557
 30
0.0
 10
79.58721786204764
 20
-79.5300292769925
 30
0.0
 10
79.58721786204764
 20
-79.5300292769925
 30
0.0
 10
79.58721786204764
 20
-79.5300292769925
 30
0.0
 10
79.4390787561819
 20
-79.5300292769925
 30
0.0
 10
79.4390787561819
 20
-79.5300292769925
 30
0.0
 10
79.42426484559533
 20
-79.19792207221441
 30
0.0
 10
79.26131182914301
 20
-79.15141328316354
 30
0.0
 10
79.14693465903271
 20
-79.12178546199038
 30
0.0
 10
79.14693465903271
 20
-79.12178546199038
 30
0.0
 10
79.14693465903271
 20
-78.9757134134158
 30
0.0
 10
79.14693465903271
 20
-78.9757134134158
 30
0.0
 10
79.14693465903271
 20
-78.9757134134158
 30
0.0
 10
80.69137096507022
 20
-78.9757134134158
 30
0.0
 10
80.69137096507022
 20
-78.9757134134158
 30
0.0
 10
80.69137096507022
 20
-78.9757134134158
 30
0.0
 10
80.69137096507022
 20
-79.19998912950557
 30
0.0
 10
80.69137096507022
 20
-79.19998912950557
 30
0.0
  0
HATCH
  5
67
330
62
100
AcDbEntity
  8
_U+30EC_U+30A4_U+30E4_U+30FC 1
 62
   179
420
  2234388
100
AcDbHatch
 10
0.0
 20
0.0
 30
0.0
210
0.0
220
0.0
230
1.0
  2
SOLID
 70
     1
 71
     0
 91
        1
 92
        1
 93
        1
 72
     4
 94
        3
 73
     0
 74
     1
 95
       26
 96
       22
 40
0.0
 40
0.0
 40
0.0
 40
0.0
 40
1.0
 40
1.0
 40
1.0
 40
2.0
 40
2.0
 40
2.0
 40
3.0
 40
3.0
 40
3.0
 40
4.0
 40
4.0
 40
4.0
 40
5.0
 40
5.0
 40
5.0
 40
6.0
 40
6.0
 40
6.0
 40
7.0
 40
7.0
 40
7.0
 40
7.0
 10
80.69137096507022
 20
-79.19998912950557
 10
80.69137096507022
 20
-79.19998912950557
 10
79.58721786204764
 20
-79.19998912950557
 10
79.58721786204764
 20
-79.19998912950557
 10
79.58721786204764
 20
-79.19998912950557
 10
79.58721786204764
 20
-79.5300292769925
 10
79.58721786204764
 20
-79.5300292769925
 10
79.58721786204764
 20
-79.5300292769925
 10
79.4390787561819
 20
-79.5300292769925
 10
79.4390787561819
 20
-79.5300292769925
 10
79.42426484559533
 20
-79.19792207221441
 10
79.26131182914301
 20
-79.15141328316354
 10
79.14693465903271
 20
-79.12178546199038
 10
79.14693465903271
 20
-79.12178546199038
 10
79.14693465903271
 20
-78.9757134134158
 10
79.14693465903271
 20
-78.9757134134158
 10
79.14693465903271
 20
-78.9757134134158
 10
80.69137096507022
 20
-78.9757134134158
 10
80.69137096507022
 20
-78.9757134134158
 10
80.69137096507022
 20
-78.9757134134158
 10
80.69137096507022
 20
-79.19998912950557
 10
80.69137096507022
 20
-79.19998912950557
 97
        0
 97
        0
 75
     2
 76
     1
 98
        0
  0
ENDBLK
  5
65
330
62
100
AcDbEntity
  8
0
100
AcDbBlockEnd
  0
BLOCK
  5
6A
330
68
100
AcDbEntity
  8
0
100
AcDbBlockBegin
  2
block 4
 70
     0
 10
0.0
 20
0.0
 30
0.0
  3
block 4
  1

  0
SPLINE
  5
6C
330
68
100
AcDbEntity
  8
_U+30EC_U+30A4_U+30E4_U+30FC 1
370
     0
100
AcDbSpline
210
0.0
220
0.0
230
1.0
 70
    11
 71
     3
 72
    62
 73
    58
 74
     0
 42
0.0000000001
 43
0.0000000001
 12
1.0
 22
0.0
 32
0.0
 13
1.0
 23
0.0
 33
0.0
 40
0.0
 40
0.0
 40
0.0
 40
0.0
 40
1.0
 40
1.0
 40
1.0
 40
2.0
 40
2.0
 40
2.0
 40
3.0
 40
3.0
 40
3.0
 40
4.0
 40
4.0
 40
4.0
 40
5.0
 40
5.0
 40
5.0
 40
6.0
 40
6.0
 40
6.0
 40
7.0
 40
7.0
 40
7.0
 40
8.0
 40
8.0
 40
8.0
 40
9.0
 40
9.0
 40
9.0
 40
10.0
 40
10.0
 40
10.0
 40
11.0
 40
11.0
 40
11.0
 40
12.0
 40
12.0
 40
12.0
 40
13.0
 40
13.0
 40
13.0
 40
14.0
 40
14.0
 40
14.0
 40
15.0
 40
15.0
 40
15.0
 40
16.0
 40
16.0
 40
16.0
 40
17.0
 40
17.0
 40
17.0
 40
18.0
 40
18.0
 40
18.0
 40
19.0
 40
19.0
 40
19.0
 40
19.0
 10
80.7420138687034
 20
-94.6832817688639
 30
0.0
 10
80.7420138687034
 20
-94.77871091380533
 30
0.0
 10
80.72099878624337
 20
-94.99644094847312
 30
0.0
 10
80.53496363003987
 20
-95.12149791458769
 30
0.0
 10
80.42265351722072
 20
-95.19556746752056
 30
0.0
 10
80.32343476724553
 20
-95.19970158210286
 30
0.0
 10
80.23868541830839
 20
-95.20383569668516
 30
0.0
 10
80.23868541830839
 20
-95.20383569668516
 30
0.0
 10
80.23868541830839
 20
-94.9836940951777
 30
0.0
 10
80.23868541830839
 20
-94.9836940951777
 30
0.0
 10
80.31275497124126
 20
-94.98162703788654
 30
0.0
 10
80.54736597378677
 20
-94.9712917514308
 30
0.0
 10
80.54736597378677
 20
-94.68776039299473
 30
0.0
 10
80.54736597378677
 20
-94.55030108313326
 30
0.0
 10
80.47777504498472
 20
-94.3976833531367
 30
0.0
 10
80.24936521431266
 20
-94.3976833531367
 30
0.0
 10
80.13292098691122
 20
-94.3976833531367
 30
0.0
 10
80.0843451405692
 20
-94.43592391302296
 30
0.0
 10
80.05265026210489
 20
-94.46761879148727
 30
0.0
 10
79.97858070917202
 20
-94.54168834442014
 30
0.0
 10
79.9658338558766
 20
-94.65813257182158
 30
0.0
 10
79.9658338558766
 20
-94.71290959003706
 30
0.0
 10
79.9658338558766
 20
-94.73220212475445
 30
0.0
 10
79.96790091316775
 20
-94.76803111780106
 30
0.0
 10
79.97203502775005
 20
-94.79559188168305
 30
0.0
 10
79.97203502775005
 20
-94.79559188168305
 30
0.0
 10
79.77738713283344
 20
-94.79559188168305
 30
0.0
 10
79.77738713283344
 20
-94.79559188168305
 30
0.0
 10
79.78393281425541
 20
-94.75735132179678
 30
0.0
 10
79.78599987154657
 20
-94.71532115687673
 30
0.0
 10
79.78599987154657
 20
-94.70877547545476
 30
0.0
 10
79.78599987154657
 20
-94.64331866123501
 30
0.0
 10
79.76464027953801
 20
-94.44453665173609
 30
0.0
 10
79.52796221970135
 20
-94.44453665173609
 30
0.0
 10
79.35019529266245
 20
-94.44453665173609
 30
0.0
 10
79.29507376489846
 20
-94.57545028017559
 30
0.0
 10
79.29507376489846
 20
-94.68569333570358
 30
0.0
 10
79.29507376489846
 20
-94.94993215942225
 30
0.0
 10
79.52796221970135
 20
-94.95854489813537
 30
0.0
 10
79.59962020579454
 20
-94.96267901271767
 30
0.0
 10
79.59962020579454
 20
-94.96267901271767
 30
0.0
 10
79.59962020579454
 20
-95.16593964634741
 30
0.0
 10
79.59962020579454
 20
-95.16593964634741
 30
0.0
 10
79.47490774922849
 20
-95.15732690763429
 30
0.0
 10
79.09835881269069
 20
-95.12976614375229
 30
0.0
 10
79.09835881269069
 20
-94.67294648240815
 30
0.0
 10
79.09835881269069
 20
-94.44867076631839
 30
0.0
 10
79.2254828360964
 20
-94.2075140823509
 30
0.0
 10
79.52141653827937
 20
-94.2075140823509
 30
0.0
 10
79.70779620403138
 20
-94.2075140823509
 30
0.0
 10
79.79013398612886
 20
-94.3025987177438
 30
0.0
 10
79.85145668576631
 20
-94.40216197726753
 30
0.0
 10
79.8790174496483
 20
-94.34083927763007
 30
0.0
 10
79.95928817445463
 20
-94.15893823600888
 30
0.0
 10
80.23661836101724
 20
-94.15893823600888
 30
0.0
 10
80.57492673766878
 20
-94.15893823600888
 30
0.0
 10
80.7420138687034
 20
-94.40629609184982
 30
0.0
 10
80.7420138687034
 20
-94.6832817688639
 30
0.0
  0
HATCH
  5
6D
330
68
100
AcDbEntity
  8
_U+30EC_U+30A4_U+30E4_U+30FC 1
 62
   179
420
  2234388
100
AcDbHatch
 10
0.0
 20
0.0
 30
0.0
210
0.0
220
0.0
230
1.0
  2
SOLID
 70
     1
 71
     0
 91
        1
 92
        1
 93
        1
 72
     4
 94
        3
 73
     0
 74
     1
 95
       62
 96
       58
 40
0.0
 40
0.0
 40
0.0
 40
0.0
 40
1.0
 40
1.0
 40
1.0
 40
2.0
 40
2.0
 40
2.0
 40
3.0
 40
3.0
 40
3.0
 40
4.0
 40
4.0
 40
4.0
 40
5.0
 40
5.0
 40
5.0
 40
6.0
 40
6.0
 40
6.0
 40
7.0
 40
7.0
 40
7.0
 40
8.0
 40
8.0
 40
8.0
 40
9.0
 40
9.0
 40
9.0
 40
10.0
 40
10.0
 40
10.0
 40
11.0
 40
11.0
 40
11.0
 40
12.0
 40
12.0
 40
12.0
 40
13.0
 40
13.0
 40
13.0
 40
14.0
 40
14.0
 40
14.0
 40
15.0
 40
15.0
 40
15.0
 40
16.0
 40
16.0
 40
16.0
 40
17.0
 40
17.0
 40
17.0
 40
18.0
 40
18.0
 40
18.0
 40
19.0
 40
19.0
 40
19.0
 40
19.0
 10
80.7420138687034
 20
-94.6832817688639
 10
80.7420138687034
 20
-94.77871091380533
 10
80.72099878624337
 20
-94.99644094847312
 10
80.53496363003987
 20
-95.12149791458769
 10
80.42265351722072
 20
-95.19556746752056
 10
80.32343476724553
 20
-95.19970158210286
 10
80.23868541830839
 20
-95.20383569668516
 10
80.23868541830839
 20
-95.20383569668516
 10
80.23868541830839
 20
-94.9836940951777
 10
80.23868541830839
 20
-94.9836940951777
 10
80.31275497124126
 20
-94.98162703788654
 10
80.54736597378677
 20
-94.9712917514308
 10
80.54736597378677
 20
-94.68776039299473
 10
80.54736597378677
 20
-94.55030108313326
 10
80.47777504498472
 20
-94.3976833531367
 10
80.24936521431266
 20
-94.3976833531367
 10
80.13292098691122
 20
-94.3976833531367
 10
80.0843451405692
 20
-94.43592391302296
 10
80.05265026210489
 20
-94.46761879148727
 10
79.97858070917202
 20
-94.54168834442014
 10
79.9658338558766
 20
-94.65813257182158
 10
79.9658338558766
 20
-94.71290959003706
 10
79.9658338558766
 20
-94.73220212475445
 10
79.96790091316775
 20
-94.76803111780106
 10
79.97203502775005
 20
-94.79559188168305
 10
79.97203502775005
 20
-94.79559188168305
 10
79.77738713283344
 20
-94.79559188168305
 10
79.77738713283344
 20
-94.79559188168305
 10
79.78393281425541
 20
-94.75735132179678
 10
79.78599987154657
 20
-94.71532115687673
 10
79.78599987154657
 20
-94.70877547545476
 10
79.78599987154657
 20
-94.64331866123501
 10
79.76464027953801
 20
-94.44453665173609
 10
79.52796221970135
 20
-94.44453665173609
 10
79.35019529266245
 20
-94.44453665173609
 10
79.29507376489846
 20
-94.57545028017559
 10
79.29507376489846
 20
-94.68569333570358
 10
79.29507376489846
 20
-94.94993215942225
 10
79.52796221970135
 20
-94.95854489813537
 10
79.59962020579454
 20
-94.96267901271767
 10
79.59962020579454
 20
-94.96267901271767
 10
79.59962020579454
 20
-95.16593964634741
 10
79.59962020579454
 20
-95.16593964634741
 10
79.47490774922849
 20
-95.15732690763429
 10
79.09835881269069
 20
-95.12976614375229
 10
79.09835881269069
 20
-94.67294648240815
 10
79.09835881269069
 20
-94.44867076631839
 10
79.2254828360964
 20
-94.2075140823509
 10
79.52141653827937
 20
-94.2075140823509
 10
79.70779620403138
 20
-94.2075140823509
 10
79.79013398612886
 20
-94.3025987177438
 10
79.85145668576631
 20
-94.40216197726753
 10
79.8790174496483
 20
-94.34083927763007
 10
79.95928817445463
 20
-94.15893823600888
 10
80.23661836101724
 20
-94.15893823600888
 10
80.57492673766878
 20
-94.15893823600888
 10
80.7420138687034
 20
-94.40629609184982
 10
80.7420138687034
 20
-94.6832817688639
 97
        0
 97
        0
 75
     2
 76
     1
 98
        0
  0
ENDBLK
  5
6B
330
68
100
AcDbEntity
  8
0
100
AcDbBlockEnd
  0
BLOCK
  5
83
330
81
100
AcDbEntity
  8
0
100
AcDbBlockBegin
  2
block 5
 70
     0
 10
0.0
 20
0.0
 30
0.0
  3
block 5
  1

  0
SPLINE
  5
85
330
81
100
AcDbEntity
  8
_U+30EC_U+30A4_U+30E4_U+30FC 1
370
     0
100
AcDbSpline
210
0.0
220
0.0
230
1.0
 70
    11
 71
     3
 72
    44
 73
    40
 74
     0
 42
0.0000000001
 43
0.0000000001
 12
1.0
 22
0.0
 32
0.0
 13
1.0
 23
0.0
 33
0.0
 40
0.0
 40
0.0
 40
0.0
 40
0.0
 40
1.0
 40
1.0
 40
1.0
 40
2.0
 40
2.0
 40
2.0
 40
3.0
 40
3.0
 40
3.0
 40
4.0
 40
4.0
 40
4.0
 40
5.0
 40
5.0
 40
5.0
 40
6.0
 40
6.0
 40
6.0
 40
7.0
 40
7.0
 40
7.0
 40
8.0
 40
8.0
 40
8.0
 40
9.0
 40
9.0
 40
9.0
 40
10.0
 40
10.0
 40
10.0
 40
11.0
 40
11.0
 40
11.0
 40
12.0
 40
12.0
 40
12.0
 40
13.0
 40
13.0
 40
13.0
 40
13.0
 10
62.5429524583226
 20
-78.26430119571171
 30
0.0
 10
62.32522242365481
 20
-78.42312009758173
 30
0.0
 10
62.23220484555306
 20
-78.4971896505146
 30
0.0
 10
62.18328448966251
 20
-78.64085013224951
 30
0.0
 10
62.18328448966251
 20
-78.64085013224951
 30
0.0
 10
62.96187606932898
 20
-78.64085013224951
 30
0.0
 10
62.96187606932898
 20
-78.64085013224951
 30
0.0
 10
62.96187606932898
 20
-78.64085013224951
 30
0.0
 10
62.96187606932898
 20
-78.84617782317041
 30
0.0
 10
62.96187606932898
 20
-78.84617782317041
 30
0.0
 10
62.96187606932898
 20
-78.84617782317041
 30
0.0
 10
61.93385957653042
 20
-78.84617782317041
 30
0.0
 10
61.93385957653042
 20
-78.84617782317041
 30
0.0
 10
61.96555445499472
 20
-78.48857691180147
 30
0.0
 10
62.03101126921447
 20
-78.4103732442863
 30
0.0
 10
62.4161729444654
 20
-78.11202797526366
 30
0.0
 10
62.67214353901947
 20
-77.91324596576474
 30
0.0
 10
62.73760035323922
 20
-77.84537758470533
 30
0.0
 10
62.73760035323922
 20
-77.70791827484386
 30
0.0
 10
62.73760035323922
 20
-77.58940699015126
 30
0.0
 10
62.66559785759749
 20
-77.45849336171177
 30
0.0
 10
62.46888290538973
 20
-77.45849336171177
 30
0.0
 10
62.20877819625336
 20
-77.45849336171177
 30
0.0
 10
62.20016545754024
 20
-77.68897024967498
 30
0.0
 10
62.19603134295794
 20
-77.80541447707643
 30
0.0
 10
62.19603134295794
 20
-77.80541447707643
 30
0.0
 10
61.97175562686817
 20
-77.80541447707643
 30
0.0
 10
61.97175562686817
 20
-77.80541447707643
 30
0.0
 10
61.9803683655813
 20
-77.67829045367071
 30
0.0
 10
61.99104816158557
 20
-77.5663248504001
 30
0.0
 10
62.07131888639189
 20
-77.44781356570749
 30
0.0
 10
62.18121743237136
 20
-77.28692760654633
 30
0.0
 10
62.36759709812338
 20
-77.25316567079088
 30
0.0
 10
62.4836968159763
 20
-77.25316567079088
 30
0.0
 10
62.76102700253891
 20
-77.25316567079088
 30
0.0
 10
62.96842175075096
 20
-77.43713376970322
 30
0.0
 10
62.96842175075096
 20
-77.709985332135
 30
0.0
 10
62.96842175075096
 20
-77.9387396723556
 30
0.0
 10
62.85197752334951
 20
-78.03795842233079
 30
0.0
 10
62.5429524583226
 20
-78.26430119571171
 30
0.0
  0
HATCH
  5
86
330
81
100
AcDbEntity
  8
_U+30EC_U+30A4_U+30E4_U+30FC 1
 62
   179
420
  2234388
100
AcDbHatch
 10
0.0
 20
0.0
 30
0.0
210
0.0
220
0.0
230
1.0
  2
SOLID
 70
     1
 71
     0
 91
        1
 92
        1
 93
        1
 72
     4
 94
        3
 73
     0
 74
     1
 95
       44
 96
       40
 40
0.0
 40
0.0
 40
0.0
 40
0.0
 40
1.0
 40
1.0
 40
1.0
 40
2.0
 40
2.0
 40
2.0
 40
3.0
 40
3.0
 40
3.0
 40
4.0
 40
4.0
 40
4.0
 40
5.0
 40
5.0
 40
5.0
 40
6.0
 40
6.0
 40
6.0
 40
7.0
 40
7.0
 40
7.0
 40
8.0
 40
8.0
 40
8.0
 40
9.0
 40
9.0
 40
9.0
 40
10.0
 40
10.0
 40
10.0
 40
11.0
 40
11.0
 40
11.0
 40
12.0
 40
12.0
 40
12.0
 40
13.0
 40
13.0
 40
13.0
 40
13.0
 10
62.5429524583226
 20
-78.26430119571171
 10
62.32522242365481
 20
-78.42312009758173
 10
62.23220484555306
 20
-78.4971896505146
 10
62.18328448966251
 20
-78.64085013224951
 10
62.18328448966251
 20
-78.64085013224951
 10
62.96187606932898
 20
-78.64085013224951
 10
62.96187606932898
 20
-78.64085013224951
 10
62.96187606932898
 20
-78.64085013224951
 10
62.96187606932898
 20
-78.84617782317041
 10
62.96187606932898
 20
-78.84617782317041
 10
62.96187606932898
 20
-78.84617782317041
 10
61.93385957653042
 20
-78.84617782317041
 10
61.93385957653042
 20
-78.84617782317041
 10
61.96555445499472
 20
-78.48857691180147
 10
62.03101126921447
 20
-78.4103732442863
 10
62.4161729444654
 20
-78.11202797526366
 10
62.67214353901947
 20
-77.91324596576474
 10
62.73760035323922
 20
-77.84537758470533
 10
62.73760035323922
 20
-77.70791827484386
 10
62.73760035323922
 20
-77.58940699015126
 10
62.66559785759749
 20
-77.45849336171177
 10
62.46888290538973
 20
-77.45849336171177
 10
62.20877819625336
 20
-77.45849336171177
 10
62.20016545754024
 20
-77.68897024967498
 10
62.19603134295794
 20
-77.80541447707643
 10
62.19603134295794
 20
-77.80541447707643
 10
61.97175562686817
 20
-77.80541447707643
 10
61.97175562686817
 20
-77.80541447707643
 10
61.9803683655813
 20
-77.67829045367071
 10
61.99104816158557
 20
-77.5663248504001
 10
62.07131888639189
 20
-77.44781356570749
 10
62.18121743237136
 20
-77.28692760654633
 10
62.36759709812338
 20
-77.25316567079088
 10
62.4836968159763
 20
-77.25316567079088
 10
62.76102700253891
 20
-77.25316567079088
 10
62.96842175075096
 20
-77.43713376970322
 10
62.96842175075096
 20
-77.709985332135
 10
62.96842175075096
 20
-77.9387396723556
 10
62.85197752334951
 20
-78.03795842233079
 10
62.5429524583226
 20
-78.26430119571171
 97
        0
 97
        0
 75
     2
 76
     1
 98
        0
  0
SPLINE
  5
87
330
81
100
AcDbEntity
  8
_U+30EC_U+30A4_U+30E4_U+30FC 1
370
     0
100
AcDbSpline
210
0.0
220
0.0
230
1.0
 70
    11
 71
     3
 72
    53
 73
    49
 74
     0
 42
0.0000000001
 43
0.0000000001
 12
1.0
 22
0.0
 32
0.0
 13
1.0
 23
0.0
 33
0.0
 40
0.0
 40
0.0
 40
0.0
 40
0.0
 40
1.0
 40
1.0
 40
1.0
 40
2.0
 40
2.0
 40
2.0
 40
3.0
 40
3.0
 40
3.0
 40
4.0
 40
4.0
 40
4.0
 40
5.0
 40
5.0
 40
5.0
 40
6.0
 40
6.0
 40
6.0
 40
7.0
 40
7.0
 40
7.0
 40
8.0
 40
8.0
 40
8.0
 40
9.0
 40
9.0
 40
9.0
 40
10.0
 40
10.0
 40
10.0
 40
11.0
 40
11.0
 40
11.0
 40
12.0
 40
12.0
 40
12.0
 40
13.0
 40
13.0
 40
13.0
 40
14.0
 40
14.0
 40
14.0
 40
15.0
 40
15.0
 40
15.0
 40
16.0
 40
16.0
 40
16.0
 40
16.0
 10
63.60783147281332
 20
-78.89682072680358
 30
0.0
 10
63.52962780529815
 20
-78.89682072680358
 30
0.0
 10
63.42799748848328
 20
-78.87993975892586
 30
0.0
 10
63.32636717166841
 20
-78.81655000199726
 30
0.0
 10
63.15307886876035
 20
-78.70665145601778
 30
0.0
 10
63.1317192767518
 20
-78.57539331802977
 30
0.0
 10
63.11277125158292
 20
-78.46756182934145
 30
0.0
 10
63.11277125158292
 20
-78.46756182934145
 30
0.0
 10
63.33497991038153
 20
-78.46756182934145
 30
0.0
 10
63.33497991038153
 20
-78.46756182934145
 30
0.0
 10
63.38975692859701
 20
-78.66634383884036
 30
0.0
 10
63.51688095200273
 20
-78.69597166001351
 30
0.0
 10
63.60989853010447
 20
-78.69597166001351
 30
0.0
 10
63.74942489725709
 20
-78.69597166001351
 30
0.0
 10
63.90169811770513
 20
-78.59640840048979
 30
0.0
 10
63.90169811770513
 20
-78.36386445523543
 30
0.0
 10
63.90169811770513
 20
-78.10789386068136
 30
0.0
 10
63.72186413337509
 20
-78.03795842233079
 30
0.0
 10
63.60128579139135
 20
-78.03795842233079
 30
0.0
 10
63.56959091292705
 20
-78.03795842233079
 30
0.0
 10
63.42799748848328
 20
-78.03795842233079
 30
0.0
 10
63.33911402496383
 20
-78.16714950302766
 30
0.0
 10
63.33911402496383
 20
-78.16714950302766
 30
0.0
 10
63.1634141552161
 20
-78.14820147785879
 30
0.0
 10
63.1634141552161
 20
-78.14820147785879
 30
0.0
 10
63.1634141552161
 20
-78.14820147785879
 30
0.0
 10
63.28399249719984
 20
-77.3017415171329
 30
0.0
 10
63.28399249719984
 20
-77.3017415171329
 30
0.0
 10
63.28399249719984
 20
-77.3017415171329
 30
0.0
 10
64.0625840768663
 20
-77.3017415171329
 30
0.0
 10
64.0625840768663
 20
-77.3017415171329
 30
0.0
 10
64.0625840768663
 20
-77.3017415171329
 30
0.0
 10
64.0625840768663
 20
-77.49638941204952
 30
0.0
 10
64.0625840768663
 20
-77.49638941204952
 30
0.0
 10
64.0625840768663
 20
-77.49638941204952
 30
0.0
 10
63.44694551365215
 20
-77.49638941204952
 30
0.0
 10
63.44694551365215
 20
-77.49638941204952
 30
0.0
 10
63.44694551365215
 20
-77.49638941204952
 30
0.0
 10
63.38148869943241
 20
-77.9194471376382
 30
0.0
 10
63.38148869943241
 20
-77.9194471376382
 30
0.0
 10
63.44281139906985
 20
-77.88568520188275
 30
0.0
 10
63.52514918116733
 20
-77.84537758470533
 30
0.0
 10
63.64366046585992
 20
-77.84537758470533
 30
0.0
 10
63.89756400312283
 20
-77.84537758470533
 30
0.0
 10
64.13458657250803
 20
-78.03175725045735
 30
0.0
 10
64.13458657250803
 20
-78.34491643006655
 30
0.0
 10
64.13458657250803
 20
-78.66220972425806
 30
0.0
 10
63.91031085641826
 20
-78.89682072680358
 30
0.0
 10
63.60783147281332
 20
-78.89682072680358
 30
0.0
  0
HATCH
  5
88
330
81
100
AcDbEntity
  8
_U+30EC_U+30A4_U+30E4_U+30FC 1
 62
   179
420
  2234388
100
AcDbHatch
 10
0.0
 20
0.0
 30
0.0
210
0.0
220
0.0
230
1.0
  2
SOLID
 70
     1
 71
     0
 91
        1
 92
        1
 93
        1
 72
     4
 94
        3
 73
     0
 74
     1
 95
       53
 96
       49
 40
0.0
 40
0.0
 40
0.0
 40
0.0
 40
1.0
 40
1.0
 40
1.0
 40
2.0
 40
2.0
 40
2.0
 40
3.0
 40
3.0
 40
3.0
 40
4.0
 40
4.0
 40
4.0
 40
5.0
 40
5.0
 40
5.0
 40
6.0
 40
6.0
 40
6.0
 40
7.0
 40
7.0
 40
7.0
 40
8.0
 40
8.0
 40
8.0
 40
9.0
 40
9.0
 40
9.0
 40
10.0
 40
10.0
 40
10.0
 40
11.0
 40
11.0
 40
11.0
 40
12.0
 40
12.0
 40
12.0
 40
13.0
 40
13.0
 40
13.0
 40
14.0
 40
14.0
 40
14.0
 40
15.0
 40
15.0
 40
15.0
 40
16.0
 40
16.0
 40
16.0
 40
16.0
 10
63.60783147281332
 20
-78.89682072680358
 10
63.52962780529815
 20
-78.89682072680358
 10
63.42799748848328
 20
-78.87993975892586
 10
63.32636717166841
 20
-78.81655000199726
 10
63.15307886876035
 20
-78.70665145601778
 10
63.1317192767518
 20
-78.57539331802977
 10
63.11277125158292
 20
-78.46756182934145
 10
63.11277125158292
 20
-78.46756182934145
 10
63.33497991038153
 20
-78.46756182934145
 10
63.33497991038153
 20
-78.46756182934145
 10
63.38975692859701
 20
-78.66634383884036
 10
63.51688095200273
 20
-78.69597166001351
 10
63.60989853010447
 20
-78.69597166001351
 10
63.74942489725709
 20
-78.69597166001351
 10
63.90169811770513
 20
-78.59640840048979
 10
63.90169811770513
 20
-78.36386445523543
 10
63.90169811770513
 20
-78.10789386068136
 10
63.72186413337509
 20
-78.03795842233079
 10
63.60128579139135
 20
-78.03795842233079
 10
63.56959091292705
 20
-78.03795842233079
 10
63.42799748848328
 20
-78.03795842233079
 10
63.33911402496383
 20
-78.16714950302766
 10
63.33911402496383
 20
-78.16714950302766
 10
63.1634141552161
 20
-78.14820147785879
 10
63.1634141552161
 20
-78.14820147785879
 10
63.1634141552161
 20
-78.14820147785879
 10
63.28399249719984
 20
-77.3017415171329
 10
63.28399249719984
 20
-77.3017415171329
 10
63.28399249719984
 20
-77.3017415171329
 10
64.0625840768663
 20
-77.3017415171329
 10
64.0625840768663
 20
-77.3017415171329
 10
64.0625840768663
 20
-77.3017415171329
 10
64.0625840768663
 20
-77.49638941204952
 10
64.0625840768663
 20
-77.49638941204952
 10
64.0625840768663
 20
-77.49638941204952
 10
63.44694551365215
 20
-77.49638941204952
 10
63.44694551365215
 20
-77.49638941204952
 10
63.44694551365215
 20
-77.49638941204952
 10
63.38148869943241
 20
-77.9194471376382
 10
63.38148869943241
 20
-77.9194471376382
 10
63.44281139906985
 20
-77.88568520188275
 10
63.52514918116733
 20
-77.84537758470533
 10
63.64366046585992
 20
-77.84537758470533
 10
63.89756400312283
 20
-77.84537758470533
 10
64.13458657250803
 20
-78.03175725045735
 10
64.13458657250803
 20
-78.34491643006655
 10
64.13458657250803
 20
-78.66220972425806
 10
63.91031085641826
 20
-78.89682072680358
 10
63.60783147281332
 20
-78.89682072680358
 97
        0
 97
        0
 75
     2
 76
     1
 98
        0
  0
ENDBLK
  5
84
330
81
100
AcDbEntity
  8
0
100
AcDbBlockEnd
  0
BLOCK
  5
8B
330
89
100
AcDbEntity
  8
0
100
AcDbBlockBegin
  2
block 6
 70
     0
 10
0.0
 20
0.0
 30
0.0
  3
block 6
  1

  0
SPLINE
  5
8D
330
89
100
AcDbEntity
  8
_U+30EC_U+30A4_U+30E4_U+30FC 1
370
     0
100
AcDbSpline
210
0.0
220
0.0
230
1.0
 70
    11
 71
     3
 72
    53
 73
    49
 74
     0
 42
0.0000000001
 43
0.0000000001
 12
1.0
 22
0.0
 32
0.0
 13
1.0
 23
0.0
 33
0.0
 40
0.0
 40
0.0
 40
0.0
 40
0.0
 40
1.0
 40
1.0
 40
1.0
 40
2.0
 40
2.0
 40
2.0
 40
3.0
 40
3.0
 40
3.0
 40
4.0
 40
4.0
 40
4.0
 40
5.0
 40
5.0
 40
5.0
 40
6.0
 40
6.0
 40
6.0
 40
7.0
 40
7.0
 40
7.0
 40
8.0
 40
8.0
 40
8.0
 40
9.0
 40
9.0
 40
9.0
 40
10.0
 40
10.0
 40
10.0
 40
11.0
 40
11.0
 40
11.0
 40
12.0
 40
12.0
 40
12.0
 40
13.0
 40
13.0
 40
13.0
 40
14.0
 40
14.0
 40
14.0
 40
15.0
 40
15.0
 40
15.0
 40
16.0
 40
16.0
 40
16.0
 40
16.0
 10
48.21514484471705
 20
-78.89682072680358
 30
0.0
 10
48.13694117720188
 20
-78.89682072680358
 30
0.0
 10
48.03531086038701
 20
-78.87993975892586
 30
0.0
 10
47.93368054357214
 20
-78.81655000199726
 30
0.0
 10
47.76039224066407
 20
-78.70665145601778
 30
0.0
 10
47.73903264865552
 20
-78.57539331802977
 30
0.0
 10
47.72008462348665
 20
-78.46756182934145
 30
0.0
 10
47.72008462348665
 20
-78.46756182934145
 30
0.0
 10
47.94229328228526
 20
-78.46756182934145
 30
0.0
 10
47.94229328228526
 20
-78.46756182934145
 30
0.0
 10
47.99707030050074
 20
-78.66634383884036
 30
0.0
 10
48.12419432390645
 20
-78.69597166001351
 30
0.0
 10
48.2172119020082
 20
-78.69597166001351
 30
0.0
 10
48.35673826916081
 20
-78.69597166001351
 30
0.0
 10
48.50901148960886
 20
-78.59640840048979
 30
0.0
 10
48.50901148960886
 20
-78.36386445523543
 30
0.0
 10
48.50901148960886
 20
-78.10789386068136
 30
0.0
 10
48.32917750527882
 20
-78.03795842233079
 30
0.0
 10
48.20859916329508
 20
-78.03795842233079
 30
0.0
 10
48.17690428483078
 20
-78.03795842233079
 30
0.0
 10
48.03531086038701
 20
-78.03795842233079
 30
0.0
 10
47.94642739686756
 20
-78.16714950302766
 30
0.0
 10
47.94642739686756
 20
-78.16714950302766
 30
0.0
 10
47.77072752711982
 20
-78.14820147785879
 30
0.0
 10
47.77072752711982
 20
-78.14820147785879
 30
0.0
 10
47.77072752711982
 20
-78.14820147785879
 30
0.0
 10
47.89130586910356
 20
-77.3017415171329
 30
0.0
 10
47.89130586910356
 20
-77.3017415171329
 30
0.0
 10
47.89130586910356
 20
-77.3017415171329
 30
0.0
 10
48.66989744877003
 20
-77.3017415171329
 30
0.0
 10
48.66989744877003
 20
-77.3017415171329
 30
0.0
 10
48.66989744877003
 20
-77.3017415171329
 30
0.0
 10
48.66989744877003
 20
-77.49638941204952
 30
0.0
 10
48.66989744877003
 20
-77.49638941204952
 30
0.0
 10
48.66989744877003
 20
-77.49638941204952
 30
0.0
 10
48.05425888555588
 20
-77.49638941204952
 30
0.0
 10
48.05425888555588
 20
-77.49638941204952
 30
0.0
 10
48.05425888555588
 20
-77.49638941204952
 30
0.0
 10
47.98880207133614
 20
-77.9194471376382
 30
0.0
 10
47.98880207133614
 20
-77.9194471376382
 30
0.0
 10
48.05012477097358
 20
-77.88568520188275
 30
0.0
 10
48.13246255307105
 20
-77.84537758470533
 30
0.0
 10
48.25097383776365
 20
-77.84537758470533
 30
0.0
 10
48.50487737502656
 20
-77.84537758470533
 30
0.0
 10
48.74189994441175
 20
-78.03175725045735
 30
0.0
 10
48.74189994441175
 20
-78.34491643006655
 30
0.0
 10
48.74189994441175
 20
-78.66220972425806
 30
0.0
 10
48.51762422832198
 20
-78.89682072680358
 30
0.0
 10
48.21514484471705
 20
-78.89682072680358
 30
0.0
  0
HATCH
  5
8E
330
89
100
AcDbEntity
  8
_U+30EC_U+30A4_U+30E4_U+30FC 1
 62
   179
420
  2234388
100
AcDbHatch
 10
0.0
 20
0.0
 30
0.0
210
0.0
220
0.0
230
1.0
  2
SOLID
 70
     1
 71
     0
 91
        1
 92
        1
 93
        1
 72
     4
 94
        3
 73
     0
 74
     1
 95
       53
 96
       49
 40
0.0
 40
0.0
 40
0.0
 40
0.0
 40
1.0
 40
1.0
 40
1.0
 40
2.0
 40
2.0
 40
2.0
 40
3.0
 40
3.0
 40
3.0
 40
4.0
 40
4.0
 40
4.0
 40
5.0
 40
5.0
 40
5.0
 40
6.0
 40
6.0
 40
6.0
 40
7.0
 40
7.0
 40
7.0
 40
8.0
 40
8.0
 40
8.0
 40
9.0
 40
9.0
 40
9.0
 40
10.0
 40
10.0
 40
10.0
 40
11.0
 40
11.0
 40
11.0
 40
12.0
 40
12.0
 40
12.0
 40
13.0
 40
13.0
 40
13.0
 40
14.0
 40
14.0
 40
14.0
 40
15.0
 40
15.0
 40
15.0
 40
16.0
 40
16.0
 40
16.0
 40
16.0
 10
48.21514484471705
 20
-78.89682072680358
 10
48.13694117720188
 20
-78.89682072680358
 10
48.03531086038701
 20
-78.87993975892586
 10
47.93368054357214
 20
-78.81655000199726
 10
47.76039224066407
 20
-78.70665145601778
 10
47.73903264865552
 20
-78.57539331802977
 10
47.72008462348665
 20
-78.46756182934145
 10
47.72008462348665
 20
-78.46756182934145
 10
47.94229328228526
 20
-78.46756182934145
 10
47.94229328228526
 20
-78.46756182934145
 10
47.99707030050074
 20
-78.66634383884036
 10
48.12419432390645
 20
-78.69597166001351
 10
48.2172119020082
 20
-78.69597166001351
 10
48.35673826916081
 20
-78.69597166001351
 10
48.50901148960886
 20
-78.59640840048979
 10
48.50901148960886
 20
-78.36386445523543
 10
48.50901148960886
 20
-78.10789386068136
 10
48.32917750527882
 20
-78.03795842233079
 10
48.20859916329508
 20
-78.03795842233079
 10
48.17690428483078
 20
-78.03795842233079
 10
48.03531086038701
 20
-78.03795842233079
 10
47.94642739686756
 20
-78.16714950302766
 10
47.94642739686756
 20
-78.16714950302766
 10
47.77072752711982
 20
-78.14820147785879
 10
47.77072752711982
 20
-78.14820147785879
 10
47.77072752711982
 20
-78.14820147785879
 10
47.89130586910356
 20
-77.3017415171329
 10
47.89130586910356
 20
-77.3017415171329
 10
47.89130586910356
 20
-77.3017415171329
 10
48.66989744877003
 20
-77.3017415171329
 10
48.66989744877003
 20
-77.3017415171329
 10
48.66989744877003
 20
-77.3017415171329
 10
48.66989744877003
 20
-77.49638941204952
 10
48.66989744877003
 20
-77.49638941204952
 10
48.66989744877003
 20
-77.49638941204952
 10
48.05425888555588
 20
-77.49638941204952
 10
48.05425888555588
 20
-77.49638941204952
 10
48.05425888555588
 20
-77.49638941204952
 10
47.98880207133614
 20
-77.9194471376382
 10
47.98880207133614
 20
-77.9194471376382
 10
48.05012477097358
 20
-77.88568520188275
 10
48.13246255307105
 20
-77.84537758470533
 10
48.25097383776365
 20
-77.84537758470533
 10
48.50487737502656
 20
-77.84537758470533
 10
48.74189994441175
 20
-78.03175725045735
 10
48.74189994441175
 20
-78.34491643006655
 10
48.74189994441175
 20
-78.66220972425806
 10
48.51762422832198
 20
-78.89682072680358
 10
48.21514484471705
 20
-78.89682072680358
 97
        0
 97
        0
 75
     2
 76
     1
 98
        0
  0
ENDBLK
  5
8C
330
89
100
AcDbEntity
  8
0
100
AcDbBlockEnd
  0
BLOCK
  5
9F
330
9D
100
AcDbEntity
  8
0
100
AcDbBlockBegin
  2
block 7
 70
     0
 10
0.0
 20
0.0
 30
0.0
  3
block 7
  1

  0
SPLINE
  5
A1
330
9D
100
AcDbEntity
  8
_U+30EC_U+30A4_U+30E4_U+30FC 1
370
     0
100
AcDbSpline
210
0.0
220
0.0
230
1.0
 70
    11
 71
     3
 72
    26
 73
    22
 74
     0
 42
0.0000000001
 43
0.0000000001
 12
1.0
 22
0.0
 32
0.0
 13
1.0
 23
0.0
 33
0.0
 40
0.0
 40
0.0
 40
0.0
 40
0.0
 40
1.0
 40
1.0
 40
1.0
 40
2.0
 40
2.0
 40
2.0
 40
3.0
 40
3.0
 40
3.0
 40
4.0
 40
4.0
 40
4.0
 40
5.0
 40
5.0
 40
5.0
 40
6.0
 40
6.0
 40
6.0
 40
7.0
 40
7.0
 40
7.0
 40
7.0
 10
50.02519801266731
 20
-99.62492673290627
 30
0.0
 10
50.02519801266731
 20
-99.62492673290627
 30
0.0
 10
50.02519801266731
 20
-98.5207736298837
 30
0.0
 10
50.02519801266731
 20
-98.5207736298837
 30
0.0
 10
50.02519801266731
 20
-98.5207736298837
 30
0.0
 10
49.69515786518038
 20
-98.5207736298837
 30
0.0
 10
49.69515786518038
 20
-98.5207736298837
 30
0.0
 10
49.69515786518038
 20
-98.5207736298837
 30
0.0
 10
49.69515786518038
 20
-98.37263452401795
 30
0.0
 10
49.69515786518038
 20
-98.37263452401795
 30
0.0
 10
50.02726506995847
 20
-98.35782061343139
 30
0.0
 10
50.07377385900934
 20
-98.19486759697907
 30
0.0
 10
50.10340168018249
 20
-98.08049042686878
 30
0.0
 10
50.10340168018249
 20
-98.08049042686878
 30
0.0
 10
50.24947372875708
 20
-98.08049042686878
 30
0.0
 10
50.24947372875708
 20
-98.08049042686878
 30
0.0
 10
50.24947372875708
 20
-98.08049042686878
 30
0.0
 10
50.24947372875708
 20
-99.62492673290627
 30
0.0
 10
50.24947372875708
 20
-99.62492673290627
 30
0.0
 10
50.24947372875708
 20
-99.62492673290627
 30
0.0
 10
50.02519801266731
 20
-99.62492673290627
 30
0.0
 10
50.02519801266731
 20
-99.62492673290627
 30
0.0
  0
HATCH
  5
A2
330
9D
100
AcDbEntity
  8
_U+30EC_U+30A4_U+30E4_U+30FC 1
 62
   179
420
  2234388
100
AcDbHatch
 10
0.0
 20
0.0
 30
0.0
210
0.0
220
0.0
230
1.0
  2
SOLID
 70
     1
 71
     0
 91
        1
 92
        1
 93
        1
 72
     4
 94
        3
 73
     0
 74
     1
 95
       26
 96
       22
 40
0.0
 40
0.0
 40
0.0
 40
0.0
 40
1.0
 40
1.0
 40
1.0
 40
2.0
 40
2.0
 40
2.0
 40
3.0
 40
3.0
 40
3.0
 40
4.0
 40
4.0
 40
4.0
 40
5.0
 40
5.0
 40
5.0
 40
6.0
 40
6.0
 40
6.0
 40
7.0
 40
7.0
 40
7.0
 40
7.0
 10
50.02519801266731
 20
-99.62492673290627
 10
50.02519801266731
 20
-99.62492673290627
 10
50.02519801266731
 20
-98.5207736298837
 10
50.02519801266731
 20
-98.5207736298837
 10
50.02519801266731
 20
-98.5207736298837
 10
49.69515786518038
 20
-98.5207736298837
 10
49.69515786518038
 20
-98.5207736298837
 10
49.69515786518038
 20
-98.5207736298837
 10
49.69515786518038
 20
-98.37263452401795
 10
49.69515786518038
 20
-98.37263452401795
 10
50.02726506995847
 20
-98.35782061343139
 10
50.07377385900934
 20
-98.19486759697907
 10
50.10340168018249
 20
-98.08049042686878
 10
50.10340168018249
 20
-98.08049042686878
 10
50.24947372875708
 20
-98.08049042686878
 10
50.24947372875708
 20
-98.08049042686878
 10
50.24947372875708
 20
-98.08049042686878
 10
50.24947372875708
 20
-99.62492673290627
 10
50.24947372875708
 20
-99.62492673290627
 10
50.24947372875708
 20
-99.62492673290627
 10
50.02519801266731
 20
-99.62492673290627
 10
50.02519801266731
 20
-99.62492673290627
 97
        0
 97
        0
 75
     2
 76
     1
 98
        0
  0
SPLINE
  5
A3
330
9D
100
AcDbEntity
  8
_U+30EC_U+30A4_U+30E4_U+30FC 1
370
     0
100
AcDbSpline
210
0.0
220
0.0
230
1.0
 70
    11
 71
     3
 72
    29
 73
    25
 74
     0
 42
0.0000000001
 43
0.0000000001
 12
1.0
 22
0.0
 32
0.0
 13
1.0
 23
0.0
 33
0.0
 40
0.0
 40
0.0
 40
0.0
 40
0.0
 40
1.0
 40
1.0
 40
1.0
 40
2.0
 40
2.0
 40
2.0
 40
3.0
 40
3.0
 40
3.0
 40
4.0
 40
4.0
 40
4.0
 40
5.0
 40
5.0
 40
5.0
 40
6.0
 40
6.0
 40
6.0
 40
7.0
 40
7.0
 40
7.0
 40
8.0
 40
8.0
 40
8.0
 40
8.0
 10
51.64852700531704
 20
-99.44715980586739
 30
0.0
 10
51.54035100708019
 20
-99.65662161137057
 30
0.0
 10
51.36706270417213
 20
-99.67556963653945
 30
0.0
 10
51.25061847677068
 20
-99.67556963653945
 30
0.0
 10
51.08973251760951
 20
-99.67556963653945
 30
0.0
 10
50.94813909316574
 20
-99.62906084748857
 30
0.0
 10
50.85305445777285
 20
-99.44715980586739
 30
0.0
 10
50.74935708366683
 20
-99.25251191095076
 30
0.0
 10
50.73040905849795
 20
-99.0158338511141
 30
0.0
 10
50.73040905849795
 20
-98.85288083466179
 30
0.0
 10
50.73040905849795
 20
-98.70887584337834
 30
0.0
 10
50.74729002637568
 20
-98.45703936340658
 30
0.0
 10
50.85305445777285
 20
-98.25825735390767
 30
0.0
 10
50.96088594646117
 20
-98.05534122982645
 30
0.0
 10
51.12177190562234
 20
-98.03191458052675
 30
0.0
 10
51.25061847677068
 20
-98.03191458052675
 30
0.0
 10
51.4094373786407
 20
-98.03191458052675
 30
0.0
 10
51.55309786037562
 20
-98.07635631228646
 30
0.0
 10
51.64852700531704
 20
-98.25825735390767
 30
0.0
 10
51.74774575529224
 20
-98.45083819153312
 30
0.0
 10
51.77117240459193
 20
-98.67924802220519
 30
0.0
 10
51.77117240459193
 20
-98.85288083466179
 30
0.0
 10
51.77117240459193
 20
-99.0241020802787
 30
0.0
 10
51.74981281258339
 20
-99.25457896824192
 30
0.0
 10
51.64852700531704
 20
-99.44715980586739
 30
0.0
  0
SPLINE
  5
A4
330
9D
100
AcDbEntity
  8
_U+30EC_U+30A4_U+30E4_U+30FC 1
370
     0
100
AcDbSpline
210
0.0
220
0.0
230
1.0
 70
    11
 71
     3
 72
    17
 73
    13
 74
     0
 42
0.0000000001
 43
0.0000000001
 12
1.0
 22
0.0
 32
0.0
 13
1.0
 23
0.0
 33
0.0
 40
0.0
 40
0.0
 40
0.0
 40
0.0
 40
1.0
 40
1.0
 40
1.0
 40
2.0
 40
2.0
 40
2.0
 40
3.0
 40
3.0
 40
3.0
 40
4.0
 40
4.0
 40
4.0
 40
4.0
 10
51.25061847677068
 20
-98.22449541815222
 30
0.0
 10
51.00119356363859
 20
-98.22449541815222
 30
0.0
 10
50.95434026503919
 20
-98.50802677658828
 30
0.0
 10
50.95434026503919
 20
-98.85288083466179
 30
0.0
 10
50.95434026503919
 20
-99.17224118614445
 30
0.0
 10
50.99051376763432
 20
-99.48092174162284
 30
0.0
 10
51.25061847677068
 20
-99.48092174162284
 30
0.0
 10
51.49832084216015
 20
-99.48092174162284
 30
0.0
 10
51.54689668850217
 20
-99.19980195002644
 30
0.0
 10
51.54689668850217
 20
-98.85288083466179
 30
0.0
 10
51.54689668850217
 20
-98.5331759736306
 30
0.0
 10
51.5086561286159
 20
-98.22449541815222
 30
0.0
 10
51.25061847677068
 20
-98.22449541815222
 30
0.0
  0
HATCH
  5
A5
330
9D
100
AcDbEntity
  8
_U+30EC_U+30A4_U+30E4_U+30FC 1
 62
   179
420
  2234388
100
AcDbHatch
 10
0.0
 20
0.0
 30
0.0
210
0.0
220
0.0
230
1.0
  2
SOLID
 70
     1
 71
     0
 91
        2
 92
        1
 93
        1
 72
     4
 94
        3
 73
     0
 74
     1
 95
       29
 96
       25
 40
0.0
 40
0.0
 40
0.0
 40
0.0
 40
1.0
 40
1.0
 40
1.0
 40
2.0
 40
2.0
 40
2.0
 40
3.0
 40
3.0
 40
3.0
 40
4.0
 40
4.0
 40
4.0
 40
5.0
 40
5.0
 40
5.0
 40
6.0
 40
6.0
 40
6.0
 40
7.0
 40
7.0
 40
7.0
 40
8.0
 40
8.0
 40
8.0
 40
8.0
 10
51.64852700531704
 20
-99.44715980586739
 10
51.54035100708019
 20
-99.65662161137057
 10
51.36706270417213
 20
-99.67556963653945
 10
51.25061847677068
 20
-99.67556963653945
 10
51.08973251760951
 20
-99.67556963653945
 10
50.94813909316574
 20
-99.62906084748857
 10
50.85305445777285
 20
-99.44715980586739
 10
50.74935708366683
 20
-99.25251191095076
 10
50.73040905849795
 20
-99.0158338511141
 10
50.73040905849795
 20
-98.85288083466179
 10
50.73040905849795
 20
-98.70887584337834
 10
50.74729002637568
 20
-98.45703936340658
 10
50.85305445777285
 20
-98.25825735390767
 10
50.96088594646117
 20
-98.05534122982645
 10
51.12177190562234
 20
-98.03191458052675
 10
51.25061847677068
 20
-98.03191458052675
 10
51.4094373786407
 20
-98.03191458052675
 10
51.55309786037562
 20
-98.07635631228646
 10
51.64852700531704
 20
-98.25825735390767
 10
51.74774575529224
 20
-98.45083819153312
 10
51.77117240459193
 20
-98.67924802220519
 10
51.77117240459193
 20
-98.85288083466179
 10
51.77117240459193
 20
-99.0241020802787
 10
51.74981281258339
 20
-99.25457896824192
 10
51.64852700531704
 20
-99.44715980586739
 97
        0
 97
        0
 92
        1
 93
        1
 72
     4
 94
        3
 73
     0
 74
     1
 95
       17
 96
       13
 40
0.0
 40
0.0
 40
0.0
 40
0.0
 40
1.0
 40
1.0
 40
1.0
 40
2.0
 40
2.0
 40
2.0
 40
3.0
 40
3.0
 40
3.0
 40
4.0
 40
4.0
 40
4.0
 40
4.0
 10
51.25061847677068
 20
-98.22449541815222
 10
51.00119356363859
 20
-98.22449541815222
 10
50.95434026503919
 20
-98.50802677658828
 10
50.95434026503919
 20
-98.85288083466179
 10
50.95434026503919
 20
-99.17224118614445
 10
50.99051376763432
 20
-99.48092174162284
 10
51.25061847677068
 20
-99.48092174162284
 10
51.49832084216015
 20
-99.48092174162284
 10
51.54689668850217
 20
-99.19980195002644
 10
51.54689668850217
 20
-98.85288083466179
 10
51.54689668850217
 20
-98.5331759736306
 10
51.5086561286159
 20
-98.22449541815222
 10
51.25061847677068
 20
-98.22449541815222
 97
        0
 97
        0
 75
     2
 76
     1
 98
        0
  0
ENDBLK
  5
A0
330
9D
100
AcDbEntity
  8
0
100
AcDbBlockEnd
  0
ENDSEC
  0
SECTION
  2
ENTITIES
  0
SPLINE
  5
41
330
1F
100
AcDbEntity
  8
_U+30EC_U+30A4_U+30E4_U+30FC 1
 62
   179
420
  2234388
370
     9
100
AcDbSpline
210
0.0
220
0.0
230
1.0
 70
    11
 71
     3
 72
    17
 73
    13
 74
     0
 42
0.0000000001
 43
0.0000000001
 12
1.0
 22
0.0
 32
0.0
 13
1.0
 23
0.0
 33
0.0
 40
0.0
 40
0.0
 40
0.0
 40
0.0
 40
1.0
 40
1.0
 40
1.0
 40
2.0
 40
2.0
 40
2.0
 40
3.0
 40
3.0
 40
3.0
 40
4.0
 40
4.0
 40
4.0
 40
4.0
 10
78.34767383451765
 20
-96.20017164261667
 30
0.0
 10
78.34767383451765
 20
-96.25527553149158
 30
0.0
 10
78.39244133337554
 20
-96.30007830925831
 30
0.0
 10
78.44758049863549
 20
-96.30007830925831
 30
0.0
 10
78.50268438611856
 20
-96.30007830925831
 30
0.0
 10
78.54748716275333
 20
-96.25527553149158
 30
0.0
 10
78.54748716275333
 20
-96.20017164261667
 30
0.0
 10
78.54748716275333
 20
-96.14503247596359
 30
0.0
 10
78.50268438611856
 20
-96.10026497597502
 30
0.0
 10
78.44758049863549
 20
-96.10026497597502
 30
0.0
 10
78.39244133337554
 20
-96.10026497597502
 30
0.0
 10
78.34767383451765
 20
-96.14503247596359
 30
0.0
 10
78.34767383451765
 20
-96.20017164261667
 30
0.0
  0
SPLINE
  5
42
330
1F
100
AcDbEntity
  8
_U+30EC_U+30A4_U+30E4_U+30FC 1
 62
   179
420
  2234388
370
     9
100
AcDbSpline
210
0.0
220
0.0
230
1.0
 70
    11
 71
     3
 72
    17
 73
    13
 74
     0
 42
0.0000000001
 43
0.0000000001
 12
1.0
 22
0.0
 32
0.0
 13
1.0
 23
0.0
 33
0.0
 40
0.0
 40
0.0
 40
0.0
 40
0.0
 40
1.0
 40
1.0
 40
1.0
 40
2.0
 40
2.0
 40
2.0
 40
3.0
 40
3.0
 40
3.0
 40
4.0
 40
4.0
 40
4.0
 40
4.0
 10
78.34767383451765
 20
-83.00321359036036
 30
0.0
 10
78.34767383451765
 20
-83.05831747923528
 30
0.0
 10
78.39244133337554
 20
-83.103120257002
 30
0.0
 10
78.44758049863549
 20
-83.103120257002
 30
0.0
 10
78.50268438611856
 20
-83.103120257002
 30
0.0
 10
78.54748716275333
 20
-83.05831747923528
 30
0.0
 10
78.54748716275333
 20
-83.00321359036036
 30
0.0
 10
78.54748716275333
 20
-82.94740414592992
 30
0.0
 10
78.50268438611856
 20
-82.9026013681632
 30
0.0
 10
78.44758049863549
 20
-82.9026013681632
 30
0.0
 10
78.39244133337554
 20
-82.9026013681632
 30
0.0
 10
78.34767383451765
 20
-82.94740414592992
 30
0.0
 10
78.34767383451765
 20
-83.00321359036036
 30
0.0
  0
POLYLINE
  5
43
330
1F
100
AcDbEntity
  8
_U+30EC_U+30A4_U+30E4_U+30FC 1
 62
   179
420
  2234388
370
     9
100
AcDb2dPolyline
 66
     1
 10
0.0
 20
0.0
 30
0.0
  0
VERTEX
  5
44
330
43
100
AcDbEntity
  8
_U+30EC_U+30A4_U+30E4_U+30FC 1
 62
   179
420
  2234388
370
     9
100
AcDbVertex
100
AcDb2dVertex
 10
78.44758049863549
 20
-78.43258942483624
 30
0.0
  0
VERTEX
  5
45
330
43
100
AcDbEntity
  8
_U+30EC_U+30A4_U+30E4_U+30FC 1
 62
   179
420
  2234388
370
     9
100
AcDbVertex
100
AcDb2dVertex
 10
78.44758049863549
 20
-96.20017164261667
 30
0.0
  0
SEQEND
  5
46
330
43
100
AcDbEntity
  8
_U+30EC_U+30A4_U+30E4_U+30FC 1
 62
   179
420
  2234388
370
     9
  0
POLYLINE
  5
47
330
1F
100
AcDbEntity
  8
_U+30EC_U+30A4_U+30E4_U+30FC 1
 62
   179
420
  2234388
370
     9
100
AcDb2dPolyline
 66
     1
 10
0.0
 20
0.0
 30
0.0
  0
VERTEX
  5
48
330
47
100
AcDbEntity
  8
_U+30EC_U+30A4_U+30E4_U+30FC 1
 62
   179
420
  2234388
370
     9
100
AcDbVertex
100
AcDb2dVertex
 10
76.8235680400675
 20
-83.00321359036036
 30
0.0
  0
VERTEX
  5
49
330
47
100
AcDbEntity
  8
_U+30EC_U+30A4_U+30E4_U+30FC 1
 62
   179
420
  2234388
370
     9
100
AcDbVertex
100
AcDb2dVertex
 10
79.4473526953514
 20
-83.00321359036036
 30
0.0
  0
SEQEND
  5
4A
330
47
100
AcDbEntity
  8
_U+30EC_U+30A4_U+30E4_U+30FC 1
 62
   179
420
  2234388
370
     9
  0
SPLINE
  5
4B
330
1F
100
AcDbEntity
  8
_U+30EC_U+30A4_U+30E4_U+30FC 1
 62
   179
420
  2234388
370
     9
100
AcDbSpline
210
0.0
220
0.0
230
1.0
 70
    11
 71
     3
 72
    17
 73
    13
 74
     0
 42
0.0000000001
 43
0.0000000001
 12
1.0
 22
0.0
 32
0.0
 13
1.0
 23
0.0
 33
0.0
 40
0.0
 40
0.0
 40
0.0
 40
0.0
 40
1.0
 40
1.0
 40
1.0
 40
2.0
 40
2.0
 40
2.0
 40
3.0
 40
3.0
 40
3.0
 40
4.0
 40
4.0
 40
4.0
 40
4.0
 10
78.34767383451765
 20
-82.20325470167143
 30
0.0
 10
78.34767383451765
 20
-82.25835859054666
 30
0.0
 10
78.39244133337554
 20
-82.30316136831306
 30
0.0
 10
78.44758049863549
 20
-82.30316136831306
 30
0.0
 10
78.50268438611856
 20
-82.30316136831306
 30
0.0
 10
78.54748716275333
 20
-82.25835859054666
 30
0.0
 10
78.54748716275333
 20
-82.20325470167143
 30
0.0
 10
78.54748716275333
 20
-82.14744525724099
 30
0.0
 10
78.50268438611856
 20
-82.10264247947426
 30
0.0
 10
78.44758049863549
 20
-82.10264247947426
 30
0.0
 10
78.39244133337554
 20
-82.10264247947426
 30
0.0
 10
78.34767383451765
 20
-82.14744525724099
 30
0.0
 10
78.34767383451765
 20
-82.20325470167143
 30
0.0
  0
POLYLINE
  5
4C
330
1F
100
AcDbEntity
  8
_U+30EC_U+30A4_U+30E4_U+30FC 1
 62
   179
420
  2234388
370
     9
100
AcDb2dPolyline
 66
     1
 10
0.0
 20
0.0
 30
0.0
  0
VERTEX
  5
4D
330
4C
100
AcDbEntity
  8
_U+30EC_U+30A4_U+30E4_U+30FC 1
 62
   179
420
  2234388
370
     9
100
AcDbVertex
100
AcDb2dVertex
 10
76.8235680400675
 20
-82.20325470167143
 30
0.0
  0
VERTEX
  5
4E
330
4C
100
AcDbEntity
  8
_U+30EC_U+30A4_U+30E4_U+30FC 1
 62
   179
420
  2234388
370
     9
100
AcDbVertex
100
AcDb2dVertex
 10
79.4473526953514
 20
-82.20325470167143
 30
0.0
  0
SEQEND
  5
4F
330
4C
100
AcDbEntity
  8
_U+30EC_U+30A4_U+30E4_U+30FC 1
 62
   179
420
  2234388
370
     9
  0
POLYLINE
  5
50
330
1F
100
AcDbEntity
  8
_U+30EC_U+30A4_U+30E4_U+30FC 1
 62
   179
420
  2234388
370
     9
100
AcDb2dPolyline
 66
     1
 10
0.0
 20
0.0
 30
0.0
  0
VERTEX
  5
51
330
50
100
AcDbEntity
  8
_U+30EC_U+30A4_U+30E4_U+30FC 1
 62
   179
420
  2234388
370
     9
100
AcDbVertex
100
AcDb2dVertex
 10
56.82255021700264
 20
-96.20017164261667
 30
0.0
  0
VERTEX
  5
52
330
50
100
AcDbEntity
  8
_U+30EC_U+30A4_U+30E4_U+30FC 1
 62
   179
420
  2234388
370
     9
100
AcDbVertex
100
AcDb2dVertex
 10
79.4473526953514
 20
-96.20017164261667
 30
0.0
  0
SEQEND
  5
53
330
50
100
AcDbEntity
  8
_U+30EC_U+30A4_U+30E4_U+30FC 1
 62
   179
420
  2234388
370
     9
  0
SPLINE
  5
54
330
1F
100
AcDbEntity
  8
_U+30EC_U+30A4_U+30E4_U+30FC 1
 62
   179
420
  2234388
370
     9
100
AcDbSpline
210
0.0
220
0.0
230
1.0
 70
    11
 71
     3
 72
    17
 73
    13
 74
     0
 42
0.0000000001
 43
0.0000000001
 12
1.0
 22
0.0
 32
0.0
 13
1.0
 23
0.0
 33
0.0
 40
0.0
 40
0.0
 40
0.0
 40
0.0
 40
1.0
 40
1.0
 40
1.0
 40
2.0
 40
2.0
 40
2.0
 40
3.0
 40
3.0
 40
3.0
 40
4.0
 40
4.0
 40
4.0
 40
4.0
 10
78.34767383451765
 20
-93.20018469892233
 30
0.0
 10
78.34767383451765
 20
-93.25528858779724
 30
0.0
 10
78.39244133337554
 20
-93.30009136556396
 30
0.0
 10
78.44758049863549
 20
-93.30009136556396
 30
0.0
 10
78.50268438611856
 20
-93.30009136556396
 30
0.0
 10
78.54748716275333
 20
-93.25528858779724
 30
0.0
 10
78.54748716275333
 20
-93.20018469892233
 30
0.0
 10
78.54748716275333
 20
-93.14504553226925
 30
0.0
 10
78.50268438611856
 20
-93.10027803228068
 30
0.0
 10
78.44758049863549
 20
-93.10027803228068
 30
0.0
 10
78.39244133337554
 20
-93.10027803228068
 30
0.0
 10
78.34767383451765
 20
-93.14504553226925
 30
0.0
 10
78.34767383451765
 20
-93.20018469892233
 30
0.0
  0
POLYLINE
  5
55
330
1F
100
AcDbEntity
  8
_U+30EC_U+30A4_U+30E4_U+30FC 1
 62
   179
420
  2234388
370
     9
100
AcDb2dPolyline
 66
     1
 10
0.0
 20
0.0
 30
0.0
  0
VERTEX
  5
56
330
55
100
AcDbEntity
  8
_U+30EC_U+30A4_U+30E4_U+30FC 1
 62
   179
420
  2234388
370
     9
100
AcDbVertex
100
AcDb2dVertex
 10
56.82255021700264
 20
-93.20018469892233
 30
0.0
  0
VERTEX
  5
57
330
55
100
AcDbEntity
  8
_U+30EC_U+30A4_U+30E4_U+30FC 1
 62
   179
420
  2234388
370
     9
100
AcDbVertex
100
AcDb2dVertex
 10
79.4473526953514
 20
-93.20018469892233
 30
0.0
  0
SEQEND
  5
58
330
55
100
AcDbEntity
  8
_U+30EC_U+30A4_U+30E4_U+30FC 1
 62
   179
420
  2234388
370
     9
  0
INSERT
  5
5A
330
1F
100
AcDbEntity
  8
_U+30EC_U+30A4_U+30E4_U+30FC 1
100
AcDbBlockReference
  2
block 2
 10
0.0
 20
0.0
 30
0.0
  0
INSERT
  5
63
330
1F
100
AcDbEntity
  8
_U+30EC_U+30A4_U+30E4_U+30FC 1
100
AcDbBlockReference
  2
block 3
 10
0.0
 20
0.0
 30
0.0
  0
INSERT
  5
69
330
1F
100
AcDbEntity
  8
_U+30EC_U+30A4_U+30E4_U+30FC 1
100
AcDbBlockReference
  2
block 4
 10
0.0
 20
0.0
 30
0.0
  0
POLYLINE
  5
6E
330
1F
100
AcDbEntity
  8
_U+30EC_U+30A4_U+30E4_U+30FC 1
 62
   179
420
  2234388
370
     9
100
AcDb2dPolyline
 66
     1
 10
0.0
 20
0.0
 30
0.0
  0
VERTEX
  5
6F
330
6E
100
AcDbEntity
  8
_U+30EC_U+30A4_U+30E4_U+30FC 1
 62
   179
420
  2234388
370
     9
100
AcDbVertex
100
AcDb2dVertex
 10
75.67358306940605
 20
-79.42304831347755
 30
0.0
  0
VERTEX
  5
70
330
6E
100
AcDbEntity
  8
_U+30EC_U+30A4_U+30E4_U+30FC 1
 62
   179
420
  2234388
370
     9
100
AcDbVertex
100
AcDb2dVertex
 10
45.65459383525427
 20
-79.42304831347755
 30
0.0
  0
SEQEND
  5
71
330
6E
100
AcDbEntity
  8
_U+30EC_U+30A4_U+30E4_U+30FC 1
 62
   179
420
  2234388
370
     9
  0
SPLINE
  5
72
330
1F
100
AcDbEntity
  8
_U+30EC_U+30A4_U+30E4_U+30FC 1
 62
   179
420
  2234388
370
     9
100
AcDbSpline
210
0.0
220
0.0
230
1.0
 70
    11
 71
     3
 72
    17
 73
    13
 74
     0
 42
0.0000000001
 43
0.0000000001
 12
1.0
 22
0.0
 32
0.0
 13
1.0
 23
0.0
 33
0.0
 40
0.0
 40
0.0
 40
0.0
 40
0.0
 40
1.0
 40
1.0
 40
1.0
 40
2.0
 40
2.0
 40
2.0
 40
3.0
 40
3.0
 40
3.0
 40
4.0
 40
4.0
 40
4.0
 40
4.0
 10
50.67338676276976
 20
-79.32314164683591
 30
0.0
 10
50.61828287528668
 20
-79.32314164683591
 30
0.0
 10
50.57348009865192
 20
-79.36794442460231
 30
0.0
 10
50.57348009865192
 20
-79.42304831347755
 30
0.0
 10
50.57348009865192
 20
-79.4781874801303
 30
0.0
 10
50.61828287528668
 20
-79.52295498011918
 30
0.0
 10
50.67338676276976
 20
-79.52295498011918
 30
0.0
 10
50.7285259280297
 20
-79.52295498011918
 30
0.0
 10
50.77329342688759
 20
-79.4781874801303
 30
0.0
 10
50.77329342688759
 20
-79.42304831347755
 30
0.0
 10
50.77329342688759
 20
-79.36794442460231
 30
0.0
 10
50.7285259280297
 20
-79.32314164683591
 30
0.0
 10
50.67338676276976
 20
-79.32314164683591
 30
0.0
  0
POLYLINE
  5
73
330
1F
100
AcDbEntity
  8
_U+30EC_U+30A4_U+30E4_U+30FC 1
 62
   179
420
  2234388
370
     9
100
AcDb2dPolyline
 66
     1
 10
0.0
 20
0.0
 30
0.0
  0
VERTEX
  5
74
330
73
100
AcDbEntity
  8
_U+30EC_U+30A4_U+30E4_U+30FC 1
 62
   179
420
  2234388
370
     9
100
AcDbVertex
100
AcDb2dVertex
 10
50.67338676276976
 20
-77.96286581384247
 30
0.0
  0
VERTEX
  5
75
330
73
100
AcDbEntity
  8
_U+30EC_U+30A4_U+30E4_U+30FC 1
 62
   179
420
  2234388
370
     9
100
AcDbVertex
100
AcDb2dVertex
 10
50.67338676276976
 20
-80.70324359093517
 30
0.0
  0
SEQEND
  5
76
330
73
100
AcDbEntity
  8
_U+30EC_U+30A4_U+30E4_U+30FC 1
 62
   179
420
  2234388
370
     9
  0
SPLINE
  5
77
330
1F
100
AcDbEntity
  8
_U+30EC_U+30A4_U+30E4_U+30FC 1
 62
   179
420
  2234388
370
     9
100
AcDbSpline
210
0.0
220
0.0
230
1.0
 70
    11
 71
     3
 72
    17
 73
    13
 74
     0
 42
0.0000000001
 43
0.0000000001
 12
1.0
 22
0.0
 32
0.0
 13
1.0
 23
0.0
 33
0.0
 40
0.0
 40
0.0
 40
0.0
 40
0.0
 40
1.0
 40
1.0
 40
1.0
 40
2.0
 40
2.0
 40
2.0
 40
3.0
 40
3.0
 40
3.0
 40
4.0
 40
4.0
 40
4.0
 40
4.0
 10
45.67353800143763
 20
-79.32314164683591
 30
0.0
 10
45.61839998859536
 20
-79.32314164683591
 30
0.0
 10
45.5736313373198
 20
-79.36794442460231
 30
0.0
 10
45.5736313373198
 20
-79.42304831347755
 30
0.0
 10
45.5736313373198
 20
-79.4781874801303
 30
0.0
 10
45.61839998859536
 20
-79.52295498011918
 30
0.0
 10
45.67353800143763
 20
-79.52295498011918
 30
0.0
 10
45.72864188892071
 20
-79.52295498011918
 30
0.0
 10
45.77344466555547
 20
-79.4781874801303
 30
0.0
 10
45.77344466555547
 20
-79.42304831347755
 30
0.0
 10
45.77344466555547
 20
-79.36794442460231
 30
0.0
 10
45.72864188892071
 20
-79.32314164683591
 30
0.0
 10
45.67353800143763
 20
-79.32314164683591
 30
0.0
  0
POLYLINE
  5
78
330
1F
100
AcDbEntity
  8
_U+30EC_U+30A4_U+30E4_U+30FC 1
 62
   179
420
  2234388
370
     9
100
AcDb2dPolyline
 66
     1
 10
0.0
 20
0.0
 30
0.0
  0
VERTEX
  5
79
330
78
100
AcDbEntity
  8
_U+30EC_U+30A4_U+30E4_U+30FC 1
 62
   179
420
  2234388
370
     9
100
AcDbVertex
100
AcDb2dVertex
 10
45.67353800143763
 20
-77.96286581384247
 30
0.0
  0
VERTEX
  5
7A
330
78
100
AcDbEntity
  8
_U+30EC_U+30A4_U+30E4_U+30FC 1
 62
   179
420
  2234388
370
     9
100
AcDbVertex
100
AcDb2dVertex
 10
45.67353800143763
 20
-80.70324359093517
 30
0.0
  0
SEQEND
  5
7B
330
78
100
AcDbEntity
  8
_U+30EC_U+30A4_U+30E4_U+30FC 1
 62
   179
420
  2234388
370
     9
  0
SPLINE
  5
7C
330
1F
100
AcDbEntity
  8
_U+30EC_U+30A4_U+30E4_U+30FC 1
 62
   179
420
  2234388
370
     9
100
AcDbSpline
210
0.0
220
0.0
230
1.0
 70
    11
 71
     3
 72
    17
 73
    13
 74
     0
 42
0.0000000001
 43
0.0000000001
 12
1.0
 22
0.0
 32
0.0
 13
1.0
 23
0.0
 33
0.0
 40
0.0
 40
0.0
 40
0.0
 40
0.0
 40
1.0
 40
1.0
 40
1.0
 40
2.0
 40
2.0
 40
2.0
 40
3.0
 40
3.0
 40
3.0
 40
4.0
 40
4.0
 40
4.0
 40
4.0
 10
75.67358306940605
 20
-79.32314164683591
 30
0.0
 10
75.61847918192298
 20
-79.32314164683591
 30
0.0
 10
75.57367640528823
 20
-79.36794442460231
 30
0.0
 10
75.57367640528823
 20
-79.42304831347755
 30
0.0
 10
75.57367640528823
 20
-79.4781874801303
 30
0.0
 10
75.61847918192298
 20
-79.52295498011918
 30
0.0
 10
75.67358306940605
 20
-79.52295498011918
 30
0.0
 10
75.72872223466601
 20
-79.52295498011918
 30
0.0
 10
75.77349164772303
 20
-79.4781874801303
 30
0.0
 10
75.77349164772303
 20
-79.42304831347755
 30
0.0
 10
75.77349164772303
 20
-79.36794442460231
 30
0.0
 10
75.72872223466601
 20
-79.32314164683591
 30
0.0
 10
75.67358306940605
 20
-79.32314164683591
 30
0.0
  0
POLYLINE
  5
7D
330
1F
100
AcDbEntity
  8
_U+30EC_U+30A4_U+30E4_U+30FC 1
 62
   179
420
  2234388
370
     9
100
AcDb2dPolyline
 66
     1
 10
0.0
 20
0.0
 30
0.0
  0
VERTEX
  5
7E
330
7D
100
AcDbEntity
  8
_U+30EC_U+30A4_U+30E4_U+30FC 1
 62
   179
420
  2234388
370
     9
100
AcDbVertex
100
AcDb2dVertex
 10
75.67358306940605
 20
-77.96286581384247
 30
0.0
  0
VERTEX
  5
7F
330
7D
100
AcDbEntity
  8
_U+30EC_U+30A4_U+30E4_U+30FC 1
 62
   179
420
  2234388
370
     9
100
AcDbVertex
100
AcDb2dVertex
 10
75.67358306940605
 20
-80.70324359093517
 30
0.0
  0
SEQEND
  5
80
330
7D
100
AcDbEntity
  8
_U+30EC_U+30A4_U+30E4_U+30FC 1
 62
   179
420
  2234388
370
     9
  0
INSERT
  5
82
330
1F
100
AcDbEntity
  8
_U+30EC_U+30A4_U+30E4_U+30FC 1
100
AcDbBlockReference
  2
block 5
 10
0.0
 20
0.0
 30
0.0
  0
INSERT
  5
8A
330
1F
100
AcDbEntity
  8
_U+30EC_U+30A4_U+30E4_U+30FC 1
100
AcDbBlockReference
  2
block 6
 10
0.0
 20
0.0
 30
0.0
  0
SPLINE
  5
8F
330
1F
100
AcDbEntity
  8
_U+30EC_U+30A4_U+30E4_U+30FC 1
 62
   179
420
  2234388
370
     9
100
AcDbSpline
210
0.0
220
0.0
230
1.0
 70
    11
 71
     3
 72
    17
 73
    13
 74
     0
 42
0.0000000001
 43
0.0000000001
 12
1.0
 22
0.0
 32
0.0
 13
1.0
 23
0.0
 33
0.0
 40
0.0
 40
0.0
 40
0.0
 40
0.0
 40
1.0
 40
1.0
 40
1.0
 40
2.0
 40
2.0
 40
2.0
 40
3.0
 40
3.0
 40
3.0
 40
4.0
 40
4.0
 40
4.0
 40
4.0
 10
45.75450049937211
 20
-100.2191924749452
 30
0.0
 10
45.75450049937211
 20
-100.1640885860703
 30
0.0
 10
45.70969772273735
 20
-100.1192858083036
 30
0.0
 10
45.65388827971672
 20
-100.1192858083036
 30
0.0
 10
45.59874911445677
 20
-100.1192858083036
 30
0.0
 10
45.55398161559889
 20
-100.1640885860703
 30
0.0
 10
45.55398161559889
 20
-100.2191924749452
 30
0.0
 10
45.55398161559889
 20
-100.2743316415983
 30
0.0
 10
45.59874911445677
 20
-100.3190991415869
 30
0.0
 10
45.65388827971672
 20
-100.3190991415869
 30
0.0
 10
45.70969772273735
 20
-100.3190991415869
 30
0.0
 10
45.75450049937211
 20
-100.2743316415983
 30
0.0
 10
45.75450049937211
 20
-100.2191924749452
 30
0.0
  0
POLYLINE
  5
90
330
1F
100
AcDbEntity
  8
_U+30EC_U+30A4_U+30E4_U+30FC 1
 62
   179
420
  2234388
370
     9
100
AcDb2dPolyline
 66
     1
 10
0.0
 20
0.0
 30
0.0
  0
VERTEX
  5
91
330
90
100
AcDbEntity
  8
_U+30EC_U+30A4_U+30E4_U+30FC 1
 62
   179
420
  2234388
370
     9
100
AcDbVertex
100
AcDb2dVertex
 10
45.65388827971672
 20
-100.2191924749452
 30
0.0
  0
VERTEX
  5
92
330
90
100
AcDbEntity
  8
_U+30EC_U+30A4_U+30E4_U+30FC 1
 62
   179
420
  2234388
370
     9
100
AcDbVertex
100
AcDb2dVertex
 10
55.65362108015784
 20
-100.2191924749452
 30
0.0
  0
SEQEND
  5
93
330
90
100
AcDbEntity
  8
_U+30EC_U+30A4_U+30E4_U+30FC 1
 62
   179
420
  2234388
370
     9
  0
POLYLINE
  5
94
330
1F
100
AcDbEntity
  8
_U+30EC_U+30A4_U+30E4_U+30FC 1
 62
   179
420
  2234388
370
     9
100
AcDb2dPolyline
 66
     1
 10
0.0
 20
0.0
 30
0.0
  0
VERTEX
  5
95
330
94
100
AcDbEntity
  8
_U+30EC_U+30A4_U+30E4_U+30FC 1
 62
   179
420
  2234388
370
     9
100
AcDbVertex
100
AcDb2dVertex
 10
45.65388827971672
 20
-97.7587085866716
 30
0.0
  0
VERTEX
  5
96
330
94
100
AcDbEntity
  8
_U+30EC_U+30A4_U+30E4_U+30FC 1
 62
   179
420
  2234388
370
     9
100
AcDbVertex
100
AcDb2dVertex
 10
45.65388827971672
 20
-101.2189646969178
 30
0.0
  0
SEQEND
  5
97
330
94
100
AcDbEntity
  8
_U+30EC_U+30A4_U+30E4_U+30FC 1
 62
   179
420
  2234388
370
     9
  0
SPLINE
  5
98
330
1F
100
AcDbEntity
  8
_U+30EC_U+30A4_U+30E4_U+30FC 1
 62
   179
420
  2234388
370
     9
100
AcDbSpline
210
0.0
220
0.0
230
1.0
 70
    11
 71
     3
 72
    17
 73
    13
 74
     0
 42
0.0000000001
 43
0.0000000001
 12
1.0
 22
0.0
 32
0.0
 13
1.0
 23
0.0
 33
0.0
 40
0.0
 40
0.0
 40
0.0
 40
0.0
 40
1.0
 40
1.0
 40
1.0
 40
2.0
 40
2.0
 40
2.0
 40
3.0
 40
3.0
 40
3.0
 40
4.0
 40
4.0
 40
4.0
 40
4.0
 10
55.75423329981323
 20
-100.2191924749452
 30
0.0
 10
55.75423329981323
 20
-100.1640885860703
 30
0.0
 10
55.70943052317846
 20
-100.1192858083036
 30
0.0
 10
55.65362108015784
 20
-100.1192858083036
 30
0.0
 10
55.59851719267477
 20
-100.1192858083036
 30
0.0
 10
55.55371441604
 20
-100.1640885860703
 30
0.0
 10
55.55371441604
 20
-100.2191924749452
 30
0.0
 10
55.55371441604
 20
-100.2743316415983
 30
0.0
 10
55.59851719267477
 20
-100.3190991415869
 30
0.0
 10
55.65362108015784
 20
-100.3190991415869
 30
0.0
 10
55.70943052317846
 20
-100.3190991415869
 30
0.0
 10
55.75423329981323
 20
-100.2743316415983
 30
0.0
 10
55.75423329981323
 20
-100.2191924749452
 30
0.0
  0
POLYLINE
  5
99
330
1F
100
AcDbEntity
  8
_U+30EC_U+30A4_U+30E4_U+30FC 1
 62
   179
420
  2234388
370
     9
100
AcDb2dPolyline
 66
     1
 10
0.0
 20
0.0
 30
0.0
  0
VERTEX
  5
9A
330
99
100
AcDbEntity
  8
_U+30EC_U+30A4_U+30E4_U+30FC 1
 62
   179
420
  2234388
370
     9
100
AcDbVertex
100
AcDb2dVertex
 10
55.65362108015784
 20
-97.7587085866716
 30
0.0
  0
VERTEX
  5
9B
330
99
100
AcDbEntity
  8
_U+30EC_U+30A4_U+30E4_U+30FC 1
 62
   179
420
  2234388
370
     9
100
AcDbVertex
100
AcDb2dVertex
 10
55.65362108015784
 20
-101.2189646969178
 30
0.0
  0
SEQEND
  5
9C
330
99
100
AcDbEntity
  8
_U+30EC_U+30A4_U+30E4_U+30FC 1
 62
   179
420
  2234388
370
     9
  0
INSERT
  5
9E
330
1F
100
AcDbEntity
  8
_U+30EC_U+30A4_U+30E4_U+30FC 1
100
AcDbBlockReference
  2
block 7
 10
0.0
 20
0.0
 30
0.0
  0
POLYLINE
  5
A6
330
1F
100
AcDbEntity
  8
_U+30EC_U+30A4_U+30E4_U+30FC 1
 62
   179
420
  2234388
370
    25
100
AcDb2dPolyline
 66
     1
 10
0.0
 20
0.0
 30
0.0
  0
VERTEX
  5
A7
330
A6
100
AcDbEntity
  8
_U+30EC_U+30A4_U+30E4_U+30FC 1
 62
   179
420
  2234388
370
    25
100
AcDbVertex
100
AcDb2dVertex
 10
54.67247554963339
 20
-95.20039942064413
 30
0.0
  0
VERTEX
  5
A8
330
A6
100
AcDbEntity
  8
_U+30EC_U+30A4_U+30E4_U+30FC 1
 62
   179
420
  2234388
370
    25
100
AcDbVertex
100
AcDb2dVertex
 10
51.67351173725444
 20
-95.20039942064413
 30
0.0
  0
VERTEX
  5
A9
330
A6
100
AcDbEntity
  8
_U+30EC_U+30A4_U+30E4_U+30FC 1
 62
   179
420
  2234388
370
    25
100
AcDbVertex
100
AcDb2dVertex
 10
51.67351173725444
 20
-83.20302692364365
 30
0.0
  0
VERTEX
  5
AA
330
A6
100
AcDbEntity
  8
_U+30EC_U+30A4_U+30E4_U+30FC 1
 62
   179
420
  2234388
370
    25
100
AcDbVertex
100
AcDb2dVertex
 10
75.67358306940605
 20
-83.20302692364365
 30
0.0
  0
VERTEX
  5
AB
330
A6
100
AcDbEntity
  8
_U+30EC_U+30A4_U+30E4_U+30FC 1
 62
   179
420
  2234388
370
    25
100
AcDbVertex
100
AcDb2dVertex
 10
75.67291279164537
 20
-82.20325470167143
 30
0.0
  0
VERTEX
  5
AC
330
A6
100
AcDbEntity
  8
_U+30EC_U+30A4_U+30E4_U+30FC 1
 62
   179
420
  2234388
370
    25
100
AcDbVertex
100
AcDb2dVertex
 10
50.67303398500098
 20
-82.20325470167143
 30
0.0
  0
VERTEX
  5
AD
330
A6
100
AcDbEntity
  8
_U+30EC_U+30A4_U+30E4_U+30FC 1
 62
   179
420
  2234388
370
    25
100
AcDbVertex
100
AcDb2dVertex
 10
50.67303398500098
 20
-95.20039942064413
 30
0.0
  0
VERTEX
  5
AE
330
A6
100
AcDbEntity
  8
_U+30EC_U+30A4_U+30E4_U+30FC 1
 62
   179
420
  2234388
370
    25
100
AcDbVertex
100
AcDb2dVertex
 10
46.67638054388635
 20
-95.20039942064413
 30
0.0
  0
VERTEX
  5
AF
330
A6
100
AcDbEntity
  8
_U+30EC_U+30A4_U+30E4_U+30FC 1
 62
   179
420
  2234388
370
    25
100
AcDbVertex
100
AcDb2dVertex
 10
45.6724796681313
 20
-96.20017164261667
 30
0.0
  0
VERTEX
  5
B0
330
A6
100
AcDbEntity
  8
_U+30EC_U+30A4_U+30E4_U+30FC 1
 62
   179
420
  2234388
370
    25
100
AcDbVertex
100
AcDb2dVertex
 10
55.67256665274849
 20
-96.20017164261667
 30
0.0
  0
VERTEX
  5
B1
330
A6
100
AcDbEntity
  8
_U+30EC_U+30A4_U+30E4_U+30FC 1
 62
   179
420
  2234388
370
    25
100
AcDbVertex
100
AcDb2dVertex
 10
55.67256665274849
 20
-93.20018469892233
 30
0.0
  0
VERTEX
  5
B2
330
A6
100
AcDbEntity
  8
_U+30EC_U+30A4_U+30E4_U+30FC 1
 62
   179
420
  2234388
370
    25
100
AcDbVertex
100
AcDb2dVertex
 10
54.67247554963339
 20
-93.20018469892233
 30
0.0
  0
VERTEX
  5
B3
330
A6
100
AcDbEntity
  8
_U+30EC_U+30A4_U+30E4_U+30FC 1
 62
   179
420
  2234388
370
    25
100
AcDbVertex
100
AcDb2dVertex
 10
54.67247554963339
 20
-95.20039942064413
 30
0.0
  0
SEQEND
  5
B4
330
A6
100
AcDbEntity
  8
_U+30EC_U+30A4_U+30E4_U+30FC 1
 62
   179
420
  2234388
370
    25
  0
ENDSEC
  0
SECTION
  2
OBJECTS
  0
DICTIONARY
  5
C
330
0
100
AcDbDictionary
281
     1
  3
ACAD_GROUP
350
D
  3
ACAD_LAYOUT
350
1A
  3
ACAD_MATERIAL
350
3B
  3
ACAD_MLEADERSTYLE
350
B6
  3
ACAD_MLINESTYLE
350
17
  3
ACAD_PLOTSETTINGS
350
19
  3
ACAD_PLOTSTYLENAME
350
E
  3
ACAD_TABLESTYLE
350
B5
  3
ACAD_VISUALSTYLE
350
2A
  0
SUN
  5
3F
330
29
100
AcDbSun
 90
        1
290
     0
 63
     7
421
 16777215
 40
1.0
291
     1
 91
  2455826
 92
 54000000
292
     0
 70
     2
 71
   256
280
     1
  0
DICTIONARY
  5
D
102
{ACAD_REACTORS
330
C
102
}
330
C
100
AcDbDictionary
281
     1
  0
DICTIONARY
  5
1A
102
{ACAD_REACTORS
330
C
102
}
330
C
100
AcDbDictionary
281
     1
  3
Layout1
350
1E
  3
Layout2
350
26
  3
Model
350
22
  0
DICTIONARY
  5
3B
102
{ACAD_REACTORS
330
C
102
}
330
C
100
AcDbDictionary
281
     1
  3
ByBlock
350
3D
  3
ByLayer
350
3C
  3
Global
350
3E
  0
DICTIONARY
  5
B6
102
{ACAD_REACTORS
330
C
102
}
330
C
100
AcDbDictionary
281
     1
  0
DICTIONARY
  5
17
102
{ACAD_REACTORS
330
C
102
}
330
C
100
AcDbDictionary
281
     1
  3
Standard
350
18
  0
DICTIONARY
  5
19
102
{ACAD_REACTORS
330
C
102
}
330
C
100
AcDbDictionary
281
     1
  0
ACDBDICTIONARYWDFLT
  5
E
102
{ACAD_REACTORS
330
C
102
}
330
C
100
AcDbDictionary
281
     1
  3
Normal
350
F
100
AcDbDictionaryWithDefault
340
F
  0
DICTIONARY
  5
B5
102
{ACAD_REACTORS
330
C
102
}
330
C
100
AcDbDictionary
281
     1
  0
DICTIONARY
  5
2A
102
{ACAD_REACTORS
330
C
102
}
330
C
100
AcDbDictionary
281
     1
  3
2dWireframe
350
2F
  3
3D Hidden
350
31
  3
3dWireframe
350
30
  3
Basic
350
32
  3
Brighten
350
36
  3
ColorChange
350
3A
  3
Conceptual
350
34
  3
Dim
350
35
  3
Facepattern
350
39
  3
Flat
350
2B
  3
FlatWithEdges
350
2C
  3
Gouraud
350
2D
  3
GouraudWithEdges
350
2E
  3
Linepattern
350
38
  3
Realistic
350
33
  3
Thicken
350
37
  0
LAYOUT
  5
1E
102
{ACAD_REACTORS
330
1A
102
}
330
1A
100
AcDbPlotSettings
  1

  2
none_device
  4

  6

 40
0.0
 41
0.0
 42
0.0
 43
0.0
 44
0.0
 45
0.0
 46
0.0
 47
0.0
 48
0.0
 49
0.0
140
0.0
141
0.0
142
1.0
143
1.0
 70
   688
 72
     0
 73
     0
 74
     5
  7

 75
    16
 76
     0
 77
     2
 78
   300
147
1.0
148
0.0
149
0.0
100
AcDbLayout
  1
Layout1
 70
     1
 71
     1
 10
0.0
 20
0.0
 11
12.0
 21
9.0
 12
0.0
 22
0.0
 32
0.0
 14
1.000000000000000E+20
 24
1.000000000000000E+20
 34
1.000000000000000E+20
 15
-1.000000000000000E+20
 25
-1.000000000000000E+20
 35
-1.000000000000000E+20
146
0.0
 13
0.0
 23
0.0
 33
0.0
 16
1.0
 26
0.0
 36
0.0
 17
0.0
 27
1.0
 37
0.0
 76
     0
330
1B
  0
LAYOUT
  5
26
102
{ACAD_REACTORS
330
1A
102
}
330
1A
100
AcDbPlotSettings
  1

  2
none_device
  4

  6

 40
0.0
 41
0.0
 42
0.0
 43
0.0
 44
0.0
 45
0.0
 46
0.0
 47
0.0
 48
0.0
 49
0.0
140
0.0
141
0.0
142
1.0
143
1.0
 70
   688
 72
     0
 73
     0
 74
     5
  7

 75
    16
 76
     0
 77
     2
 78
   300
147
1.0
148
0.0
149
0.0
100
AcDbLayout
  1
Layout2
 70
     1
 71
     2
 10
0.0
 20
0.0
 11
0.0
 21
0.0
 12
0.0
 22
0.0
 32
0.0
 14
0.0
 24
0.0
 34
0.0
 15
0.0
 25
0.0
 35
0.0
146
0.0
 13
0.0
 23
0.0
 33
0.0
 16
1.0
 26
0.0
 36
0.0
 17
0.0
 27
1.0
 37
0.0
 76
     0
330
23
  0
LAYOUT
  5
22
102
{ACAD_REACTORS
330
1A
102
}
330
1A
100
AcDbPlotSettings
  1

  2
none_device
  4

  6

 40
0.0
 41
0.0
 42
0.0
 43
0.0
 44
0.0
 45
0.0
 46
0.0
 47
0.0
 48
0.0
 49
0.0
140
0.0
141
0.0
142
1.0
143
1.0
 70
  1712
 72
     0
 73
     0
 74
     0
  7

 75
     0
 76
     0
 77
     2
 78
   300
147
1.0
148
0.0
149
0.0
100
AcDbLayout
  1
Model
 70
     1
 71
     0
 10
0.0
 20
0.0
 11
12.0
 21
9.0
 12
0.0
 22
0.0
 32
0.0
 14
1.000000000000000E+20
 24
1.000000000000000E+20
 34
1.000000000000000E+20
 15
-1.000000000000000E+20
 25
-1.000000000000000E+20
 35
-1.000000000000000E+20
146
0.0
 13
0.0
 23
0.0
 33
0.0
 16
1.0
 26
0.0
 36
0.0
 17
0.0
 27
1.0
 37
0.0
 76
     0
330
1F
331
29
  0
MATERIAL
  5
3D
102
{ACAD_REACTORS
330
3B
102
}
330
3B
100
AcDbMaterial
  1
ByBlock
 72
     1
 94
      127
  0
MATERIAL
  5
3C
102
{ACAD_REACTORS
330
3B
102
}
330
3B
100
AcDbMaterial
  1
ByLayer
 72
     1
 94
      127
  0
MATERIAL
  5
3E
102
{ACAD_REACTORS
330
3B
102
}
330
3B
100
AcDbMaterial
  1
Global
 72
     1
 94
      127
  0
MLINESTYLE
  5
18
102
{ACAD_REACTORS
330
17
102
}
330
17
100
AcDbMlineStyle
  2
Standard
 70
     0
  3

 62
   256
 51
90.0
 52
90.0
 71
     2
 49
0.5
 62
   256
  6
BYLAYER
 49
-0.5
 62
   256
  6
BYLAYER
  0
ACDBPLACEHOLDER
  5
F
102
{ACAD_REACTORS
330
E
102
}
330
E
  0
VISUALSTYLE
  5
2F
102
{ACAD_REACTORS
330
2A
102
}
330
2A
100
AcDbVisualStyle
  2
2dWireframe
 70
     4
177
     2
291
     0
 71
     0
176
     1
 72
     2
176
     1
 73
     0
176
     1
 90
        0
176
     1
 40
-0.6
176
     1
 41
-30.0
176
     1
 62
     5
 63
     7
421
 16777215
176
     1
 74
     1
176
     1
 91
        4
176
     1
 64
     7
176
     1
 65
   257
176
     1
 75
     1
176
     1
175
     1
176
     1
 42
1.0
176
     1
 92
        0
176
     1
 66
   257
176
     1
 43
1.0
176
     1
 76
     1
176
     1
 77
     6
176
     1
 78
     2
176
     1
 67
     7
176
     1
 79
     5
176
     1
170
     0
176
     1
171
     0
176
     1
290
     0
176
     1
 93
        1
176
     1
 44
0.0
176
     1
173
     0
176
     1
  0
VISUALSTYLE
  5
31
102
{ACAD_REACTORS
330
2A
102
}
330
2A
100
AcDbVisualStyle
  2
3D Hidden
 70
     6
177
     2
291
     0
 71
     1
176
     1
 72
     2
176
     1
 73
     2
176
     1
 90
        0
176
     1
 40
-0.6
176
     1
 41
-30.0
176
     1
 62
     5
 63
     7
421
 16777215
176
     1
 74
     2
176
     1
 91
        2
176
     1
 64
     7
176
     1
 65
   257
176
     1
 75
     2
176
     1
175
     1
176
     1
 42
40.0
176
     1
 92
        0
176
     1
 66
   257
176
     1
 43
1.0
176
     1
 76
     1
176
     1
 77
     6
176
     1
 78
     2
176
     1
 67
     7
176
     1
 79
     3
176
     1
170
     0
176
     1
171
     0
176
     1
290
     0
176
     1
 93
        1
176
     1
 44
0.0
176
     1
173
     0
176
     1
  0
VISUALSTYLE
  5
30
102
{ACAD_REACTORS
330
2A
102
}
330
2A
100
AcDbVisualStyle
  2
3dWireframe
 70
     5
177
     2
291
     0
 71
     0
176
     1
 72
     2
176
     1
 73
     0
176
     1
 90
        0
176
     1
 40
-0.6
176
     1
 41
-30.0
176
     1
 62
     5
 63
     7
421
 16777215
176
     1
 74
     1
176
     1
 91
        4
176
     1
 64
     7
176
     1
 65
   257
176
     1
 75
     1
176
     1
175
     1
176
     1
 42
1.0
176
     1
 92
        0
176
     1
 66
   257
176
     1
 43
1.0
176
     1
 76
     1
176
     1
 77
     6
176
     1
 78
     2
176
     1
 67
     7
176
     1
 79
     5
176
     1
170
     0
176
     1
171
     0
176
     1
290
     0
176
     1
 93
        1
176
     1
 44
0.0
176
     1
173
     0
176
     1
  0
VISUALSTYLE
  5
32
102
{ACAD_REACTORS
330
2A
102
}
330
2A
100
AcDbVisualStyle
  2
Basic
 70
     7
177
     2
291
     1
 71
     1
176
     1
 72
     0
176
     1
 73
     1
176
     1
 90
        0
176
     1
 40
-0.6
176
     1
 41
-30.0
176
     1
 62
     5
 63
     7
421
 16777215
176
     1
 74
     0
176
     1
 91
        4
176
     1
 64
     7
176
     1
 65
   257
176
     1
 75
     1
176
     1
175
     1
176
     1
 42
1.0
176
     1
 92
        8
176
     1
 66
     7
176
     1
 43
1.0
176
     1
 76
     1
176
     1
 77
     6
176
     1
 78
     2
176
     1
 67
     7
176
     1
 79
     5
176
     1
170
     0
176
     1
171
     0
176
     1
290
     0
176
     1
 93
        1
176
     1
 44
0.0
176
     1
173
     0
176
     1
  0
VISUALSTYLE
  5
36
102
{ACAD_REACTORS
330
2A
102
}
330
2A
100
AcDbVisualStyle
  2
Brighten
 70
    12
177
     2
291
     1
 71
     2
176
     1
 72
     2
176
     1
 73
     0
176
     1
 90
        0
176
     1
 40
-0.6
176
     1
 41
-30.0
176
     1
 62
     5
 63
     7
421
 16777215
176
     1
 74
     1
176
     1
 91
        4
176
     1
 64
     7
176
     1
 65
   257
176
     1
 75
     1
176
     1
175
     1
176
     1
 42
1.0
176
     1
 92
        8
176
     1
 66
     7
176
     1
 43
1.0
176
     1
 76
     1
176
     1
 77
     6
176
     1
 78
     2
176
     1
 67
     7
176
     1
 79
     5
176
     1
170
     0
176
     1
171
     0
176
     1
290
     0
176
     1
 93
        1
176
     1
 44
50.0
176
     1
173
     0
176
     1
  0
VISUALSTYLE
  5
3A
102
{ACAD_REACTORS
330
2A
102
}
330
2A
100
AcDbVisualStyle
  2
ColorChange
 70
    16
177
     2
291
     1
 71
     2
176
     1
 72
     2
176
     1
 73
     3
176
     1
 90
        0
176
     1
 40
-0.6
176
     1
 41
-30.0
176
     1
 62
     5
 63
     8
421
  8421504
176
     1
 74
     1
176
     1
 91
        4
176
     1
 64
     7
176
     1
 65
   257
176
     1
 75
     1
176
     1
175
     1
176
     1
 42
1.0
176
     1
 92
        8
176
     1
 66
     8
424
  8421504
176
     1
 43
1.0
176
     1
 76
     1
176
     1
 77
     6
176
     1
 78
     2
176
     1
 67
     7
176
     1
 79
     5
176
     1
170
     0
176
     1
171
     0
176
     1
290
     0
176
     1
 93
        1
176
     1
 44
0.0
176
     1
173
     0
176
     1
  0
VISUALSTYLE
  5
34
102
{ACAD_REACTORS
330
2A
102
}
330
2A
100
AcDbVisualStyle
  2
Conceptual
 70
     9
177
     2
291
     0
 71
     3
176
     1
 72
     2
176
     1
 73
     0
176
     1
 90
        0
176
     1
 40
-0.6
176
     1
 41
-30.0
176
     1
 62
     5
 63
     7
421
 16777215
176
     1
 74
     2
176
     1
 91
        2
176
     1
 64
     7
176
     1
 65
   257
176
     1
 75
     1
176
     1
175
     1
176
     1
 42
40.0
176
     1
 92
        8
176
     1
 66
     7
176
     1
 43
1.0
176
     1
 76
     1
176
     1
 77
     6
176
     1
 78
     2
176
     1
 67
     7
176
     1
 79
     3
176
     1
170
     0
176
     1
171
     0
176
     1
290
     0
176
     1
 93
        1
176
     1
 44
0.0
176
     1
173
     0
176
     1
  0
VISUALSTYLE
  5
35
102
{ACAD_REACTORS
330
2A
102
}
330
2A
100
AcDbVisualStyle
  2
Dim
 70
    11
177
     2
291
     1
 71
     2
176
     1
 72
     2
176
     1
 73
     0
176
     1
 90
        0
176
     1
 40
-0.6
176
     1
 41
-30.0
176
     1
 62
     5
 63
     7
421
 16777215
176
     1
 74
     1
176
     1
 91
        4
176
     1
 64
     7
176
     1
 65
   257
176
     1
 75
     1
176
     1
175
     1
176
     1
 42
1.0
176
     1
 92
        8
176
     1
 66
     7
176
     1
 43
1.0
176
     1
 76
     1
176
     1
 77
     6
176
     1
 78
     2
176
     1
 67
     7
176
     1
 79
     5
176
     1
170
     0
176
     1
171
     0
176
     1
290
     0
176
     1
 93
        1
176
     1
 44
-50.0
176
     1
173
     0
176
     1
  0
VISUALSTYLE
  5
39
102
{ACAD_REACTORS
330
2A
102
}
330
2A
100
AcDbVisualStyle
  2
Facepattern
 70
    15
177
     2
291
     1
 71
     2
176
     1
 72
     2
176
     1
 73
     0
176
     1
 90
        0
176
     1
 40
-0.6
176
     1
 41
-30.0
176
     1
 62
     5
 63
     7
421
 16777215
176
     1
 74
     1
176
     1
 91
        4
176
     1
 64
     7
176
     1
 65
   257
176
     1
 75
     1
176
     1
175
     1
176
     1
 42
1.0
176
     1
 92
        8
176
     1
 66
     7
176
     1
 43
1.0
176
     1
 76
     1
176
     1
 77
     6
176
     1
 78
     2
176
     1
 67
     7
176
     1
 79
     5
176
     1
170
     0
176
     1
171
     0
176
     1
290
     0
176
     1
 93
        1
176
     1
 44
0.0
176
     1
173
     0
176
     1
  0
VISUALSTYLE
  5
2B
102
{ACAD_REACTORS
330
2A
102
}
330
2A
100
AcDbVisualStyle
  2
Flat
 70
     0
177
     2
291
     1
 71
     2
176
     1
 72
     1
176
     1
 73
     1
176
     1
 90
        2
176
     1
 40
-0.6
176
     1
 41
30.0
176
     1
 62
     5
 63
     7
421
 16777215
176
     1
 74
     0
176
     1
 91
        4
176
     1
 64
     7
176
     1
 65
   257
176
     1
 75
     1
176
     1
175
     1
176
     1
 42
1.0
176
     1
 92
        8
176
     1
 66
     7
176
     1
 43
1.0
176
     1
 76
     1
176
     1
 77
     6
176
     1
 78
     2
176
     1
 67
     7
176
     1
 79
     5
176
     1
170
     0
176
     1
171
     0
176
     1
290
     0
176
     1
 93
       13
176
     1
 44
0.0
176
     1
173
     0
176
     1
  0
VISUALSTYLE
  5
2C
102
{ACAD_REACTORS
330
2A
102
}
330
2A
100
AcDbVisualStyle
  2
FlatWithEdges
 70
     1
177
     2
291
     1
 71
     2
176
     1
 72
     1
176
     1
 73
     1
176
     1
 90
        2
176
     1
 40
-0.6
176
     1
 41
30.0
176
     1
 62
     5
 63
     7
421
 16777215
176
     1
 74
     1
176
     1
 91
        4
176
     1
 64
     7
176
     1
 65
   257
176
     1
 75
     1
176
     1
175
     1
176
     1
 42
1.0
176
     1
 92
        0
176
     1
 66
   257
176
     1
 43
1.0
176
     1
 76
     1
176
     1
 77
     6
176
     1
 78
     2
176
     1
 67
     7
176
     1
 79
     5
176
     1
170
     0
176
     1
171
     0
176
     1
290
     0
176
     1
 93
       13
176
     1
 44
0.0
176
     1
173
     0
176
     1
  0
VISUALSTYLE
  5
2D
102
{ACAD_REACTORS
330
2A
102
}
330
2A
100
AcDbVisualStyle
  2
Gouraud
 70
     2
177
     2
291
     1
 71
     2
176
     1
 72
     2
176
     1
 73
     1
176
     1
 90
        2
176
     1
 40
-0.6
176
     1
 41
30.0
176
     1
 62
     5
 63
     7
421
 16777215
176
     1
 74
     0
176
     1
 91
        4
176
     1
 64
     7
176
     1
 65
   257
176
     1
 75
     1
176
     1
175
     1
176
     1
 42
1.0
176
     1
 92
        0
176
     1
 66
     7
176
     1
 43
1.0
176
     1
 76
     1
176
     1
 77
     6
176
     1
 78
     2
176
     1
 67
     7
176
     1
 79
     5
176
     1
170
     0
176
     1
171
     0
176
     1
290
     0
176
     1
 93
       13
176
     1
 44
0.0
176
     1
173
     0
176
     1
  0
VISUALSTYLE
  5
2E
102
{ACAD_REACTORS
330
2A
102
}
330
2A
100
AcDbVisualStyle
  2
GouraudWithEdges
 70
     3
177
     2
291
     1
 71
     2
176
     1
 72
     2
176
     1
 73
     1
176
     1
 90
        2
176
     1
 40
-0.6
176
     1
 41
30.0
176
     1
 62
     5
 63
     7
421
 16777215
176
     1
 74
     1
176
     1
 91
        4
176
     1
 64
     7
176
     1
 65
   257
176
     1
 75
     1
176
     1
175
     1
176
     1
 42
1.0
176
     1
 92
        0
176
     1
 66
   257
176
     1
 43
1.0
176
     1
 76
     1
176
     1
 77
     6
176
     1
 78
     2
176
     1
 67
     7
176
     1
 79
     5
176
     1
170
     0
176
     1
171
     0
176
     1
290
     0
176
     1
 93
       13
176
     1
 44
0.0
176
     1
173
     0
176
     1
  0
VISUALSTYLE
  5
38
102
{ACAD_REACTORS
330
2A
102
}
330
2A
100
AcDbVisualStyle
  2
Linepattern
 70
    14
177
     2
291
     1
 71
     2
176
     1
 72
     2
176
     1
 73
     0
176
     1
 90
        0
176
     1
 40
-0.6
176
     1
 41
-30.0
176
     1
 62
     5
 63
     7
421
 16777215
176
     1
 74
     1
176
     1
 91
        4
176
     1
 64
     7
176
     1
 65
   257
176
     1
 75
     7
176
     1
175
     7
176
     1
 42
1.0
176
     1
 92
        8
176
     1
 66
     7
176
     1
 43
1.0
176
     1
 76
     1
176
     1
 77
     6
176
     1
 78
     2
176
     1
 67
     7
176
     1
 79
     5
176
     1
170
     0
176
     1
171
     0
176
     1
290
     0
176
     1
 93
        1
176
     1
 44
0.0
176
     1
173
     0
176
     1
  0
VISUALSTYLE
  5
33
102
{ACAD_REACTORS
330
2A
102
}
330
2A
100
AcDbVisualStyle
  2
Realistic
 70
     8
177
     2
291
     0
 71
     2
176
     1
 72
     2
176
     1
 73
     0
176
     1
 90
        0
176
     1
 40
-0.6
176
     1
 41
-30.0
176
     1
 62
     5
 63
     7
421
 16777215
176
     1
 74
     1
176
     1
 91
        0
176
     1
 64
     7
176
     1
 65
   257
176
     1
 75
     1
176
     1
175
     1
176
     1
 42
1.0
176
     1
 92
        8
176
     1
 66
     8
424
  7895160
176
     1
 43
1.0
176
     1
 76
     1
176
     1
 77
     6
176
     1
 78
     2
176
     1
 67
     7
176
     1
 79
     5
176
     1
170
     0
176
     1
171
     0
176
     1
290
     0
176
     1
 93
       13
176
     1
 44
0.0
176
     1
173
     0
176
     1
  0
VISUALSTYLE
  5
37
102
{ACAD_REACTORS
330
2A
102
}
330
2A
100
AcDbVisualStyle
  2
Thicken
 70
    13
177
     2
291
     1
 71
     2
176
     1
 72
     2
176
     1
 73
     0
176
     1
 90
        0
176
     1
 40
-0.6
176
     1
 41
-30.0
176
     1
 62
     5
 63
     7
421
 16777215
176
     1
 74
     1
176
     1
 91
        4
176
     1
 64
     7
176
     1
 65
   257
176
     1
 75
     1
176
     1
175
     1
176
     1
 42
1.0
176
     1
 92
       12
176
     1
 66
     7
176
     1
 43
1.0
176
     1
 76
     1
176
     1
 77
     6
176
     1
 78
     2
176
     1
 67
     7
176
     1
 79
     5
176
     1
170
     0
176
     1
171
     0
176
     1
290
     0
176
     1
 93
        1
176
     1
 44
0.0
176
     1
173
     0
176
     1
  0
ENDSEC
  0
EOF
