  0
SECTION
  2
HEADER
  9
$ACADVER
  1
AC1024
  9
$ACADMAINTVER
 70
     6
  9
$DWGCODEPAGE
  3
UNDEFINED
  9
$INSBASE
 10
0.0
 20
0.0
 30
0.0
  9
$EXTMIN
 10
1.000000000000000E+20
 20
1.000000000000000E+20
 30
1.000000000000000E+20
  9
$EXTMAX
 10
-1.000000000000000E+20
 20
-1.000000000000000E+20
 30
-1.000000000000000E+20
  9
$LIMMIN
 10
0.0
 20
0.0
  9
$LIMMAX
 10
12.0
 20
9.0
  9
$ORTHOMODE
 70
     0
  9
$REGENMODE
 70
     1
  9
$FILLMODE
 70
     1
  9
$QTEXTMODE
 70
     0
  9
$MIRRTEXT
 70
     1
  9
$LTSCALE
 40
1.0
  9
$ATTMODE
 70
     1
  9
$TEXTSIZE
 40
0.2
  9
$TRACEWID
 40
0.05
  9
$TEXTSTYLE
  7
Standard
  9
$CLAYER
  8
0
  9
$CELTYPE
  6
ByLayer
  9
$CECOLOR
 62
   256
  9
$CELTSCALE
 40
1.0
  9
$DISPSILH
 70
     0
  9
$DIMSCALE
 40
1.0
  9
$DIMASZ
 40
0.18
  9
$DIMEXO
 40
0.0625
  9
$DIMDLI
 40
0.38
  9
$DIMRND
 40
0.0
  9
$DIMDLE
 40
0.0
  9
$DIMEXE
 40
0.18
  9
$DIMTP
 40
0.0
  9
$DIMTM
 40
0.0
  9
$DIMTXT
 40
0.18
  9
$DIMCEN
 40
0.09
  9
$DIMTSZ
 40
0.0
  9
$DIMTOL
 70
     0
  9
$DIMLIM
 70
     0
  9
$DIMTIH
 70
     1
  9
$DIMTOH
 70
     1
  9
$DIMSE1
 70
     0
  9
$DIMSE2
 70
     0
  9
$DIMTAD
 70
     0
  9
$DIMZIN
 70
     0
  9
$DIMBLK
  1

  9
$DIMASO
 70
     1
  9
$DIMSHO
 70
     1
  9
$DIMPOST
  1

  9
$DIMAPOST
  1

  9
$DIMALT
 70
     0
  9
$DIMALTD
 70
     2
  9
$DIMALTF
 40
25.4
  9
$DIMLFAC
 40
1.0
  9
$DIMTOFL
 70
     0
  9
$DIMTVP
 40
0.0
  9
$DIMTIX
 70
     0
  9
$DIMSOXD
 70
     0
  9
$DIMSAH
 70
     0
  9
$DIMBLK1
  1

  9
$DIMBLK2
  1

  9
$DIMSTYLE
  2
Standard
  9
$DIMCLRD
 70
     0
  9
$DIMCLRE
 70
     0
  9
$DIMCLRT
 70
     0
  9
$DIMTFAC
 40
1.0
  9
$DIMGAP
 40
0.09
  9
$DIMJUST
 70
     0
  9
$DIMSD1
 70
     0
  9
$DIMSD2
 70
     0
  9
$DIMTOLJ
 70
     1
  9
$DIMTZIN
 70
     0
  9
$DIMALTZ
 70
     0
  9
$DIMALTTZ
 70
     0
  9
$DIMUPT
 70
     0
  9
$DIMDEC
 70
     4
  9
$DIMTDEC
 70
     4
  9
$DIMALTU
 70
     2
  9
$DIMALTTD
 70
     2
  9
$DIMTXSTY
  7
Standard
  9
$DIMAUNIT
 70
     0
  9
$DIMADEC
 70
     0
  9
$DIMALTRND
 40
0.0
  9
$DIMAZIN
 70
     0
  9
$DIMDSEP
 70
    46
  9
$DIMATFIT
 70
     3
  9
$DIMFRAC
 70
     0
  9
$DIMLDRBLK
  1

  9
$DIMLUNIT
 70
     2
  9
$DIMLWD
 70
    -2
  9
$DIMLWE
 70
    -2
  9
$DIMTMOVE
 70
     0
  9
$DIMFXL
 40
1.0
  9
$DIMFXLON
 70
     0
  9
$DIMJOGANG
 40
0.7853981633974483
  9
$DIMTFILL
 70
     0
  9
$DIMTFILLCLR
 70
     0
  9
$DIMARCSYM
 70
     0
  9
$DIMLTYPE
  6

  9
$DIMLTEX1
  6

  9
$DIMLTEX2
  6

  9
$DIMTXTDIRECTION
 70
     0
  9
$LUNITS
 70
     2
  9
$LUPREC
 70
     4
  9
$SKETCHINC
 40
0.1
  9
$FILLETRAD
 40
0.5
  9
$AUNITS
 70
     0
  9
$AUPREC
 70
     0
  9
$MENU
  1
.
  9
$ELEVATION
 40
0.0
  9
$PELEVATION
 40
0.0
  9
$THICKNESS
 40
0.0
  9
$LIMCHECK
 70
     0
  9
$CHAMFERA
 40
0.5
  9
$CHAMFERB
 40
0.5
  9
$CHAMFERC
 40
1.0
  9
$CHAMFERD
 40
0.0
  9
$SKPOLY
 70
     0
  9
$TDCREATE
 40
2457917.587592581
  9
$TDUCREATE
 40
2457917.212592592
  9
$TDUPDATE
 40
2457917.587592581
  9
$TDUUPDATE
 40
2457917.212592592
  9
$TDINDWG
 40
0.0000000116
  9
$TDUSRTIMER
 40
0.0000000116
  9
$USRTIMER
 70
     1
  9
$ANGBASE
 50
0.0
  9
$ANGDIR
 70
     0
  9
$PDMODE
 70
     0
  9
$PDSIZE
 40
0.0
  9
$PLINEWID
 40
0.0
  9
$SPLFRAME
 70
     0
  9
$SPLINETYPE
 70
     6
  9
$SPLINESEGS
 70
     8
  9
$HANDSEED
  5
EC
  9
$SURFTAB1
 70
     6
  9
$SURFTAB2
 70
     6
  9
$SURFTYPE
 70
     6
  9
$SURFU
 70
     6
  9
$SURFV
 70
     6
  9
$UCSBASE
  2

  9
$UCSNAME
  2

  9
$UCSORG
 10
0.0
 20
0.0
 30
0.0
  9
$UCSXDIR
 10
1.0
 20
0.0
 30
0.0
  9
$UCSYDIR
 10
0.0
 20
1.0
 30
0.0
  9
$UCSORTHOREF
  2

  9
$UCSORTHOVIEW
 70
     0
  9
$UCSORGTOP
 10
0.0
 20
0.0
 30
0.0
  9
$UCSORGBOTTOM
 10
0.0
 20
0.0
 30
0.0
  9
$UCSORGLEFT
 10
0.0
 20
0.0
 30
0.0
  9
$UCSORGRIGHT
 10
0.0
 20
0.0
 30
0.0
  9
$UCSORGFRONT
 10
0.0
 20
0.0
 30
0.0
  9
$UCSORGBACK
 10
0.0
 20
0.0
 30
0.0
  9
$PUCSBASE
  2

  9
$PUCSNAME
  2

  9
$PUCSORG
 10
0.0
 20
0.0
 30
0.0
  9
$PUCSXDIR
 10
1.0
 20
0.0
 30
0.0
  9
$PUCSYDIR
 10
0.0
 20
1.0
 30
0.0
  9
$PUCSORTHOREF
  2

  9
$PUCSORTHOVIEW
 70
     0
  9
$PUCSORGTOP
 10
0.0
 20
0.0
 30
0.0
  9
$PUCSORGBOTTOM
 10
0.0
 20
0.0
 30
0.0
  9
$PUCSORGLEFT
 10
0.0
 20
0.0
 30
0.0
  9
$PUCSORGRIGHT
 10
0.0
 20
0.0
 30
0.0
  9
$PUCSORGFRONT
 10
0.0
 20
0.0
 30
0.0
  9
$PUCSORGBACK
 10
0.0
 20
0.0
 30
0.0
  9
$USERI1
 70
     0
  9
$USERI2
 70
     0
  9
$USERI3
 70
     0
  9
$USERI4
 70
     0
  9
$USERI5
 70
     0
  9
$USERR1
 40
0.0
  9
$USERR2
 40
0.0
  9
$USERR3
 40
0.0
  9
$USERR4
 40
0.0
  9
$USERR5
 40
0.0
  9
$WORLDVIEW
 70
     1
  9
$SHADEDGE
 70
     3
  9
$SHADEDIF
 70
    70
  9
$TILEMODE
 70
     1
  9
$MAXACTVP
 70
    64
  9
$PINSBASE
 10
0.0
 20
0.0
 30
0.0
  9
$PLIMCHECK
 70
     0
  9
$PEXTMIN
 10
1.000000000000000E+20
 20
1.000000000000000E+20
 30
1.000000000000000E+20
  9
$PEXTMAX
 10
-1.000000000000000E+20
 20
-1.000000000000000E+20
 30
-1.000000000000000E+20
  9
$PLIMMIN
 10
0.0
 20
0.0
  9
$PLIMMAX
 10
12.0
 20
9.0
  9
$UNITMODE
 70
     0
  9
$VISRETAIN
 70
     1
  9
$PLINEGEN
 70
     0
  9
$PSLTSCALE
 70
     1
  9
$TREEDEPTH
 70
  3020
  9
$CMLSTYLE
  2
Standard
  9
$CMLJUST
 70
     0
  9
$CMLSCALE
 40
1.0
  9
$PROXYGRAPHICS
 70
     1
  9
$MEASUREMENT
 70
     0
  9
$CELWEIGHT
370
    -1
  9
$ENDCAPS
280
     0
  9
$JOINSTYLE
280
     0
  9
$LWDISPLAY
290
     1
  9
$INSUNITS
 70
     1
  9
$HYPERLINKBASE
  1

  9
$STYLESHEET
  1

  9
$XEDIT
290
     1
  9
$CEPSNTYPE
380
     0
  9
$PSTYLEMODE
290
     1
  9
$FINGERPRINTGUID
  2
{1FD7D767-E7ED-B01A-EDC6-F12C97CB9B5E}
  9
$VERSIONGUID
  2
{FAEB1C32-E019-11D5-929B-00C0DF256EC4}
  9
$EXTNAMES
290
     1
  9
$PSVPSCALE
 40
0.0
  9
$OLESTARTUP
290
     0
  9
$SORTENTS
280
   127
  9
$INDEXCTL
280
     0
  9
$HIDETEXT
280
     1
  9
$XCLIPFRAME
280
     2
  9
$HALOGAP
280
     0
  9
$OBSCOLOR
 70
   257
  9
$OBSLTYPE
280
     0
  9
$INTERSECTIONDISPLAY
280
     0
  9
$INTERSECTIONCOLOR
 70
   257
  9
$DIMASSOC
280
     2
  9
$PROJECTNAME
  1

  9
$CAMERADISPLAY
290
     0
  9
$LENSLENGTH
 40
50.0
  9
$CAMERAHEIGHT
 40
0.0
  9
$STEPSPERSEC
 40
2.0
  9
$STEPSIZE
 40
6.0
  9
$3DDWFPREC
 40
2.0
  9
$PSOLWIDTH
 40
0.25
  9
$PSOLHEIGHT
 40
4.0
  9
$LOFTANG1
 40
1.570796326794897
  9
$LOFTANG2
 40
1.570796326794897
  9
$LOFTMAG1
 40
0.0
  9
$LOFTMAG2
 40
0.0
  9
$LOFTPARAM
 70
     7
  9
$LOFTNORMALS
280
     1
  9
$LATITUDE
 40
37.795
  9
$LONGITUDE
 40
-122.394
  9
$NORTHDIRECTION
 40
0.0
  9
$TIMEZONE
 70
 -8000
  9
$LIGHTGLYPHDISPLAY
280
     1
  9
$TILEMODELIGHTSYNCH
280
     1
  9
$CMATERIAL
347
3C
  9
$SOLIDHIST
280
     1
  9
$SHOWHIST
280
     1
  9
$DWFFRAME
280
     2
  9
$DGNFRAME
280
     2
  9
$REALWORLDSCALE
290
     1
  9
$INTERFERECOLOR
 62
   256
  9
$CSHADOW
280
     0
  9
$SHADOWPLANELOCATION
 40
0.0
  0
ENDSEC
  0
SECTION
  2
CLASSES
  0
CLASS
  1
ACDBDICTIONARYWDFLT
  2
AcDbDictionaryWithDefault
  3
ObjectDBX Classes
 90
        0
 91
        4
280
     0
281
     0
  0
CLASS
  1
VISUALSTYLE
  2
AcDbVisualStyle
  3
ObjectDBX Classes
 90
     4095
 91
        4
280
     0
281
     0
  0
CLASS
  1
MATERIAL
  2
AcDbMaterial
  3
ObjectDBX Classes
 90
     1153
 91
        4
280
     0
281
     0
  0
CLASS
  1
SUN
  2
AcDbSun
  3
SCENEOE
 90
     1024
 91
        4
280
     0
281
     0
  0
ENDSEC
  0
SECTION
  2
TABLES
  0
TABLE
  2
VPORT
  5
8
330
0
100
AcDbSymbolTable
 70
     1
  0
VPORT
  5
29
330
8
100
AcDbSymbolTableRecord
100
AcDbViewportTableRecord
  2
*Active
 70
     0
 10
0.0
 20
0.0
 11
1.0
 21
1.0
 12
0.0
 22
0.0
 13
0.0
 23
0.0
 14
0.5
 24
0.5
 15
0.5
 25
0.5
 16
0.0
 26
0.0
 36
1.0
 17
63.499999984125
 27
-89.00059456108309
 37
0.0
 40
178.0011891221662
 41
0.7134783795241226
 42
50.0
 43
0.0
 44
0.0
 50
0.0
 51
0.0
 71
     0
 72
   100
 73
     1
 74
     3
 75
     0
 76
     0
 77
     0
 78
     0
281
     0
 65
     1
110
0.0
120
0.0
130
0.0
111
1.0
121
0.0
131
0.0
112
0.0
122
1.0
132
0.0
 79
     0
146
0.0
 60
     3
 61
     5
292
     1
282
     1
141
0.0
142
0.0
 63
   250
361
3F
  0
ENDTAB
  0
TABLE
  2
LTYPE
  5
5
330
0
100
AcDbSymbolTable
 70
     1
  0
LTYPE
  5
14
330
5
100
AcDbSymbolTableRecord
100
AcDbLinetypeTableRecord
  2
ByBlock
 70
     0
  3

 72
    65
 73
     0
 40
0.0
  0
LTYPE
  5
15
330
5
100
AcDbSymbolTableRecord
100
AcDbLinetypeTableRecord
  2
ByLayer
 70
     0
  3

 72
    65
 73
     0
 40
0.0
  0
LTYPE
  5
16
330
5
100
AcDbSymbolTableRecord
100
AcDbLinetypeTableRecord
  2
Continuous
 70
     0
  3
Solid line
 72
    65
 73
     0
 40
0.0
  0
ENDTAB
  0
TABLE
  2
LAYER
  5
2
330
0
100
AcDbSymbolTable
 70
     2
  0
LAYER
  5
10
330
2
100
AcDbSymbolTableRecord
100
AcDbLayerTableRecord
  2
0
 70
     0
 62
     7
  6
Continuous
370
    -3
390
F
347
3E
  0
LAYER
  5
40
330
2
100
AcDbSymbolTableRecord
100
AcDbLayerTableRecord
  2
_U+30EC_U+30A4_U+30E4_U+30FC 1
 70
     0
 62
     7
  6
Continuous
370
    -3
390
F
347
3E
  0
ENDTAB
  0
TABLE
  2
STYLE
  5
3
330
0
100
AcDbSymbolTable
 70
     1
  0
STYLE
  5
11
330
3
100
AcDbSymbolTableRecord
100
AcDbTextStyleTableRecord
  2
Standard
 70
     0
 40
0.0
 41
1.0
 50
0.0
 71
     0
 42
0.2
  3
txt
  4

  0
ENDTAB
  0
TABLE
  2
VIEW
  5
6
330
0
100
AcDbSymbolTable
 70
     0
  0
ENDTAB
  0
TABLE
  2
UCS
  5
7
330
0
100
AcDbSymbolTable
 70
     0
  0
ENDTAB
  0
TABLE
  2
APPID
  5
9
330
0
100
AcDbSymbolTable
 70
     1
  0
APPID
  5
12
330
9
100
AcDbSymbolTableRecord
100
AcDbRegAppTableRecord
  2
ACAD
 70
     0
  0
ENDTAB
  0
TABLE
  2
DIMSTYLE
  5
A
330
0
100
AcDbSymbolTable
 70
     1
100
AcDbDimStyleTable
  0
DIMSTYLE
105
27
330
A
100
AcDbSymbolTableRecord
100
AcDbDimStyleTableRecord
  2
Standard
 70
     0
178
     0
340
11
  0
ENDTAB
  0
TABLE
  2
BLOCK_RECORD
  5
1
330
0
100
AcDbSymbolTable
 70
     6
  0
BLOCK_RECORD
  5
1F
330
1
100
AcDbSymbolTableRecord
100
AcDbBlockTableRecord
  2
*Model_Space
340
22
 70
     0
280
     1
281
     0
  0
BLOCK_RECORD
  5
1B
330
1
100
AcDbSymbolTableRecord
100
AcDbBlockTableRecord
  2
*Paper_Space
340
1E
 70
     0
280
     1
281
     0
  0
BLOCK_RECORD
  5
23
330
1
100
AcDbSymbolTableRecord
100
AcDbBlockTableRecord
  2
*Paper_Space0
340
26
 70
     0
280
     1
281
     0
  0
BLOCK_RECORD
  5
81
330
1
100
AcDbSymbolTableRecord
100
AcDbBlockTableRecord
  2
block 2
340
0
102
{BLKREFS
331
82
102
}
 70
     0
280
     1
281
     0
  0
BLOCK_RECORD
  5
93
330
1
100
AcDbSymbolTableRecord
100
AcDbBlockTableRecord
  2
block 3
340
0
102
{BLKREFS
331
94
102
}
 70
     0
280
     1
281
     0
  0
BLOCK_RECORD
  5
A8
330
1
100
AcDbSymbolTableRecord
100
AcDbBlockTableRecord
  2
block 4
340
0
102
{BLKREFS
331
A9
102
}
 70
     0
280
     1
281
     0
  0
BLOCK_RECORD
  5
B8
330
1
100
AcDbSymbolTableRecord
100
AcDbBlockTableRecord
  2
block 5
340
0
102
{BLKREFS
331
B9
102
}
 70
     0
280
     1
281
     0
  0
BLOCK_RECORD
  5
D9
330
1
100
AcDbSymbolTableRecord
100
AcDbBlockTableRecord
  2
block 6
340
0
102
{BLKREFS
331
DA
102
}
 70
     0
280
     1
281
     0
  0
ENDTAB
  0
ENDSEC
  0
SECTION
  2
BLOCKS
  0
BLOCK
  5
20
330
1F
100
AcDbEntity
  8
0
100
AcDbBlockBegin
  2
*Model_Space
 70
     0
 10
0.0
 20
0.0
 30
0.0
  3
*Model_Space
  1

  0
ENDBLK
  5
21
330
1F
100
AcDbEntity
  8
0
100
AcDbBlockEnd
  0
BLOCK
  5
1C
330
1B
100
AcDbEntity
 67
     1
  8
0
100
AcDbBlockBegin
  2
*Paper_Space
 70
     0
 10
0.0
 20
0.0
 30
0.0
  3
*Paper_Space
  1

  0
ENDBLK
  5
1D
330
1B
100
AcDbEntity
 67
     1
  8
0
100
AcDbBlockEnd
  0
BLOCK
  5
24
330
23
100
AcDbEntity
  8
0
100
AcDbBlockBegin
  2
*Paper_Space0
 70
     0
 10
0.0
 20
0.0
 30
0.0
  3
*Paper_Space0
  1

  0
ENDBLK
  5
25
330
23
100
AcDbEntity
  8
0
100
AcDbBlockEnd
  0
BLOCK
  5
83
330
81
100
AcDbEntity
  8
0
100
AcDbBlockBegin
  2
block 2
 70
     0
 10
0.0
 20
0.0
 30
0.0
  3
block 2
  1

  0
SPLINE
  5
85
330
81
100
AcDbEntity
  8
_U+30EC_U+30A4_U+30E4_U+30FC 1
370
     0
100
AcDbSpline
210
0.0
220
0.0
230
1.0
 70
    11
 71
     3
 72
    26
 73
    22
 74
     0
 42
0.0000000001
 43
0.0000000001
 12
1.0
 22
0.0
 32
0.0
 13
1.0
 23
0.0
 33
0.0
 40
0.0
 40
0.0
 40
0.0
 40
0.0
 40
1.0
 40
1.0
 40
1.0
 40
2.0
 40
2.0
 40
2.0
 40
3.0
 40
3.0
 40
3.0
 40
4.0
 40
4.0
 40
4.0
 40
5.0
 40
5.0
 40
5.0
 40
6.0
 40
6.0
 40
6.0
 40
7.0
 40
7.0
 40
7.0
 40
7.0
 10
79.38671330480611
 20
-82.82181801314871
 30
0.0
 10
79.38671330480611
 20
-82.82181801314871
 30
0.0
 10
78.28256020178353
 20
-82.82181801314871
 30
0.0
 10
78.28256020178353
 20
-82.82181801314871
 30
0.0
 10
78.28256020178353
 20
-82.82181801314871
 30
0.0
 10
78.28256020178353
 20
-83.10724417410167
 30
0.0
 10
78.28256020178353
 20
-83.10724417410167
 30
0.0
 10
78.28256020178353
 20
-83.10724417410167
 30
0.0
 10
78.13442109591779
 20
-83.10724417410167
 30
0.0
 10
78.13442109591779
 20
-83.10724417410167
 30
0.0
 10
78.11960718533122
 20
-82.81992321063183
 30
0.0
 10
77.9566541688789
 20
-82.77961559345441
 30
0.0
 10
77.8422769987686
 20
-82.75394963208929
 30
0.0
 10
77.8422769987686
 20
-82.75394963208929
 30
0.0
 10
77.8422769987686
 20
-82.62768688255488
 30
0.0
 10
77.8422769987686
 20
-82.62768688255488
 30
0.0
 10
77.8422769987686
 20
-82.62768688255488
 30
0.0
 10
79.38671330480611
 20
-82.62768688255488
 30
0.0
 10
79.38671330480611
 20
-82.62768688255488
 30
0.0
 10
79.38671330480611
 20
-82.62768688255488
 30
0.0
 10
79.38671330480611
 20
-82.82181801314871
 30
0.0
 10
79.38671330480611
 20
-82.82181801314871
 30
0.0
  0
HATCH
  5
86
330
81
100
AcDbEntity
  8
_U+30EC_U+30A4_U+30E4_U+30FC 1
 62
     7
420
 16777215
100
AcDbHatch
 10
0.0
 20
0.0
 30
0.0
210
0.0
220
0.0
230
1.0
  2
SOLID
 70
     1
 71
     0
 91
        1
 92
        1
 93
        1
 72
     4
 94
        3
 73
     0
 74
     1
 95
       26
 96
       22
 40
0.0
 40
0.0
 40
0.0
 40
0.0
 40
1.0
 40
1.0
 40
1.0
 40
2.0
 40
2.0
 40
2.0
 40
3.0
 40
3.0
 40
3.0
 40
4.0
 40
4.0
 40
4.0
 40
5.0
 40
5.0
 40
5.0
 40
6.0
 40
6.0
 40
6.0
 40
7.0
 40
7.0
 40
7.0
 40
7.0
 10
79.38671330480611
 20
-82.82181801314871
 10
79.38671330480611
 20
-82.82181801314871
 10
78.28256020178353
 20
-82.82181801314871
 10
78.28256020178353
 20
-82.82181801314871
 10
78.28256020178353
 20
-82.82181801314871
 10
78.28256020178353
 20
-83.10724417410167
 10
78.28256020178353
 20
-83.10724417410167
 10
78.28256020178353
 20
-83.10724417410167
 10
78.13442109591779
 20
-83.10724417410167
 10
78.13442109591779
 20
-83.10724417410167
 10
78.11960718533122
 20
-82.81992321063183
 10
77.9566541688789
 20
-82.77961559345441
 10
77.8422769987686
 20
-82.75394963208929
 10
77.8422769987686
 20
-82.75394963208929
 10
77.8422769987686
 20
-82.62768688255488
 10
77.8422769987686
 20
-82.62768688255488
 10
77.8422769987686
 20
-82.62768688255488
 10
79.38671330480611
 20
-82.62768688255488
 10
79.38671330480611
 20
-82.62768688255488
 10
79.38671330480611
 20
-82.62768688255488
 10
79.38671330480611
 20
-82.82181801314871
 10
79.38671330480611
 20
-82.82181801314871
 97
        0
 97
        0
 75
     2
 76
     1
 98
        0
  0
ENDBLK
  5
84
330
81
100
AcDbEntity
  8
0
100
AcDbBlockEnd
  0
BLOCK
  5
95
330
93
100
AcDbEntity
  8
0
100
AcDbBlockBegin
  2
block 3
 70
     0
 10
0.0
 20
0.0
 30
0.0
  3
block 3
  1

  0
SPLINE
  5
97
330
93
100
AcDbEntity
  8
_U+30EC_U+30A4_U+30E4_U+30FC 1
370
     0
100
AcDbSpline
210
0.0
220
0.0
230
1.0
 70
    11
 71
     3
 72
    62
 73
    58
 74
     0
 42
0.0000000001
 43
0.0000000001
 12
1.0
 22
0.0
 32
0.0
 13
1.0
 23
0.0
 33
0.0
 40
0.0
 40
0.0
 40
0.0
 40
0.0
 40
1.0
 40
1.0
 40
1.0
 40
2.0
 40
2.0
 40
2.0
 40
3.0
 40
3.0
 40
3.0
 40
4.0
 40
4.0
 40
4.0
 40
5.0
 40
5.0
 40
5.0
 40
6.0
 40
6.0
 40
6.0
 40
7.0
 40
7.0
 40
7.0
 40
8.0
 40
8.0
 40
8.0
 40
9.0
 40
9.0
 40
9.0
 40
10.0
 40
10.0
 40
10.0
 40
11.0
 40
11.0
 40
11.0
 40
12.0
 40
12.0
 40
12.0
 40
13.0
 40
13.0
 40
13.0
 40
14.0
 40
14.0
 40
14.0
 40
15.0
 40
15.0
 40
15.0
 40
16.0
 40
16.0
 40
16.0
 40
17.0
 40
17.0
 40
17.0
 40
18.0
 40
18.0
 40
18.0
 40
19.0
 40
19.0
 40
19.0
 40
19.0
 10
60.23215466159127
 20
-81.157147874676
 30
0.0
 10
60.1498168794938
 20
-81.157147874676
 30
0.0
 10
59.96102564690211
 20
-81.13613279221597
 30
0.0
 10
59.85319415821379
 20
-80.95009763601247
 30
0.0
 10
59.78911538218814
 20
-80.83778752319334
 30
0.0
 10
59.78532577715436
 20
-80.73856877321813
 30
0.0
 10
59.78188068166912
 20
-80.653819424281
 30
0.0
 10
59.78188068166912
 20
-80.653819424281
 30
0.0
 10
59.97204995245491
 20
-80.653819424281
 30
0.0
 10
59.97204995245491
 20
-80.653819424281
 30
0.0
 10
59.97411700974606
 20
-80.72788897721387
 30
0.0
 10
59.9830742580077
 20
-80.96249997975937
 30
0.0
 10
60.22836505655749
 20
-80.96249997975937
 30
0.0
 10
60.34722085079861
 20
-80.96249997975937
 30
0.0
 10
60.47916800788369
 20
-80.89290905095733
 30
0.0
 10
60.47916800788369
 20
-80.66449922028526
 30
0.0
 10
60.47916800788369
 20
-80.54805499288382
 30
0.0
 10
60.44609509122528
 20
-80.4994791465418
 30
0.0
 10
60.41853432734329
 20
-80.46778426807751
 30
0.0
 10
60.35480006086616
 20
-80.39371471514463
 30
0.0
 10
60.25385876314834
 20
-80.3809678618492
 30
0.0
 10
60.2063164454519
 20
-80.3809678618492
 30
0.0
 10
60.1897799871227
 20
-80.3809678618492
 30
0.0
 10
60.15877412775545
 20
-80.38303491914036
 30
0.0
 10
60.13500296890722
 20
-80.38716903372266
 30
0.0
 10
60.13500296890722
 20
-80.38716903372266
 30
0.0
 10
60.13500296890722
 20
-80.19252113880604
 30
0.0
 10
60.13500296890722
 20
-80.19252113880604
 30
0.0
 10
60.16807588556562
 20
-80.19889456545376
 30
0.0
 10
60.20459389770927
 20
-80.20113387751917
 30
0.0
 10
60.21010605048567
 20
-80.20113387751917
 30
0.0
 10
60.2669501259923
 20
-80.20113387751917
 30
0.0
 10
60.43886039070626
 20
-80.17994654028487
 30
0.0
 10
60.43886039070626
 20
-79.94292397089968
 30
0.0
 10
60.43886039070626
 20
-79.76532929863507
 30
0.0
 10
60.32551674924154
 20
-79.71020777087107
 30
0.0
 10
60.23008760430012
 20
-79.71020777087107
 30
0.0
 10
60.00133326407953
 20
-79.71020777087107
 30
0.0
 10
59.99409856356051
 20
-79.94292397089968
 30
0.0
 10
59.99030895852673
 20
-80.01492646654141
 30
0.0
 10
59.99030895852673
 20
-80.01492646654141
 30
0.0
 10
59.81460908877899
 20
-80.01492646654141
 30
0.0
 10
59.81460908877899
 20
-80.01492646654141
 30
0.0
 10
59.82218829884654
 20
-79.89004175520111
 30
0.0
 10
59.84595945769476
 20
-79.5134928186633
 30
0.0
 10
60.24111190985292
 20
-79.5134928186633
 30
0.0
 10
60.43507078567249
 20
-79.5134928186633
 30
0.0
 10
60.64384357207862
 20
-79.64044458729475
 30
0.0
 10
60.64384357207862
 20
-79.93655054425197
 30
0.0
 10
60.64384357207862
 20
-80.12275795522973
 30
0.0
 10
60.56150578998115
 20
-80.20526799210147
 30
0.0
 10
60.47537840284991
 20
-80.26659069173891
 30
0.0
 10
60.52843287332276
 20
-80.2941514556209
 30
0.0
 10
60.68587373699867
 20
-80.37442218042723
 30
0.0
 10
60.68587373699867
 20
-80.65175236698984
 30
0.0
 10
60.68587373699867
 20
-80.99006074364138
 30
0.0
 10
60.47193330736466
 20
-81.157147874676
 30
0.0
 10
60.23215466159127
 20
-81.157147874676
 30
0.0
  0
HATCH
  5
98
330
93
100
AcDbEntity
  8
_U+30EC_U+30A4_U+30E4_U+30FC 1
 62
     7
420
 16777215
100
AcDbHatch
 10
0.0
 20
0.0
 30
0.0
210
0.0
220
0.0
230
1.0
  2
SOLID
 70
     1
 71
     0
 91
        1
 92
        1
 93
        1
 72
     4
 94
        3
 73
     0
 74
     1
 95
       62
 96
       58
 40
0.0
 40
0.0
 40
0.0
 40
0.0
 40
1.0
 40
1.0
 40
1.0
 40
2.0
 40
2.0
 40
2.0
 40
3.0
 40
3.0
 40
3.0
 40
4.0
 40
4.0
 40
4.0
 40
5.0
 40
5.0
 40
5.0
 40
6.0
 40
6.0
 40
6.0
 40
7.0
 40
7.0
 40
7.0
 40
8.0
 40
8.0
 40
8.0
 40
9.0
 40
9.0
 40
9.0
 40
10.0
 40
10.0
 40
10.0
 40
11.0
 40
11.0
 40
11.0
 40
12.0
 40
12.0
 40
12.0
 40
13.0
 40
13.0
 40
13.0
 40
14.0
 40
14.0
 40
14.0
 40
15.0
 40
15.0
 40
15.0
 40
16.0
 40
16.0
 40
16.0
 40
17.0
 40
17.0
 40
17.0
 40
18.0
 40
18.0
 40
18.0
 40
19.0
 40
19.0
 40
19.0
 40
19.0
 10
60.23215466159127
 20
-81.157147874676
 10
60.1498168794938
 20
-81.157147874676
 10
59.96102564690211
 20
-81.13613279221597
 10
59.85319415821379
 20
-80.95009763601247
 10
59.78911538218814
 20
-80.83778752319334
 10
59.78532577715436
 20
-80.73856877321813
 10
59.78188068166912
 20
-80.653819424281
 10
59.78188068166912
 20
-80.653819424281
 10
59.97204995245491
 20
-80.653819424281
 10
59.97204995245491
 20
-80.653819424281
 10
59.97411700974606
 20
-80.72788897721387
 10
59.9830742580077
 20
-80.96249997975937
 10
60.22836505655749
 20
-80.96249997975937
 10
60.34722085079861
 20
-80.96249997975937
 10
60.47916800788369
 20
-80.89290905095733
 10
60.47916800788369
 20
-80.66449922028526
 10
60.47916800788369
 20
-80.54805499288382
 10
60.44609509122528
 20
-80.4994791465418
 10
60.41853432734329
 20
-80.46778426807751
 10
60.35480006086616
 20
-80.39371471514463
 10
60.25385876314834
 20
-80.3809678618492
 10
60.2063164454519
 20
-80.3809678618492
 10
60.1897799871227
 20
-80.3809678618492
 10
60.15877412775545
 20
-80.38303491914036
 10
60.13500296890722
 20
-80.38716903372266
 10
60.13500296890722
 20
-80.38716903372266
 10
60.13500296890722
 20
-80.19252113880604
 10
60.13500296890722
 20
-80.19252113880604
 10
60.16807588556562
 20
-80.19889456545376
 10
60.20459389770927
 20
-80.20113387751917
 10
60.21010605048567
 20
-80.20113387751917
 10
60.2669501259923
 20
-80.20113387751917
 10
60.43886039070626
 20
-80.17994654028487
 10
60.43886039070626
 20
-79.94292397089968
 10
60.43886039070626
 20
-79.76532929863507
 10
60.32551674924154
 20
-79.71020777087107
 10
60.23008760430012
 20
-79.71020777087107
 10
60.00133326407953
 20
-79.71020777087107
 10
59.99409856356051
 20
-79.94292397089968
 10
59.99030895852673
 20
-80.01492646654141
 10
59.99030895852673
 20
-80.01492646654141
 10
59.81460908877899
 20
-80.01492646654141
 10
59.81460908877899
 20
-80.01492646654141
 10
59.82218829884654
 20
-79.89004175520111
 10
59.84595945769476
 20
-79.5134928186633
 10
60.24111190985292
 20
-79.5134928186633
 10
60.43507078567249
 20
-79.5134928186633
 10
60.64384357207862
 20
-79.64044458729475
 10
60.64384357207862
 20
-79.93655054425197
 10
60.64384357207862
 20
-80.12275795522973
 10
60.56150578998115
 20
-80.20526799210147
 10
60.47537840284991
 20
-80.26659069173891
 10
60.52843287332276
 20
-80.2941514556209
 10
60.68587373699867
 20
-80.37442218042723
 10
60.68587373699867
 20
-80.65175236698984
 10
60.68587373699867
 20
-80.99006074364138
 10
60.47193330736466
 20
-81.157147874676
 10
60.23215466159127
 20
-81.157147874676
 97
        0
 97
        0
 75
     2
 76
     1
 98
        0
  0
SPLINE
  5
99
330
93
100
AcDbEntity
  8
_U+30EC_U+30A4_U+30E4_U+30FC 1
370
     0
100
AcDbSpline
210
0.0
220
0.0
230
1.0
 70
    11
 71
     3
 72
    29
 73
    25
 74
     0
 42
0.0000000001
 43
0.0000000001
 12
1.0
 22
0.0
 32
0.0
 13
1.0
 23
0.0
 33
0.0
 40
0.0
 40
0.0
 40
0.0
 40
0.0
 40
1.0
 40
1.0
 40
1.0
 40
2.0
 40
2.0
 40
2.0
 40
3.0
 40
3.0
 40
3.0
 40
4.0
 40
4.0
 40
4.0
 40
5.0
 40
5.0
 40
5.0
 40
6.0
 40
6.0
 40
6.0
 40
7.0
 40
7.0
 40
7.0
 40
8.0
 40
8.0
 40
8.0
 40
8.0
 10
61.60089109788103
 20
-80.92873804400394
 30
0.0
 10
61.50752901023076
 20
-81.13819984950712
 30
0.0
 10
61.35732284707387
 20
-81.157147874676
 30
0.0
 10
61.25672605890457
 20
-81.157147874676
 30
0.0
 10
61.11754420130048
 20
-81.157147874676
 30
0.0
 10
60.99489880202558
 20
-81.11063908562512
 30
0.0
 10
60.91256101992811
 20
-80.92873804400394
 30
0.0
 10
60.82298853731162
 20
-80.73409014908731
 30
0.0
 10
60.80645207898242
 20
-80.49741208925064
 30
0.0
 10
60.80645207898242
 20
-80.33445907279834
 30
0.0
 10
60.80645207898242
 20
-80.19045408151489
 30
0.0
 10
60.82092148002047
 20
-79.93878985631738
 30
0.0
 10
60.91256101992811
 20
-79.73983559204422
 30
0.0
 10
61.00592310757838
 20
-79.53674721318873
 30
0.0
 10
61.14510496518248
 20
-79.5134928186633
 30
0.0
 10
61.25672605890457
 20
-79.5134928186633
 30
0.0
 10
61.39384085921751
 20
-79.5134928186633
 30
0.0
 10
61.51855331578356
 20
-79.55793455042301
 30
0.0
 10
61.60089109788103
 20
-79.73983559204422
 30
0.0
 10
61.68667397546375
 20
-79.93241642966967
 30
0.0
 10
61.70700003882673
 20
-80.16082626034174
 30
0.0
 10
61.70700003882673
 20
-80.33445907279834
 30
0.0
 10
61.70700003882673
 20
-80.50568031841524
 30
0.0
 10
61.6887410327549
 20
-80.73615720637846
 30
0.0
 10
61.60089109788103
 20
-80.92873804400394
 30
0.0
  0
SPLINE
  5
9A
330
93
100
AcDbEntity
  8
_U+30EC_U+30A4_U+30E4_U+30FC 1
370
     0
100
AcDbSpline
210
0.0
220
0.0
230
1.0
 70
    11
 71
     3
 72
    17
 73
    13
 74
     0
 42
0.0000000001
 43
0.0000000001
 12
1.0
 22
0.0
 32
0.0
 13
1.0
 23
0.0
 33
0.0
 40
0.0
 40
0.0
 40
0.0
 40
0.0
 40
1.0
 40
1.0
 40
1.0
 40
2.0
 40
2.0
 40
2.0
 40
3.0
 40
3.0
 40
3.0
 40
4.0
 40
4.0
 40
4.0
 40
4.0
 10
61.25672605890457
 20
-79.70607365628877
 30
0.0
 10
61.0407185719794
 20
-79.70607365628877
 30
0.0
 10
61.00041095480199
 20
-79.98960501472483
 30
0.0
 10
61.00041095480199
 20
-80.33445907279834
 30
0.0
 10
61.00041095480199
 20
-80.653819424281
 30
0.0
 10
61.03141681416923
 20
-80.96249997975937
 30
0.0
 10
61.25672605890457
 20
-80.96249997975937
 30
0.0
 10
61.47066648853858
 20
-80.96249997975937
 30
0.0
 10
61.51304116300716
 20
-80.68138018816299
 30
0.0
 10
61.51304116300716
 20
-80.33445907279834
 30
0.0
 10
61.51304116300716
 20
-80.01492646654141
 30
0.0
 10
61.47996824634876
 20
-79.70607365628877
 30
0.0
 10
61.25672605890457
 20
-79.70607365628877
 30
0.0
  0
HATCH
  5
9B
330
93
100
AcDbEntity
  8
_U+30EC_U+30A4_U+30E4_U+30FC 1
 62
     7
420
 16777215
100
AcDbHatch
 10
0.0
 20
0.0
 30
0.0
210
0.0
220
0.0
230
1.0
  2
SOLID
 70
     1
 71
     0
 91
        2
 92
        1
 93
        1
 72
     4
 94
        3
 73
     0
 74
     1
 95
       29
 96
       25
 40
0.0
 40
0.0
 40
0.0
 40
0.0
 40
1.0
 40
1.0
 40
1.0
 40
2.0
 40
2.0
 40
2.0
 40
3.0
 40
3.0
 40
3.0
 40
4.0
 40
4.0
 40
4.0
 40
5.0
 40
5.0
 40
5.0
 40
6.0
 40
6.0
 40
6.0
 40
7.0
 40
7.0
 40
7.0
 40
8.0
 40
8.0
 40
8.0
 40
8.0
 10
61.60089109788103
 20
-80.92873804400394
 10
61.50752901023076
 20
-81.13819984950712
 10
61.35732284707387
 20
-81.157147874676
 10
61.25672605890457
 20
-81.157147874676
 10
61.11754420130048
 20
-81.157147874676
 10
60.99489880202558
 20
-81.11063908562512
 10
60.91256101992811
 20
-80.92873804400394
 10
60.82298853731162
 20
-80.73409014908731
 10
60.80645207898242
 20
-80.49741208925064
 10
60.80645207898242
 20
-80.33445907279834
 10
60.80645207898242
 20
-80.19045408151489
 10
60.82092148002047
 20
-79.93878985631738
 10
60.91256101992811
 20
-79.73983559204422
 10
61.00592310757838
 20
-79.53674721318873
 10
61.14510496518248
 20
-79.5134928186633
 10
61.25672605890457
 20
-79.5134928186633
 10
61.39384085921751
 20
-79.5134928186633
 10
61.51855331578356
 20
-79.55793455042301
 10
61.60089109788103
 20
-79.73983559204422
 10
61.68667397546375
 20
-79.93241642966967
 10
61.70700003882673
 20
-80.16082626034174
 10
61.70700003882673
 20
-80.33445907279834
 10
61.70700003882673
 20
-80.50568031841524
 10
61.6887410327549
 20
-80.73615720637846
 10
61.60089109788103
 20
-80.92873804400394
 97
        0
 97
        0
 92
        1
 93
        1
 72
     4
 94
        3
 73
     0
 74
     1
 95
       17
 96
       13
 40
0.0
 40
0.0
 40
0.0
 40
0.0
 40
1.0
 40
1.0
 40
1.0
 40
2.0
 40
2.0
 40
2.0
 40
3.0
 40
3.0
 40
3.0
 40
4.0
 40
4.0
 40
4.0
 40
4.0
 10
61.25672605890457
 20
-79.70607365628877
 10
61.0407185719794
 20
-79.70607365628877
 10
61.00041095480199
 20
-79.98960501472483
 10
61.00041095480199
 20
-80.33445907279834
 10
61.00041095480199
 20
-80.653819424281
 10
61.03141681416923
 20
-80.96249997975937
 10
61.25672605890457
 20
-80.96249997975937
 10
61.47066648853858
 20
-80.96249997975937
 10
61.51304116300716
 20
-80.68138018816299
 10
61.51304116300716
 20
-80.33445907279834
 10
61.51304116300716
 20
-80.01492646654141
 10
61.47996824634876
 20
-79.70607365628877
 10
61.25672605890457
 20
-79.70607365628877
 97
        0
 97
        0
 75
     2
 76
     1
 98
        0
  0
ENDBLK
  5
96
330
93
100
AcDbEntity
  8
0
100
AcDbBlockEnd
  0
BLOCK
  5
AA
330
A8
100
AcDbEntity
  8
0
100
AcDbBlockBegin
  2
block 4
 70
     0
 10
0.0
 20
0.0
 30
0.0
  3
block 4
  1

  0
SPLINE
  5
AC
330
A8
100
AcDbEntity
  8
_U+30EC_U+30A4_U+30E4_U+30FC 1
370
     0
100
AcDbSpline
210
0.0
220
0.0
230
1.0
 70
    11
 71
     3
 72
    26
 73
    22
 74
     0
 42
0.0000000001
 43
0.0000000001
 12
1.0
 22
0.0
 32
0.0
 13
1.0
 23
0.0
 33
0.0
 40
0.0
 40
0.0
 40
0.0
 40
0.0
 40
1.0
 40
1.0
 40
1.0
 40
2.0
 40
2.0
 40
2.0
 40
3.0
 40
3.0
 40
3.0
 40
4.0
 40
4.0
 40
4.0
 40
5.0
 40
5.0
 40
5.0
 40
6.0
 40
6.0
 40
6.0
 40
7.0
 40
7.0
 40
7.0
 40
7.0
 10
52.69721407102709
 20
-97.36701115187353
 30
0.0
 10
52.69721407102709
 20
-97.36701115187353
 30
0.0
 10
52.69721407102709
 20
-96.26285804885096
 30
0.0
 10
52.69721407102709
 20
-96.26285804885096
 30
0.0
 10
52.69721407102709
 20
-96.26285804885096
 30
0.0
 10
52.41178791007414
 20
-96.26285804885096
 30
0.0
 10
52.41178791007414
 20
-96.26285804885096
 30
0.0
 10
52.41178791007414
 20
-96.26285804885096
 30
0.0
 10
52.41178791007414
 20
-96.11471894298522
 30
0.0
 10
52.41178791007414
 20
-96.11471894298522
 30
0.0
 10
52.69910887354398
 20
-96.09990503239864
 30
0.0
 10
52.7394164907214
 20
-95.93695201594632
 30
0.0
 10
52.76491019731225
 20
-95.82257484583603
 30
0.0
 10
52.76491019731225
 20
-95.82257484583603
 30
0.0
 10
52.89134520162091
 20
-95.82257484583603
 30
0.0
 10
52.89134520162091
 20
-95.82257484583603
 30
0.0
 10
52.89134520162091
 20
-95.82257484583603
 30
0.0
 10
52.89134520162091
 20
-97.36701115187353
 30
0.0
 10
52.89134520162091
 20
-97.36701115187353
 30
0.0
 10
52.89134520162091
 20
-97.36701115187353
 30
0.0
 10
52.69721407102709
 20
-97.36701115187353
 30
0.0
 10
52.69721407102709
 20
-97.36701115187353
 30
0.0
  0
HATCH
  5
AD
330
A8
100
AcDbEntity
  8
_U+30EC_U+30A4_U+30E4_U+30FC 1
 62
     7
420
 16777215
100
AcDbHatch
 10
0.0
 20
0.0
 30
0.0
210
0.0
220
0.0
230
1.0
  2
SOLID
 70
     1
 71
     0
 91
        1
 92
        1
 93
        1
 72
     4
 94
        3
 73
     0
 74
     1
 95
       26
 96
       22
 40
0.0
 40
0.0
 40
0.0
 40
0.0
 40
1.0
 40
1.0
 40
1.0
 40
2.0
 40
2.0
 40
2.0
 40
3.0
 40
3.0
 40
3.0
 40
4.0
 40
4.0
 40
4.0
 40
5.0
 40
5.0
 40
5.0
 40
6.0
 40
6.0
 40
6.0
 40
7.0
 40
7.0
 40
7.0
 40
7.0
 10
52.69721407102709
 20
-97.36701115187353
 10
52.69721407102709
 20
-97.36701115187353
 10
52.69721407102709
 20
-96.26285804885096
 10
52.69721407102709
 20
-96.26285804885096
 10
52.69721407102709
 20
-96.26285804885096
 10
52.41178791007414
 20
-96.26285804885096
 10
52.41178791007414
 20
-96.26285804885096
 10
52.41178791007414
 20
-96.26285804885096
 10
52.41178791007414
 20
-96.11471894298522
 10
52.41178791007414
 20
-96.11471894298522
 10
52.69910887354398
 20
-96.09990503239864
 10
52.7394164907214
 20
-95.93695201594632
 10
52.76491019731225
 20
-95.82257484583603
 10
52.76491019731225
 20
-95.82257484583603
 10
52.89134520162091
 20
-95.82257484583603
 10
52.89134520162091
 20
-95.82257484583603
 10
52.89134520162091
 20
-95.82257484583603
 10
52.89134520162091
 20
-97.36701115187353
 10
52.89134520162091
 20
-97.36701115187353
 10
52.89134520162091
 20
-97.36701115187353
 10
52.69721407102709
 20
-97.36701115187353
 10
52.69721407102709
 20
-97.36701115187353
 97
        0
 97
        0
 75
     2
 76
     1
 98
        0
  0
SPLINE
  5
AE
330
A8
100
AcDbEntity
  8
_U+30EC_U+30A4_U+30E4_U+30FC 1
370
     0
100
AcDbSpline
210
0.0
220
0.0
230
1.0
 70
    11
 71
     3
 72
    53
 73
    49
 74
     0
 42
0.0000000001
 43
0.0000000001
 12
1.0
 22
0.0
 32
0.0
 13
1.0
 23
0.0
 33
0.0
 40
0.0
 40
0.0
 40
0.0
 40
0.0
 40
1.0
 40
1.0
 40
1.0
 40
2.0
 40
2.0
 40
2.0
 40
3.0
 40
3.0
 40
3.0
 40
4.0
 40
4.0
 40
4.0
 40
5.0
 40
5.0
 40
5.0
 40
6.0
 40
6.0
 40
6.0
 40
7.0
 40
7.0
 40
7.0
 40
8.0
 40
8.0
 40
8.0
 40
9.0
 40
9.0
 40
9.0
 40
10.0
 40
10.0
 40
10.0
 40
11.0
 40
11.0
 40
11.0
 40
12.0
 40
12.0
 40
12.0
 40
13.0
 40
13.0
 40
13.0
 40
14.0
 40
14.0
 40
14.0
 40
15.0
 40
15.0
 40
15.0
 40
16.0
 40
16.0
 40
16.0
 40
16.0
 10
53.74021672918648
 20
-97.4176540555067
 30
0.0
 10
53.67252060290132
 20
-97.4176540555067
 30
0.0
 10
53.58467066802745
 20
-97.40077308762898
 30
0.0
 10
53.49682073315358
 20
-97.33738333070038
 30
0.0
 10
53.34678682477094
 20
-97.22748478472091
 30
0.0
 10
53.32852781869912
 20
-97.09622664673289
 30
0.0
 10
53.31199136036992
 20
-96.98839515804457
 30
0.0
 10
53.31199136036992
 20
-96.98839515804457
 30
0.0
 10
53.50422768844686
 20
-96.98839515804457
 30
0.0
 10
53.50422768844686
 20
-96.98839515804457
 30
0.0
 10
53.55177000614331
 20
-97.18717716754348
 30
0.0
 10
53.66149629734852
 20
-97.21680498871663
 30
0.0
 10
53.7419392769291
 20
-97.21680498871663
 30
0.0
 10
53.86286212846137
 20
-97.21680498871663
 30
0.0
 10
53.99480928554644
 20
-97.11724172919291
 30
0.0
 10
53.99480928554644
 20
-96.88469778393855
 30
0.0
 10
53.99480928554644
 20
-96.62872718938449
 30
0.0
 10
53.83909096961315
 20
-96.55879175103392
 30
0.0
 10
53.73470457641007
 20
-96.55879175103392
 30
0.0
 10
53.70714381252808
 20
-96.55879175103392
 30
0.0
 10
53.58467066802745
 20
-96.55879175103392
 30
0.0
 10
53.50784503870637
 20
-96.68798283173079
 30
0.0
 10
53.50784503870637
 20
-96.68798283173079
 30
0.0
 10
53.35591632780686
 20
-96.66903480656191
 30
0.0
 10
53.35591632780686
 20
-96.66903480656191
 30
0.0
 10
53.35591632780686
 20
-96.66903480656191
 30
0.0
 10
53.46013046623566
 20
-95.82257484583603
 30
0.0
 10
53.46013046623566
 20
-95.82257484583603
 30
0.0
 10
53.46013046623566
 20
-95.82257484583603
 30
0.0
 10
54.13364663360201
 20
-95.82257484583603
 30
0.0
 10
54.13364663360201
 20
-95.82257484583603
 30
0.0
 10
54.13364663360201
 20
-95.82257484583603
 30
0.0
 10
54.13364663360201
 20
-96.01722274075264
 30
0.0
 10
54.13364663360201
 20
-96.01722274075264
 30
0.0
 10
54.13364663360201
 20
-96.01722274075264
 30
0.0
 10
53.60120712635665
 20
-96.01722274075264
 30
0.0
 10
53.60120712635665
 20
-96.01722274075264
 30
0.0
 10
53.60120712635665
 20
-96.01722274075264
 30
0.0
 10
53.54436305085002
 20
-96.44028046634132
 30
0.0
 10
53.54436305085002
 20
-96.44028046634132
 30
0.0
 10
53.59741752132287
 20
-96.40651853058587
 30
0.0
 10
53.6689032526418
 20
-96.36621091340845
 30
0.0
 10
53.77122258855373
 20
-96.36621091340845
 30
0.0
 10
53.99101968051266
 20
-96.36621091340845
 30
0.0
 10
54.19600286188503
 20
-96.55259057916047
 30
0.0
 10
54.19600286188503
 20
-96.86574975876968
 30
0.0
 10
54.19600286188503
 20
-97.18304305296118
 30
0.0
 10
54.00204398606547
 20
-97.4176540555067
 30
0.0
 10
53.74021672918648
 20
-97.4176540555067
 30
0.0
  0
HATCH
  5
AF
330
A8
100
AcDbEntity
  8
_U+30EC_U+30A4_U+30E4_U+30FC 1
 62
     7
420
 16777215
100
AcDbHatch
 10
0.0
 20
0.0
 30
0.0
210
0.0
220
0.0
230
1.0
  2
SOLID
 70
     1
 71
     0
 91
        1
 92
        1
 93
        1
 72
     4
 94
        3
 73
     0
 74
     1
 95
       53
 96
       49
 40
0.0
 40
0.0
 40
0.0
 40
0.0
 40
1.0
 40
1.0
 40
1.0
 40
2.0
 40
2.0
 40
2.0
 40
3.0
 40
3.0
 40
3.0
 40
4.0
 40
4.0
 40
4.0
 40
5.0
 40
5.0
 40
5.0
 40
6.0
 40
6.0
 40
6.0
 40
7.0
 40
7.0
 40
7.0
 40
8.0
 40
8.0
 40
8.0
 40
9.0
 40
9.0
 40
9.0
 40
10.0
 40
10.0
 40
10.0
 40
11.0
 40
11.0
 40
11.0
 40
12.0
 40
12.0
 40
12.0
 40
13.0
 40
13.0
 40
13.0
 40
14.0
 40
14.0
 40
14.0
 40
15.0
 40
15.0
 40
15.0
 40
16.0
 40
16.0
 40
16.0
 40
16.0
 10
53.74021672918648
 20
-97.4176540555067
 10
53.67252060290132
 20
-97.4176540555067
 10
53.58467066802745
 20
-97.40077308762898
 10
53.49682073315358
 20
-97.33738333070038
 10
53.34678682477094
 20
-97.22748478472091
 10
53.32852781869912
 20
-97.09622664673289
 10
53.31199136036992
 20
-96.98839515804457
 10
53.31199136036992
 20
-96.98839515804457
 10
53.50422768844686
 20
-96.98839515804457
 10
53.50422768844686
 20
-96.98839515804457
 10
53.55177000614331
 20
-97.18717716754348
 10
53.66149629734852
 20
-97.21680498871663
 10
53.7419392769291
 20
-97.21680498871663
 10
53.86286212846137
 20
-97.21680498871663
 10
53.99480928554644
 20
-97.11724172919291
 10
53.99480928554644
 20
-96.88469778393855
 10
53.99480928554644
 20
-96.62872718938449
 10
53.83909096961315
 20
-96.55879175103392
 10
53.73470457641007
 20
-96.55879175103392
 10
53.70714381252808
 20
-96.55879175103392
 10
53.58467066802745
 20
-96.55879175103392
 10
53.50784503870637
 20
-96.68798283173079
 10
53.50784503870637
 20
-96.68798283173079
 10
53.35591632780686
 20
-96.66903480656191
 10
53.35591632780686
 20
-96.66903480656191
 10
53.35591632780686
 20
-96.66903480656191
 10
53.46013046623566
 20
-95.82257484583603
 10
53.46013046623566
 20
-95.82257484583603
 10
53.46013046623566
 20
-95.82257484583603
 10
54.13364663360201
 20
-95.82257484583603
 10
54.13364663360201
 20
-95.82257484583603
 10
54.13364663360201
 20
-95.82257484583603
 10
54.13364663360201
 20
-96.01722274075264
 10
54.13364663360201
 20
-96.01722274075264
 10
54.13364663360201
 20
-96.01722274075264
 10
53.60120712635665
 20
-96.01722274075264
 10
53.60120712635665
 20
-96.01722274075264
 10
53.60120712635665
 20
-96.01722274075264
 10
53.54436305085002
 20
-96.44028046634132
 10
53.54436305085002
 20
-96.44028046634132
 10
53.59741752132287
 20
-96.40651853058587
 10
53.6689032526418
 20
-96.36621091340845
 10
53.77122258855373
 20
-96.36621091340845
 10
53.99101968051266
 20
-96.36621091340845
 10
54.19600286188503
 20
-96.55259057916047
 10
54.19600286188503
 20
-96.86574975876968
 10
54.19600286188503
 20
-97.18304305296118
 10
54.00204398606547
 20
-97.4176540555067
 10
53.74021672918648
 20
-97.4176540555067
 97
        0
 97
        0
 75
     2
 76
     1
 98
        0
  0
ENDBLK
  5
AB
330
A8
100
AcDbEntity
  8
0
100
AcDbBlockEnd
  0
BLOCK
  5
BA
330
B8
100
AcDbEntity
  8
0
100
AcDbBlockBegin
  2
block 5
 70
     0
 10
0.0
 20
0.0
 30
0.0
  3
block 5
  1

  0
POLYLINE
  5
BC
330
B8
100
AcDbEntity
  8
_U+30EC_U+30A4_U+30E4_U+30FC 1
370
     0
100
AcDb2dPolyline
 66
     1
 10
0.0
 20
0.0
 30
0.0
  0
VERTEX
  5
BD
330
BC
100
AcDbEntity
  8
_U+30EC_U+30A4_U+30E4_U+30FC 1
370
     0
100
AcDbVertex
100
AcDb2dVertex
 10
63.1932142311635
 20
-97.01974552696035
 30
0.0
  0
VERTEX
  5
BE
330
BC
100
AcDbEntity
  8
_U+30EC_U+30A4_U+30E4_U+30FC 1
370
     0
100
AcDbVertex
100
AcDb2dVertex
 10
63.1932142311635
 20
-97.366666642325
 30
0.0
  0
VERTEX
  5
BF
330
BC
100
AcDbEntity
  8
_U+30EC_U+30A4_U+30E4_U+30FC 1
370
     0
100
AcDbVertex
100
AcDb2dVertex
 10
63.00459525334607
 20
-97.366666642325
 30
0.0
  0
VERTEX
  5
C0
330
BC
100
AcDbEntity
  8
_U+30EC_U+30A4_U+30E4_U+30FC 1
370
     0
100
AcDbVertex
100
AcDb2dVertex
 10
63.00459525334607
 20
-97.01974552696035
 30
0.0
  0
VERTEX
  5
C1
330
BC
100
AcDbEntity
  8
_U+30EC_U+30A4_U+30E4_U+30FC 1
370
     0
100
AcDbVertex
100
AcDb2dVertex
 10
62.43736028169969
 20
-97.01974552696035
 30
0.0
  0
VERTEX
  5
C2
330
BC
100
AcDbEntity
  8
_U+30EC_U+30A4_U+30E4_U+30FC 1
370
     0
100
AcDbVertex
100
AcDb2dVertex
 10
62.43736028169969
 20
-96.79546981087059
 30
0.0
  0
VERTEX
  5
C3
330
BC
100
AcDbEntity
  8
_U+30EC_U+30A4_U+30E4_U+30FC 1
370
     0
100
AcDbVertex
100
AcDb2dVertex
 10
63.02474906193478
 20
-95.8222303362875
 30
0.0
  0
VERTEX
  5
C4
330
BC
100
AcDbEntity
  8
_U+30EC_U+30A4_U+30E4_U+30FC 1
370
     0
100
AcDbVertex
100
AcDb2dVertex
 10
63.1932142311635
 20
-95.8222303362875
 30
0.0
  0
VERTEX
  5
C5
330
BC
100
AcDbEntity
  8
_U+30EC_U+30A4_U+30E4_U+30FC 1
370
     0
100
AcDbVertex
100
AcDb2dVertex
 10
63.1932142311635
 20
-96.82096351746144
 30
0.0
  0
VERTEX
  5
C6
330
BC
100
AcDbEntity
  8
_U+30EC_U+30A4_U+30E4_U+30FC 1
370
     0
100
AcDbVertex
100
AcDb2dVertex
 10
63.37253145117076
 20
-96.82096351746144
 30
0.0
  0
VERTEX
  5
C7
330
BC
100
AcDbEntity
  8
_U+30EC_U+30A4_U+30E4_U+30FC 1
370
     0
100
AcDbVertex
100
AcDb2dVertex
 10
63.37253145117076
 20
-97.01974552696035
 30
0.0
  0
VERTEX
  5
C8
330
BC
100
AcDbEntity
  8
_U+30EC_U+30A4_U+30E4_U+30FC 1
370
     0
100
AcDbVertex
100
AcDb2dVertex
 10
63.1932142311635
 20
-97.01974552696035
 30
0.0
  0
SEQEND
  5
C9
330
BC
100
AcDbEntity
  8
_U+30EC_U+30A4_U+30E4_U+30FC 1
370
     0
  0
POLYLINE
  5
CA
330
B8
100
AcDbEntity
  8
_U+30EC_U+30A4_U+30E4_U+30FC 1
370
     0
100
AcDb2dPolyline
 66
     1
 10
0.0
 20
0.0
 30
0.0
  0
VERTEX
  5
CB
330
CA
100
AcDbEntity
  8
_U+30EC_U+30A4_U+30E4_U+30FC 1
370
     0
100
AcDbVertex
100
AcDb2dVertex
 10
63.00459525334607
 20
-96.16501733706986
 30
0.0
  0
VERTEX
  5
CC
330
CA
100
AcDbEntity
  8
_U+30EC_U+30A4_U+30E4_U+30FC 1
370
     0
100
AcDbVertex
100
AcDb2dVertex
 10
62.60944280118792
 20
-96.82096351746144
 30
0.0
  0
VERTEX
  5
CD
330
CA
100
AcDbEntity
  8
_U+30EC_U+30A4_U+30E4_U+30FC 1
370
     0
100
AcDbVertex
100
AcDb2dVertex
 10
63.00459525334607
 20
-96.82096351746144
 30
0.0
  0
VERTEX
  5
CE
330
CA
100
AcDbEntity
  8
_U+30EC_U+30A4_U+30E4_U+30FC 1
370
     0
100
AcDbVertex
100
AcDb2dVertex
 10
63.00459525334607
 20
-96.16501733706986
 30
0.0
  0
SEQEND
  5
CF
330
CA
100
AcDbEntity
  8
_U+30EC_U+30A4_U+30E4_U+30FC 1
370
     0
  0
HATCH
  5
D0
330
B8
100
AcDbEntity
  8
_U+30EC_U+30A4_U+30E4_U+30FC 1
 62
     7
420
 16777215
100
AcDbHatch
 10
0.0
 20
0.0
 30
0.0
210
0.0
220
0.0
230
1.0
  2
SOLID
 70
     1
 71
     0
 91
        2
 92
        1
 93
       11
 72
     1
 10
63.1932142311635
 20
-97.01974552696035
 11
63.1932142311635
 21
-97.366666642325
 72
     1
 10
63.1932142311635
 20
-97.366666642325
 11
63.00459525334607
 21
-97.366666642325
 72
     1
 10
63.00459525334607
 20
-97.366666642325
 11
63.00459525334607
 21
-97.01974552696035
 72
     1
 10
63.00459525334607
 20
-97.01974552696035
 11
62.43736028169969
 21
-97.01974552696035
 72
     1
 10
62.43736028169969
 20
-97.01974552696035
 11
62.43736028169969
 21
-96.79546981087059
 72
     1
 10
62.43736028169969
 20
-96.79546981087059
 11
63.02474906193478
 21
-95.8222303362875
 72
     1
 10
63.02474906193478
 20
-95.8222303362875
 11
63.1932142311635
 21
-95.8222303362875
 72
     1
 10
63.1932142311635
 20
-95.8222303362875
 11
63.1932142311635
 21
-96.82096351746144
 72
     1
 10
63.1932142311635
 20
-96.82096351746144
 11
63.37253145117076
 21
-96.82096351746144
 72
     1
 10
63.37253145117076
 20
-96.82096351746144
 11
63.37253145117076
 21
-97.01974552696035
 72
     1
 10
63.37253145117076
 20
-97.01974552696035
 11
63.1932142311635
 21
-97.01974552696035
 97
        0
 92
        1
 93
        3
 72
     1
 10
63.00459525334607
 20
-96.16501733706986
 11
62.60944280118792
 21
-96.82096351746144
 72
     1
 10
62.60944280118792
 20
-96.82096351746144
 11
63.00459525334607
 21
-96.82096351746144
 72
     1
 10
63.00459525334607
 20
-96.82096351746144
 11
63.00459525334607
 21
-96.16501733706986
 97
        0
 75
     2
 76
     1
 98
        0
  0
ENDBLK
  5
BB
330
B8
100
AcDbEntity
  8
0
100
AcDbBlockEnd
  0
BLOCK
  5
DB
330
D9
100
AcDbEntity
  8
0
100
AcDbBlockBegin
  2
block 6
 70
     0
 10
0.0
 20
0.0
 30
0.0
  3
block 6
  1

  0
SPLINE
  5
DD
330
D9
100
AcDbEntity
  8
_U+30EC_U+30A4_U+30E4_U+30FC 1
370
     0
100
AcDbSpline
210
0.0
220
0.0
230
1.0
 70
    11
 71
     3
 72
    32
 73
    28
 74
     0
 42
0.0000000001
 43
0.0000000001
 12
1.0
 22
0.0
 32
0.0
 13
1.0
 23
0.0
 33
0.0
 40
0.0
 40
0.0
 40
0.0
 40
0.0
 40
1.0
 40
1.0
 40
1.0
 40
2.0
 40
2.0
 40
2.0
 40
3.0
 40
3.0
 40
3.0
 40
4.0
 40
4.0
 40
4.0
 40
5.0
 40
5.0
 40
5.0
 40
6.0
 40
6.0
 40
6.0
 40
7.0
 40
7.0
 40
7.0
 40
8.0
 40
8.0
 40
8.0
 40
9.0
 40
9.0
 40
9.0
 40
9.0
 10
79.4377007179878
 20
-90.60463322387662
 30
0.0
 10
79.4377007179878
 20
-91.051117598765
 30
0.0
 10
78.88372936395963
 20
-91.05835229928402
 30
0.0
 10
78.66978893432561
 20
-91.05835229928402
 30
0.0
 10
78.4393120463624
 20
-91.05835229928402
 30
0.0
 10
77.79197860468395
 20
-91.04181584095483
 30
0.0
 10
77.79197860468395
 20
-90.57156030721822
 30
0.0
 10
77.79197860468395
 20
-90.42135414406133
 30
0.0
 10
77.86191404303453
 20
-90.20913626216995
 30
0.0
 10
78.19402124781261
 20
-90.17606334551154
 30
0.0
 10
78.19402124781261
 20
-90.17606334551154
 30
0.0
 10
78.19402124781261
 20
-90.36106497306946
 30
0.0
 10
78.19402124781261
 20
-90.36106497306946
 30
0.0
 10
78.13683266275746
 20
-90.37036673087964
 30
0.0
 10
77.98869355689172
 20
-90.3975829852131
 30
0.0
 10
77.98869355689172
 20
-90.57328285496085
 30
0.0
 10
77.98869355689172
 20
-90.82580835402966
 30
0.0
 10
78.3166666470875
 20
-90.86060381843069
 30
0.0
 10
78.52164982845987
 20
-90.87162812398348
 30
0.0
 10
78.4434461609447
 20
-90.79101288962865
 30
0.0
 10
78.3841905185984
 20
-90.7324462663794
 30
0.0
 10
78.3841905185984
 20
-90.57500540270348
 30
0.0
 10
78.3841905185984
 20
-90.41963159631871
 30
0.0
 10
78.49236651683525
 20
-90.15780433943972
 30
0.0
 10
78.8985432745462
 20
-90.15780433943972
 30
0.0
 10
79.21790362602886
 20
-90.15780433943972
 30
0.0
 10
79.4377007179878
 20
-90.3300591137022
 30
0.0
 10
79.4377007179878
 20
-90.60463322387662
 30
0.0
  0
SPLINE
  5
DE
330
D9
100
AcDbEntity
  8
_U+30EC_U+30A4_U+30E4_U+30FC 1
370
     0
100
AcDbSpline
210
0.0
220
0.0
230
1.0
 70
    11
 71
     3
 72
    17
 73
    13
 74
     0
 42
0.0000000001
 43
0.0000000001
 12
1.0
 22
0.0
 32
0.0
 13
1.0
 23
0.0
 33
0.0
 40
0.0
 40
0.0
 40
0.0
 40
0.0
 40
1.0
 40
1.0
 40
1.0
 40
2.0
 40
2.0
 40
2.0
 40
3.0
 40
3.0
 40
3.0
 40
4.0
 40
4.0
 40
4.0
 40
4.0
 10
78.57883841351502
 20
-90.58981931329005
 30
0.0
 10
78.57883841351502
 20
-90.81685110576801
 30
0.0
 10
78.79036727630935
 20
-90.84957951287788
 30
0.0
 10
78.9068115037108
 20
-90.84957951287788
 30
0.0
 10
79.08251137345854
 20
-90.84957951287788
 30
0.0
 10
79.24546438991086
 20
-90.76724173078041
 30
0.0
 10
79.24546438991086
 20
-90.60807831936188
 30
0.0
 10
79.24546438991086
 20
-90.50369192615881
 30
0.0
 10
79.18620874756456
 20
-90.35176321525928
 30
0.0
 10
78.90061033183736
 20
-90.35176321525928
 30
0.0
 10
78.67633461574759
 20
-90.35176321525928
 30
0.0
 10
78.57883841351502
 20
-90.47268606679155
 30
0.0
 10
78.57883841351502
 20
-90.58981931329005
 30
0.0
  0
HATCH
  5
DF
330
D9
100
AcDbEntity
  8
_U+30EC_U+30A4_U+30E4_U+30FC 1
 62
     7
420
 16777215
100
AcDbHatch
 10
0.0
 20
0.0
 30
0.0
210
0.0
220
0.0
230
1.0
  2
SOLID
 70
     1
 71
     0
 91
        2
 92
        1
 93
        1
 72
     4
 94
        3
 73
     0
 74
     1
 95
       32
 96
       28
 40
0.0
 40
0.0
 40
0.0
 40
0.0
 40
1.0
 40
1.0
 40
1.0
 40
2.0
 40
2.0
 40
2.0
 40
3.0
 40
3.0
 40
3.0
 40
4.0
 40
4.0
 40
4.0
 40
5.0
 40
5.0
 40
5.0
 40
6.0
 40
6.0
 40
6.0
 40
7.0
 40
7.0
 40
7.0
 40
8.0
 40
8.0
 40
8.0
 40
9.0
 40
9.0
 40
9.0
 40
9.0
 10
79.4377007179878
 20
-90.60463322387662
 10
79.4377007179878
 20
-91.051117598765
 10
78.88372936395963
 20
-91.05835229928402
 10
78.66978893432561
 20
-91.05835229928402
 10
78.4393120463624
 20
-91.05835229928402
 10
77.79197860468395
 20
-91.04181584095483
 10
77.79197860468395
 20
-90.57156030721822
 10
77.79197860468395
 20
-90.42135414406133
 10
77.86191404303453
 20
-90.20913626216995
 10
78.19402124781261
 20
-90.17606334551154
 10
78.19402124781261
 20
-90.17606334551154
 10
78.19402124781261
 20
-90.36106497306946
 10
78.19402124781261
 20
-90.36106497306946
 10
78.13683266275746
 20
-90.37036673087964
 10
77.98869355689172
 20
-90.3975829852131
 10
77.98869355689172
 20
-90.57328285496085
 10
77.98869355689172
 20
-90.82580835402966
 10
78.3166666470875
 20
-90.86060381843069
 10
78.52164982845987
 20
-90.87162812398348
 10
78.4434461609447
 20
-90.79101288962865
 10
78.3841905185984
 20
-90.7324462663794
 10
78.3841905185984
 20
-90.57500540270348
 10
78.3841905185984
 20
-90.41963159631871
 10
78.49236651683525
 20
-90.15780433943972
 10
78.8985432745462
 20
-90.15780433943972
 10
79.21790362602886
 20
-90.15780433943972
 10
79.4377007179878
 20
-90.3300591137022
 10
79.4377007179878
 20
-90.60463322387662
 97
        0
 97
        0
 92
        1
 93
        1
 72
     4
 94
        3
 73
     0
 74
     1
 95
       17
 96
       13
 40
0.0
 40
0.0
 40
0.0
 40
0.0
 40
1.0
 40
1.0
 40
1.0
 40
2.0
 40
2.0
 40
2.0
 40
3.0
 40
3.0
 40
3.0
 40
4.0
 40
4.0
 40
4.0
 40
4.0
 10
78.57883841351502
 20
-90.58981931329005
 10
78.57883841351502
 20
-90.81685110576801
 10
78.79036727630935
 20
-90.84957951287788
 10
78.9068115037108
 20
-90.84957951287788
 10
79.08251137345854
 20
-90.84957951287788
 10
79.24546438991086
 20
-90.76724173078041
 10
79.24546438991086
 20
-90.60807831936188
 10
79.24546438991086
 20
-90.50369192615881
 10
79.18620874756456
 20
-90.35176321525928
 10
78.90061033183736
 20
-90.35176321525928
 10
78.67633461574759
 20
-90.35176321525928
 10
78.57883841351502
 20
-90.47268606679155
 10
78.57883841351502
 20
-90.58981931329005
 97
        0
 97
        0
 75
     2
 76
     1
 98
        0
  0
POLYLINE
  5
E0
330
D9
100
AcDbEntity
  8
_U+30EC_U+30A4_U+30E4_U+30FC 1
370
     0
100
AcDb2dPolyline
 66
     1
 10
0.0
 20
0.0
 30
0.0
  0
VERTEX
  5
E1
330
E0
100
AcDbEntity
  8
_U+30EC_U+30A4_U+30E4_U+30FC 1
370
     0
100
AcDbVertex
100
AcDb2dVertex
 10
79.38705781435463
 20
-89.97142467368771
 30
0.0
  0
VERTEX
  5
E2
330
E0
100
AcDbEntity
  8
_U+30EC_U+30A4_U+30E4_U+30FC 1
370
     0
100
AcDbVertex
100
AcDb2dVertex
 10
79.13522133438286
 20
-89.97142467368771
 30
0.0
  0
VERTEX
  5
E3
330
E0
100
AcDbEntity
  8
_U+30EC_U+30A4_U+30E4_U+30FC 1
370
     0
100
AcDbVertex
100
AcDb2dVertex
 10
79.13522133438286
 20
-89.75369463901991
 30
0.0
  0
VERTEX
  5
E4
330
E0
100
AcDbEntity
  8
_U+30EC_U+30A4_U+30E4_U+30FC 1
370
     0
100
AcDbVertex
100
AcDb2dVertex
 10
79.38705781435463
 20
-89.75369463901991
 30
0.0
  0
VERTEX
  5
E5
330
E0
100
AcDbEntity
  8
_U+30EC_U+30A4_U+30E4_U+30FC 1
370
     0
100
AcDbVertex
100
AcDb2dVertex
 10
79.38705781435463
 20
-89.97142467368771
 30
0.0
  0
SEQEND
  5
E6
330
E0
100
AcDbEntity
  8
_U+30EC_U+30A4_U+30E4_U+30FC 1
370
     0
  0
HATCH
  5
E7
330
D9
100
AcDbEntity
  8
_U+30EC_U+30A4_U+30E4_U+30FC 1
 62
     7
420
 16777215
100
AcDbHatch
 10
0.0
 20
0.0
 30
0.0
210
0.0
220
0.0
230
1.0
  2
SOLID
 70
     1
 71
     0
 91
        1
 92
        1
 93
        4
 72
     1
 10
79.38705781435463
 20
-89.97142467368771
 11
79.13522133438286
 21
-89.97142467368771
 72
     1
 10
79.13522133438286
 20
-89.97142467368771
 11
79.13522133438286
 21
-89.75369463901991
 72
     1
 10
79.13522133438286
 20
-89.75369463901991
 11
79.38705781435463
 21
-89.75369463901991
 72
     1
 10
79.38705781435463
 20
-89.75369463901991
 11
79.38705781435463
 21
-89.97142467368771
 97
        0
 75
     2
 76
     1
 98
        0
  0
SPLINE
  5
E8
330
D9
100
AcDbEntity
  8
_U+30EC_U+30A4_U+30E4_U+30FC 1
370
     0
100
AcDbSpline
210
0.0
220
0.0
230
1.0
 70
    11
 71
     3
 72
    44
 73
    40
 74
     0
 42
0.0000000001
 43
0.0000000001
 12
1.0
 22
0.0
 32
0.0
 13
1.0
 23
0.0
 33
0.0
 40
0.0
 40
0.0
 40
0.0
 40
0.0
 40
1.0
 40
1.0
 40
1.0
 40
2.0
 40
2.0
 40
2.0
 40
3.0
 40
3.0
 40
3.0
 40
4.0
 40
4.0
 40
4.0
 40
5.0
 40
5.0
 40
5.0
 40
6.0
 40
6.0
 40
6.0
 40
7.0
 40
7.0
 40
7.0
 40
8.0
 40
8.0
 40
8.0
 40
9.0
 40
9.0
 40
9.0
 40
10.0
 40
10.0
 40
10.0
 40
11.0
 40
11.0
 40
11.0
 40
12.0
 40
12.0
 40
12.0
 40
13.0
 40
13.0
 40
13.0
 40
13.0
 10
78.80518118689594
 20
-89.0364257589909
 30
0.0
 10
78.96400008876594
 20
-89.22521699158258
 30
0.0
 10
79.03806964169883
 20
-89.30548771638891
 30
0.0
 10
79.18173012343374
 20
-89.34786239085749
 30
0.0
 10
79.18173012343374
 20
-89.34786239085749
 30
0.0
 10
79.18173012343374
 20
-88.67400171394262
 30
0.0
 10
79.18173012343374
 20
-88.67400171394262
 30
0.0
 10
79.18173012343374
 20
-88.67400171394262
 30
0.0
 10
79.38705781435463
 20
-88.67400171394262
 30
0.0
 10
79.38705781435463
 20
-88.67400171394262
 30
0.0
 10
79.38705781435463
 20
-88.67400171394262
 30
0.0
 10
79.38705781435463
 20
-89.56352536823412
 30
0.0
 10
79.38705781435463
 20
-89.56352536823412
 30
0.0
 10
79.0294569029857
 20
-89.53630911390064
 30
0.0
 10
78.95125323547052
 20
-89.47946503839403
 30
0.0
 10
78.65290796644788
 20
-89.14632430497036
 30
0.0
 10
78.45412595694897
 20
-88.92480466526881
 30
0.0
 10
78.38625757588954
 20
-88.8683050993107
 30
0.0
 10
78.24879826602807
 20
-88.8683050993107
 30
0.0
 10
78.13028698133549
 20
-88.8683050993107
 30
0.0
 10
77.99937335289599
 20
-88.9303168180452
 30
0.0
 10
77.99937335289599
 20
-89.10050453501654
 30
0.0
 10
77.99937335289599
 20
-89.32581377975188
 30
0.0
 10
78.22985024085921
 20
-89.3330484802709
 30
0.0
 10
78.34629446826065
 20
-89.33683808530468
 30
0.0
 10
78.34629446826065
 20
-89.33683808530468
 30
0.0
 10
78.34629446826065
 20
-89.53079696112425
 30
0.0
 10
78.34629446826065
 20
-89.53079696112425
 30
0.0
 10
78.21917044485494
 20
-89.52356226060523
 30
0.0
 10
78.10720484158432
 20
-89.51426050279505
 30
0.0
 10
77.98869355689172
 20
-89.444669573993
 30
0.0
 10
77.82780759773055
 20
-89.3495849386001
 30
0.0
 10
77.7940456619751
 20
-89.18835446989041
 30
0.0
 10
77.7940456619751
 20
-89.08775768172111
 30
0.0
 10
77.7940456619751
 20
-88.84797903594773
 30
0.0
 10
77.97801376088745
 20
-88.66883407071474
 30
0.0
 10
78.25086532331923
 20
-88.66883407071474
 30
0.0
 10
78.47961966353982
 20
-88.66883407071474
 30
0.0
 10
78.57883841351502
 20
-88.76943085888404
 30
0.0
 10
78.80518118689594
 20
-89.0364257589909
 30
0.0
  0
HATCH
  5
E9
330
D9
100
AcDbEntity
  8
_U+30EC_U+30A4_U+30E4_U+30FC 1
 62
     7
420
 16777215
100
AcDbHatch
 10
0.0
 20
0.0
 30
0.0
210
0.0
220
0.0
230
1.0
  2
SOLID
 70
     1
 71
     0
 91
        1
 92
        1
 93
        1
 72
     4
 94
        3
 73
     0
 74
     1
 95
       44
 96
       40
 40
0.0
 40
0.0
 40
0.0
 40
0.0
 40
1.0
 40
1.0
 40
1.0
 40
2.0
 40
2.0
 40
2.0
 40
3.0
 40
3.0
 40
3.0
 40
4.0
 40
4.0
 40
4.0
 40
5.0
 40
5.0
 40
5.0
 40
6.0
 40
6.0
 40
6.0
 40
7.0
 40
7.0
 40
7.0
 40
8.0
 40
8.0
 40
8.0
 40
9.0
 40
9.0
 40
9.0
 40
10.0
 40
10.0
 40
10.0
 40
11.0
 40
11.0
 40
11.0
 40
12.0
 40
12.0
 40
12.0
 40
13.0
 40
13.0
 40
13.0
 40
13.0
 10
78.80518118689594
 20
-89.0364257589909
 10
78.96400008876594
 20
-89.22521699158258
 10
79.03806964169883
 20
-89.30548771638891
 10
79.18173012343374
 20
-89.34786239085749
 10
79.18173012343374
 20
-89.34786239085749
 10
79.18173012343374
 20
-88.67400171394262
 10
79.18173012343374
 20
-88.67400171394262
 10
79.18173012343374
 20
-88.67400171394262
 10
79.38705781435463
 20
-88.67400171394262
 10
79.38705781435463
 20
-88.67400171394262
 10
79.38705781435463
 20
-88.67400171394262
 10
79.38705781435463
 20
-89.56352536823412
 10
79.38705781435463
 20
-89.56352536823412
 10
79.0294569029857
 20
-89.53630911390064
 10
78.95125323547052
 20
-89.47946503839403
 10
78.65290796644788
 20
-89.14632430497036
 10
78.45412595694897
 20
-88.92480466526881
 10
78.38625757588954
 20
-88.8683050993107
 10
78.24879826602807
 20
-88.8683050993107
 10
78.13028698133549
 20
-88.8683050993107
 10
77.99937335289599
 20
-88.9303168180452
 10
77.99937335289599
 20
-89.10050453501654
 10
77.99937335289599
 20
-89.32581377975188
 10
78.22985024085921
 20
-89.3330484802709
 10
78.34629446826065
 20
-89.33683808530468
 10
78.34629446826065
 20
-89.33683808530468
 10
78.34629446826065
 20
-89.53079696112425
 10
78.34629446826065
 20
-89.53079696112425
 10
78.21917044485494
 20
-89.52356226060523
 10
78.10720484158432
 20
-89.51426050279505
 10
77.98869355689172
 20
-89.444669573993
 10
77.82780759773055
 20
-89.3495849386001
 10
77.7940456619751
 20
-89.18835446989041
 10
77.7940456619751
 20
-89.08775768172111
 10
77.7940456619751
 20
-88.84797903594773
 10
77.97801376088745
 20
-88.66883407071474
 10
78.25086532331923
 20
-88.66883407071474
 10
78.47961966353982
 20
-88.66883407071474
 10
78.57883841351502
 20
-88.76943085888404
 10
78.80518118689594
 20
-89.0364257589909
 97
        0
 97
        0
 75
     2
 76
     1
 98
        0
  0
ENDBLK
  5
DC
330
D9
100
AcDbEntity
  8
0
100
AcDbBlockEnd
  0
ENDSEC
  0
SECTION
  2
ENTITIES
  0
POLYLINE
  5
41
330
1F
100
AcDbEntity
  8
_U+30EC_U+30A4_U+30E4_U+30FC 1
 62
     7
420
 16777215
370
    25
100
AcDb2dPolyline
 66
     1
 10
0.0
 20
0.0
 30
0.0
  0
VERTEX
  5
42
330
41
100
AcDbEntity
  8
_U+30EC_U+30A4_U+30E4_U+30FC 1
 62
     7
420
 16777215
370
    25
100
AcDbVertex
100
AcDb2dVertex
 10
45.98324160464755
 20
-85.70277497857427
 30
0.0
  0
VERTEX
  5
43
330
41
100
AcDbEntity
  8
_U+30EC_U+30A4_U+30E4_U+30FC 1
 62
     7
420
 16777215
370
    25
100
AcDbVertex
100
AcDb2dVertex
 10
75.98296917262407
 20
-85.70277497857427
 30
0.0
  0
SEQEND
  5
44
330
41
100
AcDbEntity
  8
_U+30EC_U+30A4_U+30E4_U+30FC 1
 62
     7
420
 16777215
370
    25
  0
POLYLINE
  5
45
330
1F
100
AcDbEntity
  8
_U+30EC_U+30A4_U+30E4_U+30FC 1
 62
     7
420
 16777215
370
    25
100
AcDb2dPolyline
 66
     1
 10
0.0
 20
0.0
 30
0.0
  0
VERTEX
  5
46
330
45
100
AcDbEntity
  8
_U+30EC_U+30A4_U+30E4_U+30FC 1
 62
     7
420
 16777215
370
    25
100
AcDbVertex
100
AcDb2dVertex
 10
45.98324160464755
 20
-86.70254720054649
 30
0.0
  0
VERTEX
  5
47
330
45
100
AcDbEntity
  8
_U+30EC_U+30A4_U+30E4_U+30FC 1
 62
     7
420
 16777215
370
    25
100
AcDbVertex
100
AcDb2dVertex
 10
60.98317594418957
 20
-86.70254720054649
 30
0.0
  0
SEQEND
  5
48
330
45
100
AcDbEntity
  8
_U+30EC_U+30A4_U+30E4_U+30FC 1
 62
     7
420
 16777215
370
    25
  0
POLYLINE
  5
49
330
1F
100
AcDbEntity
  8
_U+30EC_U+30A4_U+30E4_U+30FC 1
 62
     7
420
 16777215
370
    25
100
AcDb2dPolyline
 66
     1
 10
0.0
 20
0.0
 30
0.0
  0
VERTEX
  5
4A
330
49
100
AcDbEntity
  8
_U+30EC_U+30A4_U+30E4_U+30FC 1
 62
     7
420
 16777215
370
    25
100
AcDbVertex
100
AcDb2dVertex
 10
61.98330091867425
 20
-86.70254720054649
 30
0.0
  0
VERTEX
  5
4B
330
49
100
AcDbEntity
  8
_U+30EC_U+30A4_U+30E4_U+30FC 1
 62
     7
420
 16777215
370
    25
100
AcDbVertex
100
AcDb2dVertex
 10
75.98296917262407
 20
-86.70254720054649
 30
0.0
  0
SEQEND
  5
4C
330
49
100
AcDbEntity
  8
_U+30EC_U+30A4_U+30E4_U+30FC 1
 62
     7
420
 16777215
370
    25
  0
POLYLINE
  5
4D
330
1F
100
AcDbEntity
  8
_U+30EC_U+30A4_U+30E4_U+30FC 1
 62
     7
420
 16777215
370
    25
100
AcDb2dPolyline
 66
     1
 10
0.0
 20
0.0
 30
0.0
  0
VERTEX
  5
4E
330
4D
100
AcDbEntity
  8
_U+30EC_U+30A4_U+30E4_U+30FC 1
 62
     7
420
 16777215
370
    25
100
AcDbVertex
100
AcDb2dVertex
 10
45.98324160464755
 20
-85.70277497857427
 30
0.0
  0
VERTEX
  5
4F
330
4D
100
AcDbEntity
  8
_U+30EC_U+30A4_U+30E4_U+30FC 1
 62
     7
420
 16777215
370
    25
100
AcDbVertex
100
AcDb2dVertex
 10
45.98324160464755
 20
-86.70254720054649
 30
0.0
  0
SEQEND
  5
50
330
4D
100
AcDbEntity
  8
_U+30EC_U+30A4_U+30E4_U+30FC 1
 62
     7
420
 16777215
370
    25
  0
POLYLINE
  5
51
330
1F
100
AcDbEntity
  8
_U+30EC_U+30A4_U+30E4_U+30FC 1
 62
     7
420
 16777215
370
    25
100
AcDb2dPolyline
 66
     1
 10
0.0
 20
0.0
 30
0.0
  0
VERTEX
  5
52
330
51
100
AcDbEntity
  8
_U+30EC_U+30A4_U+30E4_U+30FC 1
 62
     7
420
 16777215
370
    25
100
AcDbVertex
100
AcDb2dVertex
 10
75.98296917262407
 20
-85.70277497857427
 30
0.0
  0
VERTEX
  5
53
330
51
100
AcDbEntity
  8
_U+30EC_U+30A4_U+30E4_U+30FC 1
 62
     7
420
 16777215
370
    25
100
AcDbVertex
100
AcDb2dVertex
 10
75.98296917262407
 20
-86.70254720054649
 30
0.0
  0
SEQEND
  5
54
330
51
100
AcDbEntity
  8
_U+30EC_U+30A4_U+30E4_U+30FC 1
 62
     7
420
 16777215
370
    25
  0
POLYLINE
  5
55
330
1F
100
AcDbEntity
  8
_U+30EC_U+30A4_U+30E4_U+30FC 1
 62
     7
420
 16777215
370
    25
100
AcDb2dPolyline
 66
     1
 10
0.0
 20
0.0
 30
0.0
  0
VERTEX
  5
56
330
55
100
AcDbEntity
  8
_U+30EC_U+30A4_U+30E4_U+30FC 1
 62
     7
420
 16777215
370
    25
100
AcDbVertex
100
AcDb2dVertex
 10
61.98330091867425
 20
-92.96315331009228
 30
0.0
  0
VERTEX
  5
57
330
55
100
AcDbEntity
  8
_U+30EC_U+30A4_U+30E4_U+30FC 1
 62
     7
420
 16777215
370
    25
100
AcDbVertex
100
AcDb2dVertex
 10
64.98346417546705
 20
-92.96315331009228
 30
0.0
  0
SEQEND
  5
58
330
55
100
AcDbEntity
  8
_U+30EC_U+30A4_U+30E4_U+30FC 1
 62
     7
420
 16777215
370
    25
  0
POLYLINE
  5
59
330
1F
100
AcDbEntity
  8
_U+30EC_U+30A4_U+30E4_U+30FC 1
 62
     7
420
 16777215
370
    25
100
AcDb2dPolyline
 66
     1
 10
0.0
 20
0.0
 30
0.0
  0
VERTEX
  5
5A
330
59
100
AcDbEntity
  8
_U+30EC_U+30A4_U+30E4_U+30FC 1
 62
     7
420
 16777215
370
    25
100
AcDbVertex
100
AcDb2dVertex
 10
60.98317594418957
 20
-86.76318970053143
 30
0.0
  0
VERTEX
  5
5B
330
59
100
AcDbEntity
  8
_U+30EC_U+30A4_U+30E4_U+30FC 1
 62
     7
420
 16777215
370
    25
100
AcDbVertex
100
AcDb2dVertex
 10
60.98317594418957
 20
-93.96292553206482
 30
0.0
  0
SEQEND
  5
5C
330
59
100
AcDbEntity
  8
_U+30EC_U+30A4_U+30E4_U+30FC 1
 62
     7
420
 16777215
370
    25
  0
POLYLINE
  5
5D
330
1F
100
AcDbEntity
  8
_U+30EC_U+30A4_U+30E4_U+30FC 1
 62
     7
420
 16777215
370
    25
100
AcDb2dPolyline
 66
     1
 10
0.0
 20
0.0
 30
0.0
  0
VERTEX
  5
5E
330
5D
100
AcDbEntity
  8
_U+30EC_U+30A4_U+30E4_U+30FC 1
 62
     7
420
 16777215
370
    25
100
AcDbVertex
100
AcDb2dVertex
 10
61.98330091867425
 20
-86.76283692275366
 30
0.0
  0
VERTEX
  5
5F
330
5D
100
AcDbEntity
  8
_U+30EC_U+30A4_U+30E4_U+30FC 1
 62
     7
420
 16777215
370
    25
100
AcDbVertex
100
AcDb2dVertex
 10
61.98330091867425
 20
-92.96315331009228
 30
0.0
  0
SEQEND
  5
60
330
5D
100
AcDbEntity
  8
_U+30EC_U+30A4_U+30E4_U+30FC 1
 62
     7
420
 16777215
370
    25
  0
POLYLINE
  5
61
330
1F
100
AcDbEntity
  8
_U+30EC_U+30A4_U+30E4_U+30FC 1
 62
     7
420
 16777215
370
    25
100
AcDb2dPolyline
 66
     1
 10
0.0
 20
0.0
 30
0.0
  0
VERTEX
  5
62
330
61
100
AcDbEntity
  8
_U+30EC_U+30A4_U+30E4_U+30FC 1
 62
     7
420
 16777215
370
    25
100
AcDbVertex
100
AcDb2dVertex
 10
64.98346417546705
 20
-92.96315331009228
 30
0.0
  0
VERTEX
  5
63
330
61
100
AcDbEntity
  8
_U+30EC_U+30A4_U+30E4_U+30FC 1
 62
     7
420
 16777215
370
    25
100
AcDbVertex
100
AcDb2dVertex
 10
64.98346417546705
 20
-93.96292553206482
 30
0.0
  0
SEQEND
  5
64
330
61
100
AcDbEntity
  8
_U+30EC_U+30A4_U+30E4_U+30FC 1
 62
     7
420
 16777215
370
    25
  0
POLYLINE
  5
65
330
1F
100
AcDbEntity
  8
_U+30EC_U+30A4_U+30E4_U+30FC 1
 62
     7
420
 16777215
370
    25
100
AcDb2dPolyline
 66
     1
 10
0.0
 20
0.0
 30
0.0
  0
VERTEX
  5
66
330
65
100
AcDbEntity
  8
_U+30EC_U+30A4_U+30E4_U+30FC 1
 62
     7
420
 16777215
370
    25
100
AcDbVertex
100
AcDb2dVertex
 10
60.98317594418957
 20
-93.96292553206482
 30
0.0
  0
VERTEX
  5
67
330
65
100
AcDbEntity
  8
_U+30EC_U+30A4_U+30E4_U+30FC 1
 62
     7
420
 16777215
370
    25
100
AcDbVertex
100
AcDb2dVertex
 10
64.98346417546705
 20
-93.96292553206482
 30
0.0
  0
SEQEND
  5
68
330
65
100
AcDbEntity
  8
_U+30EC_U+30A4_U+30E4_U+30FC 1
 62
     7
420
 16777215
370
    25
  0
SPLINE
  5
69
330
1F
100
AcDbEntity
  8
_U+30EC_U+30A4_U+30E4_U+30FC 1
 62
     7
420
 16777215
370
     9
100
AcDbSpline
210
0.0
220
0.0
230
1.0
 70
    11
 71
     3
 72
    17
 73
    13
 74
     0
 42
0.0000000001
 43
0.0000000001
 12
1.0
 22
0.0
 32
0.0
 13
1.0
 23
0.0
 33
0.0
 40
0.0
 40
0.0
 40
0.0
 40
0.0
 40
1.0
 40
1.0
 40
1.0
 40
2.0
 40
2.0
 40
2.0
 40
3.0
 40
3.0
 40
3.0
 40
4.0
 40
4.0
 40
4.0
 40
4.0
 10
80.08295240135811
 20
-85.70277497857427
 30
0.0
 10
80.08295240135811
 20
-85.64696553414383
 30
0.0
 10
80.03818490250023
 20
-85.60219803415495
 30
0.0
 10
79.98304573724029
 20
-85.60219803415495
 30
0.0
 10
79.9279418497572
 20
-85.60219803415495
 30
0.0
 10
79.88313907312245
 20
-85.64696553414383
 30
0.0
 10
79.88313907312245
 20
-85.70277497857427
 30
0.0
 10
79.88313907312245
 20
-85.75791414522735
 30
0.0
 10
79.9279418497572
 20
-85.80268164521591
 30
0.0
 10
79.98304573724029
 20
-85.80268164521591
 30
0.0
 10
80.03818490250023
 20
-85.80268164521591
 30
0.0
 10
80.08295240135811
 20
-85.75791414522735
 30
0.0
 10
80.08295240135811
 20
-85.70277497857427
 30
0.0
  0
SPLINE
  5
6A
330
1F
100
AcDbEntity
  8
_U+30EC_U+30A4_U+30E4_U+30FC 1
 62
     7
420
 16777215
370
     9
100
AcDbSpline
210
0.0
220
0.0
230
1.0
 70
    11
 71
     3
 72
    17
 73
    13
 74
     0
 42
0.0000000001
 43
0.0000000001
 12
1.0
 22
0.0
 32
0.0
 13
1.0
 23
0.0
 33
0.0
 40
0.0
 40
0.0
 40
0.0
 40
0.0
 40
1.0
 40
1.0
 40
1.0
 40
2.0
 40
2.0
 40
2.0
 40
3.0
 40
3.0
 40
3.0
 40
4.0
 40
4.0
 40
4.0
 40
4.0
 10
80.08295240135811
 20
-86.70254720054649
 30
0.0
 10
80.08295240135811
 20
-86.64740803389374
 30
0.0
 10
80.03818490250023
 20
-86.60264053390486
 30
0.0
 10
79.98304573724029
 20
-86.60264053390486
 30
0.0
 10
79.9279418497572
 20
-86.60264053390486
 30
0.0
 10
79.88313907312245
 20
-86.64740803389374
 30
0.0
 10
79.88313907312245
 20
-86.70254720054649
 30
0.0
 10
79.88313907312245
 20
-86.75765108942173
 30
0.0
 10
79.9279418497572
 20
-86.80245386718813
 30
0.0
 10
79.98304573724029
 20
-86.80245386718813
 30
0.0
 10
80.03818490250023
 20
-86.80245386718813
 30
0.0
 10
80.08295240135811
 20
-86.75765108942173
 30
0.0
 10
80.08295240135811
 20
-86.70254720054649
 30
0.0
  0
SPLINE
  5
6B
330
1F
100
AcDbEntity
  8
_U+30EC_U+30A4_U+30E4_U+30FC 1
 62
     7
420
 16777215
370
     9
100
AcDbSpline
210
0.0
220
0.0
230
1.0
 70
    11
 71
     3
 72
    17
 73
    13
 74
     0
 42
0.0000000001
 43
0.0000000001
 12
1.0
 22
0.0
 32
0.0
 13
1.0
 23
0.0
 33
0.0
 40
0.0
 40
0.0
 40
0.0
 40
0.0
 40
1.0
 40
1.0
 40
1.0
 40
2.0
 40
2.0
 40
2.0
 40
3.0
 40
3.0
 40
3.0
 40
4.0
 40
4.0
 40
4.0
 40
4.0
 10
46.08314826876538
 20
-81.70234553513002
 30
0.0
 10
46.08314826876538
 20
-81.64720636847694
 30
0.0
 10
46.03834549213062
 20
-81.60243886848839
 30
0.0
 10
45.98324160464755
 20
-81.60243886848839
 30
0.0
 10
45.9281024393876
 20
-81.60243886848839
 30
0.0
 10
45.88333609964032
 20
-81.64720636847694
 30
0.0
 10
45.88333609964032
 20
-81.70234553513002
 30
0.0
 10
45.88333609964032
 20
-81.75744942400495
 30
0.0
 10
45.9281024393876
 20
-81.80225220177167
 30
0.0
 10
45.98324160464755
 20
-81.80225220177167
 30
0.0
 10
46.03834549213062
 20
-81.80225220177167
 30
0.0
 10
46.08314826876538
 20
-81.75744942400495
 30
0.0
 10
46.08314826876538
 20
-81.70234553513002
 30
0.0
  0
SPLINE
  5
6C
330
1F
100
AcDbEntity
  8
_U+30EC_U+30A4_U+30E4_U+30FC 1
 62
     7
420
 16777215
370
     9
100
AcDbSpline
210
0.0
220
0.0
230
1.0
 70
    11
 71
     3
 72
    17
 73
    13
 74
     0
 42
0.0000000001
 43
0.0000000001
 12
1.0
 22
0.0
 32
0.0
 13
1.0
 23
0.0
 33
0.0
 40
0.0
 40
0.0
 40
0.0
 40
0.0
 40
1.0
 40
1.0
 40
1.0
 40
2.0
 40
2.0
 40
2.0
 40
3.0
 40
3.0
 40
3.0
 40
4.0
 40
4.0
 40
4.0
 40
4.0
 10
76.08354611450258
 20
-81.70234553513002
 30
0.0
 10
76.08354611450258
 20
-81.64720636847694
 30
0.0
 10
76.03878053654574
 20
-81.60243886848839
 30
0.0
 10
75.98296917262407
 20
-81.60243886848839
 30
0.0
 10
75.92783000736412
 20
-81.60243886848839
 30
0.0
 10
75.88306250850624
 20
-81.64720636847694
 30
0.0
 10
75.88306250850624
 20
-81.70234553513002
 30
0.0
 10
75.88306250850624
 20
-81.75744942400495
 30
0.0
 10
75.92783000736412
 20
-81.80225220177167
 30
0.0
 10
75.98296917262407
 20
-81.80225220177167
 30
0.0
 10
76.03878053654574
 20
-81.80225220177167
 30
0.0
 10
76.08354611450258
 20
-81.75744942400495
 30
0.0
 10
76.08354611450258
 20
-81.70234553513002
 30
0.0
  0
SPLINE
  5
6D
330
1F
100
AcDbEntity
  8
_U+30EC_U+30A4_U+30E4_U+30FC 1
 62
     7
420
 16777215
370
     9
100
AcDbSpline
210
0.0
220
0.0
230
1.0
 70
    11
 71
     3
 72
    17
 73
    13
 74
     0
 42
0.0000000001
 43
0.0000000001
 12
1.0
 22
0.0
 32
0.0
 13
1.0
 23
0.0
 33
0.0
 40
0.0
 40
0.0
 40
0.0
 40
0.0
 40
1.0
 40
1.0
 40
1.0
 40
2.0
 40
2.0
 40
2.0
 40
3.0
 40
3.0
 40
3.0
 40
4.0
 40
4.0
 40
4.0
 40
4.0
 10
80.08295240135811
 20
-92.96315331009228
 30
0.0
 10
80.08295240135811
 20
-92.90801414343984
 30
0.0
 10
80.03818490250023
 20
-92.86324664345064
 30
0.0
 10
79.98304573724029
 20
-92.86324664345064
 30
0.0
 10
79.9279418497572
 20
-92.86324664345064
 30
0.0
 10
79.88313907312245
 20
-92.90801414343984
 30
0.0
 10
79.88313907312245
 20
-92.96315331009228
 30
0.0
 10
79.88313907312245
 20
-93.01825719896783
 30
0.0
 10
79.9279418497572
 20
-93.06305997673455
 30
0.0
 10
79.98304573724029
 20
-93.06305997673455
 30
0.0
 10
80.03818490250023
 20
-93.06305997673455
 30
0.0
 10
80.08295240135811
 20
-93.01825719896783
 30
0.0
 10
80.08295240135811
 20
-92.96315331009228
 30
0.0
  0
SPLINE
  5
6E
330
1F
100
AcDbEntity
  8
_U+30EC_U+30A4_U+30E4_U+30FC 1
 62
     7
420
 16777215
370
     9
100
AcDbSpline
210
0.0
220
0.0
230
1.0
 70
    11
 71
     3
 72
    17
 73
    13
 74
     0
 42
0.0000000001
 43
0.0000000001
 12
1.0
 22
0.0
 32
0.0
 13
1.0
 23
0.0
 33
0.0
 40
0.0
 40
0.0
 40
0.0
 40
0.0
 40
1.0
 40
1.0
 40
1.0
 40
2.0
 40
2.0
 40
2.0
 40
3.0
 40
3.0
 40
3.0
 40
4.0
 40
4.0
 40
4.0
 40
4.0
 10
65.08337083958487
 20
-97.9626846977317
 30
0.0
 10
65.08337083958487
 20
-97.90754553107863
 30
0.0
 10
65.03856806295012
 20
-97.86277803109006
 30
0.0
 10
64.98346417546705
 20
-97.86277803109006
 30
0.0
 10
64.92832501020709
 20
-97.86277803109006
 30
0.0
 10
64.88355751134921
 20
-97.90754553107863
 30
0.0
 10
64.88355751134921
 20
-97.9626846977317
 30
0.0
 10
64.88355751134921
 20
-98.01849414216214
 30
0.0
 10
64.92832501020709
 20
-98.06326164215069
 30
0.0
 10
64.98346417546705
 20
-98.06326164215069
 30
0.0
 10
65.03856806295012
 20
-98.06326164215069
 30
0.0
 10
65.08337083958487
 20
-98.01849414216214
 30
0.0
 10
65.08337083958487
 20
-97.9626846977317
 30
0.0
  0
SPLINE
  5
6F
330
1F
100
AcDbEntity
  8
_U+30EC_U+30A4_U+30E4_U+30FC 1
 62
     7
420
 16777215
370
     9
100
AcDbSpline
210
0.0
220
0.0
230
1.0
 70
    11
 71
     3
 72
    17
 73
    13
 74
     0
 42
0.0000000001
 43
0.0000000001
 12
1.0
 22
0.0
 32
0.0
 13
1.0
 23
0.0
 33
0.0
 40
0.0
 40
0.0
 40
0.0
 40
0.0
 40
1.0
 40
1.0
 40
1.0
 40
2.0
 40
2.0
 40
2.0
 40
3.0
 40
3.0
 40
3.0
 40
4.0
 40
4.0
 40
4.0
 40
4.0
 10
61.08343538607618
 20
-97.9626846977317
 30
0.0
 10
61.08343538607618
 20
-97.90754553107863
 30
0.0
 10
61.03863260944141
 20
-97.86277803109006
 30
0.0
 10
60.98317594418957
 20
-97.86277803109006
 30
0.0
 10
60.9280720567065
 20
-97.86277803109006
 30
0.0
 10
60.88326928007173
 20
-97.90754553107863
 30
0.0
 10
60.88326928007173
 20
-97.9626846977317
 30
0.0
 10
60.88326928007173
 20
-98.01849414216214
 30
0.0
 10
60.9280720567065
 20
-98.06326164215069
 30
0.0
 10
60.98317594418957
 20
-98.06326164215069
 30
0.0
 10
61.03863260944141
 20
-98.06326164215069
 30
0.0
 10
61.08343538607618
 20
-98.01849414216214
 30
0.0
 10
61.08343538607618
 20
-97.9626846977317
 30
0.0
  0
SPLINE
  5
70
330
1F
100
AcDbEntity
  8
_U+30EC_U+30A4_U+30E4_U+30FC 1
 62
     7
420
 16777215
370
     9
100
AcDbSpline
210
0.0
220
0.0
230
1.0
 70
    11
 71
     3
 72
    17
 73
    13
 74
     0
 42
0.0000000001
 43
0.0000000001
 12
1.0
 22
0.0
 32
0.0
 13
1.0
 23
0.0
 33
0.0
 40
0.0
 40
0.0
 40
0.0
 40
0.0
 40
1.0
 40
1.0
 40
1.0
 40
2.0
 40
2.0
 40
2.0
 40
3.0
 40
3.0
 40
3.0
 40
4.0
 40
4.0
 40
4.0
 40
4.0
 10
46.08314826876538
 20
-97.9626846977317
 30
0.0
 10
46.08314826876538
 20
-97.90754553107863
 30
0.0
 10
46.03834549213062
 20
-97.86277803109006
 30
0.0
 10
45.98324160464755
 20
-97.86277803109006
 30
0.0
 10
45.9281024393876
 20
-97.86277803109006
 30
0.0
 10
45.88333609964032
 20
-97.90754553107863
 30
0.0
 10
45.88333609964032
 20
-97.9626846977317
 30
0.0
 10
45.88333609964032
 20
-98.01849414216214
 30
0.0
 10
45.9281024393876
 20
-98.06326164215069
 30
0.0
 10
45.98324160464755
 20
-98.06326164215069
 30
0.0
 10
46.03834549213062
 20
-98.06326164215069
 30
0.0
 10
46.08314826876538
 20
-98.01849414216214
 30
0.0
 10
46.08314826876538
 20
-97.9626846977317
 30
0.0
  0
POLYLINE
  5
71
330
1F
100
AcDbEntity
  8
_U+30EC_U+30A4_U+30E4_U+30FC 1
 62
     7
420
 16777215
370
     9
100
AcDb2dPolyline
 66
     1
 10
0.0
 20
0.0
 30
0.0
  0
VERTEX
  5
72
330
71
100
AcDbEntity
  8
_U+30EC_U+30A4_U+30E4_U+30FC 1
 62
     7
420
 16777215
370
     9
100
AcDbVertex
100
AcDb2dVertex
 10
79.98304573724029
 20
-85.70277497857427
 30
0.0
  0
VERTEX
  5
73
330
71
100
AcDbEntity
  8
_U+30EC_U+30A4_U+30E4_U+30FC 1
 62
     7
420
 16777215
370
     9
100
AcDbVertex
100
AcDb2dVertex
 10
79.98304573724029
 20
-81.93246247951686
 30
0.0
  0
SEQEND
  5
74
330
71
100
AcDbEntity
  8
_U+30EC_U+30A4_U+30E4_U+30FC 1
 62
     7
420
 16777215
370
     9
  0
POLYLINE
  5
75
330
1F
100
AcDbEntity
  8
_U+30EC_U+30A4_U+30E4_U+30FC 1
 62
     7
420
 16777215
370
     9
100
AcDb2dPolyline
 66
     1
 10
0.0
 20
0.0
 30
0.0
  0
VERTEX
  5
76
330
75
100
AcDbEntity
  8
_U+30EC_U+30A4_U+30E4_U+30FC 1
 62
     7
420
 16777215
370
     9
100
AcDbVertex
100
AcDb2dVertex
 10
79.98304573724029
 20
-85.70277497857427
 30
0.0
  0
VERTEX
  5
77
330
75
100
AcDbEntity
  8
_U+30EC_U+30A4_U+30E4_U+30FC 1
 62
     7
420
 16777215
370
     9
100
AcDbVertex
100
AcDb2dVertex
 10
79.98304573724029
 20
-86.70254720054649
 30
0.0
  0
SEQEND
  5
78
330
75
100
AcDbEntity
  8
_U+30EC_U+30A4_U+30E4_U+30FC 1
 62
     7
420
 16777215
370
     9
  0
POLYLINE
  5
79
330
1F
100
AcDbEntity
  8
_U+30EC_U+30A4_U+30E4_U+30FC 1
 62
     7
420
 16777215
370
     9
100
AcDb2dPolyline
 66
     1
 10
0.0
 20
0.0
 30
0.0
  0
VERTEX
  5
7A
330
79
100
AcDbEntity
  8
_U+30EC_U+30A4_U+30E4_U+30FC 1
 62
     7
420
 16777215
370
     9
100
AcDbVertex
100
AcDb2dVertex
 10
78.52335716336893
 20
-85.70277497857427
 30
0.0
  0
VERTEX
  5
7B
330
79
100
AcDbEntity
  8
_U+30EC_U+30A4_U+30E4_U+30FC 1
 62
     7
420
 16777215
370
     9
100
AcDbVertex
100
AcDb2dVertex
 10
80.98352348949375
 20
-85.70277497857427
 30
0.0
  0
SEQEND
  5
7C
330
79
100
AcDbEntity
  8
_U+30EC_U+30A4_U+30E4_U+30FC 1
 62
     7
420
 16777215
370
     9
  0
POLYLINE
  5
7D
330
1F
100
AcDbEntity
  8
_U+30EC_U+30A4_U+30E4_U+30FC 1
 62
     7
420
 16777215
370
     9
100
AcDb2dPolyline
 66
     1
 10
0.0
 20
0.0
 30
0.0
  0
VERTEX
  5
7E
330
7D
100
AcDbEntity
  8
_U+30EC_U+30A4_U+30E4_U+30FC 1
 62
     7
420
 16777215
370
     9
100
AcDbVertex
100
AcDb2dVertex
 10
78.52335716336893
 20
-86.70254720054649
 30
0.0
  0
VERTEX
  5
7F
330
7D
100
AcDbEntity
  8
_U+30EC_U+30A4_U+30E4_U+30FC 1
 62
     7
420
 16777215
370
     9
100
AcDbVertex
100
AcDb2dVertex
 10
80.98352348949375
 20
-86.70254720054649
 30
0.0
  0
SEQEND
  5
80
330
7D
100
AcDbEntity
  8
_U+30EC_U+30A4_U+30E4_U+30FC 1
 62
     7
420
 16777215
370
     9
  0
INSERT
  5
82
330
1F
100
AcDbEntity
  8
_U+30EC_U+30A4_U+30E4_U+30FC 1
100
AcDbBlockReference
  2
block 2
 10
0.0
 20
0.0
 30
0.0
  0
POLYLINE
  5
87
330
1F
100
AcDbEntity
  8
_U+30EC_U+30A4_U+30E4_U+30FC 1
 62
     7
420
 16777215
370
     9
100
AcDb2dPolyline
 66
     1
 10
0.0
 20
0.0
 30
0.0
  0
VERTEX
  5
88
330
87
100
AcDbEntity
  8
_U+30EC_U+30A4_U+30E4_U+30FC 1
 62
     7
420
 16777215
370
     9
100
AcDbVertex
100
AcDb2dVertex
 10
45.98324160464755
 20
-81.70234553513002
 30
0.0
  0
VERTEX
  5
89
330
87
100
AcDbEntity
  8
_U+30EC_U+30A4_U+30E4_U+30FC 1
 62
     7
420
 16777215
370
     9
100
AcDbVertex
100
AcDb2dVertex
 10
75.98296917262407
 20
-81.70234553513002
 30
0.0
  0
SEQEND
  5
8A
330
87
100
AcDbEntity
  8
_U+30EC_U+30A4_U+30E4_U+30FC 1
 62
     7
420
 16777215
370
     9
  0
POLYLINE
  5
8B
330
1F
100
AcDbEntity
  8
_U+30EC_U+30A4_U+30E4_U+30FC 1
 62
     7
420
 16777215
370
     9
100
AcDb2dPolyline
 66
     1
 10
0.0
 20
0.0
 30
0.0
  0
VERTEX
  5
8C
330
8B
100
AcDbEntity
  8
_U+30EC_U+30A4_U+30E4_U+30FC 1
 62
     7
420
 16777215
370
     9
100
AcDbVertex
100
AcDb2dVertex
 10
45.98324160464755
 20
-83.16235164587621
 30
0.0
  0
VERTEX
  5
8D
330
8B
100
AcDbEntity
  8
_U+30EC_U+30A4_U+30E4_U+30FC 1
 62
     7
420
 16777215
370
     9
100
AcDbVertex
100
AcDb2dVertex
 10
45.98324160464755
 20
-80.70257331315781
 30
0.0
  0
SEQEND
  5
8E
330
8B
100
AcDbEntity
  8
_U+30EC_U+30A4_U+30E4_U+30FC 1
 62
     7
420
 16777215
370
     9
  0
POLYLINE
  5
8F
330
1F
100
AcDbEntity
  8
_U+30EC_U+30A4_U+30E4_U+30FC 1
 62
     7
420
 16777215
370
     9
100
AcDb2dPolyline
 66
     1
 10
0.0
 20
0.0
 30
0.0
  0
VERTEX
  5
90
330
8F
100
AcDbEntity
  8
_U+30EC_U+30A4_U+30E4_U+30FC 1
 62
     7
420
 16777215
370
     9
100
AcDbVertex
100
AcDb2dVertex
 10
75.98296917262407
 20
-83.16235164587621
 30
0.0
  0
VERTEX
  5
91
330
8F
100
AcDbEntity
  8
_U+30EC_U+30A4_U+30E4_U+30FC 1
 62
     7
420
 16777215
370
     9
100
AcDbVertex
100
AcDb2dVertex
 10
75.98296917262407
 20
-80.70257331315781
 30
0.0
  0
SEQEND
  5
92
330
8F
100
AcDbEntity
  8
_U+30EC_U+30A4_U+30E4_U+30FC 1
 62
     7
420
 16777215
370
     9
  0
INSERT
  5
94
330
1F
100
AcDbEntity
  8
_U+30EC_U+30A4_U+30E4_U+30FC 1
100
AcDbBlockReference
  2
block 3
 10
0.0
 20
0.0
 30
0.0
  0
POLYLINE
  5
9C
330
1F
100
AcDbEntity
  8
_U+30EC_U+30A4_U+30E4_U+30FC 1
 62
     7
420
 16777215
370
     9
100
AcDb2dPolyline
 66
     1
 10
0.0
 20
0.0
 30
0.0
  0
VERTEX
  5
9D
330
9C
100
AcDbEntity
  8
_U+30EC_U+30A4_U+30E4_U+30FC 1
 62
     7
420
 16777215
370
     9
100
AcDbVertex
100
AcDb2dVertex
 10
45.98324160464755
 20
-97.9626846977317
 30
0.0
  0
VERTEX
  5
9E
330
9C
100
AcDbEntity
  8
_U+30EC_U+30A4_U+30E4_U+30FC 1
 62
     7
420
 16777215
370
     9
100
AcDbVertex
100
AcDb2dVertex
 10
60.98317594418957
 20
-97.9626846977317
 30
0.0
  0
SEQEND
  5
9F
330
9C
100
AcDbEntity
  8
_U+30EC_U+30A4_U+30E4_U+30FC 1
 62
     7
420
 16777215
370
     9
  0
POLYLINE
  5
A0
330
1F
100
AcDbEntity
  8
_U+30EC_U+30A4_U+30E4_U+30FC 1
 62
     7
420
 16777215
370
     9
100
AcDb2dPolyline
 66
     1
 10
0.0
 20
0.0
 30
0.0
  0
VERTEX
  5
A1
330
A0
100
AcDbEntity
  8
_U+30EC_U+30A4_U+30E4_U+30FC 1
 62
     7
420
 16777215
370
     9
100
AcDbVertex
100
AcDb2dVertex
 10
45.98324160464755
 20
-88.80129275557736
 30
0.0
  0
VERTEX
  5
A2
330
A0
100
AcDbEntity
  8
_U+30EC_U+30A4_U+30E4_U+30FC 1
 62
     7
420
 16777215
370
     9
100
AcDbVertex
100
AcDb2dVertex
 10
45.98324160464755
 20
-98.9631271974816
 30
0.0
  0
SEQEND
  5
A3
330
A0
100
AcDbEntity
  8
_U+30EC_U+30A4_U+30E4_U+30FC 1
 62
     7
420
 16777215
370
     9
  0
POLYLINE
  5
A4
330
1F
100
AcDbEntity
  8
_U+30EC_U+30A4_U+30E4_U+30FC 1
 62
     7
420
 16777215
370
     9
100
AcDb2dPolyline
 66
     1
 10
0.0
 20
0.0
 30
0.0
  0
VERTEX
  5
A5
330
A4
100
AcDbEntity
  8
_U+30EC_U+30A4_U+30E4_U+30FC 1
 62
     7
420
 16777215
370
     9
100
AcDbVertex
100
AcDb2dVertex
 10
60.98317594418957
 20
-96.50331358698536
 30
0.0
  0
VERTEX
  5
A6
330
A4
100
AcDbEntity
  8
_U+30EC_U+30A4_U+30E4_U+30FC 1
 62
     7
420
 16777215
370
     9
100
AcDbVertex
100
AcDb2dVertex
 10
60.98317594418957
 20
-98.9631271974816
 30
0.0
  0
SEQEND
  5
A7
330
A4
100
AcDbEntity
  8
_U+30EC_U+30A4_U+30E4_U+30FC 1
 62
     7
420
 16777215
370
     9
  0
INSERT
  5
A9
330
1F
100
AcDbEntity
  8
_U+30EC_U+30A4_U+30E4_U+30FC 1
100
AcDbBlockReference
  2
block 4
 10
0.0
 20
0.0
 30
0.0
  0
POLYLINE
  5
B0
330
1F
100
AcDbEntity
  8
_U+30EC_U+30A4_U+30E4_U+30FC 1
 62
     7
420
 16777215
370
     9
100
AcDb2dPolyline
 66
     1
 10
0.0
 20
0.0
 30
0.0
  0
VERTEX
  5
B1
330
B0
100
AcDbEntity
  8
_U+30EC_U+30A4_U+30E4_U+30FC 1
 62
     7
420
 16777215
370
     9
100
AcDbVertex
100
AcDb2dVertex
 10
60.98317594418957
 20
-97.9626846977317
 30
0.0
  0
VERTEX
  5
B2
330
B0
100
AcDbEntity
  8
_U+30EC_U+30A4_U+30E4_U+30FC 1
 62
     7
420
 16777215
370
     9
100
AcDbVertex
100
AcDb2dVertex
 10
64.98346417546705
 20
-97.9626846977317
 30
0.0
  0
SEQEND
  5
B3
330
B0
100
AcDbEntity
  8
_U+30EC_U+30A4_U+30E4_U+30FC 1
 62
     7
420
 16777215
370
     9
  0
POLYLINE
  5
B4
330
1F
100
AcDbEntity
  8
_U+30EC_U+30A4_U+30E4_U+30FC 1
 62
     7
420
 16777215
370
     9
100
AcDb2dPolyline
 66
     1
 10
0.0
 20
0.0
 30
0.0
  0
VERTEX
  5
B5
330
B4
100
AcDbEntity
  8
_U+30EC_U+30A4_U+30E4_U+30FC 1
 62
     7
420
 16777215
370
     9
100
AcDbVertex
100
AcDb2dVertex
 10
64.98346417546705
 20
-96.50331358698536
 30
0.0
  0
VERTEX
  5
B6
330
B4
100
AcDbEntity
  8
_U+30EC_U+30A4_U+30E4_U+30FC 1
 62
     7
420
 16777215
370
     9
100
AcDbVertex
100
AcDb2dVertex
 10
64.98346417546705
 20
-98.9631271974816
 30
0.0
  0
SEQEND
  5
B7
330
B4
100
AcDbEntity
  8
_U+30EC_U+30A4_U+30E4_U+30FC 1
 62
     7
420
 16777215
370
     9
  0
INSERT
  5
B9
330
1F
100
AcDbEntity
  8
_U+30EC_U+30A4_U+30E4_U+30FC 1
100
AcDbBlockReference
  2
block 5
 10
0.0
 20
0.0
 30
0.0
  0
POLYLINE
  5
D1
330
1F
100
AcDbEntity
  8
_U+30EC_U+30A4_U+30E4_U+30FC 1
 62
     7
420
 16777215
370
     9
100
AcDb2dPolyline
 66
     1
 10
0.0
 20
0.0
 30
0.0
  0
VERTEX
  5
D2
330
D1
100
AcDbEntity
  8
_U+30EC_U+30A4_U+30E4_U+30FC 1
 62
     7
420
 16777215
370
     9
100
AcDbVertex
100
AcDb2dVertex
 10
79.98304573724029
 20
-86.76283692275366
 30
0.0
  0
VERTEX
  5
D3
330
D1
100
AcDbEntity
  8
_U+30EC_U+30A4_U+30E4_U+30FC 1
 62
     7
420
 16777215
370
     9
100
AcDbVertex
100
AcDb2dVertex
 10
79.98304573724029
 20
-92.96315331009228
 30
0.0
  0
SEQEND
  5
D4
330
D1
100
AcDbEntity
  8
_U+30EC_U+30A4_U+30E4_U+30FC 1
 62
     7
420
 16777215
370
     9
  0
POLYLINE
  5
D5
330
1F
100
AcDbEntity
  8
_U+30EC_U+30A4_U+30E4_U+30FC 1
 62
     7
420
 16777215
370
     9
100
AcDb2dPolyline
 66
     1
 10
0.0
 20
0.0
 30
0.0
  0
VERTEX
  5
D6
330
D5
100
AcDbEntity
  8
_U+30EC_U+30A4_U+30E4_U+30FC 1
 62
     7
420
 16777215
370
     9
100
AcDbVertex
100
AcDb2dVertex
 10
67.52318188845122
 20
-92.96315331009228
 30
0.0
  0
VERTEX
  5
D7
330
D5
100
AcDbEntity
  8
_U+30EC_U+30A4_U+30E4_U+30FC 1
 62
     7
420
 16777215
370
     9
100
AcDbVertex
100
AcDb2dVertex
 10
80.98352348949375
 20
-92.96315331009228
 30
0.0
  0
SEQEND
  5
D8
330
D5
100
AcDbEntity
  8
_U+30EC_U+30A4_U+30E4_U+30FC 1
 62
     7
420
 16777215
370
     9
  0
INSERT
  5
DA
330
1F
100
AcDbEntity
  8
_U+30EC_U+30A4_U+30E4_U+30FC 1
100
AcDbBlockReference
  2
block 6
 10
0.0
 20
0.0
 30
0.0
  0
ENDSEC
  0
SECTION
  2
OBJECTS
  0
DICTIONARY
  5
C
330
0
100
AcDbDictionary
281
     1
  3
ACAD_GROUP
350
D
  3
ACAD_LAYOUT
350
1A
  3
ACAD_MATERIAL
350
3B
  3
ACAD_MLEADERSTYLE
350
EB
  3
ACAD_MLINESTYLE
350
17
  3
ACAD_PLOTSETTINGS
350
19
  3
ACAD_PLOTSTYLENAME
350
E
  3
ACAD_TABLESTYLE
350
EA
  3
ACAD_VISUALSTYLE
350
2A
  0
SUN
  5
3F
330
29
100
AcDbSun
 90
        1
290
     0
 63
     7
421
 16777215
 40
1.0
291
     1
 91
  2455826
 92
 54000000
292
     0
 70
     2
 71
   256
280
     1
  0
DICTIONARY
  5
D
102
{ACAD_REACTORS
330
C
102
}
330
C
100
AcDbDictionary
281
     1
  0
DICTIONARY
  5
1A
102
{ACAD_REACTORS
330
C
102
}
330
C
100
AcDbDictionary
281
     1
  3
Layout1
350
1E
  3
Layout2
350
26
  3
Model
350
22
  0
DICTIONARY
  5
3B
102
{ACAD_REACTORS
330
C
102
}
330
C
100
AcDbDictionary
281
     1
  3
ByBlock
350
3D
  3
ByLayer
350
3C
  3
Global
350
3E
  0
DICTIONARY
  5
EB
102
{ACAD_REACTORS
330
C
102
}
330
C
100
AcDbDictionary
281
     1
  0
DICTIONARY
  5
17
102
{ACAD_REACTORS
330
C
102
}
330
C
100
AcDbDictionary
281
     1
  3
Standard
350
18
  0
DICTIONARY
  5
19
102
{ACAD_REACTORS
330
C
102
}
330
C
100
AcDbDictionary
281
     1
  0
ACDBDICTIONARYWDFLT
  5
E
102
{ACAD_REACTORS
330
C
102
}
330
C
100
AcDbDictionary
281
     1
  3
Normal
350
F
100
AcDbDictionaryWithDefault
340
F
  0
DICTIONARY
  5
EA
102
{ACAD_REACTORS
330
C
102
}
330
C
100
AcDbDictionary
281
     1
  0
DICTIONARY
  5
2A
102
{ACAD_REACTORS
330
C
102
}
330
C
100
AcDbDictionary
281
     1
  3
2dWireframe
350
2F
  3
3D Hidden
350
31
  3
3dWireframe
350
30
  3
Basic
350
32
  3
Brighten
350
36
  3
ColorChange
350
3A
  3
Conceptual
350
34
  3
Dim
350
35
  3
Facepattern
350
39
  3
Flat
350
2B
  3
FlatWithEdges
350
2C
  3
Gouraud
350
2D
  3
GouraudWithEdges
350
2E
  3
Linepattern
350
38
  3
Realistic
350
33
  3
Thicken
350
37
  0
LAYOUT
  5
1E
102
{ACAD_REACTORS
330
1A
102
}
330
1A
100
AcDbPlotSettings
  1

  2
none_device
  4

  6

 40
0.0
 41
0.0
 42
0.0
 43
0.0
 44
0.0
 45
0.0
 46
0.0
 47
0.0
 48
0.0
 49
0.0
140
0.0
141
0.0
142
1.0
143
1.0
 70
   688
 72
     0
 73
     0
 74
     5
  7

 75
    16
 76
     0
 77
     2
 78
   300
147
1.0
148
0.0
149
0.0
100
AcDbLayout
  1
Layout1
 70
     1
 71
     1
 10
0.0
 20
0.0
 11
12.0
 21
9.0
 12
0.0
 22
0.0
 32
0.0
 14
1.000000000000000E+20
 24
1.000000000000000E+20
 34
1.000000000000000E+20
 15
-1.000000000000000E+20
 25
-1.000000000000000E+20
 35
-1.000000000000000E+20
146
0.0
 13
0.0
 23
0.0
 33
0.0
 16
1.0
 26
0.0
 36
0.0
 17
0.0
 27
1.0
 37
0.0
 76
     0
330
1B
  0
LAYOUT
  5
26
102
{ACAD_REACTORS
330
1A
102
}
330
1A
100
AcDbPlotSettings
  1

  2
none_device
  4

  6

 40
0.0
 41
0.0
 42
0.0
 43
0.0
 44
0.0
 45
0.0
 46
0.0
 47
0.0
 48
0.0
 49
0.0
140
0.0
141
0.0
142
1.0
143
1.0
 70
   688
 72
     0
 73
     0
 74
     5
  7

 75
    16
 76
     0
 77
     2
 78
   300
147
1.0
148
0.0
149
0.0
100
AcDbLayout
  1
Layout2
 70
     1
 71
     2
 10
0.0
 20
0.0
 11
0.0
 21
0.0
 12
0.0
 22
0.0
 32
0.0
 14
0.0
 24
0.0
 34
0.0
 15
0.0
 25
0.0
 35
0.0
146
0.0
 13
0.0
 23
0.0
 33
0.0
 16
1.0
 26
0.0
 36
0.0
 17
0.0
 27
1.0
 37
0.0
 76
     0
330
23
  0
LAYOUT
  5
22
102
{ACAD_REACTORS
330
1A
102
}
330
1A
100
AcDbPlotSettings
  1

  2
none_device
  4

  6

 40
0.0
 41
0.0
 42
0.0
 43
0.0
 44
0.0
 45
0.0
 46
0.0
 47
0.0
 48
0.0
 49
0.0
140
0.0
141
0.0
142
1.0
143
1.0
 70
  1712
 72
     0
 73
     0
 74
     0
  7

 75
     0
 76
     0
 77
     2
 78
   300
147
1.0
148
0.0
149
0.0
100
AcDbLayout
  1
Model
 70
     1
 71
     0
 10
0.0
 20
0.0
 11
12.0
 21
9.0
 12
0.0
 22
0.0
 32
0.0
 14
1.000000000000000E+20
 24
1.000000000000000E+20
 34
1.000000000000000E+20
 15
-1.000000000000000E+20
 25
-1.000000000000000E+20
 35
-1.000000000000000E+20
146
0.0
 13
0.0
 23
0.0
 33
0.0
 16
1.0
 26
0.0
 36
0.0
 17
0.0
 27
1.0
 37
0.0
 76
     0
330
1F
331
29
  0
MATERIAL
  5
3D
102
{ACAD_REACTORS
330
3B
102
}
330
3B
100
AcDbMaterial
  1
ByBlock
 72
     1
 94
      127
  0
MATERIAL
  5
3C
102
{ACAD_REACTORS
330
3B
102
}
330
3B
100
AcDbMaterial
  1
ByLayer
 72
     1
 94
      127
  0
MATERIAL
  5
3E
102
{ACAD_REACTORS
330
3B
102
}
330
3B
100
AcDbMaterial
  1
Global
 72
     1
 94
      127
  0
MLINESTYLE
  5
18
102
{ACAD_REACTORS
330
17
102
}
330
17
100
AcDbMlineStyle
  2
Standard
 70
     0
  3

 62
   256
 51
90.0
 52
90.0
 71
     2
 49
0.5
 62
   256
  6
BYLAYER
 49
-0.5
 62
   256
  6
BYLAYER
  0
ACDBPLACEHOLDER
  5
F
102
{ACAD_REACTORS
330
E
102
}
330
E
  0
VISUALSTYLE
  5
2F
102
{ACAD_REACTORS
330
2A
102
}
330
2A
100
AcDbVisualStyle
  2
2dWireframe
 70
     4
177
     2
291
     0
 71
     0
176
     1
 72
     2
176
     1
 73
     0
176
     1
 90
        0
176
     1
 40
-0.6
176
     1
 41
-30.0
176
     1
 62
     5
 63
     7
421
 16777215
176
     1
 74
     1
176
     1
 91
        4
176
     1
 64
     7
176
     1
 65
   257
176
     1
 75
     1
176
     1
175
     1
176
     1
 42
1.0
176
     1
 92
        0
176
     1
 66
   257
176
     1
 43
1.0
176
     1
 76
     1
176
     1
 77
     6
176
     1
 78
     2
176
     1
 67
     7
176
     1
 79
     5
176
     1
170
     0
176
     1
171
     0
176
     1
290
     0
176
     1
 93
        1
176
     1
 44
0.0
176
     1
173
     0
176
     1
  0
VISUALSTYLE
  5
31
102
{ACAD_REACTORS
330
2A
102
}
330
2A
100
AcDbVisualStyle
  2
3D Hidden
 70
     6
177
     2
291
     0
 71
     1
176
     1
 72
     2
176
     1
 73
     2
176
     1
 90
        0
176
     1
 40
-0.6
176
     1
 41
-30.0
176
     1
 62
     5
 63
     7
421
 16777215
176
     1
 74
     2
176
     1
 91
        2
176
     1
 64
     7
176
     1
 65
   257
176
     1
 75
     2
176
     1
175
     1
176
     1
 42
40.0
176
     1
 92
        0
176
     1
 66
   257
176
     1
 43
1.0
176
     1
 76
     1
176
     1
 77
     6
176
     1
 78
     2
176
     1
 67
     7
176
     1
 79
     3
176
     1
170
     0
176
     1
171
     0
176
     1
290
     0
176
     1
 93
        1
176
     1
 44
0.0
176
     1
173
     0
176
     1
  0
VISUALSTYLE
  5
30
102
{ACAD_REACTORS
330
2A
102
}
330
2A
100
AcDbVisualStyle
  2
3dWireframe
 70
     5
177
     2
291
     0
 71
     0
176
     1
 72
     2
176
     1
 73
     0
176
     1
 90
        0
176
     1
 40
-0.6
176
     1
 41
-30.0
176
     1
 62
     5
 63
     7
421
 16777215
176
     1
 74
     1
176
     1
 91
        4
176
     1
 64
     7
176
     1
 65
   257
176
     1
 75
     1
176
     1
175
     1
176
     1
 42
1.0
176
     1
 92
        0
176
     1
 66
   257
176
     1
 43
1.0
176
     1
 76
     1
176
     1
 77
     6
176
     1
 78
     2
176
     1
 67
     7
176
     1
 79
     5
176
     1
170
     0
176
     1
171
     0
176
     1
290
     0
176
     1
 93
        1
176
     1
 44
0.0
176
     1
173
     0
176
     1
  0
VISUALSTYLE
  5
32
102
{ACAD_REACTORS
330
2A
102
}
330
2A
100
AcDbVisualStyle
  2
Basic
 70
     7
177
     2
291
     1
 71
     1
176
     1
 72
     0
176
     1
 73
     1
176
     1
 90
        0
176
     1
 40
-0.6
176
     1
 41
-30.0
176
     1
 62
     5
 63
     7
421
 16777215
176
     1
 74
     0
176
     1
 91
        4
176
     1
 64
     7
176
     1
 65
   257
176
     1
 75
     1
176
     1
175
     1
176
     1
 42
1.0
176
     1
 92
        8
176
     1
 66
     7
176
     1
 43
1.0
176
     1
 76
     1
176
     1
 77
     6
176
     1
 78
     2
176
     1
 67
     7
176
     1
 79
     5
176
     1
170
     0
176
     1
171
     0
176
     1
290
     0
176
     1
 93
        1
176
     1
 44
0.0
176
     1
173
     0
176
     1
  0
VISUALSTYLE
  5
36
102
{ACAD_REACTORS
330
2A
102
}
330
2A
100
AcDbVisualStyle
  2
Brighten
 70
    12
177
     2
291
     1
 71
     2
176
     1
 72
     2
176
     1
 73
     0
176
     1
 90
        0
176
     1
 40
-0.6
176
     1
 41
-30.0
176
     1
 62
     5
 63
     7
421
 16777215
176
     1
 74
     1
176
     1
 91
        4
176
     1
 64
     7
176
     1
 65
   257
176
     1
 75
     1
176
     1
175
     1
176
     1
 42
1.0
176
     1
 92
        8
176
     1
 66
     7
176
     1
 43
1.0
176
     1
 76
     1
176
     1
 77
     6
176
     1
 78
     2
176
     1
 67
     7
176
     1
 79
     5
176
     1
170
     0
176
     1
171
     0
176
     1
290
     0
176
     1
 93
        1
176
     1
 44
50.0
176
     1
173
     0
176
     1
  0
VISUALSTYLE
  5
3A
102
{ACAD_REACTORS
330
2A
102
}
330
2A
100
AcDbVisualStyle
  2
ColorChange
 70
    16
177
     2
291
     1
 71
     2
176
     1
 72
     2
176
     1
 73
     3
176
     1
 90
        0
176
     1
 40
-0.6
176
     1
 41
-30.0
176
     1
 62
     5
 63
     8
421
  8421504
176
     1
 74
     1
176
     1
 91
        4
176
     1
 64
     7
176
     1
 65
   257
176
     1
 75
     1
176
     1
175
     1
176
     1
 42
1.0
176
     1
 92
        8
176
     1
 66
     8
424
  8421504
176
     1
 43
1.0
176
     1
 76
     1
176
     1
 77
     6
176
     1
 78
     2
176
     1
 67
     7
176
     1
 79
     5
176
     1
170
     0
176
     1
171
     0
176
     1
290
     0
176
     1
 93
        1
176
     1
 44
0.0
176
     1
173
     0
176
     1
  0
VISUALSTYLE
  5
34
102
{ACAD_REACTORS
330
2A
102
}
330
2A
100
AcDbVisualStyle
  2
Conceptual
 70
     9
177
     2
291
     0
 71
     3
176
     1
 72
     2
176
     1
 73
     0
176
     1
 90
        0
176
     1
 40
-0.6
176
     1
 41
-30.0
176
     1
 62
     5
 63
     7
421
 16777215
176
     1
 74
     2
176
     1
 91
        2
176
     1
 64
     7
176
     1
 65
   257
176
     1
 75
     1
176
     1
175
     1
176
     1
 42
40.0
176
     1
 92
        8
176
     1
 66
     7
176
     1
 43
1.0
176
     1
 76
     1
176
     1
 77
     6
176
     1
 78
     2
176
     1
 67
     7
176
     1
 79
     3
176
     1
170
     0
176
     1
171
     0
176
     1
290
     0
176
     1
 93
        1
176
     1
 44
0.0
176
     1
173
     0
176
     1
  0
VISUALSTYLE
  5
35
102
{ACAD_REACTORS
330
2A
102
}
330
2A
100
AcDbVisualStyle
  2
Dim
 70
    11
177
     2
291
     1
 71
     2
176
     1
 72
     2
176
     1
 73
     0
176
     1
 90
        0
176
     1
 40
-0.6
176
     1
 41
-30.0
176
     1
 62
     5
 63
     7
421
 16777215
176
     1
 74
     1
176
     1
 91
        4
176
     1
 64
     7
176
     1
 65
   257
176
     1
 75
     1
176
     1
175
     1
176
     1
 42
1.0
176
     1
 92
        8
176
     1
 66
     7
176
     1
 43
1.0
176
     1
 76
     1
176
     1
 77
     6
176
     1
 78
     2
176
     1
 67
     7
176
     1
 79
     5
176
     1
170
     0
176
     1
171
     0
176
     1
290
     0
176
     1
 93
        1
176
     1
 44
-50.0
176
     1
173
     0
176
     1
  0
VISUALSTYLE
  5
39
102
{ACAD_REACTORS
330
2A
102
}
330
2A
100
AcDbVisualStyle
  2
Facepattern
 70
    15
177
     2
291
     1
 71
     2
176
     1
 72
     2
176
     1
 73
     0
176
     1
 90
        0
176
     1
 40
-0.6
176
     1
 41
-30.0
176
     1
 62
     5
 63
     7
421
 16777215
176
     1
 74
     1
176
     1
 91
        4
176
     1
 64
     7
176
     1
 65
   257
176
     1
 75
     1
176
     1
175
     1
176
     1
 42
1.0
176
     1
 92
        8
176
     1
 66
     7
176
     1
 43
1.0
176
     1
 76
     1
176
     1
 77
     6
176
     1
 78
     2
176
     1
 67
     7
176
     1
 79
     5
176
     1
170
     0
176
     1
171
     0
176
     1
290
     0
176
     1
 93
        1
176
     1
 44
0.0
176
     1
173
     0
176
     1
  0
VISUALSTYLE
  5
2B
102
{ACAD_REACTORS
330
2A
102
}
330
2A
100
AcDbVisualStyle
  2
Flat
 70
     0
177
     2
291
     1
 71
     2
176
     1
 72
     1
176
     1
 73
     1
176
     1
 90
        2
176
     1
 40
-0.6
176
     1
 41
30.0
176
     1
 62
     5
 63
     7
421
 16777215
176
     1
 74
     0
176
     1
 91
        4
176
     1
 64
     7
176
     1
 65
   257
176
     1
 75
     1
176
     1
175
     1
176
     1
 42
1.0
176
     1
 92
        8
176
     1
 66
     7
176
     1
 43
1.0
176
     1
 76
     1
176
     1
 77
     6
176
     1
 78
     2
176
     1
 67
     7
176
     1
 79
     5
176
     1
170
     0
176
     1
171
     0
176
     1
290
     0
176
     1
 93
       13
176
     1
 44
0.0
176
     1
173
     0
176
     1
  0
VISUALSTYLE
  5
2C
102
{ACAD_REACTORS
330
2A
102
}
330
2A
100
AcDbVisualStyle
  2
FlatWithEdges
 70
     1
177
     2
291
     1
 71
     2
176
     1
 72
     1
176
     1
 73
     1
176
     1
 90
        2
176
     1
 40
-0.6
176
     1
 41
30.0
176
     1
 62
     5
 63
     7
421
 16777215
176
     1
 74
     1
176
     1
 91
        4
176
     1
 64
     7
176
     1
 65
   257
176
     1
 75
     1
176
     1
175
     1
176
     1
 42
1.0
176
     1
 92
        0
176
     1
 66
   257
176
     1
 43
1.0
176
     1
 76
     1
176
     1
 77
     6
176
     1
 78
     2
176
     1
 67
     7
176
     1
 79
     5
176
     1
170
     0
176
     1
171
     0
176
     1
290
     0
176
     1
 93
       13
176
     1
 44
0.0
176
     1
173
     0
176
     1
  0
VISUALSTYLE
  5
2D
102
{ACAD_REACTORS
330
2A
102
}
330
2A
100
AcDbVisualStyle
  2
Gouraud
 70
     2
177
     2
291
     1
 71
     2
176
     1
 72
     2
176
     1
 73
     1
176
     1
 90
        2
176
     1
 40
-0.6
176
     1
 41
30.0
176
     1
 62
     5
 63
     7
421
 16777215
176
     1
 74
     0
176
     1
 91
        4
176
     1
 64
     7
176
     1
 65
   257
176
     1
 75
     1
176
     1
175
     1
176
     1
 42
1.0
176
     1
 92
        0
176
     1
 66
     7
176
     1
 43
1.0
176
     1
 76
     1
176
     1
 77
     6
176
     1
 78
     2
176
     1
 67
     7
176
     1
 79
     5
176
     1
170
     0
176
     1
171
     0
176
     1
290
     0
176
     1
 93
       13
176
     1
 44
0.0
176
     1
173
     0
176
     1
  0
VISUALSTYLE
  5
2E
102
{ACAD_REACTORS
330
2A
102
}
330
2A
100
AcDbVisualStyle
  2
GouraudWithEdges
 70
     3
177
     2
291
     1
 71
     2
176
     1
 72
     2
176
     1
 73
     1
176
     1
 90
        2
176
     1
 40
-0.6
176
     1
 41
30.0
176
     1
 62
     5
 63
     7
421
 16777215
176
     1
 74
     1
176
     1
 91
        4
176
     1
 64
     7
176
     1
 65
   257
176
     1
 75
     1
176
     1
175
     1
176
     1
 42
1.0
176
     1
 92
        0
176
     1
 66
   257
176
     1
 43
1.0
176
     1
 76
     1
176
     1
 77
     6
176
     1
 78
     2
176
     1
 67
     7
176
     1
 79
     5
176
     1
170
     0
176
     1
171
     0
176
     1
290
     0
176
     1
 93
       13
176
     1
 44
0.0
176
     1
173
     0
176
     1
  0
VISUALSTYLE
  5
38
102
{ACAD_REACTORS
330
2A
102
}
330
2A
100
AcDbVisualStyle
  2
Linepattern
 70
    14
177
     2
291
     1
 71
     2
176
     1
 72
     2
176
     1
 73
     0
176
     1
 90
        0
176
     1
 40
-0.6
176
     1
 41
-30.0
176
     1
 62
     5
 63
     7
421
 16777215
176
     1
 74
     1
176
     1
 91
        4
176
     1
 64
     7
176
     1
 65
   257
176
     1
 75
     7
176
     1
175
     7
176
     1
 42
1.0
176
     1
 92
        8
176
     1
 66
     7
176
     1
 43
1.0
176
     1
 76
     1
176
     1
 77
     6
176
     1
 78
     2
176
     1
 67
     7
176
     1
 79
     5
176
     1
170
     0
176
     1
171
     0
176
     1
290
     0
176
     1
 93
        1
176
     1
 44
0.0
176
     1
173
     0
176
     1
  0
VISUALSTYLE
  5
33
102
{ACAD_REACTORS
330
2A
102
}
330
2A
100
AcDbVisualStyle
  2
Realistic
 70
     8
177
     2
291
     0
 71
     2
176
     1
 72
     2
176
     1
 73
     0
176
     1
 90
        0
176
     1
 40
-0.6
176
     1
 41
-30.0
176
     1
 62
     5
 63
     7
421
 16777215
176
     1
 74
     1
176
     1
 91
        0
176
     1
 64
     7
176
     1
 65
   257
176
     1
 75
     1
176
     1
175
     1
176
     1
 42
1.0
176
     1
 92
        8
176
     1
 66
     8
424
  7895160
176
     1
 43
1.0
176
     1
 76
     1
176
     1
 77
     6
176
     1
 78
     2
176
     1
 67
     7
176
     1
 79
     5
176
     1
170
     0
176
     1
171
     0
176
     1
290
     0
176
     1
 93
       13
176
     1
 44
0.0
176
     1
173
     0
176
     1
  0
VISUALSTYLE
  5
37
102
{ACAD_REACTORS
330
2A
102
}
330
2A
100
AcDbVisualStyle
  2
Thicken
 70
    13
177
     2
291
     1
 71
     2
176
     1
 72
     2
176
     1
 73
     0
176
     1
 90
        0
176
     1
 40
-0.6
176
     1
 41
-30.0
176
     1
 62
     5
 63
     7
421
 16777215
176
     1
 74
     1
176
     1
 91
        4
176
     1
 64
     7
176
     1
 65
   257
176
     1
 75
     1
176
     1
175
     1
176
     1
 42
1.0
176
     1
 92
       12
176
     1
 66
     7
176
     1
 43
1.0
176
     1
 76
     1
176
     1
 77
     6
176
     1
 78
     2
176
     1
 67
     7
176
     1
 79
     5
176
     1
170
     0
176
     1
171
     0
176
     1
290
     0
176
     1
 93
        1
176
     1
 44
0.0
176
     1
173
     0
176
     1
  0
ENDSEC
  0
EOF
