  0
SECTION
  2
HEADER
  9
$ACADVER
  1
AC1024
  9
$ACADMAINTVER
 70
     6
  9
$DWGCODEPAGE
  3
UNDEFINED
  9
$INSBASE
 10
0.0
 20
0.0
 30
0.0
  9
$EXTMIN
 10
1.000000000000000E+20
 20
1.000000000000000E+20
 30
1.000000000000000E+20
  9
$EXTMAX
 10
-1.000000000000000E+20
 20
-1.000000000000000E+20
 30
-1.000000000000000E+20
  9
$LIMMIN
 10
0.0
 20
0.0
  9
$LIMMAX
 10
12.0
 20
9.0
  9
$ORTHOMODE
 70
     0
  9
$REGENMODE
 70
     1
  9
$FILLMODE
 70
     1
  9
$QTEXTMODE
 70
     0
  9
$MIRRTEXT
 70
     1
  9
$LTSCALE
 40
1.0
  9
$ATTMODE
 70
     1
  9
$TEXTSIZE
 40
0.2
  9
$TRACEWID
 40
0.05
  9
$TEXTSTYLE
  7
Standard
  9
$CLAYER
  8
0
  9
$CELTYPE
  6
ByLayer
  9
$CECOLOR
 62
   256
  9
$CELTSCALE
 40
1.0
  9
$DISPSILH
 70
     0
  9
$DIMSCALE
 40
1.0
  9
$DIMASZ
 40
0.18
  9
$DIMEXO
 40
0.0625
  9
$DIMDLI
 40
0.38
  9
$DIMRND
 40
0.0
  9
$DIMDLE
 40
0.0
  9
$DIMEXE
 40
0.18
  9
$DIMTP
 40
0.0
  9
$DIMTM
 40
0.0
  9
$DIMTXT
 40
0.18
  9
$DIMCEN
 40
0.09
  9
$DIMTSZ
 40
0.0
  9
$DIMTOL
 70
     0
  9
$DIMLIM
 70
     0
  9
$DIMTIH
 70
     1
  9
$DIMTOH
 70
     1
  9
$DIMSE1
 70
     0
  9
$DIMSE2
 70
     0
  9
$DIMTAD
 70
     0
  9
$DIMZIN
 70
     0
  9
$DIMBLK
  1

  9
$DIMASO
 70
     1
  9
$DIMSHO
 70
     1
  9
$DIMPOST
  1

  9
$DIMAPOST
  1

  9
$DIMALT
 70
     0
  9
$DIMALTD
 70
     2
  9
$DIMALTF
 40
25.4
  9
$DIMLFAC
 40
1.0
  9
$DIMTOFL
 70
     0
  9
$DIMTVP
 40
0.0
  9
$DIMTIX
 70
     0
  9
$DIMSOXD
 70
     0
  9
$DIMSAH
 70
     0
  9
$DIMBLK1
  1

  9
$DIMBLK2
  1

  9
$DIMSTYLE
  2
Standard
  9
$DIMCLRD
 70
     0
  9
$DIMCLRE
 70
     0
  9
$DIMCLRT
 70
     0
  9
$DIMTFAC
 40
1.0
  9
$DIMGAP
 40
0.09
  9
$DIMJUST
 70
     0
  9
$DIMSD1
 70
     0
  9
$DIMSD2
 70
     0
  9
$DIMTOLJ
 70
     1
  9
$DIMTZIN
 70
     0
  9
$DIMALTZ
 70
     0
  9
$DIMALTTZ
 70
     0
  9
$DIMUPT
 70
     0
  9
$DIMDEC
 70
     4
  9
$DIMTDEC
 70
     4
  9
$DIMALTU
 70
     2
  9
$DIMALTTD
 70
     2
  9
$DIMTXSTY
  7
Standard
  9
$DIMAUNIT
 70
     0
  9
$DIMADEC
 70
     0
  9
$DIMALTRND
 40
0.0
  9
$DIMAZIN
 70
     0
  9
$DIMDSEP
 70
    46
  9
$DIMATFIT
 70
     3
  9
$DIMFRAC
 70
     0
  9
$DIMLDRBLK
  1

  9
$DIMLUNIT
 70
     2
  9
$DIMLWD
 70
    -2
  9
$DIMLWE
 70
    -2
  9
$DIMTMOVE
 70
     0
  9
$DIMFXL
 40
1.0
  9
$DIMFXLON
 70
     0
  9
$DIMJOGANG
 40
0.7853981633974483
  9
$DIMTFILL
 70
     0
  9
$DIMTFILLCLR
 70
     0
  9
$DIMARCSYM
 70
     0
  9
$DIMLTYPE
  6

  9
$DIMLTEX1
  6

  9
$DIMLTEX2
  6

  9
$DIMTXTDIRECTION
 70
     0
  9
$LUNITS
 70
     2
  9
$LUPREC
 70
     4
  9
$SKETCHINC
 40
0.1
  9
$FILLETRAD
 40
0.5
  9
$AUNITS
 70
     0
  9
$AUPREC
 70
     0
  9
$MENU
  1
.
  9
$ELEVATION
 40
0.0
  9
$PELEVATION
 40
0.0
  9
$THICKNESS
 40
0.0
  9
$LIMCHECK
 70
     0
  9
$CHAMFERA
 40
0.5
  9
$CHAMFERB
 40
0.5
  9
$CHAMFERC
 40
1.0
  9
$CHAMFERD
 40
0.0
  9
$SKPOLY
 70
     0
  9
$TDCREATE
 40
2457917.58755787
  9
$TDUCREATE
 40
2457917.21255787
  9
$TDUPDATE
 40
2457917.58755787
  9
$TDUUPDATE
 40
2457917.21255787
  9
$TDINDWG
 40
0.0000000116
  9
$TDUSRTIMER
 40
0.0000000116
  9
$USRTIMER
 70
     1
  9
$ANGBASE
 50
0.0
  9
$ANGDIR
 70
     0
  9
$PDMODE
 70
     0
  9
$PDSIZE
 40
0.0
  9
$PLINEWID
 40
0.0
  9
$SPLFRAME
 70
     0
  9
$SPLINETYPE
 70
     6
  9
$SPLINESEGS
 70
     8
  9
$HANDSEED
  5
F3
  9
$SURFTAB1
 70
     6
  9
$SURFTAB2
 70
     6
  9
$SURFTYPE
 70
     6
  9
$SURFU
 70
     6
  9
$SURFV
 70
     6
  9
$UCSBASE
  2

  9
$UCSNAME
  2

  9
$UCSORG
 10
0.0
 20
0.0
 30
0.0
  9
$UCSXDIR
 10
1.0
 20
0.0
 30
0.0
  9
$UCSYDIR
 10
0.0
 20
1.0
 30
0.0
  9
$UCSORTHOREF
  2

  9
$UCSORTHOVIEW
 70
     0
  9
$UCSORGTOP
 10
0.0
 20
0.0
 30
0.0
  9
$UCSORGBOTTOM
 10
0.0
 20
0.0
 30
0.0
  9
$UCSORGLEFT
 10
0.0
 20
0.0
 30
0.0
  9
$UCSORGRIGHT
 10
0.0
 20
0.0
 30
0.0
  9
$UCSORGFRONT
 10
0.0
 20
0.0
 30
0.0
  9
$UCSORGBACK
 10
0.0
 20
0.0
 30
0.0
  9
$PUCSBASE
  2

  9
$PUCSNAME
  2

  9
$PUCSORG
 10
0.0
 20
0.0
 30
0.0
  9
$PUCSXDIR
 10
1.0
 20
0.0
 30
0.0
  9
$PUCSYDIR
 10
0.0
 20
1.0
 30
0.0
  9
$PUCSORTHOREF
  2

  9
$PUCSORTHOVIEW
 70
     0
  9
$PUCSORGTOP
 10
0.0
 20
0.0
 30
0.0
  9
$PUCSORGBOTTOM
 10
0.0
 20
0.0
 30
0.0
  9
$PUCSORGLEFT
 10
0.0
 20
0.0
 30
0.0
  9
$PUCSORGRIGHT
 10
0.0
 20
0.0
 30
0.0
  9
$PUCSORGFRONT
 10
0.0
 20
0.0
 30
0.0
  9
$PUCSORGBACK
 10
0.0
 20
0.0
 30
0.0
  9
$USERI1
 70
     0
  9
$USERI2
 70
     0
  9
$USERI3
 70
     0
  9
$USERI4
 70
     0
  9
$USERI5
 70
     0
  9
$USERR1
 40
0.0
  9
$USERR2
 40
0.0
  9
$USERR3
 40
0.0
  9
$USERR4
 40
0.0
  9
$USERR5
 40
0.0
  9
$WORLDVIEW
 70
     1
  9
$SHADEDGE
 70
     3
  9
$SHADEDIF
 70
    70
  9
$TILEMODE
 70
     1
  9
$MAXACTVP
 70
    64
  9
$PINSBASE
 10
0.0
 20
0.0
 30
0.0
  9
$PLIMCHECK
 70
     0
  9
$PEXTMIN
 10
1.000000000000000E+20
 20
1.000000000000000E+20
 30
1.000000000000000E+20
  9
$PEXTMAX
 10
-1.000000000000000E+20
 20
-1.000000000000000E+20
 30
-1.000000000000000E+20
  9
$PLIMMIN
 10
0.0
 20
0.0
  9
$PLIMMAX
 10
12.0
 20
9.0
  9
$UNITMODE
 70
     0
  9
$VISRETAIN
 70
     1
  9
$PLINEGEN
 70
     0
  9
$PSLTSCALE
 70
     1
  9
$TREEDEPTH
 70
  3020
  9
$CMLSTYLE
  2
Standard
  9
$CMLJUST
 70
     0
  9
$CMLSCALE
 40
1.0
  9
$PROXYGRAPHICS
 70
     1
  9
$MEASUREMENT
 70
     0
  9
$CELWEIGHT
370
    -1
  9
$ENDCAPS
280
     0
  9
$JOINSTYLE
280
     0
  9
$LWDISPLAY
290
     1
  9
$INSUNITS
 70
     1
  9
$HYPERLINKBASE
  1

  9
$STYLESHEET
  1

  9
$XEDIT
290
     1
  9
$CEPSNTYPE
380
     0
  9
$PSTYLEMODE
290
     1
  9
$FINGERPRINTGUID
  2
{001CA10E-3CE3-09E3-F0AC-749860299FA9}
  9
$VERSIONGUID
  2
{FAEB1C32-E019-11D5-929B-00C0DF256EC4}
  9
$EXTNAMES
290
     1
  9
$PSVPSCALE
 40
0.0
  9
$OLESTARTUP
290
     0
  9
$SORTENTS
280
   127
  9
$INDEXCTL
280
     0
  9
$HIDETEXT
280
     1
  9
$XCLIPFRAME
280
     2
  9
$HALOGAP
280
     0
  9
$OBSCOLOR
 70
   257
  9
$OBSLTYPE
280
     0
  9
$INTERSECTIONDISPLAY
280
     0
  9
$INTERSECTIONCOLOR
 70
   257
  9
$DIMASSOC
280
     2
  9
$PROJECTNAME
  1

  9
$CAMERADISPLAY
290
     0
  9
$LENSLENGTH
 40
50.0
  9
$CAMERAHEIGHT
 40
0.0
  9
$STEPSPERSEC
 40
2.0
  9
$STEPSIZE
 40
6.0
  9
$3DDWFPREC
 40
2.0
  9
$PSOLWIDTH
 40
0.25
  9
$PSOLHEIGHT
 40
4.0
  9
$LOFTANG1
 40
1.570796326794897
  9
$LOFTANG2
 40
1.570796326794897
  9
$LOFTMAG1
 40
0.0
  9
$LOFTMAG2
 40
0.0
  9
$LOFTPARAM
 70
     7
  9
$LOFTNORMALS
280
     1
  9
$LATITUDE
 40
37.795
  9
$LONGITUDE
 40
-122.394
  9
$NORTHDIRECTION
 40
0.0
  9
$TIMEZONE
 70
 -8000
  9
$LIGHTGLYPHDISPLAY
280
     1
  9
$TILEMODELIGHTSYNCH
280
     1
  9
$CMATERIAL
347
3C
  9
$SOLIDHIST
280
     1
  9
$SHOWHIST
280
     1
  9
$DWFFRAME
280
     2
  9
$DGNFRAME
280
     2
  9
$REALWORLDSCALE
290
     1
  9
$INTERFERECOLOR
 62
   256
  9
$CSHADOW
280
     0
  9
$SHADOWPLANELOCATION
 40
0.0
  0
ENDSEC
  0
SECTION
  2
CLASSES
  0
CLASS
  1
ACDBDICTIONARYWDFLT
  2
AcDbDictionaryWithDefault
  3
ObjectDBX Classes
 90
        0
 91
        4
280
     0
281
     0
  0
CLASS
  1
VISUALSTYLE
  2
AcDbVisualStyle
  3
ObjectDBX Classes
 90
     4095
 91
        4
280
     0
281
     0
  0
CLASS
  1
MATERIAL
  2
AcDbMaterial
  3
ObjectDBX Classes
 90
     1153
 91
        4
280
     0
281
     0
  0
CLASS
  1
SUN
  2
AcDbSun
  3
SCENEOE
 90
     1024
 91
        4
280
     0
281
     0
  0
ENDSEC
  0
SECTION
  2
TABLES
  0
TABLE
  2
VPORT
  5
8
330
0
100
AcDbSymbolTable
 70
     1
  0
VPORT
  5
29
330
8
100
AcDbSymbolTableRecord
100
AcDbViewportTableRecord
  2
*Active
 70
     0
 10
0.0
 20
0.0
 11
1.0
 21
1.0
 12
0.0
 22
0.0
 13
0.0
 23
0.0
 14
0.5
 24
0.5
 15
0.5
 25
0.5
 16
0.0
 26
0.0
 36
1.0
 17
105.0008280156501
 27
-148.4999710739862
 37
0.0
 40
296.9999421479724
 41
0.7070764206636528
 42
50.0
 43
0.0
 44
0.0
 50
0.0
 51
0.0
 71
     0
 72
   100
 73
     1
 74
     3
 75
     0
 76
     0
 77
     0
 78
     0
281
     0
 65
     1
110
0.0
120
0.0
130
0.0
111
1.0
121
0.0
131
0.0
112
0.0
122
1.0
132
0.0
 79
     0
146
0.0
 60
     3
 61
     5
292
     1
282
     1
141
0.0
142
0.0
 63
   250
361
3F
  0
ENDTAB
  0
TABLE
  2
LTYPE
  5
5
330
0
100
AcDbSymbolTable
 70
     1
  0
LTYPE
  5
14
330
5
100
AcDbSymbolTableRecord
100
AcDbLinetypeTableRecord
  2
ByBlock
 70
     0
  3

 72
    65
 73
     0
 40
0.0
  0
LTYPE
  5
15
330
5
100
AcDbSymbolTableRecord
100
AcDbLinetypeTableRecord
  2
ByLayer
 70
     0
  3

 72
    65
 73
     0
 40
0.0
  0
LTYPE
  5
16
330
5
100
AcDbSymbolTableRecord
100
AcDbLinetypeTableRecord
  2
Continuous
 70
     0
  3
Solid line
 72
    65
 73
     0
 40
0.0
  0
ENDTAB
  0
TABLE
  2
LAYER
  5
2
330
0
100
AcDbSymbolTable
 70
     2
  0
LAYER
  5
10
330
2
100
AcDbSymbolTableRecord
100
AcDbLayerTableRecord
  2
0
 70
     0
 62
     7
  6
Continuous
370
    -3
390
F
347
3E
  0
LAYER
  5
40
330
2
100
AcDbSymbolTableRecord
100
AcDbLayerTableRecord
  2
_U+30EC_U+30A4_U+30E4_U+30FC 1
 70
     0
 62
     7
  6
Continuous
370
    -3
390
F
347
3E
  0
ENDTAB
  0
TABLE
  2
STYLE
  5
3
330
0
100
AcDbSymbolTable
 70
     1
  0
STYLE
  5
11
330
3
100
AcDbSymbolTableRecord
100
AcDbTextStyleTableRecord
  2
Standard
 70
     0
 40
0.0
 41
1.0
 50
0.0
 71
     0
 42
0.2
  3
txt
  4

  0
ENDTAB
  0
TABLE
  2
VIEW
  5
6
330
0
100
AcDbSymbolTable
 70
     0
  0
ENDTAB
  0
TABLE
  2
UCS
  5
7
330
0
100
AcDbSymbolTable
 70
     0
  0
ENDTAB
  0
TABLE
  2
APPID
  5
9
330
0
100
AcDbSymbolTable
 70
     1
  0
APPID
  5
12
330
9
100
AcDbSymbolTableRecord
100
AcDbRegAppTableRecord
  2
ACAD
 70
     0
  0
ENDTAB
  0
TABLE
  2
DIMSTYLE
  5
A
330
0
100
AcDbSymbolTable
 70
     1
100
AcDbDimStyleTable
  0
DIMSTYLE
105
27
330
A
100
AcDbSymbolTableRecord
100
AcDbDimStyleTableRecord
  2
Standard
 70
     0
178
     0
340
11
  0
ENDTAB
  0
TABLE
  2
BLOCK_RECORD
  5
1
330
0
100
AcDbSymbolTable
 70
     6
  0
BLOCK_RECORD
  5
1F
330
1
100
AcDbSymbolTableRecord
100
AcDbBlockTableRecord
  2
*Model_Space
340
22
 70
     0
280
     1
281
     0
  0
BLOCK_RECORD
  5
1B
330
1
100
AcDbSymbolTableRecord
100
AcDbBlockTableRecord
  2
*Paper_Space
340
1E
 70
     0
280
     1
281
     0
  0
BLOCK_RECORD
  5
23
330
1
100
AcDbSymbolTableRecord
100
AcDbBlockTableRecord
  2
*Paper_Space0
340
26
 70
     0
280
     1
281
     0
  0
BLOCK_RECORD
  5
71
330
1
100
AcDbSymbolTableRecord
100
AcDbBlockTableRecord
  2
block 2
340
0
102
{BLKREFS
331
72
102
}
 70
     0
280
     1
281
     0
  0
BLOCK_RECORD
  5
89
330
1
100
AcDbSymbolTableRecord
100
AcDbBlockTableRecord
  2
block 3
340
0
102
{BLKREFS
331
8A
102
}
 70
     0
280
     1
281
     0
  0
BLOCK_RECORD
  5
A9
330
1
100
AcDbSymbolTableRecord
100
AcDbBlockTableRecord
  2
block 4
340
0
102
{BLKREFS
331
AA
102
}
 70
     0
280
     1
281
     0
  0
BLOCK_RECORD
  5
D9
330
1
100
AcDbSymbolTableRecord
100
AcDbBlockTableRecord
  2
block 5
340
0
102
{BLKREFS
331
DA
102
}
 70
     0
280
     1
281
     0
  0
BLOCK_RECORD
  5
E9
330
1
100
AcDbSymbolTableRecord
100
AcDbBlockTableRecord
  2
block 6
340
0
102
{BLKREFS
331
EA
102
}
 70
     0
280
     1
281
     0
  0
ENDTAB
  0
ENDSEC
  0
SECTION
  2
BLOCKS
  0
BLOCK
  5
20
330
1F
100
AcDbEntity
  8
0
100
AcDbBlockBegin
  2
*Model_Space
 70
     0
 10
0.0
 20
0.0
 30
0.0
  3
*Model_Space
  1

  0
ENDBLK
  5
21
330
1F
100
AcDbEntity
  8
0
100
AcDbBlockEnd
  0
BLOCK
  5
1C
330
1B
100
AcDbEntity
 67
     1
  8
0
100
AcDbBlockBegin
  2
*Paper_Space
 70
     0
 10
0.0
 20
0.0
 30
0.0
  3
*Paper_Space
  1

  0
ENDBLK
  5
1D
330
1B
100
AcDbEntity
 67
     1
  8
0
100
AcDbBlockEnd
  0
BLOCK
  5
24
330
23
100
AcDbEntity
  8
0
100
AcDbBlockBegin
  2
*Paper_Space0
 70
     0
 10
0.0
 20
0.0
 30
0.0
  3
*Paper_Space0
  1

  0
ENDBLK
  5
25
330
23
100
AcDbEntity
  8
0
100
AcDbBlockEnd
  0
BLOCK
  5
73
330
71
100
AcDbEntity
  8
0
100
AcDbBlockBegin
  2
block 2
 70
     0
 10
0.0
 20
0.0
 30
0.0
  3
block 2
  1

  0
SPLINE
  5
75
330
71
100
AcDbEntity
  8
_U+30EC_U+30A4_U+30E4_U+30FC 1
370
     0
100
AcDbSpline
210
0.0
220
0.0
230
1.0
 70
    11
 71
     3
 72
    26
 73
    22
 74
     0
 42
0.0000000001
 43
0.0000000001
 12
1.0
 22
0.0
 32
0.0
 13
1.0
 23
0.0
 33
0.0
 40
0.0
 40
0.0
 40
0.0
 40
0.0
 40
1.0
 40
1.0
 40
1.0
 40
2.0
 40
2.0
 40
2.0
 40
3.0
 40
3.0
 40
3.0
 40
4.0
 40
4.0
 40
4.0
 40
5.0
 40
5.0
 40
5.0
 40
6.0
 40
6.0
 40
6.0
 40
7.0
 40
7.0
 40
7.0
 40
7.0
 10
109.2970323077452
 20
-159.9261555589768
 30
0.0
 10
109.2970323077452
 20
-159.9261555589768
 30
0.0
 10
109.2970323077452
 20
-158.8220024559542
 30
0.0
 10
109.2970323077452
 20
-158.8220024559542
 30
0.0
 10
109.2970323077452
 20
-158.8220024559542
 30
0.0
 10
109.0152234970517
 20
-158.8220024559542
 30
0.0
 10
109.0152234970517
 20
-158.8220024559542
 30
0.0
 10
109.0152234970517
 20
-158.8220024559542
 30
0.0
 10
109.0152234970517
 20
-158.6738633500885
 30
0.0
 10
109.0152234970517
 20
-158.6738633500885
 30
0.0
 10
109.2984103459393
 20
-158.6590494395019
 30
0.0
 10
109.3383734535682
 20
-158.4960964230496
 30
0.0
 10
109.363178141062
 20
-158.3817192529393
 30
0.0
 10
109.363178141062
 20
-158.3817192529393
 30
0.0
 10
109.487890597628
 20
-158.3817192529393
 30
0.0
 10
109.487890597628
 20
-158.3817192529393
 30
0.0
 10
109.487890597628
 20
-158.3817192529393
 30
0.0
 10
109.487890597628
 20
-159.9261555589768
 30
0.0
 10
109.487890597628
 20
-159.9261555589768
 30
0.0
 10
109.487890597628
 20
-159.9261555589768
 30
0.0
 10
109.2970323077452
 20
-159.9261555589768
 30
0.0
 10
109.2970323077452
 20
-159.9261555589768
 30
0.0
  0
HATCH
  5
76
330
71
100
AcDbEntity
  8
_U+30EC_U+30A4_U+30E4_U+30FC 1
 62
   179
420
  2234388
100
AcDbHatch
 10
0.0
 20
0.0
 30
0.0
210
0.0
220
0.0
230
1.0
  2
SOLID
 70
     1
 71
     0
 91
        1
 92
        1
 93
        1
 72
     4
 94
        3
 73
     0
 74
     1
 95
       26
 96
       22
 40
0.0
 40
0.0
 40
0.0
 40
0.0
 40
1.0
 40
1.0
 40
1.0
 40
2.0
 40
2.0
 40
2.0
 40
3.0
 40
3.0
 40
3.0
 40
4.0
 40
4.0
 40
4.0
 40
5.0
 40
5.0
 40
5.0
 40
6.0
 40
6.0
 40
6.0
 40
7.0
 40
7.0
 40
7.0
 40
7.0
 10
109.2970323077452
 20
-159.9261555589768
 10
109.2970323077452
 20
-159.9261555589768
 10
109.2970323077452
 20
-158.8220024559542
 10
109.2970323077452
 20
-158.8220024559542
 10
109.2970323077452
 20
-158.8220024559542
 10
109.0152234970517
 20
-158.8220024559542
 10
109.0152234970517
 20
-158.8220024559542
 10
109.0152234970517
 20
-158.8220024559542
 10
109.0152234970517
 20
-158.6738633500885
 10
109.0152234970517
 20
-158.6738633500885
 10
109.2984103459393
 20
-158.6590494395019
 10
109.3383734535682
 20
-158.4960964230496
 10
109.363178141062
 20
-158.3817192529393
 10
109.363178141062
 20
-158.3817192529393
 10
109.487890597628
 20
-158.3817192529393
 10
109.487890597628
 20
-158.3817192529393
 10
109.487890597628
 20
-158.3817192529393
 10
109.487890597628
 20
-159.9261555589768
 10
109.487890597628
 20
-159.9261555589768
 10
109.487890597628
 20
-159.9261555589768
 10
109.2970323077452
 20
-159.9261555589768
 10
109.2970323077452
 20
-159.9261555589768
 97
        0
 97
        0
 75
     2
 76
     1
 98
        0
  0
SPLINE
  5
77
330
71
100
AcDbEntity
  8
_U+30EC_U+30A4_U+30E4_U+30FC 1
370
     0
100
AcDbSpline
210
0.0
220
0.0
230
1.0
 70
    11
 71
     3
 72
    26
 73
    22
 74
     0
 42
0.0000000001
 43
0.0000000001
 12
1.0
 22
0.0
 32
0.0
 13
1.0
 23
0.0
 33
0.0
 40
0.0
 40
0.0
 40
0.0
 40
0.0
 40
1.0
 40
1.0
 40
1.0
 40
2.0
 40
2.0
 40
2.0
 40
3.0
 40
3.0
 40
3.0
 40
4.0
 40
4.0
 40
4.0
 40
5.0
 40
5.0
 40
5.0
 40
6.0
 40
6.0
 40
6.0
 40
7.0
 40
7.0
 40
7.0
 40
7.0
 10
110.2644151200033
 20
-159.9261555589768
 30
0.0
 10
110.2644151200033
 20
-159.9261555589768
 30
0.0
 10
110.0625325245677
 20
-159.9261555589768
 30
0.0
 10
110.0625325245677
 20
-159.9261555589768
 30
0.0
 10
110.0838921165763
 20
-159.6171304939499
 30
0.0
 10
110.2478786616742
 20
-159.0989881329683
 30
0.0
 10
110.5944552674903
 20
-158.5932481157336
 30
0.0
 10
110.5944552674903
 20
-158.5932481157336
 30
0.0
 10
109.8799424638495
 20
-158.5932481157336
 30
0.0
 10
109.8799424638495
 20
-158.5932481157336
 30
0.0
 10
109.8799424638495
 20
-158.5932481157336
 30
0.0
 10
109.8799424638495
 20
-158.3817192529393
 30
0.0
 10
109.8799424638495
 20
-158.3817192529393
 30
0.0
 10
109.8799424638495
 20
-158.3817192529393
 30
0.0
 10
110.7963378629259
 20
-158.3817192529393
 30
0.0
 10
110.7963378629259
 20
-158.3817192529393
 30
0.0
 10
110.7963378629259
 20
-158.3817192529393
 30
0.0
 10
110.7963378629259
 20
-158.5932481157336
 30
0.0
 10
110.7963378629259
 20
-158.5932481157336
 30
0.0
 10
110.5207302241059
 20
-158.8833251555917
 30
0.0
 10
110.2933539220794
 20
-159.4755370695061
 30
0.0
 10
110.2644151200033
 20
-159.9261555589768
 30
0.0
  0
HATCH
  5
78
330
71
100
AcDbEntity
  8
_U+30EC_U+30A4_U+30E4_U+30FC 1
 62
   179
420
  2234388
100
AcDbHatch
 10
0.0
 20
0.0
 30
0.0
210
0.0
220
0.0
230
1.0
  2
SOLID
 70
     1
 71
     0
 91
        1
 92
        1
 93
        1
 72
     4
 94
        3
 73
     0
 74
     1
 95
       26
 96
       22
 40
0.0
 40
0.0
 40
0.0
 40
0.0
 40
1.0
 40
1.0
 40
1.0
 40
2.0
 40
2.0
 40
2.0
 40
3.0
 40
3.0
 40
3.0
 40
4.0
 40
4.0
 40
4.0
 40
5.0
 40
5.0
 40
5.0
 40
6.0
 40
6.0
 40
6.0
 40
7.0
 40
7.0
 40
7.0
 40
7.0
 10
110.2644151200033
 20
-159.9261555589768
 10
110.2644151200033
 20
-159.9261555589768
 10
110.0625325245677
 20
-159.9261555589768
 10
110.0625325245677
 20
-159.9261555589768
 10
110.0838921165763
 20
-159.6171304939499
 10
110.2478786616742
 20
-159.0989881329683
 10
110.5944552674903
 20
-158.5932481157336
 10
110.5944552674903
 20
-158.5932481157336
 10
109.8799424638495
 20
-158.5932481157336
 10
109.8799424638495
 20
-158.5932481157336
 10
109.8799424638495
 20
-158.5932481157336
 10
109.8799424638495
 20
-158.3817192529393
 10
109.8799424638495
 20
-158.3817192529393
 10
109.8799424638495
 20
-158.3817192529393
 10
110.7963378629259
 20
-158.3817192529393
 10
110.7963378629259
 20
-158.3817192529393
 10
110.7963378629259
 20
-158.3817192529393
 10
110.7963378629259
 20
-158.5932481157336
 10
110.7963378629259
 20
-158.5932481157336
 10
110.5207302241059
 20
-158.8833251555917
 10
110.2933539220794
 20
-159.4755370695061
 10
110.2644151200033
 20
-159.9261555589768
 97
        0
 97
        0
 75
     2
 76
     1
 98
        0
  0
ENDBLK
  5
74
330
71
100
AcDbEntity
  8
0
100
AcDbBlockEnd
  0
BLOCK
  5
8B
330
89
100
AcDbEntity
  8
0
100
AcDbBlockBegin
  2
block 3
 70
     0
 10
0.0
 20
0.0
 30
0.0
  3
block 3
  1

  0
SPLINE
  5
8D
330
89
100
AcDbEntity
  8
_U+30EC_U+30A4_U+30E4_U+30FC 1
370
     0
100
AcDbSpline
210
0.0
220
0.0
230
1.0
 70
    11
 71
     3
 72
    26
 73
    22
 74
     0
 42
0.0000000001
 43
0.0000000001
 12
1.0
 22
0.0
 32
0.0
 13
1.0
 23
0.0
 33
0.0
 40
0.0
 40
0.0
 40
0.0
 40
0.0
 40
1.0
 40
1.0
 40
1.0
 40
2.0
 40
2.0
 40
2.0
 40
3.0
 40
3.0
 40
3.0
 40
4.0
 40
4.0
 40
4.0
 40
5.0
 40
5.0
 40
5.0
 40
6.0
 40
6.0
 40
6.0
 40
7.0
 40
7.0
 40
7.0
 40
7.0
 10
86.4178086806525
 20
-138.3078368794855
 30
0.0
 10
86.4178086806525
 20
-138.3078368794855
 30
0.0
 10
85.31348332285566
 20
-138.3078368794855
 30
0.0
 10
85.31348332285566
 20
-138.3078368794855
 30
0.0
 10
85.31348332285566
 20
-138.3078368794855
 30
0.0
 10
85.31348332285566
 20
-138.5893011806305
 30
0.0
 10
85.31348332285566
 20
-138.5893011806305
 30
0.0
 10
85.31348332285566
 20
-138.5893011806305
 30
0.0
 10
85.16534421698992
 20
-138.5893011806305
 30
0.0
 10
85.16534421698992
 20
-138.5893011806305
 30
0.0
 10
85.15070256117761
 20
-138.3061143317429
 30
0.0
 10
84.98774954472529
 20
-138.2664957336625
 30
0.0
 10
84.87354462938926
 20
-138.2413465366202
 30
0.0
 10
84.87354462938926
 20
-138.2413465366202
 30
0.0
 10
84.87354462938926
 20
-138.1166340800542
 30
0.0
 10
84.87354462938926
 20
-138.1166340800542
 30
0.0
 10
84.87354462938926
 20
-138.1166340800542
 30
0.0
 10
86.4178086806525
 20
-138.1166340800542
 30
0.0
 10
86.4178086806525
 20
-138.1166340800542
 30
0.0
 10
86.4178086806525
 20
-138.1166340800542
 30
0.0
 10
86.4178086806525
 20
-138.3078368794855
 30
0.0
 10
86.4178086806525
 20
-138.3078368794855
 30
0.0
  0
HATCH
  5
8E
330
89
100
AcDbEntity
  8
_U+30EC_U+30A4_U+30E4_U+30FC 1
 62
   179
420
  2234388
100
AcDbHatch
 10
0.0
 20
0.0
 30
0.0
210
0.0
220
0.0
230
1.0
  2
SOLID
 70
     1
 71
     0
 91
        1
 92
        1
 93
        1
 72
     4
 94
        3
 73
     0
 74
     1
 95
       26
 96
       22
 40
0.0
 40
0.0
 40
0.0
 40
0.0
 40
1.0
 40
1.0
 40
1.0
 40
2.0
 40
2.0
 40
2.0
 40
3.0
 40
3.0
 40
3.0
 40
4.0
 40
4.0
 40
4.0
 40
5.0
 40
5.0
 40
5.0
 40
6.0
 40
6.0
 40
6.0
 40
7.0
 40
7.0
 40
7.0
 40
7.0
 10
86.4178086806525
 20
-138.3078368794855
 10
86.4178086806525
 20
-138.3078368794855
 10
85.31348332285566
 20
-138.3078368794855
 10
85.31348332285566
 20
-138.3078368794855
 10
85.31348332285566
 20
-138.3078368794855
 10
85.31348332285566
 20
-138.5893011806305
 10
85.31348332285566
 20
-138.5893011806305
 10
85.31348332285566
 20
-138.5893011806305
 10
85.16534421698992
 20
-138.5893011806305
 10
85.16534421698992
 20
-138.5893011806305
 10
85.15070256117761
 20
-138.3061143317429
 10
84.98774954472529
 20
-138.2664957336625
 10
84.87354462938926
 20
-138.2413465366202
 10
84.87354462938926
 20
-138.2413465366202
 10
84.87354462938926
 20
-138.1166340800542
 10
84.87354462938926
 20
-138.1166340800542
 10
84.87354462938926
 20
-138.1166340800542
 10
86.4178086806525
 20
-138.1166340800542
 10
86.4178086806525
 20
-138.1166340800542
 10
86.4178086806525
 20
-138.1166340800542
 10
86.4178086806525
 20
-138.3078368794855
 10
86.4178086806525
 20
-138.3078368794855
 97
        0
 97
        0
 75
     2
 76
     1
 98
        0
  0
POLYLINE
  5
8F
330
89
100
AcDbEntity
  8
_U+30EC_U+30A4_U+30E4_U+30FC 1
370
     0
100
AcDb2dPolyline
 66
     1
 10
0.0
 20
0.0
 30
0.0
  0
VERTEX
  5
90
330
8F
100
AcDbEntity
  8
_U+30EC_U+30A4_U+30E4_U+30FC 1
370
     0
100
AcDbVertex
100
AcDb2dVertex
 10
86.4178086806525
 20
-137.6398328648956
 30
0.0
  0
VERTEX
  5
91
330
8F
100
AcDbEntity
  8
_U+30EC_U+30A4_U+30E4_U+30FC 1
370
     0
100
AcDbVertex
100
AcDb2dVertex
 10
86.166144455455
 20
-137.6398328648956
 30
0.0
  0
VERTEX
  5
92
330
8F
100
AcDbEntity
  8
_U+30EC_U+30A4_U+30E4_U+30FC 1
370
     0
100
AcDbVertex
100
AcDb2dVertex
 10
86.166144455455
 20
-137.4252034161645
 30
0.0
  0
VERTEX
  5
93
330
8F
100
AcDbEntity
  8
_U+30EC_U+30A4_U+30E4_U+30FC 1
370
     0
100
AcDbVertex
100
AcDb2dVertex
 10
86.4178086806525
 20
-137.4252034161645
 30
0.0
  0
VERTEX
  5
94
330
8F
100
AcDbEntity
  8
_U+30EC_U+30A4_U+30E4_U+30FC 1
370
     0
100
AcDbVertex
100
AcDb2dVertex
 10
86.4178086806525
 20
-137.6398328648956
 30
0.0
  0
SEQEND
  5
95
330
8F
100
AcDbEntity
  8
_U+30EC_U+30A4_U+30E4_U+30FC 1
370
     0
  0
HATCH
  5
96
330
89
100
AcDbEntity
  8
_U+30EC_U+30A4_U+30E4_U+30FC 1
 62
   179
420
  2234388
100
AcDbHatch
 10
0.0
 20
0.0
 30
0.0
210
0.0
220
0.0
230
1.0
  2
SOLID
 70
     1
 71
     0
 91
        1
 92
        1
 93
        4
 72
     1
 10
86.4178086806525
 20
-137.6398328648956
 11
86.166144455455
 21
-137.6398328648956
 72
     1
 10
86.166144455455
 20
-137.6398328648956
 11
86.166144455455
 21
-137.4252034161645
 72
     1
 10
86.166144455455
 20
-137.4252034161645
 11
86.4178086806525
 21
-137.4252034161645
 72
     1
 10
86.4178086806525
 20
-137.4252034161645
 11
86.4178086806525
 21
-137.6398328648956
 97
        0
 75
     2
 76
     1
 98
        0
  0
SPLINE
  5
97
330
89
100
AcDbEntity
  8
_U+30EC_U+30A4_U+30E4_U+30FC 1
370
     0
100
AcDbSpline
210
0.0
220
0.0
230
1.0
 70
    11
 71
     3
 72
    26
 73
    22
 74
     0
 42
0.0000000001
 43
0.0000000001
 12
1.0
 22
0.0
 32
0.0
 13
1.0
 23
0.0
 33
0.0
 40
0.0
 40
0.0
 40
0.0
 40
0.0
 40
1.0
 40
1.0
 40
1.0
 40
2.0
 40
2.0
 40
2.0
 40
3.0
 40
3.0
 40
3.0
 40
4.0
 40
4.0
 40
4.0
 40
5.0
 40
5.0
 40
5.0
 40
6.0
 40
6.0
 40
6.0
 40
7.0
 40
7.0
 40
7.0
 40
7.0
 10
86.4178086806525
 20
-136.8391926741236
 30
0.0
 10
86.4178086806525
 20
-136.8391926741236
 30
0.0
 10
85.31348332285566
 20
-136.8391926741236
 30
0.0
 10
85.31348332285566
 20
-136.8391926741236
 30
0.0
 10
85.31348332285566
 20
-136.8391926741236
 30
0.0
 10
85.31348332285566
 20
-137.1206569752684
 30
0.0
 10
85.31348332285566
 20
-137.1206569752684
 30
0.0
 10
85.31348332285566
 20
-137.1206569752684
 30
0.0
 10
85.16534421698992
 20
-137.1206569752684
 30
0.0
 10
85.16534421698992
 20
-137.1206569752684
 30
0.0
 10
85.15070256117761
 20
-136.8374701263809
 30
0.0
 10
84.98774954472529
 20
-136.7978515283006
 30
0.0
 10
84.87354462938926
 20
-136.7727023312582
 30
0.0
 10
84.87354462938926
 20
-136.7727023312582
 30
0.0
 10
84.87354462938926
 20
-136.6479898746922
 30
0.0
 10
84.87354462938926
 20
-136.6479898746922
 30
0.0
 10
84.87354462938926
 20
-136.6479898746922
 30
0.0
 10
86.4178086806525
 20
-136.6479898746922
 30
0.0
 10
86.4178086806525
 20
-136.6479898746922
 30
0.0
 10
86.4178086806525
 20
-136.6479898746922
 30
0.0
 10
86.4178086806525
 20
-136.8391926741236
 30
0.0
 10
86.4178086806525
 20
-136.8391926741236
 30
0.0
  0
HATCH
  5
98
330
89
100
AcDbEntity
  8
_U+30EC_U+30A4_U+30E4_U+30FC 1
 62
   179
420
  2234388
100
AcDbHatch
 10
0.0
 20
0.0
 30
0.0
210
0.0
220
0.0
230
1.0
  2
SOLID
 70
     1
 71
     0
 91
        1
 92
        1
 93
        1
 72
     4
 94
        3
 73
     0
 74
     1
 95
       26
 96
       22
 40
0.0
 40
0.0
 40
0.0
 40
0.0
 40
1.0
 40
1.0
 40
1.0
 40
2.0
 40
2.0
 40
2.0
 40
3.0
 40
3.0
 40
3.0
 40
4.0
 40
4.0
 40
4.0
 40
5.0
 40
5.0
 40
5.0
 40
6.0
 40
6.0
 40
6.0
 40
7.0
 40
7.0
 40
7.0
 40
7.0
 10
86.4178086806525
 20
-136.8391926741236
 10
86.4178086806525
 20
-136.8391926741236
 10
85.31348332285566
 20
-136.8391926741236
 10
85.31348332285566
 20
-136.8391926741236
 10
85.31348332285566
 20
-136.8391926741236
 10
85.31348332285566
 20
-137.1206569752684
 10
85.31348332285566
 20
-137.1206569752684
 10
85.31348332285566
 20
-137.1206569752684
 10
85.16534421698992
 20
-137.1206569752684
 10
85.16534421698992
 20
-137.1206569752684
 10
85.15070256117761
 20
-136.8374701263809
 10
84.98774954472529
 20
-136.7978515283006
 10
84.87354462938926
 20
-136.7727023312582
 10
84.87354462938926
 20
-136.7727023312582
 10
84.87354462938926
 20
-136.6479898746922
 10
84.87354462938926
 20
-136.6479898746922
 10
84.87354462938926
 20
-136.6479898746922
 10
86.4178086806525
 20
-136.6479898746922
 10
86.4178086806525
 20
-136.6479898746922
 10
86.4178086806525
 20
-136.6479898746922
 10
86.4178086806525
 20
-136.8391926741236
 10
86.4178086806525
 20
-136.8391926741236
 97
        0
 97
        0
 75
     2
 76
     1
 98
        0
  0
ENDBLK
  5
8C
330
89
100
AcDbEntity
  8
0
100
AcDbBlockEnd
  0
BLOCK
  5
AB
330
A9
100
AcDbEntity
  8
0
100
AcDbBlockBegin
  2
block 4
 70
     0
 10
0.0
 20
0.0
 30
0.0
  3
block 4
  1

  0
SPLINE
  5
AD
330
A9
100
AcDbEntity
  8
_U+30EC_U+30A4_U+30E4_U+30FC 1
370
     0
100
AcDbSpline
210
0.0
220
0.0
230
1.0
 70
    11
 71
     3
 72
    29
 73
    25
 74
     0
 42
0.0000000001
 43
0.0000000001
 12
1.0
 22
0.0
 32
0.0
 13
1.0
 23
0.0
 33
0.0
 40
0.0
 40
0.0
 40
0.0
 40
0.0
 40
1.0
 40
1.0
 40
1.0
 40
2.0
 40
2.0
 40
2.0
 40
3.0
 40
3.0
 40
3.0
 40
4.0
 40
4.0
 40
4.0
 40
5.0
 40
5.0
 40
5.0
 40
6.0
 40
6.0
 40
6.0
 40
7.0
 40
7.0
 40
7.0
 40
8.0
 40
8.0
 40
8.0
 40
8.0
 10
125.2554036145195
 20
-155.9301893056355
 30
0.0
 10
125.4648654200227
 20
-156.0221733550917
 30
0.0
 10
125.483468935643
 20
-156.1699679514089
 30
0.0
 10
125.483468935643
 20
-156.2691867013841
 30
0.0
 10
125.483468935643
 20
-156.406301501697
 30
0.0
 10
125.4373046561407
 20
-156.5268798436808
 30
0.0
 10
125.2554036145195
 20
-156.6081840971327
 30
0.0
 10
125.0604112100543
 20
-156.6963785415551
 30
0.0
 10
124.8233886406692
 20
-156.7125704903358
 30
0.0
 10
124.6607801337654
 20
-156.7125704903358
 30
0.0
 10
124.5167751424819
 20
-156.7125704903358
 30
0.0
 10
124.2652831720587
 20
-156.6984455988462
 30
0.0
 10
124.0661566530112
 20
-156.6081840971327
 30
0.0
 10
123.8635850384785
 20
-156.5162000476765
 30
0.0
 10
123.8401583891789
 20
-156.3790852473636
 30
0.0
 10
123.8401583891789
 20
-156.2691867013841
 30
0.0
 10
123.8401583891789
 20
-156.1337944488138
 30
0.0
 10
123.8842556113901
 20
-156.0111490495389
 30
0.0
 10
124.0661566530112
 20
-155.9301893056355
 30
0.0
 10
124.2590820001852
 20
-155.8454399566984
 30
0.0
 10
124.4871473213088
 20
-155.8254584028839
 30
0.0
 10
124.6607801337654
 20
-155.8254584028839
 30
0.0
 10
124.8323458889308
 20
-155.8254584028839
 30
0.0
 10
125.0624782673455
 20
-155.8437174089557
 30
0.0
 10
125.2554036145195
 20
-155.9301893056355
 30
0.0
  0
SPLINE
  5
AE
330
A9
100
AcDbEntity
  8
_U+30EC_U+30A4_U+30E4_U+30FC 1
370
     0
100
AcDbSpline
210
0.0
220
0.0
230
1.0
 70
    11
 71
     3
 72
    17
 73
    13
 74
     0
 42
0.0000000001
 43
0.0000000001
 12
1.0
 22
0.0
 32
0.0
 13
1.0
 23
0.0
 33
0.0
 40
0.0
 40
0.0
 40
0.0
 40
0.0
 40
1.0
 40
1.0
 40
1.0
 40
2.0
 40
2.0
 40
2.0
 40
3.0
 40
3.0
 40
3.0
 40
4.0
 40
4.0
 40
4.0
 40
4.0
 10
124.0323947172558
 20
-156.2691867013841
 30
0.0
 10
124.0323947172558
 20
-156.481749092824
 30
0.0
 10
124.3162705852404
 20
-156.5217122004529
 30
0.0
 10
124.6607801337654
 20
-156.5217122004529
 30
0.0
 10
124.9804849947966
 20
-156.5217122004529
 30
0.0
 10
125.2891655502749
 20
-156.4910508506342
 30
0.0
 10
125.2891655502749
 20
-156.2691867013841
 30
0.0
 10
125.2891655502749
 20
-156.0580023481383
 30
0.0
 10
125.0080457586785
 20
-156.0166612023153
 30
0.0
 10
124.6607801337654
 20
-156.0166612023153
 30
0.0
 10
124.3410752727342
 20
-156.0166612023153
 30
0.0
 10
124.0323947172558
 20
-156.0490450998766
 30
0.0
 10
124.0323947172558
 20
-156.2691867013841
 30
0.0
  0
HATCH
  5
AF
330
A9
100
AcDbEntity
  8
_U+30EC_U+30A4_U+30E4_U+30FC 1
 62
   179
420
  2234388
100
AcDbHatch
 10
0.0
 20
0.0
 30
0.0
210
0.0
220
0.0
230
1.0
  2
SOLID
 70
     1
 71
     0
 91
        2
 92
        1
 93
        1
 72
     4
 94
        3
 73
     0
 74
     1
 95
       29
 96
       25
 40
0.0
 40
0.0
 40
0.0
 40
0.0
 40
1.0
 40
1.0
 40
1.0
 40
2.0
 40
2.0
 40
2.0
 40
3.0
 40
3.0
 40
3.0
 40
4.0
 40
4.0
 40
4.0
 40
5.0
 40
5.0
 40
5.0
 40
6.0
 40
6.0
 40
6.0
 40
7.0
 40
7.0
 40
7.0
 40
8.0
 40
8.0
 40
8.0
 40
8.0
 10
125.2554036145195
 20
-155.9301893056355
 10
125.4648654200227
 20
-156.0221733550917
 10
125.483468935643
 20
-156.1699679514089
 10
125.483468935643
 20
-156.2691867013841
 10
125.483468935643
 20
-156.406301501697
 10
125.4373046561407
 20
-156.5268798436808
 10
125.2554036145195
 20
-156.6081840971327
 10
125.0604112100543
 20
-156.6963785415551
 10
124.8233886406692
 20
-156.7125704903358
 10
124.6607801337654
 20
-156.7125704903358
 10
124.5167751424819
 20
-156.7125704903358
 10
124.2652831720587
 20
-156.6984455988462
 10
124.0661566530112
 20
-156.6081840971327
 10
123.8635850384785
 20
-156.5162000476765
 10
123.8401583891789
 20
-156.3790852473636
 10
123.8401583891789
 20
-156.2691867013841
 10
123.8401583891789
 20
-156.1337944488138
 10
123.8842556113901
 20
-156.0111490495389
 10
124.0661566530112
 20
-155.9301893056355
 10
124.2590820001852
 20
-155.8454399566984
 10
124.4871473213088
 20
-155.8254584028839
 10
124.6607801337654
 20
-155.8254584028839
 10
124.8323458889308
 20
-155.8254584028839
 10
125.0624782673455
 20
-155.8437174089557
 10
125.2554036145195
 20
-155.9301893056355
 97
        0
 97
        0
 92
        1
 93
        1
 72
     4
 94
        3
 73
     0
 74
     1
 95
       17
 96
       13
 40
0.0
 40
0.0
 40
0.0
 40
0.0
 40
1.0
 40
1.0
 40
1.0
 40
2.0
 40
2.0
 40
2.0
 40
3.0
 40
3.0
 40
3.0
 40
4.0
 40
4.0
 40
4.0
 40
4.0
 10
124.0323947172558
 20
-156.2691867013841
 10
124.0323947172558
 20
-156.481749092824
 10
124.3162705852404
 20
-156.5217122004529
 10
124.6607801337654
 20
-156.5217122004529
 10
124.9804849947966
 20
-156.5217122004529
 10
125.2891655502749
 20
-156.4910508506342
 10
125.2891655502749
 20
-156.2691867013841
 10
125.2891655502749
 20
-156.0580023481383
 10
125.0080457586785
 20
-156.0166612023153
 10
124.6607801337654
 20
-156.0166612023153
 10
124.3410752727342
 20
-156.0166612023153
 10
124.0323947172558
 20
-156.0490450998766
 10
124.0323947172558
 20
-156.2691867013841
 97
        0
 97
        0
 75
     2
 76
     1
 98
        0
  0
POLYLINE
  5
B0
330
A9
100
AcDbEntity
  8
_U+30EC_U+30A4_U+30E4_U+30FC 1
370
     0
100
AcDb2dPolyline
 66
     1
 10
0.0
 20
0.0
 30
0.0
  0
VERTEX
  5
B1
330
B0
100
AcDbEntity
  8
_U+30EC_U+30A4_U+30E4_U+30FC 1
370
     0
100
AcDbVertex
100
AcDb2dVertex
 10
125.4331705415584
 20
-155.6425238326171
 30
0.0
  0
VERTEX
  5
B2
330
B0
100
AcDbEntity
  8
_U+30EC_U+30A4_U+30E4_U+30FC 1
370
     0
100
AcDbVertex
100
AcDb2dVertex
 10
125.1809895520381
 20
-155.6425238326171
 30
0.0
  0
VERTEX
  5
B3
330
B0
100
AcDbEntity
  8
_U+30EC_U+30A4_U+30E4_U+30FC 1
370
     0
100
AcDbVertex
100
AcDb2dVertex
 10
125.1809895520381
 20
-155.4278943838861
 30
0.0
  0
VERTEX
  5
B4
330
B0
100
AcDbEntity
  8
_U+30EC_U+30A4_U+30E4_U+30FC 1
370
     0
100
AcDbVertex
100
AcDb2dVertex
 10
125.4331705415584
 20
-155.4278943838861
 30
0.0
  0
VERTEX
  5
B5
330
B0
100
AcDbEntity
  8
_U+30EC_U+30A4_U+30E4_U+30FC 1
370
     0
100
AcDbVertex
100
AcDb2dVertex
 10
125.4331705415584
 20
-155.6425238326171
 30
0.0
  0
SEQEND
  5
B6
330
B0
100
AcDbEntity
  8
_U+30EC_U+30A4_U+30E4_U+30FC 1
370
     0
  0
HATCH
  5
B7
330
A9
100
AcDbEntity
  8
_U+30EC_U+30A4_U+30E4_U+30FC 1
 62
   179
420
  2234388
100
AcDbHatch
 10
0.0
 20
0.0
 30
0.0
210
0.0
220
0.0
230
1.0
  2
SOLID
 70
     1
 71
     0
 91
        1
 92
        1
 93
        4
 72
     1
 10
125.4331705415584
 20
-155.6425238326171
 11
125.1809895520381
 21
-155.6425238326171
 72
     1
 10
125.1809895520381
 20
-155.6425238326171
 11
125.1809895520381
 21
-155.4278943838861
 72
     1
 10
125.1809895520381
 20
-155.4278943838861
 11
125.4331705415584
 21
-155.4278943838861
 72
     1
 10
125.4331705415584
 20
-155.4278943838861
 11
125.4331705415584
 21
-155.6425238326171
 97
        0
 75
     2
 76
     1
 98
        0
  0
POLYLINE
  5
B8
330
A9
100
AcDbEntity
  8
_U+30EC_U+30A4_U+30E4_U+30FC 1
370
     0
100
AcDb2dPolyline
 66
     1
 10
0.0
 20
0.0
 30
0.0
  0
VERTEX
  5
B9
330
B8
100
AcDbEntity
  8
_U+30EC_U+30A4_U+30E4_U+30FC 1
370
     0
100
AcDbVertex
100
AcDb2dVertex
 10
125.0859049166452
 20
-154.5173556471346
 30
0.0
  0
VERTEX
  5
BA
330
B8
100
AcDbEntity
  8
_U+30EC_U+30A4_U+30E4_U+30FC 1
370
     0
100
AcDbVertex
100
AcDb2dVertex
 10
125.4331705415584
 20
-154.5173556471346
 30
0.0
  0
VERTEX
  5
BB
330
B8
100
AcDbEntity
  8
_U+30EC_U+30A4_U+30E4_U+30FC 1
370
     0
100
AcDbVertex
100
AcDb2dVertex
 10
125.4331705415584
 20
-154.7030462937895
 30
0.0
  0
VERTEX
  5
BC
330
B8
100
AcDbEntity
  8
_U+30EC_U+30A4_U+30E4_U+30FC 1
370
     0
100
AcDbVertex
100
AcDb2dVertex
 10
125.0859049166452
 20
-154.7030462937895
 30
0.0
  0
VERTEX
  5
BD
330
B8
100
AcDbEntity
  8
_U+30EC_U+30A4_U+30E4_U+30FC 1
370
     0
100
AcDbVertex
100
AcDb2dVertex
 10
125.0859049166452
 20
-155.2621852910456
 30
0.0
  0
VERTEX
  5
BE
330
B8
100
AcDbEntity
  8
_U+30EC_U+30A4_U+30E4_U+30FC 1
370
     0
100
AcDbVertex
100
AcDb2dVertex
 10
124.861973710104
 20
-155.2621852910456
 30
0.0
  0
VERTEX
  5
BF
330
B8
100
AcDbEntity
  8
_U+30EC_U+30A4_U+30E4_U+30FC 1
370
     0
100
AcDbVertex
100
AcDb2dVertex
 10
123.8883897259724
 20
-154.6834092495236
 30
0.0
  0
VERTEX
  5
C0
330
B8
100
AcDbEntity
  8
_U+30EC_U+30A4_U+30E4_U+30FC 1
370
     0
100
AcDbVertex
100
AcDb2dVertex
 10
123.8883897259724
 20
-154.5173556471346
 30
0.0
  0
VERTEX
  5
C1
330
B8
100
AcDbEntity
  8
_U+30EC_U+30A4_U+30E4_U+30FC 1
370
     0
100
AcDbVertex
100
AcDb2dVertex
 10
124.8874674166948
 20
-154.5173556471346
 30
0.0
  0
VERTEX
  5
C2
330
B8
100
AcDbEntity
  8
_U+30EC_U+30A4_U+30E4_U+30FC 1
370
     0
100
AcDbVertex
100
AcDb2dVertex
 10
124.8874674166948
 20
-154.3406222487412
 30
0.0
  0
VERTEX
  5
C3
330
B8
100
AcDbEntity
  8
_U+30EC_U+30A4_U+30E4_U+30FC 1
370
     0
100
AcDbVertex
100
AcDb2dVertex
 10
125.0859049166452
 20
-154.3406222487412
 30
0.0
  0
VERTEX
  5
C4
330
B8
100
AcDbEntity
  8
_U+30EC_U+30A4_U+30E4_U+30FC 1
370
     0
100
AcDbVertex
100
AcDb2dVertex
 10
125.0859049166452
 20
-154.5173556471346
 30
0.0
  0
SEQEND
  5
C5
330
B8
100
AcDbEntity
  8
_U+30EC_U+30A4_U+30E4_U+30FC 1
370
     0
  0
POLYLINE
  5
C6
330
A9
100
AcDbEntity
  8
_U+30EC_U+30A4_U+30E4_U+30FC 1
370
     0
100
AcDb2dPolyline
 66
     1
 10
0.0
 20
0.0
 30
0.0
  0
VERTEX
  5
C7
330
C6
100
AcDbEntity
  8
_U+30EC_U+30A4_U+30E4_U+30FC 1
370
     0
100
AcDbVertex
100
AcDb2dVertex
 10
124.2315212363032
 20
-154.7030462937895
 30
0.0
  0
VERTEX
  5
C8
330
C6
100
AcDbEntity
  8
_U+30EC_U+30A4_U+30E4_U+30FC 1
370
     0
100
AcDbVertex
100
AcDb2dVertex
 10
124.8874674166948
 20
-155.0926865931713
 30
0.0
  0
VERTEX
  5
C9
330
C6
100
AcDbEntity
  8
_U+30EC_U+30A4_U+30E4_U+30FC 1
370
     0
100
AcDbVertex
100
AcDb2dVertex
 10
124.8874674166948
 20
-154.7030462937895
 30
0.0
  0
VERTEX
  5
CA
330
C6
100
AcDbEntity
  8
_U+30EC_U+30A4_U+30E4_U+30FC 1
370
     0
100
AcDbVertex
100
AcDb2dVertex
 10
124.2315212363032
 20
-154.7030462937895
 30
0.0
  0
SEQEND
  5
CB
330
C6
100
AcDbEntity
  8
_U+30EC_U+30A4_U+30E4_U+30FC 1
370
     0
  0
HATCH
  5
CC
330
A9
100
AcDbEntity
  8
_U+30EC_U+30A4_U+30E4_U+30FC 1
 62
   179
420
  2234388
100
AcDbHatch
 10
0.0
 20
0.0
 30
0.0
210
0.0
220
0.0
230
1.0
  2
SOLID
 70
     1
 71
     0
 91
        2
 92
        1
 93
       11
 72
     1
 10
125.0859049166452
 20
-154.5173556471346
 11
125.4331705415584
 21
-154.5173556471346
 72
     1
 10
125.4331705415584
 20
-154.5173556471346
 11
125.4331705415584
 21
-154.7030462937895
 72
     1
 10
125.4331705415584
 20
-154.7030462937895
 11
125.0859049166452
 21
-154.7030462937895
 72
     1
 10
125.0859049166452
 20
-154.7030462937895
 11
125.0859049166452
 21
-155.2621852910456
 72
     1
 10
125.0859049166452
 20
-155.2621852910456
 11
124.861973710104
 21
-155.2621852910456
 72
     1
 10
124.861973710104
 20
-155.2621852910456
 11
123.8883897259724
 21
-154.6834092495236
 72
     1
 10
123.8883897259724
 20
-154.6834092495236
 11
123.8883897259724
 21
-154.5173556471346
 72
     1
 10
123.8883897259724
 20
-154.5173556471346
 11
124.8874674166948
 21
-154.5173556471346
 72
     1
 10
124.8874674166948
 20
-154.5173556471346
 11
124.8874674166948
 21
-154.3406222487412
 72
     1
 10
124.8874674166948
 20
-154.3406222487412
 11
125.0859049166452
 21
-154.3406222487412
 72
     1
 10
125.0859049166452
 20
-154.3406222487412
 11
125.0859049166452
 21
-154.5173556471346
 97
        0
 92
        1
 93
        3
 72
     1
 10
124.2315212363032
 20
-154.7030462937895
 11
124.8874674166948
 21
-155.0926865931713
 72
     1
 10
124.8874674166948
 20
-155.0926865931713
 11
124.8874674166948
 21
-154.7030462937895
 72
     1
 10
124.8874674166948
 20
-154.7030462937895
 11
124.2315212363032
 21
-154.7030462937895
 97
        0
 75
     2
 76
     1
 98
        0
  0
ENDBLK
  5
AC
330
A9
100
AcDbEntity
  8
0
100
AcDbBlockEnd
  0
BLOCK
  5
DB
330
D9
100
AcDbEntity
  8
0
100
AcDbBlockBegin
  2
block 5
 70
     0
 10
0.0
 20
0.0
 30
0.0
  3
block 5
  1

  0
SPLINE
  5
DD
330
D9
100
AcDbEntity
  8
_U+30EC_U+30A4_U+30E4_U+30FC 1
370
     0
100
AcDbSpline
210
0.0
220
0.0
230
1.0
 70
    11
 71
     3
 72
    26
 73
    22
 74
     0
 42
0.0000000001
 43
0.0000000001
 12
1.0
 22
0.0
 32
0.0
 13
1.0
 23
0.0
 33
0.0
 40
0.0
 40
0.0
 40
0.0
 40
0.0
 40
1.0
 40
1.0
 40
1.0
 40
2.0
 40
2.0
 40
2.0
 40
3.0
 40
3.0
 40
3.0
 40
4.0
 40
4.0
 40
4.0
 40
5.0
 40
5.0
 40
5.0
 40
6.0
 40
6.0
 40
6.0
 40
7.0
 40
7.0
 40
7.0
 40
7.0
 10
94.88499210952529
 20
-159.9261555589768
 30
0.0
 10
94.88499210952529
 20
-159.9261555589768
 30
0.0
 10
94.88499210952529
 20
-158.8220024559542
 30
0.0
 10
94.88499210952529
 20
-158.8220024559542
 30
0.0
 10
94.88499210952529
 20
-158.8220024559542
 30
0.0
 10
94.60352780838038
 20
-158.8220024559542
 30
0.0
 10
94.60352780838038
 20
-158.8220024559542
 30
0.0
 10
94.60352780838038
 20
-158.8220024559542
 30
0.0
 10
94.60352780838038
 20
-158.6738633500885
 30
0.0
 10
94.60352780838038
 20
-158.6738633500885
 30
0.0
 10
94.88671465726792
 20
-158.6590494395019
 30
0.0
 10
94.92633325534828
 20
-158.4960964230496
 30
0.0
 10
94.95148245239061
 20
-158.3817192529393
 30
0.0
 10
94.95148245239061
 20
-158.3817192529393
 30
0.0
 10
95.07619490895665
 20
-158.3817192529393
 30
0.0
 10
95.07619490895665
 20
-158.3817192529393
 30
0.0
 10
95.07619490895665
 20
-158.3817192529393
 30
0.0
 10
95.07619490895665
 20
-159.9261555589768
 30
0.0
 10
95.07619490895665
 20
-159.9261555589768
 30
0.0
 10
95.07619490895665
 20
-159.9261555589768
 30
0.0
 10
94.88499210952529
 20
-159.9261555589768
 30
0.0
 10
94.88499210952529
 20
-159.9261555589768
 30
0.0
  0
HATCH
  5
DE
330
D9
100
AcDbEntity
  8
_U+30EC_U+30A4_U+30E4_U+30FC 1
 62
   179
420
  2234388
100
AcDbHatch
 10
0.0
 20
0.0
 30
0.0
210
0.0
220
0.0
230
1.0
  2
SOLID
 70
     1
 71
     0
 91
        1
 92
        1
 93
        1
 72
     4
 94
        3
 73
     0
 74
     1
 95
       26
 96
       22
 40
0.0
 40
0.0
 40
0.0
 40
0.0
 40
1.0
 40
1.0
 40
1.0
 40
2.0
 40
2.0
 40
2.0
 40
3.0
 40
3.0
 40
3.0
 40
4.0
 40
4.0
 40
4.0
 40
5.0
 40
5.0
 40
5.0
 40
6.0
 40
6.0
 40
6.0
 40
7.0
 40
7.0
 40
7.0
 40
7.0
 10
94.88499210952529
 20
-159.9261555589768
 10
94.88499210952529
 20
-159.9261555589768
 10
94.88499210952529
 20
-158.8220024559542
 10
94.88499210952529
 20
-158.8220024559542
 10
94.88499210952529
 20
-158.8220024559542
 10
94.60352780838038
 20
-158.8220024559542
 10
94.60352780838038
 20
-158.8220024559542
 10
94.60352780838038
 20
-158.8220024559542
 10
94.60352780838038
 20
-158.6738633500885
 10
94.60352780838038
 20
-158.6738633500885
 10
94.88671465726792
 20
-158.6590494395019
 10
94.92633325534828
 20
-158.4960964230496
 10
94.95148245239061
 20
-158.3817192529393
 10
94.95148245239061
 20
-158.3817192529393
 10
95.07619490895665
 20
-158.3817192529393
 10
95.07619490895665
 20
-158.3817192529393
 10
95.07619490895665
 20
-158.3817192529393
 10
95.07619490895665
 20
-159.9261555589768
 10
95.07619490895665
 20
-159.9261555589768
 10
95.07619490895665
 20
-159.9261555589768
 10
94.88499210952529
 20
-159.9261555589768
 10
94.88499210952529
 20
-159.9261555589768
 97
        0
 97
        0
 75
     2
 76
     1
 98
        0
  0
SPLINE
  5
DF
330
D9
100
AcDbEntity
  8
_U+30EC_U+30A4_U+30E4_U+30FC 1
370
     0
100
AcDbSpline
210
0.0
220
0.0
230
1.0
 70
    11
 71
     3
 72
    44
 73
    40
 74
     0
 42
0.0000000001
 43
0.0000000001
 12
1.0
 22
0.0
 32
0.0
 13
1.0
 23
0.0
 33
0.0
 40
0.0
 40
0.0
 40
0.0
 40
0.0
 40
1.0
 40
1.0
 40
1.0
 40
2.0
 40
2.0
 40
2.0
 40
3.0
 40
3.0
 40
3.0
 40
4.0
 40
4.0
 40
4.0
 40
5.0
 40
5.0
 40
5.0
 40
6.0
 40
6.0
 40
6.0
 40
7.0
 40
7.0
 40
7.0
 40
8.0
 40
8.0
 40
8.0
 40
9.0
 40
9.0
 40
9.0
 40
10.0
 40
10.0
 40
10.0
 40
11.0
 40
11.0
 40
11.0
 40
12.0
 40
12.0
 40
12.0
 40
13.0
 40
13.0
 40
13.0
 40
13.0
 10
96.00740421861968
 20
-159.3442789315181
 30
0.0
 10
95.82171357196472
 20
-159.5030978333881
 30
0.0
 10
95.74247637580397
 20
-159.577167386321
 30
0.0
 10
95.70113522998098
 20
-159.7208278680559
 30
0.0
 10
95.70113522998098
 20
-159.7208278680559
 30
0.0
 10
96.36466062044009
 20
-159.7208278680559
 30
0.0
 10
96.36466062044009
 20
-159.7208278680559
 30
0.0
 10
96.36466062044009
 20
-159.7208278680559
 30
0.0
 10
96.36466062044009
 20
-159.9261555589768
 30
0.0
 10
96.36466062044009
 20
-159.9261555589768
 30
0.0
 10
96.36466062044009
 20
-159.9261555589768
 30
0.0
 10
95.48822832899253
 20
-159.9261555589768
 30
0.0
 10
95.48822832899253
 20
-159.9261555589768
 30
0.0
 10
95.51510007377748
 20
-159.5685546476079
 30
0.0
 10
95.57125513018705
 20
-159.4903509800927
 30
0.0
 10
95.89922822038284
 20
-159.1920057110701
 30
0.0
 10
96.11764727414767
 20
-158.9932237015711
 30
0.0
 10
96.17345782100872
 20
-158.9253553205117
 30
0.0
 10
96.17345782100872
 20
-158.7878960106503
 30
0.0
 10
96.17345782100872
 20
-158.6693847259577
 30
0.0
 10
96.11213512137128
 20
-158.5384710975182
 30
0.0
 10
95.94435897123961
 20
-158.5384710975182
 30
0.0
 10
95.72249482198951
 20
-158.5384710975182
 30
0.0
 10
95.7152601214705
 20
-158.7689479854814
 30
0.0
 10
95.71181502598525
 20
-158.8853922128828
 30
0.0
 10
95.71181502598525
 20
-158.8853922128828
 30
0.0
 10
95.52061222655388
 20
-158.8853922128828
 30
0.0
 10
95.52061222655388
 20
-158.8853922128828
 30
0.0
 10
95.5278469270729
 20
-158.7582681894771
 30
0.0
 10
95.53680417533455
 20
-158.6463025862065
 30
0.0
 10
95.60536157549103
 20
-158.5277913015139
 30
0.0
 10
95.69906817268982
 20
-158.3669053423527
 30
0.0
 10
95.85788707455984
 20
-158.3331434065973
 30
0.0
 10
95.95710582453503
 20
-158.3331434065973
 30
0.0
 10
96.19343937482317
 20
-158.3331434065973
 30
0.0
 10
96.3701727732165
 20
-158.5171115055096
 30
0.0
 10
96.3701727732165
 20
-158.7899630679414
 30
0.0
 10
96.3701727732165
 20
-159.018717408162
 30
0.0
 10
96.27095402324129
 20
-159.1179361581372
 30
0.0
 10
96.00740421861968
 20
-159.3442789315181
 30
0.0
  0
HATCH
  5
E0
330
D9
100
AcDbEntity
  8
_U+30EC_U+30A4_U+30E4_U+30FC 1
 62
   179
420
  2234388
100
AcDbHatch
 10
0.0
 20
0.0
 30
0.0
210
0.0
220
0.0
230
1.0
  2
SOLID
 70
     1
 71
     0
 91
        1
 92
        1
 93
        1
 72
     4
 94
        3
 73
     0
 74
     1
 95
       44
 96
       40
 40
0.0
 40
0.0
 40
0.0
 40
0.0
 40
1.0
 40
1.0
 40
1.0
 40
2.0
 40
2.0
 40
2.0
 40
3.0
 40
3.0
 40
3.0
 40
4.0
 40
4.0
 40
4.0
 40
5.0
 40
5.0
 40
5.0
 40
6.0
 40
6.0
 40
6.0
 40
7.0
 40
7.0
 40
7.0
 40
8.0
 40
8.0
 40
8.0
 40
9.0
 40
9.0
 40
9.0
 40
10.0
 40
10.0
 40
10.0
 40
11.0
 40
11.0
 40
11.0
 40
12.0
 40
12.0
 40
12.0
 40
13.0
 40
13.0
 40
13.0
 40
13.0
 10
96.00740421861968
 20
-159.3442789315181
 10
95.82171357196472
 20
-159.5030978333881
 10
95.74247637580397
 20
-159.577167386321
 10
95.70113522998098
 20
-159.7208278680559
 10
95.70113522998098
 20
-159.7208278680559
 10
96.36466062044009
 20
-159.7208278680559
 10
96.36466062044009
 20
-159.7208278680559
 10
96.36466062044009
 20
-159.7208278680559
 10
96.36466062044009
 20
-159.9261555589768
 10
96.36466062044009
 20
-159.9261555589768
 10
96.36466062044009
 20
-159.9261555589768
 10
95.48822832899253
 20
-159.9261555589768
 10
95.48822832899253
 20
-159.9261555589768
 10
95.51510007377748
 20
-159.5685546476079
 10
95.57125513018705
 20
-159.4903509800927
 10
95.89922822038284
 20
-159.1920057110701
 10
96.11764727414767
 20
-158.9932237015711
 10
96.17345782100872
 20
-158.9253553205117
 10
96.17345782100872
 20
-158.7878960106503
 10
96.17345782100872
 20
-158.6693847259577
 10
96.11213512137128
 20
-158.5384710975182
 10
95.94435897123961
 20
-158.5384710975182
 10
95.72249482198951
 20
-158.5384710975182
 10
95.7152601214705
 20
-158.7689479854814
 10
95.71181502598525
 20
-158.8853922128828
 10
95.71181502598525
 20
-158.8853922128828
 10
95.52061222655388
 20
-158.8853922128828
 10
95.52061222655388
 20
-158.8853922128828
 10
95.5278469270729
 20
-158.7582681894771
 10
95.53680417533455
 20
-158.6463025862065
 10
95.60536157549103
 20
-158.5277913015139
 10
95.69906817268982
 20
-158.3669053423527
 10
95.85788707455984
 20
-158.3331434065973
 10
95.95710582453503
 20
-158.3331434065973
 10
96.19343937482317
 20
-158.3331434065973
 10
96.3701727732165
 20
-158.5171115055096
 10
96.3701727732165
 20
-158.7899630679414
 10
96.3701727732165
 20
-159.018717408162
 10
96.27095402324129
 20
-159.1179361581372
 10
96.00740421861968
 20
-159.3442789315181
 97
        0
 97
        0
 75
     2
 76
     1
 98
        0
  0
ENDBLK
  5
DC
330
D9
100
AcDbEntity
  8
0
100
AcDbBlockEnd
  0
BLOCK
  5
EB
330
E9
100
AcDbEntity
  8
0
100
AcDbBlockBegin
  2
block 6
 70
     0
 10
0.0
 20
0.0
 30
0.0
  3
block 6
  1

  0
SPLINE
  5
ED
330
E9
100
AcDbEntity
  8
_U+30EC_U+30A4_U+30E4_U+30FC 1
370
     0
100
AcDbSpline
210
0.0
220
0.0
230
1.0
 70
    11
 71
     3
 72
    26
 73
    22
 74
     0
 42
0.0000000001
 43
0.0000000001
 12
1.0
 22
0.0
 32
0.0
 13
1.0
 23
0.0
 33
0.0
 40
0.0
 40
0.0
 40
0.0
 40
0.0
 40
1.0
 40
1.0
 40
1.0
 40
2.0
 40
2.0
 40
2.0
 40
3.0
 40
3.0
 40
3.0
 40
4.0
 40
4.0
 40
4.0
 40
5.0
 40
5.0
 40
5.0
 40
6.0
 40
6.0
 40
6.0
 40
7.0
 40
7.0
 40
7.0
 40
7.0
 10
122.0817816535073
 20
-148.780927154645
 30
0.0
 10
122.0817816535073
 20
-148.780927154645
 30
0.0
 10
120.9772840409362
 20
-148.780927154645
 30
0.0
 10
120.9772840409362
 20
-148.780927154645
 30
0.0
 10
120.9772840409362
 20
-148.780927154645
 30
0.0
 10
120.9772840409362
 20
-149.06239145579
 30
0.0
 10
120.9772840409362
 20
-149.06239145579
 30
0.0
 10
120.9772840409362
 20
-149.06239145579
 30
0.0
 10
120.8291449350705
 20
-149.06239145579
 30
0.0
 10
120.8291449350705
 20
-149.06239145579
 30
0.0
 10
120.8146755340324
 20
-148.7792046069024
 30
0.0
 10
120.6513780080316
 20
-148.739586008822
 30
0.0
 10
120.5370008379213
 20
-148.7144368117797
 30
0.0
 10
120.5370008379213
 20
-148.7144368117797
 30
0.0
 10
120.5370008379213
 20
-148.5897243552137
 30
0.0
 10
120.5370008379213
 20
-148.5897243552137
 30
0.0
 10
120.5370008379213
 20
-148.5897243552137
 30
0.0
 10
122.0817816535073
 20
-148.5897243552137
 30
0.0
 10
122.0817816535073
 20
-148.5897243552137
 30
0.0
 10
122.0817816535073
 20
-148.5897243552137
 30
0.0
 10
122.0817816535073
 20
-148.780927154645
 30
0.0
 10
122.0817816535073
 20
-148.780927154645
 30
0.0
  0
HATCH
  5
EE
330
E9
100
AcDbEntity
  8
_U+30EC_U+30A4_U+30E4_U+30FC 1
 62
   179
420
  2234388
100
AcDbHatch
 10
0.0
 20
0.0
 30
0.0
210
0.0
220
0.0
230
1.0
  2
SOLID
 70
     1
 71
     0
 91
        1
 92
        1
 93
        1
 72
     4
 94
        3
 73
     0
 74
     1
 95
       26
 96
       22
 40
0.0
 40
0.0
 40
0.0
 40
0.0
 40
1.0
 40
1.0
 40
1.0
 40
2.0
 40
2.0
 40
2.0
 40
3.0
 40
3.0
 40
3.0
 40
4.0
 40
4.0
 40
4.0
 40
5.0
 40
5.0
 40
5.0
 40
6.0
 40
6.0
 40
6.0
 40
7.0
 40
7.0
 40
7.0
 40
7.0
 10
122.0817816535073
 20
-148.780927154645
 10
122.0817816535073
 20
-148.780927154645
 10
120.9772840409362
 20
-148.780927154645
 10
120.9772840409362
 20
-148.780927154645
 10
120.9772840409362
 20
-148.780927154645
 10
120.9772840409362
 20
-149.06239145579
 10
120.9772840409362
 20
-149.06239145579
 10
120.9772840409362
 20
-149.06239145579
 10
120.8291449350705
 20
-149.06239145579
 10
120.8291449350705
 20
-149.06239145579
 10
120.8146755340324
 20
-148.7792046069024
 10
120.6513780080316
 20
-148.739586008822
 10
120.5370008379213
 20
-148.7144368117797
 10
120.5370008379213
 20
-148.7144368117797
 10
120.5370008379213
 20
-148.5897243552137
 10
120.5370008379213
 20
-148.5897243552137
 10
120.5370008379213
 20
-148.5897243552137
 10
122.0817816535073
 20
-148.5897243552137
 10
122.0817816535073
 20
-148.5897243552137
 10
122.0817816535073
 20
-148.5897243552137
 10
122.0817816535073
 20
-148.780927154645
 10
122.0817816535073
 20
-148.780927154645
 97
        0
 97
        0
 75
     2
 76
     1
 98
        0
  0
SPLINE
  5
EF
330
E9
100
AcDbEntity
  8
_U+30EC_U+30A4_U+30E4_U+30FC 1
370
     0
100
AcDbSpline
210
0.0
220
0.0
230
1.0
 70
    11
 71
     3
 72
    53
 73
    49
 74
     0
 42
0.0000000001
 43
0.0000000001
 12
1.0
 22
0.0
 32
0.0
 13
1.0
 23
0.0
 33
0.0
 40
0.0
 40
0.0
 40
0.0
 40
0.0
 40
1.0
 40
1.0
 40
1.0
 40
2.0
 40
2.0
 40
2.0
 40
3.0
 40
3.0
 40
3.0
 40
4.0
 40
4.0
 40
4.0
 40
5.0
 40
5.0
 40
5.0
 40
6.0
 40
6.0
 40
6.0
 40
7.0
 40
7.0
 40
7.0
 40
8.0
 40
8.0
 40
8.0
 40
9.0
 40
9.0
 40
9.0
 40
10.0
 40
10.0
 40
10.0
 40
11.0
 40
11.0
 40
11.0
 40
12.0
 40
12.0
 40
12.0
 40
13.0
 40
13.0
 40
13.0
 40
14.0
 40
14.0
 40
14.0
 40
15.0
 40
15.0
 40
15.0
 40
16.0
 40
16.0
 40
16.0
 40
16.0
 10
122.132080047592
 20
-147.7539441904921
 30
0.0
 10
122.132080047592
 20
-147.8207790429059
 30
0.0
 10
122.1155435892628
 20
-147.9072509395857
 30
0.0
 10
122.0521538323342
 20
-147.9937228362655
 30
0.0
 10
121.9419107768062
 20
-148.1415174325827
 30
0.0
 10
121.8109971483667
 20
-148.1597764386545
 30
0.0
 10
121.7028211501299
 20
-148.1759683874352
 30
0.0
 10
121.7028211501299
 20
-148.1759683874352
 30
0.0
 10
121.7028211501299
 20
-147.9864881357464
 30
0.0
 10
121.7028211501299
 20
-147.9864881357464
 30
0.0
 10
121.9019476691773
 20
-147.9396348371471
 30
0.0
 10
121.9315754903504
 20
-147.8314588389102
 30
0.0
 10
121.9315754903504
 20
-147.7522216427494
 30
0.0
 10
121.9315754903504
 20
-147.6330213389598
 30
0.0
 10
121.8316677212782
 20
-147.5031412391659
 30
0.0
 10
121.5994682855724
 20
-147.5031412391659
 30
0.0
 10
121.3431531814698
 20
-147.5031412391659
 30
0.0
 10
121.2735622526677
 20
-147.6564479882595
 30
0.0
 10
121.2735622526677
 20
-147.7594563432685
 30
0.0
 10
121.2735622526677
 20
-147.7863280880534
 30
0.0
 10
121.2735622526677
 20
-147.9072509395857
 30
0.0
 10
121.4024088238161
 20
-147.9830430402612
 30
0.0
 10
121.4024088238161
 20
-147.9830430402612
 30
0.0
 10
121.3838053081957
 20
-148.132560184321
 30
0.0
 10
121.3838053081957
 20
-148.132560184321
 30
0.0
 10
121.3838053081957
 20
-148.132560184321
 30
0.0
 10
120.5370008379213
 20
-148.0298963388606
 30
0.0
 10
120.5370008379213
 20
-148.0298963388606
 30
0.0
 10
120.5370008379213
 20
-148.0298963388606
 30
0.0
 10
120.5370008379213
 20
-147.3663709484015
 30
0.0
 10
120.5370008379213
 20
-147.3663709484015
 30
0.0
 10
120.5370008379213
 20
-147.3663709484015
 30
0.0
 10
120.7319932423865
 20
-147.3663709484015
 30
0.0
 10
120.7319932423865
 20
-147.3663709484015
 30
0.0
 10
120.7319932423865
 20
-147.3663709484015
 30
0.0
 10
120.7319932423865
 20
-147.891058990805
 30
0.0
 10
120.7319932423865
 20
-147.891058990805
 30
0.0
 10
120.7319932423865
 20
-147.891058990805
 30
0.0
 10
121.1550509679751
 20
-147.9468695376661
 30
0.0
 10
121.1550509679751
 20
-147.9468695376661
 30
0.0
 10
121.1212890322197
 20
-147.8945040862903
 30
0.0
 10
121.0806369054937
 20
-147.8242241383912
 30
0.0
 10
121.0806369054937
 20
-147.7232828406734
 30
0.0
 10
121.0806369054937
 20
-147.5069308441997
 30
0.0
 10
121.2673610807943
 20
-147.305048248764
 30
0.0
 10
121.580175750855
 20
-147.305048248764
 30
0.0
 10
121.897813554595
 20
-147.305048248764
 30
0.0
 10
122.132080047592
 20
-147.4959065386469
 30
0.0
 10
122.132080047592
 20
-147.7539441904921
 30
0.0
  0
HATCH
  5
F0
330
E9
100
AcDbEntity
  8
_U+30EC_U+30A4_U+30E4_U+30FC 1
 62
   179
420
  2234388
100
AcDbHatch
 10
0.0
 20
0.0
 30
0.0
210
0.0
220
0.0
230
1.0
  2
SOLID
 70
     1
 71
     0
 91
        1
 92
        1
 93
        1
 72
     4
 94
        3
 73
     0
 74
     1
 95
       53
 96
       49
 40
0.0
 40
0.0
 40
0.0
 40
0.0
 40
1.0
 40
1.0
 40
1.0
 40
2.0
 40
2.0
 40
2.0
 40
3.0
 40
3.0
 40
3.0
 40
4.0
 40
4.0
 40
4.0
 40
5.0
 40
5.0
 40
5.0
 40
6.0
 40
6.0
 40
6.0
 40
7.0
 40
7.0
 40
7.0
 40
8.0
 40
8.0
 40
8.0
 40
9.0
 40
9.0
 40
9.0
 40
10.0
 40
10.0
 40
10.0
 40
11.0
 40
11.0
 40
11.0
 40
12.0
 40
12.0
 40
12.0
 40
13.0
 40
13.0
 40
13.0
 40
14.0
 40
14.0
 40
14.0
 40
15.0
 40
15.0
 40
15.0
 40
16.0
 40
16.0
 40
16.0
 40
16.0
 10
122.132080047592
 20
-147.7539441904921
 10
122.132080047592
 20
-147.8207790429059
 10
122.1155435892628
 20
-147.9072509395857
 10
122.0521538323342
 20
-147.9937228362655
 10
121.9419107768062
 20
-148.1415174325827
 10
121.8109971483667
 20
-148.1597764386545
 10
121.7028211501299
 20
-148.1759683874352
 10
121.7028211501299
 20
-148.1759683874352
 10
121.7028211501299
 20
-147.9864881357464
 10
121.7028211501299
 20
-147.9864881357464
 10
121.9019476691773
 20
-147.9396348371471
 10
121.9315754903504
 20
-147.8314588389102
 10
121.9315754903504
 20
-147.7522216427494
 10
121.9315754903504
 20
-147.6330213389598
 10
121.8316677212782
 20
-147.5031412391659
 10
121.5994682855724
 20
-147.5031412391659
 10
121.3431531814698
 20
-147.5031412391659
 10
121.2735622526677
 20
-147.6564479882595
 10
121.2735622526677
 20
-147.7594563432685
 10
121.2735622526677
 20
-147.7863280880534
 10
121.2735622526677
 20
-147.9072509395857
 10
121.4024088238161
 20
-147.9830430402612
 10
121.4024088238161
 20
-147.9830430402612
 10
121.3838053081957
 20
-148.132560184321
 10
121.3838053081957
 20
-148.132560184321
 10
121.3838053081957
 20
-148.132560184321
 10
120.5370008379213
 20
-148.0298963388606
 10
120.5370008379213
 20
-148.0298963388606
 10
120.5370008379213
 20
-148.0298963388606
 10
120.5370008379213
 20
-147.3663709484015
 10
120.5370008379213
 20
-147.3663709484015
 10
120.5370008379213
 20
-147.3663709484015
 10
120.7319932423865
 20
-147.3663709484015
 10
120.7319932423865
 20
-147.3663709484015
 10
120.7319932423865
 20
-147.3663709484015
 10
120.7319932423865
 20
-147.891058990805
 10
120.7319932423865
 20
-147.891058990805
 10
120.7319932423865
 20
-147.891058990805
 10
121.1550509679751
 20
-147.9468695376661
 10
121.1550509679751
 20
-147.9468695376661
 10
121.1212890322197
 20
-147.8945040862903
 10
121.0806369054937
 20
-147.8242241383912
 10
121.0806369054937
 20
-147.7232828406734
 10
121.0806369054937
 20
-147.5069308441997
 10
121.2673610807943
 20
-147.305048248764
 10
121.580175750855
 20
-147.305048248764
 10
121.897813554595
 20
-147.305048248764
 10
122.132080047592
 20
-147.4959065386469
 10
122.132080047592
 20
-147.7539441904921
 97
        0
 97
        0
 75
     2
 76
     1
 98
        0
  0
ENDBLK
  5
EC
330
E9
100
AcDbEntity
  8
0
100
AcDbBlockEnd
  0
ENDSEC
  0
SECTION
  2
ENTITIES
  0
POLYLINE
  5
41
330
1F
100
AcDbEntity
  8
_U+30EC_U+30A4_U+30E4_U+30FC 1
 62
   179
420
  2234388
370
    25
100
AcDb2dPolyline
 66
     1
 10
0.0
 20
0.0
 30
0.0
  0
VERTEX
  5
42
330
41
100
AcDbEntity
  8
_U+30EC_U+30A4_U+30E4_U+30FC 1
 62
   179
420
  2234388
370
    25
100
AcDbVertex
100
AcDb2dVertex
 10
89.67755521213496
 20
-140.3645627426865
 30
0.0
  0
VERTEX
  5
43
330
41
100
AcDbEntity
  8
_U+30EC_U+30A4_U+30E4_U+30FC 1
 62
   179
420
  2234388
370
    25
100
AcDbVertex
100
AcDb2dVertex
 10
102.7778871001399
 20
-140.3645627426865
 30
0.0
  0
SEQEND
  5
44
330
41
100
AcDbEntity
  8
_U+30EC_U+30A4_U+30E4_U+30FC 1
 62
   179
420
  2234388
370
    25
  0
POLYLINE
  5
45
330
1F
100
AcDbEntity
  8
_U+30EC_U+30A4_U+30E4_U+30FC 1
 62
   179
420
  2234388
370
    25
100
AcDb2dPolyline
 66
     1
 10
0.0
 20
0.0
 30
0.0
  0
VERTEX
  5
46
330
45
100
AcDbEntity
  8
_U+30EC_U+30A4_U+30E4_U+30FC 1
 62
   179
420
  2234388
370
    25
100
AcDbVertex
100
AcDb2dVertex
 10
101.6775026837686
 20
-141.5228027423972
 30
0.0
  0
VERTEX
  5
47
330
45
100
AcDbEntity
  8
_U+30EC_U+30A4_U+30E4_U+30FC 1
 62
   179
420
  2234388
370
    25
100
AcDbVertex
100
AcDb2dVertex
 10
101.6775026837686
 20
-156.5227374608693
 30
0.0
  0
SEQEND
  5
48
330
45
100
AcDbEntity
  8
_U+30EC_U+30A4_U+30E4_U+30FC 1
 62
   179
420
  2234388
370
    25
  0
POLYLINE
  5
49
330
1F
100
AcDbEntity
  8
_U+30EC_U+30A4_U+30E4_U+30FC 1
 62
   179
420
  2234388
370
    25
100
AcDb2dPolyline
 66
     1
 10
0.0
 20
0.0
 30
0.0
  0
VERTEX
  5
4A
330
49
100
AcDbEntity
  8
_U+30EC_U+30A4_U+30E4_U+30FC 1
 62
   179
420
  2234388
370
    25
100
AcDbVertex
100
AcDb2dVertex
 10
89.67755521213496
 20
-141.4649119090784
 30
0.0
  0
VERTEX
  5
4B
330
49
100
AcDbEntity
  8
_U+30EC_U+30A4_U+30E4_U+30FC 1
 62
   179
420
  2234388
370
    25
100
AcDbVertex
100
AcDb2dVertex
 10
101.6775026837686
 20
-141.4649119090784
 30
0.0
  0
SEQEND
  5
4C
330
49
100
AcDbEntity
  8
_U+30EC_U+30A4_U+30E4_U+30FC 1
 62
   179
420
  2234388
370
    25
  0
POLYLINE
  5
4D
330
1F
100
AcDbEntity
  8
_U+30EC_U+30A4_U+30E4_U+30FC 1
 62
   179
420
  2234388
370
    25
100
AcDb2dPolyline
 66
     1
 10
0.0
 20
0.0
 30
0.0
  0
VERTEX
  5
4E
330
4D
100
AcDbEntity
  8
_U+30EC_U+30A4_U+30E4_U+30FC 1
 62
   179
420
  2234388
370
    25
100
AcDbVertex
100
AcDb2dVertex
 10
89.67755521213496
 20
-140.3645627426865
 30
0.0
  0
VERTEX
  5
4F
330
4D
100
AcDbEntity
  8
_U+30EC_U+30A4_U+30E4_U+30FC 1
 62
   179
420
  2234388
370
    25
100
AcDbVertex
100
AcDb2dVertex
 10
89.67755521213496
 20
-141.4649119090784
 30
0.0
  0
SEQEND
  5
50
330
4D
100
AcDbEntity
  8
_U+30EC_U+30A4_U+30E4_U+30FC 1
 62
   179
420
  2234388
370
    25
  0
POLYLINE
  5
51
330
1F
100
AcDbEntity
  8
_U+30EC_U+30A4_U+30E4_U+30FC 1
 62
   179
420
  2234388
370
    25
100
AcDb2dPolyline
 66
     1
 10
0.0
 20
0.0
 30
0.0
  0
VERTEX
  5
52
330
51
100
AcDbEntity
  8
_U+30EC_U+30A4_U+30E4_U+30FC 1
 62
   179
420
  2234388
370
    25
100
AcDbVertex
100
AcDb2dVertex
 10
102.7778871001399
 20
-140.423123853783
 30
0.0
  0
VERTEX
  5
53
330
51
100
AcDbEntity
  8
_U+30EC_U+30A4_U+30E4_U+30FC 1
 62
   179
420
  2234388
370
    25
100
AcDbVertex
100
AcDb2dVertex
 10
102.7778871001399
 20
-155.4230585722551
 30
0.0
  0
SEQEND
  5
54
330
51
100
AcDbEntity
  8
_U+30EC_U+30A4_U+30E4_U+30FC 1
 62
   179
420
  2234388
370
    25
  0
POLYLINE
  5
55
330
1F
100
AcDbEntity
  8
_U+30EC_U+30A4_U+30E4_U+30FC 1
 62
   179
420
  2234388
370
    25
100
AcDb2dPolyline
 66
     1
 10
0.0
 20
0.0
 30
0.0
  0
VERTEX
  5
56
330
55
100
AcDbEntity
  8
_U+30EC_U+30A4_U+30E4_U+30FC 1
 62
   179
420
  2234388
370
    25
100
AcDbVertex
100
AcDb2dVertex
 10
118.6780397500487
 20
-155.4230585722551
 30
0.0
  0
VERTEX
  5
57
330
55
100
AcDbEntity
  8
_U+30EC_U+30A4_U+30E4_U+30FC 1
 62
   179
420
  2234388
370
    25
100
AcDbVertex
100
AcDb2dVertex
 10
118.6780397500487
 20
-155.8226852388223
 30
0.0
  0
SEQEND
  5
58
330
55
100
AcDbEntity
  8
_U+30EC_U+30A4_U+30E4_U+30FC 1
 62
   179
420
  2234388
370
    25
  0
POLYLINE
  5
59
330
1F
100
AcDbEntity
  8
_U+30EC_U+30A4_U+30E4_U+30FC 1
 62
   179
420
  2234388
370
    25
100
AcDb2dPolyline
 66
     1
 10
0.0
 20
0.0
 30
0.0
  0
VERTEX
  5
5A
330
59
100
AcDbEntity
  8
_U+30EC_U+30A4_U+30E4_U+30FC 1
 62
   179
420
  2234388
370
    25
100
AcDbVertex
100
AcDb2dVertex
 10
102.7778871001399
 20
-155.4230585722551
 30
0.0
  0
VERTEX
  5
5B
330
59
100
AcDbEntity
  8
_U+30EC_U+30A4_U+30E4_U+30FC 1
 62
   179
420
  2234388
370
    25
100
AcDbVertex
100
AcDb2dVertex
 10
118.6780397500487
 20
-155.4230585722551
 30
0.0
  0
SEQEND
  5
5C
330
59
100
AcDbEntity
  8
_U+30EC_U+30A4_U+30E4_U+30FC 1
 62
   179
420
  2234388
370
    25
  0
POLYLINE
  5
5D
330
1F
100
AcDbEntity
  8
_U+30EC_U+30A4_U+30E4_U+30FC 1
 62
   179
420
  2234388
370
    25
100
AcDb2dPolyline
 66
     1
 10
0.0
 20
0.0
 30
0.0
  0
VERTEX
  5
5E
330
5D
100
AcDbEntity
  8
_U+30EC_U+30A4_U+30E4_U+30FC 1
 62
   179
420
  2234388
370
    25
100
AcDbVertex
100
AcDb2dVertex
 10
118.6780397500487
 20
-155.8226852388223
 30
0.0
  0
VERTEX
  5
5F
330
5D
100
AcDbEntity
  8
_U+30EC_U+30A4_U+30E4_U+30FC 1
 62
   179
420
  2234388
370
    25
100
AcDbVertex
100
AcDb2dVertex
 10
101.6775026837686
 20
-156.5227374608693
 30
0.0
  0
SEQEND
  5
60
330
5D
100
AcDbEntity
  8
_U+30EC_U+30A4_U+30E4_U+30FC 1
 62
   179
420
  2234388
370
    25
  0
SPLINE
  5
61
330
1F
100
AcDbEntity
  8
_U+30EC_U+30A4_U+30E4_U+30FC 1
 62
   179
420
  2234388
370
     9
100
AcDbSpline
210
0.0
220
0.0
230
1.0
 70
    11
 71
     3
 72
    17
 73
    13
 74
     0
 42
0.0000000001
 43
0.0000000001
 12
1.0
 22
0.0
 32
0.0
 13
1.0
 23
0.0
 33
0.0
 40
0.0
 40
0.0
 40
0.0
 40
0.0
 40
1.0
 40
1.0
 40
1.0
 40
2.0
 40
2.0
 40
2.0
 40
3.0
 40
3.0
 40
3.0
 40
4.0
 40
4.0
 40
4.0
 40
4.0
 10
122.7783757565516
 20
-140.3645627426865
 30
0.0
 10
122.7783757565516
 20
-140.3094235760337
 30
0.0
 10
122.7336082576937
 20
-140.2646560760449
 30
0.0
 10
122.6777666359971
 20
-140.2646560760449
 30
0.0
 10
122.6226596494131
 20
-140.2646560760449
 30
0.0
 10
122.5778568727783
 20
-140.3094235760337
 30
0.0
 10
122.5778568727783
 20
-140.3645627426865
 30
0.0
 10
122.5778568727783
 20
-140.4196666315617
 30
0.0
 10
122.6226596494131
 20
-140.4644694093285
 30
0.0
 10
122.6777666359971
 20
-140.4644694093285
 30
0.0
 10
122.7336082576937
 20
-140.4644694093285
 30
0.0
 10
122.7783757565516
 20
-140.4196666315617
 30
0.0
 10
122.7783757565516
 20
-140.3645627426865
 30
0.0
  0
SPLINE
  5
62
330
1F
100
AcDbEntity
  8
_U+30EC_U+30A4_U+30E4_U+30FC 1
 62
   179
420
  2234388
370
     9
100
AcDbSpline
210
0.0
220
0.0
230
1.0
 70
    11
 71
     3
 72
    17
 73
    13
 74
     0
 42
0.0000000001
 43
0.0000000001
 12
1.0
 22
0.0
 32
0.0
 13
1.0
 23
0.0
 33
0.0
 40
0.0
 40
0.0
 40
0.0
 40
0.0
 40
1.0
 40
1.0
 40
1.0
 40
2.0
 40
2.0
 40
2.0
 40
3.0
 40
3.0
 40
3.0
 40
4.0
 40
4.0
 40
4.0
 40
4.0
 10
122.7783757565516
 20
-155.4230585722551
 30
0.0
 10
122.7783757565516
 20
-155.3672491278246
 30
0.0
 10
122.7336082576937
 20
-155.3224816278361
 30
0.0
 10
122.6777666359971
 20
-155.3224816278361
 30
0.0
 10
122.6226596494131
 20
-155.3224816278361
 30
0.0
 10
122.5778568727783
 20
-155.3672491278246
 30
0.0
 10
122.5778568727783
 20
-155.4230585722551
 30
0.0
 10
122.5778568727783
 20
-155.4781977389081
 30
0.0
 10
122.6226596494131
 20
-155.5229652388973
 30
0.0
 10
122.6777666359971
 20
-155.5229652388973
 30
0.0
 10
122.7336082576937
 20
-155.5229652388973
 30
0.0
 10
122.7783757565516
 20
-155.4781977389081
 30
0.0
 10
122.7783757565516
 20
-155.4230585722551
 30
0.0
  0
SPLINE
  5
63
330
1F
100
AcDbEntity
  8
_U+30EC_U+30A4_U+30E4_U+30FC 1
 62
   179
420
  2234388
370
     9
100
AcDbSpline
210
0.0
220
0.0
230
1.0
 70
    11
 71
     3
 72
    17
 73
    13
 74
     0
 42
0.0000000001
 43
0.0000000001
 12
1.0
 22
0.0
 32
0.0
 13
1.0
 23
0.0
 33
0.0
 40
0.0
 40
0.0
 40
0.0
 40
0.0
 40
1.0
 40
1.0
 40
1.0
 40
2.0
 40
2.0
 40
2.0
 40
3.0
 40
3.0
 40
3.0
 40
4.0
 40
4.0
 40
4.0
 40
4.0
 10
122.7783757565516
 20
-155.8226852388223
 30
0.0
 10
122.7783757565516
 20
-155.7675813499467
 30
0.0
 10
122.7336082576937
 20
-155.7227785721806
 30
0.0
 10
122.6777666359971
 20
-155.7227785721806
 30
0.0
 10
122.6226596494131
 20
-155.7227785721806
 30
0.0
 10
122.5778568727783
 20
-155.7675813499467
 30
0.0
 10
122.5778568727783
 20
-155.8226852388223
 30
0.0
 10
122.5778568727783
 20
-155.8778244054747
 30
0.0
 10
122.6226596494131
 20
-155.9226271832414
 30
0.0
 10
122.6777666359971
 20
-155.9226271832414
 30
0.0
 10
122.7336082576937
 20
-155.9226271832414
 30
0.0
 10
122.7783757565516
 20
-155.8778244054747
 30
0.0
 10
122.7783757565516
 20
-155.8226852388223
 30
0.0
  0
SPLINE
  5
64
330
1F
100
AcDbEntity
  8
_U+30EC_U+30A4_U+30E4_U+30FC 1
 62
   179
420
  2234388
370
     9
100
AcDbSpline
210
0.0
220
0.0
230
1.0
 70
    11
 71
     3
 72
    17
 73
    13
 74
     0
 42
0.0000000001
 43
0.0000000001
 12
1.0
 22
0.0
 32
0.0
 13
1.0
 23
0.0
 33
0.0
 40
0.0
 40
0.0
 40
0.0
 40
0.0
 40
1.0
 40
1.0
 40
1.0
 40
2.0
 40
2.0
 40
2.0
 40
3.0
 40
3.0
 40
3.0
 40
4.0
 40
4.0
 40
4.0
 40
4.0
 10
118.7779464141666
 20
-160.5221438487584
 30
0.0
 10
118.7779464141666
 20
-160.4670399598835
 30
0.0
 10
118.7331436375318
 20
-160.4222371821167
 30
0.0
 10
118.6780397500487
 20
-160.4222371821167
 30
0.0
 10
118.6229005847888
 20
-160.4222371821167
 30
0.0
 10
118.5781360814667
 20
-160.4670399598835
 30
0.0
 10
118.5781360814667
 20
-160.5221438487584
 30
0.0
 10
118.5781360814667
 20
-160.5772830154114
 30
0.0
 10
118.6229005847888
 20
-160.6220505154
 30
0.0
 10
118.6780397500487
 20
-160.6220505154
 30
0.0
 10
118.7331436375318
 20
-160.6220505154
 30
0.0
 10
118.7779464141666
 20
-160.5772830154114
 30
0.0
 10
118.7779464141666
 20
-160.5221438487584
 30
0.0
  0
SPLINE
  5
65
330
1F
100
AcDbEntity
  8
_U+30EC_U+30A4_U+30E4_U+30FC 1
 62
   179
420
  2234388
370
     9
100
AcDbSpline
210
0.0
220
0.0
230
1.0
 70
    11
 71
     3
 72
    17
 73
    13
 74
     0
 42
0.0000000001
 43
0.0000000001
 12
1.0
 22
0.0
 32
0.0
 13
1.0
 23
0.0
 33
0.0
 40
0.0
 40
0.0
 40
0.0
 40
0.0
 40
1.0
 40
1.0
 40
1.0
 40
2.0
 40
2.0
 40
2.0
 40
3.0
 40
3.0
 40
3.0
 40
4.0
 40
4.0
 40
4.0
 40
4.0
 10
89.7774618762528
 20
-160.5221438487584
 30
0.0
 10
89.7774618762528
 20
-160.4670399598835
 30
0.0
 10
89.73301187738682
 20
-160.4222371821167
 30
0.0
 10
89.67755521213496
 20
-160.4222371821167
 30
0.0
 10
89.62245132465189
 20
-160.4222371821167
 30
0.0
 10
89.57764854801712
 20
-160.4670399598835
 30
0.0
 10
89.57764854801712
 20
-160.5221438487584
 30
0.0
 10
89.57764854801712
 20
-160.5772830154114
 30
0.0
 10
89.62245132465189
 20
-160.6220505154
 30
0.0
 10
89.67755521213496
 20
-160.6220505154
 30
0.0
 10
89.73301187738682
 20
-160.6220505154
 30
0.0
 10
89.7774618762528
 20
-160.5772830154114
 30
0.0
 10
89.7774618762528
 20
-160.5221438487584
 30
0.0
  0
SPLINE
  5
66
330
1F
100
AcDbEntity
  8
_U+30EC_U+30A4_U+30E4_U+30FC 1
 62
   179
420
  2234388
370
     9
100
AcDbSpline
210
0.0
220
0.0
230
1.0
 70
    11
 71
     3
 72
    17
 73
    13
 74
     0
 42
0.0000000001
 43
0.0000000001
 12
1.0
 22
0.0
 32
0.0
 13
1.0
 23
0.0
 33
0.0
 40
0.0
 40
0.0
 40
0.0
 40
0.0
 40
1.0
 40
1.0
 40
1.0
 40
2.0
 40
2.0
 40
2.0
 40
3.0
 40
3.0
 40
3.0
 40
4.0
 40
4.0
 40
4.0
 40
4.0
 10
87.11476583307272
 20
-140.3645627426865
 30
0.0
 10
87.11476583307272
 20
-140.3094235760337
 30
0.0
 10
87.06996305643796
 20
-140.2646560760449
 30
0.0
 10
87.01485916895489
 20
-140.2646560760449
 30
0.0
 10
86.95972220048229
 20
-140.2646560760449
 30
0.0
 10
86.91491942271557
 20
-140.3094235760337
 30
0.0
 10
86.91491942271557
 20
-140.3645627426865
 30
0.0
 10
86.91491942271557
 20
-140.4196666315617
 30
0.0
 10
86.95972220048229
 20
-140.4644694093285
 30
0.0
 10
87.01485916895489
 20
-140.4644694093285
 30
0.0
 10
87.06996305643796
 20
-140.4644694093285
 30
0.0
 10
87.11476583307272
 20
-140.4196666315617
 30
0.0
 10
87.11476583307272
 20
-140.3645627426865
 30
0.0
  0
SPLINE
  5
67
330
1F
100
AcDbEntity
  8
_U+30EC_U+30A4_U+30E4_U+30FC 1
 62
   179
420
  2234388
370
     9
100
AcDbSpline
210
0.0
220
0.0
230
1.0
 70
    11
 71
     3
 72
    17
 73
    13
 74
     0
 42
0.0000000001
 43
0.0000000001
 12
1.0
 22
0.0
 32
0.0
 13
1.0
 23
0.0
 33
0.0
 40
0.0
 40
0.0
 40
0.0
 40
0.0
 40
1.0
 40
1.0
 40
1.0
 40
2.0
 40
2.0
 40
2.0
 40
3.0
 40
3.0
 40
3.0
 40
4.0
 40
4.0
 40
4.0
 40
4.0
 10
87.11476583307272
 20
-141.4649119090784
 30
0.0
 10
87.11476583307272
 20
-141.4091024646476
 30
0.0
 10
87.06996305643796
 20
-141.364334964659
 30
0.0
 10
87.01485916895489
 20
-141.364334964659
 30
0.0
 10
86.95972220048229
 20
-141.364334964659
 30
0.0
 10
86.91491942271557
 20
-141.4091024646476
 30
0.0
 10
86.91491942271557
 20
-141.4649119090784
 30
0.0
 10
86.91491942271557
 20
-141.5200510757311
 30
0.0
 10
86.95972220048229
 20
-141.56481857572
 30
0.0
 10
87.01485916895489
 20
-141.56481857572
 30
0.0
 10
87.06996305643796
 20
-141.56481857572
 30
0.0
 10
87.11476583307272
 20
-141.5200510757311
 30
0.0
 10
87.11476583307272
 20
-141.4649119090784
 30
0.0
  0
SPLINE
  5
68
330
1F
100
AcDbEntity
  8
_U+30EC_U+30A4_U+30E4_U+30FC 1
 62
   179
420
  2234388
370
     9
100
AcDbSpline
210
0.0
220
0.0
230
1.0
 70
    11
 71
     3
 72
    17
 73
    13
 74
     0
 42
0.0000000001
 43
0.0000000001
 12
1.0
 22
0.0
 32
0.0
 13
1.0
 23
0.0
 33
0.0
 40
0.0
 40
0.0
 40
0.0
 40
0.0
 40
1.0
 40
1.0
 40
1.0
 40
2.0
 40
2.0
 40
2.0
 40
3.0
 40
3.0
 40
3.0
 40
4.0
 40
4.0
 40
4.0
 40
4.0
 10
101.778114903424
 20
-160.5221438487584
 30
0.0
 10
101.778114903424
 20
-160.4670399598835
 30
0.0
 10
101.7333121267892
 20
-160.4222371821167
 30
0.0
 10
101.6775026837686
 20
-160.4222371821167
 30
0.0
 10
101.6223987962855
 20
-160.4222371821167
 30
0.0
 10
101.5775960196507
 20
-160.4670399598835
 30
0.0
 10
101.5775960196507
 20
-160.5221438487584
 30
0.0
 10
101.5775960196507
 20
-160.5772830154114
 30
0.0
 10
101.6223987962855
 20
-160.6220505154
 30
0.0
 10
101.6775026837686
 20
-160.6220505154
 30
0.0
 10
101.7333121267892
 20
-160.6220505154
 30
0.0
 10
101.778114903424
 20
-160.5772830154114
 30
0.0
 10
101.778114903424
 20
-160.5221438487584
 30
0.0
  0
POLYLINE
  5
69
330
1F
100
AcDbEntity
  8
_U+30EC_U+30A4_U+30E4_U+30FC 1
 62
   179
420
  2234388
370
     9
100
AcDb2dPolyline
 66
     1
 10
0.0
 20
0.0
 30
0.0
  0
VERTEX
  5
6A
330
69
100
AcDbEntity
  8
_U+30EC_U+30A4_U+30E4_U+30FC 1
 62
   179
420
  2234388
370
     9
100
AcDbVertex
100
AcDb2dVertex
 10
101.6775026837686
 20
-160.5221438487584
 30
0.0
  0
VERTEX
  5
6B
330
69
100
AcDbEntity
  8
_U+30EC_U+30A4_U+30E4_U+30FC 1
 62
   179
420
  2234388
370
     9
100
AcDbVertex
100
AcDb2dVertex
 10
118.6780397500487
 20
-160.5221438487584
 30
0.0
  0
SEQEND
  5
6C
330
69
100
AcDbEntity
  8
_U+30EC_U+30A4_U+30E4_U+30FC 1
 62
   179
420
  2234388
370
     9
  0
POLYLINE
  5
6D
330
1F
100
AcDbEntity
  8
_U+30EC_U+30A4_U+30E4_U+30FC 1
 62
   179
420
  2234388
370
     9
100
AcDb2dPolyline
 66
     1
 10
0.0
 20
0.0
 30
0.0
  0
VERTEX
  5
6E
330
6D
100
AcDbEntity
  8
_U+30EC_U+30A4_U+30E4_U+30FC 1
 62
   179
420
  2234388
370
     9
100
AcDbVertex
100
AcDb2dVertex
 10
118.6780397500487
 20
-158.3620855159652
 30
0.0
  0
VERTEX
  5
6F
330
6D
100
AcDbEntity
  8
_U+30EC_U+30A4_U+30E4_U+30FC 1
 62
   179
420
  2234388
370
     9
100
AcDbVertex
100
AcDb2dVertex
 10
118.6780397500487
 20
-161.5226216262858
 30
0.0
  0
SEQEND
  5
70
330
6D
100
AcDbEntity
  8
_U+30EC_U+30A4_U+30E4_U+30FC 1
 62
   179
420
  2234388
370
     9
  0
INSERT
  5
72
330
1F
100
AcDbEntity
  8
_U+30EC_U+30A4_U+30E4_U+30FC 1
100
AcDbBlockReference
  2
block 2
 10
0.0
 20
0.0
 30
0.0
  0
POLYLINE
  5
79
330
1F
100
AcDbEntity
  8
_U+30EC_U+30A4_U+30E4_U+30FC 1
 62
   179
420
  2234388
370
     9
100
AcDb2dPolyline
 66
     1
 10
0.0
 20
0.0
 30
0.0
  0
VERTEX
  5
7A
330
79
100
AcDbEntity
  8
_U+30EC_U+30A4_U+30E4_U+30FC 1
 62
   179
420
  2234388
370
     9
100
AcDbVertex
100
AcDb2dVertex
 10
87.01485916895489
 20
-140.3645627426865
 30
0.0
  0
VERTEX
  5
7B
330
79
100
AcDbEntity
  8
_U+30EC_U+30A4_U+30E4_U+30FC 1
 62
   179
420
  2234388
370
     9
100
AcDbVertex
100
AcDb2dVertex
 10
87.01485916895489
 20
-139.3647905207143
 30
0.0
  0
SEQEND
  5
7C
330
79
100
AcDbEntity
  8
_U+30EC_U+30A4_U+30E4_U+30FC 1
 62
   179
420
  2234388
370
     9
  0
POLYLINE
  5
7D
330
1F
100
AcDbEntity
  8
_U+30EC_U+30A4_U+30E4_U+30FC 1
 62
   179
420
  2234388
370
     9
100
AcDb2dPolyline
 66
     1
 10
0.0
 20
0.0
 30
0.0
  0
VERTEX
  5
7E
330
7D
100
AcDbEntity
  8
_U+30EC_U+30A4_U+30E4_U+30FC 1
 62
   179
420
  2234388
370
     9
100
AcDbVertex
100
AcDb2dVertex
 10
87.01485916895489
 20
-140.3645627426865
 30
0.0
  0
VERTEX
  5
7F
330
7D
100
AcDbEntity
  8
_U+30EC_U+30A4_U+30E4_U+30FC 1
 62
   179
420
  2234388
370
     9
100
AcDbVertex
100
AcDb2dVertex
 10
87.01485916895489
 20
-142.4646841310506
 30
0.0
  0
SEQEND
  5
80
330
7D
100
AcDbEntity
  8
_U+30EC_U+30A4_U+30E4_U+30FC 1
 62
   179
420
  2234388
370
     9
  0
POLYLINE
  5
81
330
1F
100
AcDbEntity
  8
_U+30EC_U+30A4_U+30E4_U+30FC 1
 62
   179
420
  2234388
370
     9
100
AcDb2dPolyline
 66
     1
 10
0.0
 20
0.0
 30
0.0
  0
VERTEX
  5
82
330
81
100
AcDbEntity
  8
_U+30EC_U+30A4_U+30E4_U+30FC 1
 62
   179
420
  2234388
370
     9
100
AcDbVertex
100
AcDb2dVertex
 10
88.47486524281814
 20
-140.3645627426865
 30
0.0
  0
VERTEX
  5
83
330
81
100
AcDbEntity
  8
_U+30EC_U+30A4_U+30E4_U+30FC 1
 62
   179
420
  2234388
370
     9
100
AcDbVertex
100
AcDb2dVertex
 10
86.01473419447021
 20
-140.3645627426865
 30
0.0
  0
SEQEND
  5
84
330
81
100
AcDbEntity
  8
_U+30EC_U+30A4_U+30E4_U+30FC 1
 62
   179
420
  2234388
370
     9
  0
POLYLINE
  5
85
330
1F
100
AcDbEntity
  8
_U+30EC_U+30A4_U+30E4_U+30FC 1
 62
   179
420
  2234388
370
     9
100
AcDb2dPolyline
 66
     1
 10
0.0
 20
0.0
 30
0.0
  0
VERTEX
  5
86
330
85
100
AcDbEntity
  8
_U+30EC_U+30A4_U+30E4_U+30FC 1
 62
   179
420
  2234388
370
     9
100
AcDbVertex
100
AcDb2dVertex
 10
88.47486524281814
 20
-141.4649119090784
 30
0.0
  0
VERTEX
  5
87
330
85
100
AcDbEntity
  8
_U+30EC_U+30A4_U+30E4_U+30FC 1
 62
   179
420
  2234388
370
     9
100
AcDbVertex
100
AcDb2dVertex
 10
86.01473419447021
 20
-141.4649119090784
 30
0.0
  0
SEQEND
  5
88
330
85
100
AcDbEntity
  8
_U+30EC_U+30A4_U+30E4_U+30FC 1
 62
   179
420
  2234388
370
     9
  0
INSERT
  5
8A
330
1F
100
AcDbEntity
  8
_U+30EC_U+30A4_U+30E4_U+30FC 1
100
AcDbBlockReference
  2
block 3
 10
0.0
 20
0.0
 30
0.0
  0
POLYLINE
  5
99
330
1F
100
AcDbEntity
  8
_U+30EC_U+30A4_U+30E4_U+30FC 1
 62
   179
420
  2234388
370
     9
100
AcDb2dPolyline
 66
     1
 10
0.0
 20
0.0
 30
0.0
  0
VERTEX
  5
9A
330
99
100
AcDbEntity
  8
_U+30EC_U+30A4_U+30E4_U+30FC 1
 62
   179
420
  2234388
370
     9
100
AcDbVertex
100
AcDb2dVertex
 10
122.6777666359971
 20
-155.8226852388223
 30
0.0
  0
VERTEX
  5
9B
330
99
100
AcDbEntity
  8
_U+30EC_U+30A4_U+30E4_U+30FC 1
 62
   179
420
  2234388
370
     9
100
AcDbVertex
100
AcDb2dVertex
 10
122.6777666359971
 20
-156.8224574607942
 30
0.0
  0
SEQEND
  5
9C
330
99
100
AcDbEntity
  8
_U+30EC_U+30A4_U+30E4_U+30FC 1
 62
   179
420
  2234388
370
     9
  0
POLYLINE
  5
9D
330
1F
100
AcDbEntity
  8
_U+30EC_U+30A4_U+30E4_U+30FC 1
 62
   179
420
  2234388
370
     9
100
AcDb2dPolyline
 66
     1
 10
0.0
 20
0.0
 30
0.0
  0
VERTEX
  5
9E
330
9D
100
AcDbEntity
  8
_U+30EC_U+30A4_U+30E4_U+30FC 1
 62
   179
420
  2234388
370
     9
100
AcDbVertex
100
AcDb2dVertex
 10
122.6777666359971
 20
-155.4230585722551
 30
0.0
  0
VERTEX
  5
9F
330
9D
100
AcDbEntity
  8
_U+30EC_U+30A4_U+30E4_U+30FC 1
 62
   179
420
  2234388
370
     9
100
AcDbVertex
100
AcDb2dVertex
 10
122.6777666359971
 20
-155.8226852388223
 30
0.0
  0
SEQEND
  5
A0
330
9D
100
AcDbEntity
  8
_U+30EC_U+30A4_U+30E4_U+30FC 1
 62
   179
420
  2234388
370
     9
  0
POLYLINE
  5
A1
330
1F
100
AcDbEntity
  8
_U+30EC_U+30A4_U+30E4_U+30FC 1
 62
   179
420
  2234388
370
     9
100
AcDb2dPolyline
 66
     1
 10
0.0
 20
0.0
 30
0.0
  0
VERTEX
  5
A2
330
A1
100
AcDbEntity
  8
_U+30EC_U+30A4_U+30E4_U+30FC 1
 62
   179
420
  2234388
370
     9
100
AcDbVertex
100
AcDb2dVertex
 10
121.2177574630329
 20
-155.4230585722551
 30
0.0
  0
VERTEX
  5
A3
330
A1
100
AcDbEntity
  8
_U+30EC_U+30A4_U+30E4_U+30FC 1
 62
   179
420
  2234388
370
     9
100
AcDbVertex
100
AcDb2dVertex
 10
123.6782444135251
 20
-155.4230585722551
 30
0.0
  0
SEQEND
  5
A4
330
A1
100
AcDbEntity
  8
_U+30EC_U+30A4_U+30E4_U+30FC 1
 62
   179
420
  2234388
370
     9
  0
POLYLINE
  5
A5
330
1F
100
AcDbEntity
  8
_U+30EC_U+30A4_U+30E4_U+30FC 1
 62
   179
420
  2234388
370
     9
100
AcDb2dPolyline
 66
     1
 10
0.0
 20
0.0
 30
0.0
  0
VERTEX
  5
A6
330
A5
100
AcDbEntity
  8
_U+30EC_U+30A4_U+30E4_U+30FC 1
 62
   179
420
  2234388
370
     9
100
AcDbVertex
100
AcDb2dVertex
 10
121.2177574630329
 20
-155.8226852388223
 30
0.0
  0
VERTEX
  5
A7
330
A5
100
AcDbEntity
  8
_U+30EC_U+30A4_U+30E4_U+30FC 1
 62
   179
420
  2234388
370
     9
100
AcDbVertex
100
AcDb2dVertex
 10
123.6782444135251
 20
-155.8226852388223
 30
0.0
  0
SEQEND
  5
A8
330
A5
100
AcDbEntity
  8
_U+30EC_U+30A4_U+30E4_U+30FC 1
 62
   179
420
  2234388
370
     9
  0
INSERT
  5
AA
330
1F
100
AcDbEntity
  8
_U+30EC_U+30A4_U+30E4_U+30FC 1
100
AcDbBlockReference
  2
block 4
 10
0.0
 20
0.0
 30
0.0
  0
POLYLINE
  5
CD
330
1F
100
AcDbEntity
  8
_U+30EC_U+30A4_U+30E4_U+30FC 1
 62
   179
420
  2234388
370
     9
100
AcDb2dPolyline
 66
     1
 10
0.0
 20
0.0
 30
0.0
  0
VERTEX
  5
CE
330
CD
100
AcDbEntity
  8
_U+30EC_U+30A4_U+30E4_U+30FC 1
 62
   179
420
  2234388
370
     9
100
AcDbVertex
100
AcDb2dVertex
 10
89.67755521213496
 20
-160.5221438487584
 30
0.0
  0
VERTEX
  5
CF
330
CD
100
AcDbEntity
  8
_U+30EC_U+30A4_U+30E4_U+30FC 1
 62
   179
420
  2234388
370
     9
100
AcDbVertex
100
AcDb2dVertex
 10
101.6775026837686
 20
-160.5221438487584
 30
0.0
  0
SEQEND
  5
D0
330
CD
100
AcDbEntity
  8
_U+30EC_U+30A4_U+30E4_U+30FC 1
 62
   179
420
  2234388
370
     9
  0
POLYLINE
  5
D1
330
1F
100
AcDbEntity
  8
_U+30EC_U+30A4_U+30E4_U+30FC 1
 62
   179
420
  2234388
370
     9
100
AcDb2dPolyline
 66
     1
 10
0.0
 20
0.0
 30
0.0
  0
VERTEX
  5
D2
330
D1
100
AcDbEntity
  8
_U+30EC_U+30A4_U+30E4_U+30FC 1
 62
   179
420
  2234388
370
     9
100
AcDbVertex
100
AcDb2dVertex
 10
89.67755521213496
 20
-146.5622685744707
 30
0.0
  0
VERTEX
  5
D3
330
D1
100
AcDbEntity
  8
_U+30EC_U+30A4_U+30E4_U+30FC 1
 62
   179
420
  2234388
370
     9
100
AcDbVertex
100
AcDb2dVertex
 10
89.67755521213496
 20
-161.5226216262858
 30
0.0
  0
SEQEND
  5
D4
330
D1
100
AcDbEntity
  8
_U+30EC_U+30A4_U+30E4_U+30FC 1
 62
   179
420
  2234388
370
     9
  0
POLYLINE
  5
D5
330
1F
100
AcDbEntity
  8
_U+30EC_U+30A4_U+30E4_U+30FC 1
 62
   179
420
  2234388
370
     9
100
AcDb2dPolyline
 66
     1
 10
0.0
 20
0.0
 30
0.0
  0
VERTEX
  5
D6
330
D5
100
AcDbEntity
  8
_U+30EC_U+30A4_U+30E4_U+30FC 1
 62
   179
420
  2234388
370
     9
100
AcDbVertex
100
AcDb2dVertex
 10
101.6775026837686
 20
-159.0621377380122
 30
0.0
  0
VERTEX
  5
D7
330
D5
100
AcDbEntity
  8
_U+30EC_U+30A4_U+30E4_U+30FC 1
 62
   179
420
  2234388
370
     9
100
AcDbVertex
100
AcDb2dVertex
 10
101.6775026837686
 20
-161.5226216262858
 30
0.0
  0
SEQEND
  5
D8
330
D5
100
AcDbEntity
  8
_U+30EC_U+30A4_U+30E4_U+30FC 1
 62
   179
420
  2234388
370
     9
  0
INSERT
  5
DA
330
1F
100
AcDbEntity
  8
_U+30EC_U+30A4_U+30E4_U+30FC 1
100
AcDbBlockReference
  2
block 5
 10
0.0
 20
0.0
 30
0.0
  0
POLYLINE
  5
E1
330
1F
100
AcDbEntity
  8
_U+30EC_U+30A4_U+30E4_U+30FC 1
 62
   179
420
  2234388
370
     9
100
AcDb2dPolyline
 66
     1
 10
0.0
 20
0.0
 30
0.0
  0
VERTEX
  5
E2
330
E1
100
AcDbEntity
  8
_U+30EC_U+30A4_U+30E4_U+30FC 1
 62
   179
420
  2234388
370
     9
100
AcDbVertex
100
AcDb2dVertex
 10
122.6777666359971
 20
-140.423123853783
 30
0.0
  0
VERTEX
  5
E3
330
E1
100
AcDbEntity
  8
_U+30EC_U+30A4_U+30E4_U+30FC 1
 62
   179
420
  2234388
370
     9
100
AcDbVertex
100
AcDb2dVertex
 10
122.6777666359971
 20
-155.4230585722551
 30
0.0
  0
SEQEND
  5
E4
330
E1
100
AcDbEntity
  8
_U+30EC_U+30A4_U+30E4_U+30FC 1
 62
   179
420
  2234388
370
     9
  0
POLYLINE
  5
E5
330
1F
100
AcDbEntity
  8
_U+30EC_U+30A4_U+30E4_U+30FC 1
 62
   179
420
  2234388
370
     9
100
AcDb2dPolyline
 66
     1
 10
0.0
 20
0.0
 30
0.0
  0
VERTEX
  5
E6
330
E5
100
AcDbEntity
  8
_U+30EC_U+30A4_U+30E4_U+30FC 1
 62
   179
420
  2234388
370
     9
100
AcDbVertex
100
AcDb2dVertex
 10
105.317604813124
 20
-140.3645627426865
 30
0.0
  0
VERTEX
  5
E7
330
E5
100
AcDbEntity
  8
_U+30EC_U+30A4_U+30E4_U+30FC 1
 62
   179
420
  2234388
370
     9
100
AcDbVertex
100
AcDb2dVertex
 10
123.6782444135251
 20
-140.3645627426865
 30
0.0
  0
SEQEND
  5
E8
330
E5
100
AcDbEntity
  8
_U+30EC_U+30A4_U+30E4_U+30FC 1
 62
   179
420
  2234388
370
     9
  0
INSERT
  5
EA
330
1F
100
AcDbEntity
  8
_U+30EC_U+30A4_U+30E4_U+30FC 1
100
AcDbBlockReference
  2
block 6
 10
0.0
 20
0.0
 30
0.0
  0
ENDSEC
  0
SECTION
  2
OBJECTS
  0
DICTIONARY
  5
C
330
0
100
AcDbDictionary
281
     1
  3
ACAD_GROUP
350
D
  3
ACAD_LAYOUT
350
1A
  3
ACAD_MATERIAL
350
3B
  3
ACAD_MLEADERSTYLE
350
F2
  3
ACAD_MLINESTYLE
350
17
  3
ACAD_PLOTSETTINGS
350
19
  3
ACAD_PLOTSTYLENAME
350
E
  3
ACAD_TABLESTYLE
350
F1
  3
ACAD_VISUALSTYLE
350
2A
  0
SUN
  5
3F
330
29
100
AcDbSun
 90
        1
290
     0
 63
     7
421
 16777215
 40
1.0
291
     1
 91
  2455826
 92
 54000000
292
     0
 70
     2
 71
   256
280
     1
  0
DICTIONARY
  5
D
102
{ACAD_REACTORS
330
C
102
}
330
C
100
AcDbDictionary
281
     1
  0
DICTIONARY
  5
1A
102
{ACAD_REACTORS
330
C
102
}
330
C
100
AcDbDictionary
281
     1
  3
Layout1
350
1E
  3
Layout2
350
26
  3
Model
350
22
  0
DICTIONARY
  5
3B
102
{ACAD_REACTORS
330
C
102
}
330
C
100
AcDbDictionary
281
     1
  3
ByBlock
350
3D
  3
ByLayer
350
3C
  3
Global
350
3E
  0
DICTIONARY
  5
F2
102
{ACAD_REACTORS
330
C
102
}
330
C
100
AcDbDictionary
281
     1
  0
DICTIONARY
  5
17
102
{ACAD_REACTORS
330
C
102
}
330
C
100
AcDbDictionary
281
     1
  3
Standard
350
18
  0
DICTIONARY
  5
19
102
{ACAD_REACTORS
330
C
102
}
330
C
100
AcDbDictionary
281
     1
  0
ACDBDICTIONARYWDFLT
  5
E
102
{ACAD_REACTORS
330
C
102
}
330
C
100
AcDbDictionary
281
     1
  3
Normal
350
F
100
AcDbDictionaryWithDefault
340
F
  0
DICTIONARY
  5
F1
102
{ACAD_REACTORS
330
C
102
}
330
C
100
AcDbDictionary
281
     1
  0
DICTIONARY
  5
2A
102
{ACAD_REACTORS
330
C
102
}
330
C
100
AcDbDictionary
281
     1
  3
2dWireframe
350
2F
  3
3D Hidden
350
31
  3
3dWireframe
350
30
  3
Basic
350
32
  3
Brighten
350
36
  3
ColorChange
350
3A
  3
Conceptual
350
34
  3
Dim
350
35
  3
Facepattern
350
39
  3
Flat
350
2B
  3
FlatWithEdges
350
2C
  3
Gouraud
350
2D
  3
GouraudWithEdges
350
2E
  3
Linepattern
350
38
  3
Realistic
350
33
  3
Thicken
350
37
  0
LAYOUT
  5
1E
102
{ACAD_REACTORS
330
1A
102
}
330
1A
100
AcDbPlotSettings
  1

  2
none_device
  4

  6

 40
0.0
 41
0.0
 42
0.0
 43
0.0
 44
0.0
 45
0.0
 46
0.0
 47
0.0
 48
0.0
 49
0.0
140
0.0
141
0.0
142
1.0
143
1.0
 70
   688
 72
     0
 73
     0
 74
     5
  7

 75
    16
 76
     0
 77
     2
 78
   300
147
1.0
148
0.0
149
0.0
100
AcDbLayout
  1
Layout1
 70
     1
 71
     1
 10
0.0
 20
0.0
 11
12.0
 21
9.0
 12
0.0
 22
0.0
 32
0.0
 14
1.000000000000000E+20
 24
1.000000000000000E+20
 34
1.000000000000000E+20
 15
-1.000000000000000E+20
 25
-1.000000000000000E+20
 35
-1.000000000000000E+20
146
0.0
 13
0.0
 23
0.0
 33
0.0
 16
1.0
 26
0.0
 36
0.0
 17
0.0
 27
1.0
 37
0.0
 76
     0
330
1B
  0
LAYOUT
  5
26
102
{ACAD_REACTORS
330
1A
102
}
330
1A
100
AcDbPlotSettings
  1

  2
none_device
  4

  6

 40
0.0
 41
0.0
 42
0.0
 43
0.0
 44
0.0
 45
0.0
 46
0.0
 47
0.0
 48
0.0
 49
0.0
140
0.0
141
0.0
142
1.0
143
1.0
 70
   688
 72
     0
 73
     0
 74
     5
  7

 75
    16
 76
     0
 77
     2
 78
   300
147
1.0
148
0.0
149
0.0
100
AcDbLayout
  1
Layout2
 70
     1
 71
     2
 10
0.0
 20
0.0
 11
0.0
 21
0.0
 12
0.0
 22
0.0
 32
0.0
 14
0.0
 24
0.0
 34
0.0
 15
0.0
 25
0.0
 35
0.0
146
0.0
 13
0.0
 23
0.0
 33
0.0
 16
1.0
 26
0.0
 36
0.0
 17
0.0
 27
1.0
 37
0.0
 76
     0
330
23
  0
LAYOUT
  5
22
102
{ACAD_REACTORS
330
1A
102
}
330
1A
100
AcDbPlotSettings
  1

  2
none_device
  4

  6

 40
0.0
 41
0.0
 42
0.0
 43
0.0
 44
0.0
 45
0.0
 46
0.0
 47
0.0
 48
0.0
 49
0.0
140
0.0
141
0.0
142
1.0
143
1.0
 70
  1712
 72
     0
 73
     0
 74
     0
  7

 75
     0
 76
     0
 77
     2
 78
   300
147
1.0
148
0.0
149
0.0
100
AcDbLayout
  1
Model
 70
     1
 71
     0
 10
0.0
 20
0.0
 11
12.0
 21
9.0
 12
0.0
 22
0.0
 32
0.0
 14
1.000000000000000E+20
 24
1.000000000000000E+20
 34
1.000000000000000E+20
 15
-1.000000000000000E+20
 25
-1.000000000000000E+20
 35
-1.000000000000000E+20
146
0.0
 13
0.0
 23
0.0
 33
0.0
 16
1.0
 26
0.0
 36
0.0
 17
0.0
 27
1.0
 37
0.0
 76
     0
330
1F
331
29
  0
MATERIAL
  5
3D
102
{ACAD_REACTORS
330
3B
102
}
330
3B
100
AcDbMaterial
  1
ByBlock
 72
     1
 94
      127
  0
MATERIAL
  5
3C
102
{ACAD_REACTORS
330
3B
102
}
330
3B
100
AcDbMaterial
  1
ByLayer
 72
     1
 94
      127
  0
MATERIAL
  5
3E
102
{ACAD_REACTORS
330
3B
102
}
330
3B
100
AcDbMaterial
  1
Global
 72
     1
 94
      127
  0
MLINESTYLE
  5
18
102
{ACAD_REACTORS
330
17
102
}
330
17
100
AcDbMlineStyle
  2
Standard
 70
     0
  3

 62
   256
 51
90.0
 52
90.0
 71
     2
 49
0.5
 62
   256
  6
BYLAYER
 49
-0.5
 62
   256
  6
BYLAYER
  0
ACDBPLACEHOLDER
  5
F
102
{ACAD_REACTORS
330
E
102
}
330
E
  0
VISUALSTYLE
  5
2F
102
{ACAD_REACTORS
330
2A
102
}
330
2A
100
AcDbVisualStyle
  2
2dWireframe
 70
     4
177
     2
291
     0
 71
     0
176
     1
 72
     2
176
     1
 73
     0
176
     1
 90
        0
176
     1
 40
-0.6
176
     1
 41
-30.0
176
     1
 62
     5
 63
     7
421
 16777215
176
     1
 74
     1
176
     1
 91
        4
176
     1
 64
     7
176
     1
 65
   257
176
     1
 75
     1
176
     1
175
     1
176
     1
 42
1.0
176
     1
 92
        0
176
     1
 66
   257
176
     1
 43
1.0
176
     1
 76
     1
176
     1
 77
     6
176
     1
 78
     2
176
     1
 67
     7
176
     1
 79
     5
176
     1
170
     0
176
     1
171
     0
176
     1
290
     0
176
     1
 93
        1
176
     1
 44
0.0
176
     1
173
     0
176
     1
  0
VISUALSTYLE
  5
31
102
{ACAD_REACTORS
330
2A
102
}
330
2A
100
AcDbVisualStyle
  2
3D Hidden
 70
     6
177
     2
291
     0
 71
     1
176
     1
 72
     2
176
     1
 73
     2
176
     1
 90
        0
176
     1
 40
-0.6
176
     1
 41
-30.0
176
     1
 62
     5
 63
     7
421
 16777215
176
     1
 74
     2
176
     1
 91
        2
176
     1
 64
     7
176
     1
 65
   257
176
     1
 75
     2
176
     1
175
     1
176
     1
 42
40.0
176
     1
 92
        0
176
     1
 66
   257
176
     1
 43
1.0
176
     1
 76
     1
176
     1
 77
     6
176
     1
 78
     2
176
     1
 67
     7
176
     1
 79
     3
176
     1
170
     0
176
     1
171
     0
176
     1
290
     0
176
     1
 93
        1
176
     1
 44
0.0
176
     1
173
     0
176
     1
  0
VISUALSTYLE
  5
30
102
{ACAD_REACTORS
330
2A
102
}
330
2A
100
AcDbVisualStyle
  2
3dWireframe
 70
     5
177
     2
291
     0
 71
     0
176
     1
 72
     2
176
     1
 73
     0
176
     1
 90
        0
176
     1
 40
-0.6
176
     1
 41
-30.0
176
     1
 62
     5
 63
     7
421
 16777215
176
     1
 74
     1
176
     1
 91
        4
176
     1
 64
     7
176
     1
 65
   257
176
     1
 75
     1
176
     1
175
     1
176
     1
 42
1.0
176
     1
 92
        0
176
     1
 66
   257
176
     1
 43
1.0
176
     1
 76
     1
176
     1
 77
     6
176
     1
 78
     2
176
     1
 67
     7
176
     1
 79
     5
176
     1
170
     0
176
     1
171
     0
176
     1
290
     0
176
     1
 93
        1
176
     1
 44
0.0
176
     1
173
     0
176
     1
  0
VISUALSTYLE
  5
32
102
{ACAD_REACTORS
330
2A
102
}
330
2A
100
AcDbVisualStyle
  2
Basic
 70
     7
177
     2
291
     1
 71
     1
176
     1
 72
     0
176
     1
 73
     1
176
     1
 90
        0
176
     1
 40
-0.6
176
     1
 41
-30.0
176
     1
 62
     5
 63
     7
421
 16777215
176
     1
 74
     0
176
     1
 91
        4
176
     1
 64
     7
176
     1
 65
   257
176
     1
 75
     1
176
     1
175
     1
176
     1
 42
1.0
176
     1
 92
        8
176
     1
 66
     7
176
     1
 43
1.0
176
     1
 76
     1
176
     1
 77
     6
176
     1
 78
     2
176
     1
 67
     7
176
     1
 79
     5
176
     1
170
     0
176
     1
171
     0
176
     1
290
     0
176
     1
 93
        1
176
     1
 44
0.0
176
     1
173
     0
176
     1
  0
VISUALSTYLE
  5
36
102
{ACAD_REACTORS
330
2A
102
}
330
2A
100
AcDbVisualStyle
  2
Brighten
 70
    12
177
     2
291
     1
 71
     2
176
     1
 72
     2
176
     1
 73
     0
176
     1
 90
        0
176
     1
 40
-0.6
176
     1
 41
-30.0
176
     1
 62
     5
 63
     7
421
 16777215
176
     1
 74
     1
176
     1
 91
        4
176
     1
 64
     7
176
     1
 65
   257
176
     1
 75
     1
176
     1
175
     1
176
     1
 42
1.0
176
     1
 92
        8
176
     1
 66
     7
176
     1
 43
1.0
176
     1
 76
     1
176
     1
 77
     6
176
     1
 78
     2
176
     1
 67
     7
176
     1
 79
     5
176
     1
170
     0
176
     1
171
     0
176
     1
290
     0
176
     1
 93
        1
176
     1
 44
50.0
176
     1
173
     0
176
     1
  0
VISUALSTYLE
  5
3A
102
{ACAD_REACTORS
330
2A
102
}
330
2A
100
AcDbVisualStyle
  2
ColorChange
 70
    16
177
     2
291
     1
 71
     2
176
     1
 72
     2
176
     1
 73
     3
176
     1
 90
        0
176
     1
 40
-0.6
176
     1
 41
-30.0
176
     1
 62
     5
 63
     8
421
  8421504
176
     1
 74
     1
176
     1
 91
        4
176
     1
 64
     7
176
     1
 65
   257
176
     1
 75
     1
176
     1
175
     1
176
     1
 42
1.0
176
     1
 92
        8
176
     1
 66
     8
424
  8421504
176
     1
 43
1.0
176
     1
 76
     1
176
     1
 77
     6
176
     1
 78
     2
176
     1
 67
     7
176
     1
 79
     5
176
     1
170
     0
176
     1
171
     0
176
     1
290
     0
176
     1
 93
        1
176
     1
 44
0.0
176
     1
173
     0
176
     1
  0
VISUALSTYLE
  5
34
102
{ACAD_REACTORS
330
2A
102
}
330
2A
100
AcDbVisualStyle
  2
Conceptual
 70
     9
177
     2
291
     0
 71
     3
176
     1
 72
     2
176
     1
 73
     0
176
     1
 90
        0
176
     1
 40
-0.6
176
     1
 41
-30.0
176
     1
 62
     5
 63
     7
421
 16777215
176
     1
 74
     2
176
     1
 91
        2
176
     1
 64
     7
176
     1
 65
   257
176
     1
 75
     1
176
     1
175
     1
176
     1
 42
40.0
176
     1
 92
        8
176
     1
 66
     7
176
     1
 43
1.0
176
     1
 76
     1
176
     1
 77
     6
176
     1
 78
     2
176
     1
 67
     7
176
     1
 79
     3
176
     1
170
     0
176
     1
171
     0
176
     1
290
     0
176
     1
 93
        1
176
     1
 44
0.0
176
     1
173
     0
176
     1
  0
VISUALSTYLE
  5
35
102
{ACAD_REACTORS
330
2A
102
}
330
2A
100
AcDbVisualStyle
  2
Dim
 70
    11
177
     2
291
     1
 71
     2
176
     1
 72
     2
176
     1
 73
     0
176
     1
 90
        0
176
     1
 40
-0.6
176
     1
 41
-30.0
176
     1
 62
     5
 63
     7
421
 16777215
176
     1
 74
     1
176
     1
 91
        4
176
     1
 64
     7
176
     1
 65
   257
176
     1
 75
     1
176
     1
175
     1
176
     1
 42
1.0
176
     1
 92
        8
176
     1
 66
     7
176
     1
 43
1.0
176
     1
 76
     1
176
     1
 77
     6
176
     1
 78
     2
176
     1
 67
     7
176
     1
 79
     5
176
     1
170
     0
176
     1
171
     0
176
     1
290
     0
176
     1
 93
        1
176
     1
 44
-50.0
176
     1
173
     0
176
     1
  0
VISUALSTYLE
  5
39
102
{ACAD_REACTORS
330
2A
102
}
330
2A
100
AcDbVisualStyle
  2
Facepattern
 70
    15
177
     2
291
     1
 71
     2
176
     1
 72
     2
176
     1
 73
     0
176
     1
 90
        0
176
     1
 40
-0.6
176
     1
 41
-30.0
176
     1
 62
     5
 63
     7
421
 16777215
176
     1
 74
     1
176
     1
 91
        4
176
     1
 64
     7
176
     1
 65
   257
176
     1
 75
     1
176
     1
175
     1
176
     1
 42
1.0
176
     1
 92
        8
176
     1
 66
     7
176
     1
 43
1.0
176
     1
 76
     1
176
     1
 77
     6
176
     1
 78
     2
176
     1
 67
     7
176
     1
 79
     5
176
     1
170
     0
176
     1
171
     0
176
     1
290
     0
176
     1
 93
        1
176
     1
 44
0.0
176
     1
173
     0
176
     1
  0
VISUALSTYLE
  5
2B
102
{ACAD_REACTORS
330
2A
102
}
330
2A
100
AcDbVisualStyle
  2
Flat
 70
     0
177
     2
291
     1
 71
     2
176
     1
 72
     1
176
     1
 73
     1
176
     1
 90
        2
176
     1
 40
-0.6
176
     1
 41
30.0
176
     1
 62
     5
 63
     7
421
 16777215
176
     1
 74
     0
176
     1
 91
        4
176
     1
 64
     7
176
     1
 65
   257
176
     1
 75
     1
176
     1
175
     1
176
     1
 42
1.0
176
     1
 92
        8
176
     1
 66
     7
176
     1
 43
1.0
176
     1
 76
     1
176
     1
 77
     6
176
     1
 78
     2
176
     1
 67
     7
176
     1
 79
     5
176
     1
170
     0
176
     1
171
     0
176
     1
290
     0
176
     1
 93
       13
176
     1
 44
0.0
176
     1
173
     0
176
     1
  0
VISUALSTYLE
  5
2C
102
{ACAD_REACTORS
330
2A
102
}
330
2A
100
AcDbVisualStyle
  2
FlatWithEdges
 70
     1
177
     2
291
     1
 71
     2
176
     1
 72
     1
176
     1
 73
     1
176
     1
 90
        2
176
     1
 40
-0.6
176
     1
 41
30.0
176
     1
 62
     5
 63
     7
421
 16777215
176
     1
 74
     1
176
     1
 91
        4
176
     1
 64
     7
176
     1
 65
   257
176
     1
 75
     1
176
     1
175
     1
176
     1
 42
1.0
176
     1
 92
        0
176
     1
 66
   257
176
     1
 43
1.0
176
     1
 76
     1
176
     1
 77
     6
176
     1
 78
     2
176
     1
 67
     7
176
     1
 79
     5
176
     1
170
     0
176
     1
171
     0
176
     1
290
     0
176
     1
 93
       13
176
     1
 44
0.0
176
     1
173
     0
176
     1
  0
VISUALSTYLE
  5
2D
102
{ACAD_REACTORS
330
2A
102
}
330
2A
100
AcDbVisualStyle
  2
Gouraud
 70
     2
177
     2
291
     1
 71
     2
176
     1
 72
     2
176
     1
 73
     1
176
     1
 90
        2
176
     1
 40
-0.6
176
     1
 41
30.0
176
     1
 62
     5
 63
     7
421
 16777215
176
     1
 74
     0
176
     1
 91
        4
176
     1
 64
     7
176
     1
 65
   257
176
     1
 75
     1
176
     1
175
     1
176
     1
 42
1.0
176
     1
 92
        0
176
     1
 66
     7
176
     1
 43
1.0
176
     1
 76
     1
176
     1
 77
     6
176
     1
 78
     2
176
     1
 67
     7
176
     1
 79
     5
176
     1
170
     0
176
     1
171
     0
176
     1
290
     0
176
     1
 93
       13
176
     1
 44
0.0
176
     1
173
     0
176
     1
  0
VISUALSTYLE
  5
2E
102
{ACAD_REACTORS
330
2A
102
}
330
2A
100
AcDbVisualStyle
  2
GouraudWithEdges
 70
     3
177
     2
291
     1
 71
     2
176
     1
 72
     2
176
     1
 73
     1
176
     1
 90
        2
176
     1
 40
-0.6
176
     1
 41
30.0
176
     1
 62
     5
 63
     7
421
 16777215
176
     1
 74
     1
176
     1
 91
        4
176
     1
 64
     7
176
     1
 65
   257
176
     1
 75
     1
176
     1
175
     1
176
     1
 42
1.0
176
     1
 92
        0
176
     1
 66
   257
176
     1
 43
1.0
176
     1
 76
     1
176
     1
 77
     6
176
     1
 78
     2
176
     1
 67
     7
176
     1
 79
     5
176
     1
170
     0
176
     1
171
     0
176
     1
290
     0
176
     1
 93
       13
176
     1
 44
0.0
176
     1
173
     0
176
     1
  0
VISUALSTYLE
  5
38
102
{ACAD_REACTORS
330
2A
102
}
330
2A
100
AcDbVisualStyle
  2
Linepattern
 70
    14
177
     2
291
     1
 71
     2
176
     1
 72
     2
176
     1
 73
     0
176
     1
 90
        0
176
     1
 40
-0.6
176
     1
 41
-30.0
176
     1
 62
     5
 63
     7
421
 16777215
176
     1
 74
     1
176
     1
 91
        4
176
     1
 64
     7
176
     1
 65
   257
176
     1
 75
     7
176
     1
175
     7
176
     1
 42
1.0
176
     1
 92
        8
176
     1
 66
     7
176
     1
 43
1.0
176
     1
 76
     1
176
     1
 77
     6
176
     1
 78
     2
176
     1
 67
     7
176
     1
 79
     5
176
     1
170
     0
176
     1
171
     0
176
     1
290
     0
176
     1
 93
        1
176
     1
 44
0.0
176
     1
173
     0
176
     1
  0
VISUALSTYLE
  5
33
102
{ACAD_REACTORS
330
2A
102
}
330
2A
100
AcDbVisualStyle
  2
Realistic
 70
     8
177
     2
291
     0
 71
     2
176
     1
 72
     2
176
     1
 73
     0
176
     1
 90
        0
176
     1
 40
-0.6
176
     1
 41
-30.0
176
     1
 62
     5
 63
     7
421
 16777215
176
     1
 74
     1
176
     1
 91
        0
176
     1
 64
     7
176
     1
 65
   257
176
     1
 75
     1
176
     1
175
     1
176
     1
 42
1.0
176
     1
 92
        8
176
     1
 66
     8
424
  7895160
176
     1
 43
1.0
176
     1
 76
     1
176
     1
 77
     6
176
     1
 78
     2
176
     1
 67
     7
176
     1
 79
     5
176
     1
170
     0
176
     1
171
     0
176
     1
290
     0
176
     1
 93
       13
176
     1
 44
0.0
176
     1
173
     0
176
     1
  0
VISUALSTYLE
  5
37
102
{ACAD_REACTORS
330
2A
102
}
330
2A
100
AcDbVisualStyle
  2
Thicken
 70
    13
177
     2
291
     1
 71
     2
176
     1
 72
     2
176
     1
 73
     0
176
     1
 90
        0
176
     1
 40
-0.6
176
     1
 41
-30.0
176
     1
 62
     5
 63
     7
421
 16777215
176
     1
 74
     1
176
     1
 91
        4
176
     1
 64
     7
176
     1
 65
   257
176
     1
 75
     1
176
     1
175
     1
176
     1
 42
1.0
176
     1
 92
       12
176
     1
 66
     7
176
     1
 43
1.0
176
     1
 76
     1
176
     1
 77
     6
176
     1
 78
     2
176
     1
 67
     7
176
     1
 79
     5
176
     1
170
     0
176
     1
171
     0
176
     1
290
     0
176
     1
 93
        1
176
     1
 44
0.0
176
     1
173
     0
176
     1
  0
ENDSEC
  0
EOF
