  0
SECTION
  2
HEADER
  9
$ACADVER
  1
AC1024
  9
$ACADMAINTVER
 70
     6
  9
$DWGCODEPAGE
  3
UNDEFINED
  9
$INSBASE
 10
0.0
 20
0.0
 30
0.0
  9
$EXTMIN
 10
1.000000000000000E+20
 20
1.000000000000000E+20
 30
1.000000000000000E+20
  9
$EXTMAX
 10
-1.000000000000000E+20
 20
-1.000000000000000E+20
 30
-1.000000000000000E+20
  9
$LIMMIN
 10
0.0
 20
0.0
  9
$LIMMAX
 10
12.0
 20
9.0
  9
$ORTHOMODE
 70
     0
  9
$REGENMODE
 70
     1
  9
$FILLMODE
 70
     1
  9
$QTEXTMODE
 70
     0
  9
$MIRRTEXT
 70
     1
  9
$LTSCALE
 40
1.0
  9
$ATTMODE
 70
     1
  9
$TEXTSIZE
 40
0.2
  9
$TRACEWID
 40
0.05
  9
$TEXTSTYLE
  7
Standard
  9
$CLAYER
  8
0
  9
$CELTYPE
  6
ByLayer
  9
$CECOLOR
 62
   256
  9
$CELTSCALE
 40
1.0
  9
$DISPSILH
 70
     0
  9
$DIMSCALE
 40
1.0
  9
$DIMASZ
 40
0.18
  9
$DIMEXO
 40
0.0625
  9
$DIMDLI
 40
0.38
  9
$DIMRND
 40
0.0
  9
$DIMDLE
 40
0.0
  9
$DIMEXE
 40
0.18
  9
$DIMTP
 40
0.0
  9
$DIMTM
 40
0.0
  9
$DIMTXT
 40
0.18
  9
$DIMCEN
 40
0.09
  9
$DIMTSZ
 40
0.0
  9
$DIMTOL
 70
     0
  9
$DIMLIM
 70
     0
  9
$DIMTIH
 70
     1
  9
$DIMTOH
 70
     1
  9
$DIMSE1
 70
     0
  9
$DIMSE2
 70
     0
  9
$DIMTAD
 70
     0
  9
$DIMZIN
 70
     0
  9
$DIMBLK
  1

  9
$DIMASO
 70
     1
  9
$DIMSHO
 70
     1
  9
$DIMPOST
  1

  9
$DIMAPOST
  1

  9
$DIMALT
 70
     0
  9
$DIMALTD
 70
     2
  9
$DIMALTF
 40
25.4
  9
$DIMLFAC
 40
1.0
  9
$DIMTOFL
 70
     0
  9
$DIMTVP
 40
0.0
  9
$DIMTIX
 70
     0
  9
$DIMSOXD
 70
     0
  9
$DIMSAH
 70
     0
  9
$DIMBLK1
  1

  9
$DIMBLK2
  1

  9
$DIMSTYLE
  2
Standard
  9
$DIMCLRD
 70
     0
  9
$DIMCLRE
 70
     0
  9
$DIMCLRT
 70
     0
  9
$DIMTFAC
 40
1.0
  9
$DIMGAP
 40
0.09
  9
$DIMJUST
 70
     0
  9
$DIMSD1
 70
     0
  9
$DIMSD2
 70
     0
  9
$DIMTOLJ
 70
     1
  9
$DIMTZIN
 70
     0
  9
$DIMALTZ
 70
     0
  9
$DIMALTTZ
 70
     0
  9
$DIMUPT
 70
     0
  9
$DIMDEC
 70
     4
  9
$DIMTDEC
 70
     4
  9
$DIMALTU
 70
     2
  9
$DIMALTTD
 70
     2
  9
$DIMTXSTY
  7
Standard
  9
$DIMAUNIT
 70
     0
  9
$DIMADEC
 70
     0
  9
$DIMALTRND
 40
0.0
  9
$DIMAZIN
 70
     0
  9
$DIMDSEP
 70
    46
  9
$DIMATFIT
 70
     3
  9
$DIMFRAC
 70
     0
  9
$DIMLDRBLK
  1

  9
$DIMLUNIT
 70
     2
  9
$DIMLWD
 70
    -2
  9
$DIMLWE
 70
    -2
  9
$DIMTMOVE
 70
     0
  9
$DIMFXL
 40
1.0
  9
$DIMFXLON
 70
     0
  9
$DIMJOGANG
 40
0.7853981633974483
  9
$DIMTFILL
 70
     0
  9
$DIMTFILLCLR
 70
     0
  9
$DIMARCSYM
 70
     0
  9
$DIMLTYPE
  6

  9
$DIMLTEX1
  6

  9
$DIMLTEX2
  6

  9
$DIMTXTDIRECTION
 70
     0
  9
$LUNITS
 70
     2
  9
$LUPREC
 70
     4
  9
$SKETCHINC
 40
0.1
  9
$FILLETRAD
 40
0.5
  9
$AUNITS
 70
     0
  9
$AUPREC
 70
     0
  9
$MENU
  1
.
  9
$ELEVATION
 40
0.0
  9
$PELEVATION
 40
0.0
  9
$THICKNESS
 40
0.0
  9
$LIMCHECK
 70
     0
  9
$CHAMFERA
 40
0.5
  9
$CHAMFERB
 40
0.5
  9
$CHAMFERC
 40
1.0
  9
$CHAMFERD
 40
0.0
  9
$SKPOLY
 70
     0
  9
$TDCREATE
 40
2457917.587534722
  9
$TDUCREATE
 40
2457917.212534722
  9
$TDUPDATE
 40
2457917.587534722
  9
$TDUUPDATE
 40
2457917.212534722
  9
$TDINDWG
 40
0.0000000116
  9
$TDUSRTIMER
 40
0.0000000116
  9
$USRTIMER
 70
     1
  9
$ANGBASE
 50
0.0
  9
$ANGDIR
 70
     0
  9
$PDMODE
 70
     0
  9
$PDSIZE
 40
0.0
  9
$PLINEWID
 40
0.0
  9
$SPLFRAME
 70
     0
  9
$SPLINETYPE
 70
     6
  9
$SPLINESEGS
 70
     8
  9
$HANDSEED
  5
F8
  9
$SURFTAB1
 70
     6
  9
$SURFTAB2
 70
     6
  9
$SURFTYPE
 70
     6
  9
$SURFU
 70
     6
  9
$SURFV
 70
     6
  9
$UCSBASE
  2

  9
$UCSNAME
  2

  9
$UCSORG
 10
0.0
 20
0.0
 30
0.0
  9
$UCSXDIR
 10
1.0
 20
0.0
 30
0.0
  9
$UCSYDIR
 10
0.0
 20
1.0
 30
0.0
  9
$UCSORTHOREF
  2

  9
$UCSORTHOVIEW
 70
     0
  9
$UCSORGTOP
 10
0.0
 20
0.0
 30
0.0
  9
$UCSORGBOTTOM
 10
0.0
 20
0.0
 30
0.0
  9
$UCSORGLEFT
 10
0.0
 20
0.0
 30
0.0
  9
$UCSORGRIGHT
 10
0.0
 20
0.0
 30
0.0
  9
$UCSORGFRONT
 10
0.0
 20
0.0
 30
0.0
  9
$UCSORGBACK
 10
0.0
 20
0.0
 30
0.0
  9
$PUCSBASE
  2

  9
$PUCSNAME
  2

  9
$PUCSORG
 10
0.0
 20
0.0
 30
0.0
  9
$PUCSXDIR
 10
1.0
 20
0.0
 30
0.0
  9
$PUCSYDIR
 10
0.0
 20
1.0
 30
0.0
  9
$PUCSORTHOREF
  2

  9
$PUCSORTHOVIEW
 70
     0
  9
$PUCSORGTOP
 10
0.0
 20
0.0
 30
0.0
  9
$PUCSORGBOTTOM
 10
0.0
 20
0.0
 30
0.0
  9
$PUCSORGLEFT
 10
0.0
 20
0.0
 30
0.0
  9
$PUCSORGRIGHT
 10
0.0
 20
0.0
 30
0.0
  9
$PUCSORGFRONT
 10
0.0
 20
0.0
 30
0.0
  9
$PUCSORGBACK
 10
0.0
 20
0.0
 30
0.0
  9
$USERI1
 70
     0
  9
$USERI2
 70
     0
  9
$USERI3
 70
     0
  9
$USERI4
 70
     0
  9
$USERI5
 70
     0
  9
$USERR1
 40
0.0
  9
$USERR2
 40
0.0
  9
$USERR3
 40
0.0
  9
$USERR4
 40
0.0
  9
$USERR5
 40
0.0
  9
$WORLDVIEW
 70
     1
  9
$SHADEDGE
 70
     3
  9
$SHADEDIF
 70
    70
  9
$TILEMODE
 70
     1
  9
$MAXACTVP
 70
    64
  9
$PINSBASE
 10
0.0
 20
0.0
 30
0.0
  9
$PLIMCHECK
 70
     0
  9
$PEXTMIN
 10
1.000000000000000E+20
 20
1.000000000000000E+20
 30
1.000000000000000E+20
  9
$PEXTMAX
 10
-1.000000000000000E+20
 20
-1.000000000000000E+20
 30
-1.000000000000000E+20
  9
$PLIMMIN
 10
0.0
 20
0.0
  9
$PLIMMAX
 10
12.0
 20
9.0
  9
$UNITMODE
 70
     0
  9
$VISRETAIN
 70
     1
  9
$PLINEGEN
 70
     0
  9
$PSLTSCALE
 70
     1
  9
$TREEDEPTH
 70
  3020
  9
$CMLSTYLE
  2
Standard
  9
$CMLJUST
 70
     0
  9
$CMLSCALE
 40
1.0
  9
$PROXYGRAPHICS
 70
     1
  9
$MEASUREMENT
 70
     0
  9
$CELWEIGHT
370
    -1
  9
$ENDCAPS
280
     0
  9
$JOINSTYLE
280
     0
  9
$LWDISPLAY
290
     1
  9
$INSUNITS
 70
     1
  9
$HYPERLINKBASE
  1

  9
$STYLESHEET
  1

  9
$XEDIT
290
     1
  9
$CEPSNTYPE
380
     0
  9
$PSTYLEMODE
290
     1
  9
$FINGERPRINTGUID
  2
{09583B30-08ED-A9A2-08F3-6D41686F100F}
  9
$VERSIONGUID
  2
{FAEB1C32-E019-11D5-929B-00C0DF256EC4}
  9
$EXTNAMES
290
     1
  9
$PSVPSCALE
 40
0.0
  9
$OLESTARTUP
290
     0
  9
$SORTENTS
280
   127
  9
$INDEXCTL
280
     0
  9
$HIDETEXT
280
     1
  9
$XCLIPFRAME
280
     2
  9
$HALOGAP
280
     0
  9
$OBSCOLOR
 70
   257
  9
$OBSLTYPE
280
     0
  9
$INTERSECTIONDISPLAY
280
     0
  9
$INTERSECTIONCOLOR
 70
   257
  9
$DIMASSOC
280
     2
  9
$PROJECTNAME
  1

  9
$CAMERADISPLAY
290
     0
  9
$LENSLENGTH
 40
50.0
  9
$CAMERAHEIGHT
 40
0.0
  9
$STEPSPERSEC
 40
2.0
  9
$STEPSIZE
 40
6.0
  9
$3DDWFPREC
 40
2.0
  9
$PSOLWIDTH
 40
0.25
  9
$PSOLHEIGHT
 40
4.0
  9
$LOFTANG1
 40
1.570796326794897
  9
$LOFTANG2
 40
1.570796326794897
  9
$LOFTMAG1
 40
0.0
  9
$LOFTMAG2
 40
0.0
  9
$LOFTPARAM
 70
     7
  9
$LOFTNORMALS
280
     1
  9
$LATITUDE
 40
37.795
  9
$LONGITUDE
 40
-122.394
  9
$NORTHDIRECTION
 40
0.0
  9
$TIMEZONE
 70
 -8000
  9
$LIGHTGLYPHDISPLAY
280
     1
  9
$TILEMODELIGHTSYNCH
280
     1
  9
$CMATERIAL
347
3C
  9
$SOLIDHIST
280
     1
  9
$SHOWHIST
280
     1
  9
$DWFFRAME
280
     2
  9
$DGNFRAME
280
     2
  9
$REALWORLDSCALE
290
     1
  9
$INTERFERECOLOR
 62
   256
  9
$CSHADOW
280
     0
  9
$SHADOWPLANELOCATION
 40
0.0
  0
ENDSEC
  0
SECTION
  2
CLASSES
  0
CLASS
  1
ACDBDICTIONARYWDFLT
  2
AcDbDictionaryWithDefault
  3
ObjectDBX Classes
 90
        0
 91
        4
280
     0
281
     0
  0
CLASS
  1
VISUALSTYLE
  2
AcDbVisualStyle
  3
ObjectDBX Classes
 90
     4095
 91
        4
280
     0
281
     0
  0
CLASS
  1
MATERIAL
  2
AcDbMaterial
  3
ObjectDBX Classes
 90
     1153
 91
        4
280
     0
281
     0
  0
CLASS
  1
SUN
  2
AcDbSun
  3
SCENEOE
 90
     1024
 91
        4
280
     0
281
     0
  0
ENDSEC
  0
SECTION
  2
TABLES
  0
TABLE
  2
VPORT
  5
8
330
0
100
AcDbSymbolTable
 70
     1
  0
VPORT
  5
29
330
8
100
AcDbSymbolTableRecord
100
AcDbViewportTableRecord
  2
*Active
 70
     0
 10
0.0
 20
0.0
 11
1.0
 21
1.0
 12
0.0
 22
0.0
 13
0.0
 23
0.0
 14
0.5
 24
0.5
 15
0.5
 25
0.5
 16
0.0
 26
0.0
 36
1.0
 17
105.0008280156501
 27
-148.4999710739862
 37
0.0
 40
296.9999421479724
 41
0.7070764206636528
 42
50.0
 43
0.0
 44
0.0
 50
0.0
 51
0.0
 71
     0
 72
   100
 73
     1
 74
     3
 75
     0
 76
     0
 77
     0
 78
     0
281
     0
 65
     1
110
0.0
120
0.0
130
0.0
111
1.0
121
0.0
131
0.0
112
0.0
122
1.0
132
0.0
 79
     0
146
0.0
 60
     3
 61
     5
292
     1
282
     1
141
0.0
142
0.0
 63
   250
361
3F
  0
ENDTAB
  0
TABLE
  2
LTYPE
  5
5
330
0
100
AcDbSymbolTable
 70
     1
  0
LTYPE
  5
14
330
5
100
AcDbSymbolTableRecord
100
AcDbLinetypeTableRecord
  2
ByBlock
 70
     0
  3

 72
    65
 73
     0
 40
0.0
  0
LTYPE
  5
15
330
5
100
AcDbSymbolTableRecord
100
AcDbLinetypeTableRecord
  2
ByLayer
 70
     0
  3

 72
    65
 73
     0
 40
0.0
  0
LTYPE
  5
16
330
5
100
AcDbSymbolTableRecord
100
AcDbLinetypeTableRecord
  2
Continuous
 70
     0
  3
Solid line
 72
    65
 73
     0
 40
0.0
  0
ENDTAB
  0
TABLE
  2
LAYER
  5
2
330
0
100
AcDbSymbolTable
 70
     2
  0
LAYER
  5
10
330
2
100
AcDbSymbolTableRecord
100
AcDbLayerTableRecord
  2
0
 70
     0
 62
     7
  6
Continuous
370
    -3
390
F
347
3E
  0
LAYER
  5
40
330
2
100
AcDbSymbolTableRecord
100
AcDbLayerTableRecord
  2
_U+30EC_U+30A4_U+30E4_U+30FC 1
 70
     0
 62
     7
  6
Continuous
370
    -3
390
F
347
3E
  0
ENDTAB
  0
TABLE
  2
STYLE
  5
3
330
0
100
AcDbSymbolTable
 70
     1
  0
STYLE
  5
11
330
3
100
AcDbSymbolTableRecord
100
AcDbTextStyleTableRecord
  2
Standard
 70
     0
 40
0.0
 41
1.0
 50
0.0
 71
     0
 42
0.2
  3
txt
  4

  0
ENDTAB
  0
TABLE
  2
VIEW
  5
6
330
0
100
AcDbSymbolTable
 70
     0
  0
ENDTAB
  0
TABLE
  2
UCS
  5
7
330
0
100
AcDbSymbolTable
 70
     0
  0
ENDTAB
  0
TABLE
  2
APPID
  5
9
330
0
100
AcDbSymbolTable
 70
     1
  0
APPID
  5
12
330
9
100
AcDbSymbolTableRecord
100
AcDbRegAppTableRecord
  2
ACAD
 70
     0
  0
ENDTAB
  0
TABLE
  2
DIMSTYLE
  5
A
330
0
100
AcDbSymbolTable
 70
     1
100
AcDbDimStyleTable
  0
DIMSTYLE
105
27
330
A
100
AcDbSymbolTableRecord
100
AcDbDimStyleTableRecord
  2
Standard
 70
     0
178
     0
340
11
  0
ENDTAB
  0
TABLE
  2
BLOCK_RECORD
  5
1
330
0
100
AcDbSymbolTable
 70
     6
  0
BLOCK_RECORD
  5
1F
330
1
100
AcDbSymbolTableRecord
100
AcDbBlockTableRecord
  2
*Model_Space
340
22
 70
     0
280
     1
281
     0
  0
BLOCK_RECORD
  5
1B
330
1
100
AcDbSymbolTableRecord
100
AcDbBlockTableRecord
  2
*Paper_Space
340
1E
 70
     0
280
     1
281
     0
  0
BLOCK_RECORD
  5
23
330
1
100
AcDbSymbolTableRecord
100
AcDbBlockTableRecord
  2
*Paper_Space0
340
26
 70
     0
280
     1
281
     0
  0
BLOCK_RECORD
  5
71
330
1
100
AcDbSymbolTableRecord
100
AcDbBlockTableRecord
  2
block 2
340
0
102
{BLKREFS
331
72
102
}
 70
     0
280
     1
281
     0
  0
BLOCK_RECORD
  5
89
330
1
100
AcDbSymbolTableRecord
100
AcDbBlockTableRecord
  2
block 3
340
0
102
{BLKREFS
331
8A
102
}
 70
     0
280
     1
281
     0
  0
BLOCK_RECORD
  5
BD
330
1
100
AcDbSymbolTableRecord
100
AcDbBlockTableRecord
  2
block 4
340
0
102
{BLKREFS
331
BE
102
}
 70
     0
280
     1
281
     0
  0
BLOCK_RECORD
  5
D9
330
1
100
AcDbSymbolTableRecord
100
AcDbBlockTableRecord
  2
block 5
340
0
102
{BLKREFS
331
DA
102
}
 70
     0
280
     1
281
     0
  0
BLOCK_RECORD
  5
ED
330
1
100
AcDbSymbolTableRecord
100
AcDbBlockTableRecord
  2
block 6
340
0
102
{BLKREFS
331
EE
102
}
 70
     0
280
     1
281
     0
  0
ENDTAB
  0
ENDSEC
  0
SECTION
  2
BLOCKS
  0
BLOCK
  5
20
330
1F
100
AcDbEntity
  8
0
100
AcDbBlockBegin
  2
*Model_Space
 70
     0
 10
0.0
 20
0.0
 30
0.0
  3
*Model_Space
  1

  0
ENDBLK
  5
21
330
1F
100
AcDbEntity
  8
0
100
AcDbBlockEnd
  0
BLOCK
  5
1C
330
1B
100
AcDbEntity
 67
     1
  8
0
100
AcDbBlockBegin
  2
*Paper_Space
 70
     0
 10
0.0
 20
0.0
 30
0.0
  3
*Paper_Space
  1

  0
ENDBLK
  5
1D
330
1B
100
AcDbEntity
 67
     1
  8
0
100
AcDbBlockEnd
  0
BLOCK
  5
24
330
23
100
AcDbEntity
  8
0
100
AcDbBlockBegin
  2
*Paper_Space0
 70
     0
 10
0.0
 20
0.0
 30
0.0
  3
*Paper_Space0
  1

  0
ENDBLK
  5
25
330
23
100
AcDbEntity
  8
0
100
AcDbBlockEnd
  0
BLOCK
  5
73
330
71
100
AcDbEntity
  8
0
100
AcDbBlockBegin
  2
block 2
 70
     0
 10
0.0
 20
0.0
 30
0.0
  3
block 2
  1

  0
SPLINE
  5
75
330
71
100
AcDbEntity
  8
_U+30EC_U+30A4_U+30E4_U+30FC 1
370
     0
100
AcDbSpline
210
0.0
220
0.0
230
1.0
 70
    11
 71
     3
 72
    26
 73
    22
 74
     0
 42
0.0000000001
 43
0.0000000001
 12
1.0
 22
0.0
 32
0.0
 13
1.0
 23
0.0
 33
0.0
 40
0.0
 40
0.0
 40
0.0
 40
0.0
 40
1.0
 40
1.0
 40
1.0
 40
2.0
 40
2.0
 40
2.0
 40
3.0
 40
3.0
 40
3.0
 40
4.0
 40
4.0
 40
4.0
 40
5.0
 40
5.0
 40
5.0
 40
6.0
 40
6.0
 40
6.0
 40
7.0
 40
7.0
 40
7.0
 40
7.0
 10
107.9823838705739
 20
-160.9069742436274
 30
0.0
 10
107.9823838705739
 20
-160.9069742436274
 30
0.0
 10
107.9823838705739
 20
-159.8028211406049
 30
0.0
 10
107.9823838705739
 20
-159.8028211406049
 30
0.0
 10
107.9823838705739
 20
-159.8028211406049
 30
0.0
 10
107.7005750598804
 20
-159.8028211406049
 30
0.0
 10
107.7005750598804
 20
-159.8028211406049
 30
0.0
 10
107.7005750598804
 20
-159.8028211406049
 30
0.0
 10
107.7005750598804
 20
-159.6546820347391
 30
0.0
 10
107.7005750598804
 20
-159.6546820347391
 30
0.0
 10
107.983761908768
 20
-159.6398681241525
 30
0.0
 10
108.0237250163969
 20
-159.4769151077002
 30
0.0
 10
108.0485297038907
 20
-159.3625379375899
 30
0.0
 10
108.0485297038907
 20
-159.3625379375899
 30
0.0
 10
108.1732421604567
 20
-159.3625379375899
 30
0.0
 10
108.1732421604567
 20
-159.3625379375899
 30
0.0
 10
108.1732421604567
 20
-159.3625379375899
 30
0.0
 10
108.1732421604567
 20
-160.9069742436274
 30
0.0
 10
108.1732421604567
 20
-160.9069742436274
 30
0.0
 10
108.1732421604567
 20
-160.9069742436274
 30
0.0
 10
107.9823838705739
 20
-160.9069742436274
 30
0.0
 10
107.9823838705739
 20
-160.9069742436274
 30
0.0
  0
HATCH
  5
76
330
71
100
AcDbEntity
  8
_U+30EC_U+30A4_U+30E4_U+30FC 1
 62
   179
420
  2234388
100
AcDbHatch
 10
0.0
 20
0.0
 30
0.0
210
0.0
220
0.0
230
1.0
  2
SOLID
 70
     1
 71
     0
 91
        1
 92
        1
 93
        1
 72
     4
 94
        3
 73
     0
 74
     1
 95
       26
 96
       22
 40
0.0
 40
0.0
 40
0.0
 40
0.0
 40
1.0
 40
1.0
 40
1.0
 40
2.0
 40
2.0
 40
2.0
 40
3.0
 40
3.0
 40
3.0
 40
4.0
 40
4.0
 40
4.0
 40
5.0
 40
5.0
 40
5.0
 40
6.0
 40
6.0
 40
6.0
 40
7.0
 40
7.0
 40
7.0
 40
7.0
 10
107.9823838705739
 20
-160.9069742436274
 10
107.9823838705739
 20
-160.9069742436274
 10
107.9823838705739
 20
-159.8028211406049
 10
107.9823838705739
 20
-159.8028211406049
 10
107.9823838705739
 20
-159.8028211406049
 10
107.7005750598804
 20
-159.8028211406049
 10
107.7005750598804
 20
-159.8028211406049
 10
107.7005750598804
 20
-159.8028211406049
 10
107.7005750598804
 20
-159.6546820347391
 10
107.7005750598804
 20
-159.6546820347391
 10
107.983761908768
 20
-159.6398681241525
 10
108.0237250163969
 20
-159.4769151077002
 10
108.0485297038907
 20
-159.3625379375899
 10
108.0485297038907
 20
-159.3625379375899
 10
108.1732421604567
 20
-159.3625379375899
 10
108.1732421604567
 20
-159.3625379375899
 10
108.1732421604567
 20
-159.3625379375899
 10
108.1732421604567
 20
-160.9069742436274
 10
108.1732421604567
 20
-160.9069742436274
 10
108.1732421604567
 20
-160.9069742436274
 10
107.9823838705739
 20
-160.9069742436274
 10
107.9823838705739
 20
-160.9069742436274
 97
        0
 97
        0
 75
     2
 76
     1
 98
        0
  0
SPLINE
  5
77
330
71
100
AcDbEntity
  8
_U+30EC_U+30A4_U+30E4_U+30FC 1
370
     0
100
AcDbSpline
210
0.0
220
0.0
230
1.0
 70
    11
 71
     3
 72
    26
 73
    22
 74
     0
 42
0.0000000001
 43
0.0000000001
 12
1.0
 22
0.0
 32
0.0
 13
1.0
 23
0.0
 33
0.0
 40
0.0
 40
0.0
 40
0.0
 40
0.0
 40
1.0
 40
1.0
 40
1.0
 40
2.0
 40
2.0
 40
2.0
 40
3.0
 40
3.0
 40
3.0
 40
4.0
 40
4.0
 40
4.0
 40
5.0
 40
5.0
 40
5.0
 40
6.0
 40
6.0
 40
6.0
 40
7.0
 40
7.0
 40
7.0
 40
7.0
 10
108.949766682832
 20
-160.9069742436274
 30
0.0
 10
108.949766682832
 20
-160.9069742436274
 30
0.0
 10
108.7478840873964
 20
-160.9069742436274
 30
0.0
 10
108.7478840873964
 20
-160.9069742436274
 30
0.0
 10
108.7692436794049
 20
-160.5979491786005
 30
0.0
 10
108.9332302245028
 20
-160.0798068176189
 30
0.0
 10
109.2798068303189
 20
-159.5740668003843
 30
0.0
 10
109.2798068303189
 20
-159.5740668003843
 30
0.0
 10
108.5652940266781
 20
-159.5740668003843
 30
0.0
 10
108.5652940266781
 20
-159.5740668003843
 30
0.0
 10
108.5652940266781
 20
-159.5740668003843
 30
0.0
 10
108.5652940266781
 20
-159.3625379375899
 30
0.0
 10
108.5652940266781
 20
-159.3625379375899
 30
0.0
 10
108.5652940266781
 20
-159.3625379375899
 30
0.0
 10
109.4816894257546
 20
-159.3625379375899
 30
0.0
 10
109.4816894257546
 20
-159.3625379375899
 30
0.0
 10
109.4816894257546
 20
-159.3625379375899
 30
0.0
 10
109.4816894257546
 20
-159.5740668003843
 30
0.0
 10
109.4816894257546
 20
-159.5740668003843
 30
0.0
 10
109.2060817869346
 20
-159.8641438402423
 30
0.0
 10
108.9787054849081
 20
-160.4563557541568
 30
0.0
 10
108.949766682832
 20
-160.9069742436274
 30
0.0
  0
HATCH
  5
78
330
71
100
AcDbEntity
  8
_U+30EC_U+30A4_U+30E4_U+30FC 1
 62
   179
420
  2234388
100
AcDbHatch
 10
0.0
 20
0.0
 30
0.0
210
0.0
220
0.0
230
1.0
  2
SOLID
 70
     1
 71
     0
 91
        1
 92
        1
 93
        1
 72
     4
 94
        3
 73
     0
 74
     1
 95
       26
 96
       22
 40
0.0
 40
0.0
 40
0.0
 40
0.0
 40
1.0
 40
1.0
 40
1.0
 40
2.0
 40
2.0
 40
2.0
 40
3.0
 40
3.0
 40
3.0
 40
4.0
 40
4.0
 40
4.0
 40
5.0
 40
5.0
 40
5.0
 40
6.0
 40
6.0
 40
6.0
 40
7.0
 40
7.0
 40
7.0
 40
7.0
 10
108.949766682832
 20
-160.9069742436274
 10
108.949766682832
 20
-160.9069742436274
 10
108.7478840873964
 20
-160.9069742436274
 10
108.7478840873964
 20
-160.9069742436274
 10
108.7692436794049
 20
-160.5979491786005
 10
108.9332302245028
 20
-160.0798068176189
 10
109.2798068303189
 20
-159.5740668003843
 10
109.2798068303189
 20
-159.5740668003843
 10
108.5652940266781
 20
-159.5740668003843
 10
108.5652940266781
 20
-159.5740668003843
 10
108.5652940266781
 20
-159.5740668003843
 10
108.5652940266781
 20
-159.3625379375899
 10
108.5652940266781
 20
-159.3625379375899
 10
108.5652940266781
 20
-159.3625379375899
 10
109.4816894257546
 20
-159.3625379375899
 10
109.4816894257546
 20
-159.3625379375899
 10
109.4816894257546
 20
-159.3625379375899
 10
109.4816894257546
 20
-159.5740668003843
 10
109.4816894257546
 20
-159.5740668003843
 10
109.2060817869346
 20
-159.8641438402423
 10
108.9787054849081
 20
-160.4563557541568
 10
108.949766682832
 20
-160.9069742436274
 97
        0
 97
        0
 75
     2
 76
     1
 98
        0
  0
ENDBLK
  5
74
330
71
100
AcDbEntity
  8
0
100
AcDbBlockEnd
  0
BLOCK
  5
8B
330
89
100
AcDbEntity
  8
0
100
AcDbBlockBegin
  2
block 3
 70
     0
 10
0.0
 20
0.0
 30
0.0
  3
block 3
  1

  0
SPLINE
  5
8D
330
89
100
AcDbEntity
  8
_U+30EC_U+30A4_U+30E4_U+30FC 1
370
     0
100
AcDbSpline
210
0.0
220
0.0
230
1.0
 70
    11
 71
     3
 72
    29
 73
    25
 74
     0
 42
0.0000000001
 43
0.0000000001
 12
1.0
 22
0.0
 32
0.0
 13
1.0
 23
0.0
 33
0.0
 40
0.0
 40
0.0
 40
0.0
 40
0.0
 40
1.0
 40
1.0
 40
1.0
 40
2.0
 40
2.0
 40
2.0
 40
3.0
 40
3.0
 40
3.0
 40
4.0
 40
4.0
 40
4.0
 40
5.0
 40
5.0
 40
5.0
 40
6.0
 40
6.0
 40
6.0
 40
7.0
 40
7.0
 40
7.0
 40
8.0
 40
8.0
 40
8.0
 40
8.0
 10
123.9366210627659
 20
-157.2696424303006
 30
0.0
 10
124.146082868269
 20
-157.3616264797568
 30
0.0
 10
124.1650308934379
 20
-157.509421076074
 30
0.0
 10
124.1650308934379
 20
-157.6086398260492
 30
0.0
 10
124.1650308934379
 20
-157.7457546263622
 30
0.0
 10
124.118522104387
 20
-157.8663329683459
 30
0.0
 10
123.9366210627659
 20
-157.9476372217978
 30
0.0
 10
123.7419731678492
 20
-158.0358316662202
 30
0.0
 10
123.5052951080126
 20
-158.0520236150009
 30
0.0
 10
123.3423420915603
 20
-158.0520236150009
 30
0.0
 10
123.1983371002768
 20
-158.0520236150009
 30
0.0
 10
122.946500620305
 20
-158.0378987235114
 30
0.0
 10
122.7477186108061
 20
-157.9476372217978
 30
0.0
 10
122.5448024867249
 20
-157.8556531723416
 30
0.0
 10
122.5213758374252
 20
-157.7185383720287
 30
0.0
 10
122.5213758374252
 20
-157.6086398260492
 30
0.0
 10
122.5213758374252
 20
-157.4732475734789
 30
0.0
 10
122.5658175691849
 20
-157.350602174204
 30
0.0
 10
122.7477186108061
 20
-157.2696424303006
 30
0.0
 10
122.9402994484316
 20
-157.1848930813635
 30
0.0
 10
123.1687092791037
 20
-157.1649115275491
 30
0.0
 10
123.3423420915603
 20
-157.1649115275491
 30
0.0
 10
123.5135633371772
 20
-157.1649115275491
 30
0.0
 10
123.7440402251404
 20
-157.1831705336209
 30
0.0
 10
123.9366210627659
 20
-157.2696424303006
 30
0.0
  0
SPLINE
  5
8E
330
89
100
AcDbEntity
  8
_U+30EC_U+30A4_U+30E4_U+30FC 1
370
     0
100
AcDbSpline
210
0.0
220
0.0
230
1.0
 70
    11
 71
     3
 72
    17
 73
    13
 74
     0
 42
0.0000000001
 43
0.0000000001
 12
1.0
 22
0.0
 32
0.0
 13
1.0
 23
0.0
 33
0.0
 40
0.0
 40
0.0
 40
0.0
 40
0.0
 40
1.0
 40
1.0
 40
1.0
 40
2.0
 40
2.0
 40
2.0
 40
3.0
 40
3.0
 40
3.0
 40
4.0
 40
4.0
 40
4.0
 40
4.0
 10
122.7139566750507
 20
-157.6086398260492
 30
0.0
 10
122.7139566750507
 20
-157.8212022174891
 30
0.0
 10
122.9974880334867
 20
-157.861165325118
 30
0.0
 10
123.3423420915603
 20
-157.861165325118
 30
0.0
 10
123.6617024430429
 20
-157.861165325118
 30
0.0
 10
123.9703829985213
 20
-157.8305039752993
 30
0.0
 10
123.9703829985213
 20
-157.6086398260492
 30
0.0
 10
123.9703829985213
 20
-157.3974554728034
 30
0.0
 10
123.6892632069249
 20
-157.3561143269804
 30
0.0
 10
123.3423420915603
 20
-157.3561143269804
 30
0.0
 10
123.0226372305291
 20
-157.3561143269804
 30
0.0
 10
122.7139566750507
 20
-157.3884982245418
 30
0.0
 10
122.7139566750507
 20
-157.6086398260492
 30
0.0
  0
HATCH
  5
8F
330
89
100
AcDbEntity
  8
_U+30EC_U+30A4_U+30E4_U+30FC 1
 62
   179
420
  2234388
100
AcDbHatch
 10
0.0
 20
0.0
 30
0.0
210
0.0
220
0.0
230
1.0
  2
SOLID
 70
     1
 71
     0
 91
        2
 92
        1
 93
        1
 72
     4
 94
        3
 73
     0
 74
     1
 95
       29
 96
       25
 40
0.0
 40
0.0
 40
0.0
 40
0.0
 40
1.0
 40
1.0
 40
1.0
 40
2.0
 40
2.0
 40
2.0
 40
3.0
 40
3.0
 40
3.0
 40
4.0
 40
4.0
 40
4.0
 40
5.0
 40
5.0
 40
5.0
 40
6.0
 40
6.0
 40
6.0
 40
7.0
 40
7.0
 40
7.0
 40
8.0
 40
8.0
 40
8.0
 40
8.0
 10
123.9366210627659
 20
-157.2696424303006
 10
124.146082868269
 20
-157.3616264797568
 10
124.1650308934379
 20
-157.509421076074
 10
124.1650308934379
 20
-157.6086398260492
 10
124.1650308934379
 20
-157.7457546263622
 10
124.118522104387
 20
-157.8663329683459
 10
123.9366210627659
 20
-157.9476372217978
 10
123.7419731678492
 20
-158.0358316662202
 10
123.5052951080126
 20
-158.0520236150009
 10
123.3423420915603
 20
-158.0520236150009
 10
123.1983371002768
 20
-158.0520236150009
 10
122.946500620305
 20
-158.0378987235114
 10
122.7477186108061
 20
-157.9476372217978
 10
122.5448024867249
 20
-157.8556531723416
 10
122.5213758374252
 20
-157.7185383720287
 10
122.5213758374252
 20
-157.6086398260492
 10
122.5213758374252
 20
-157.4732475734789
 10
122.5658175691849
 20
-157.350602174204
 10
122.7477186108061
 20
-157.2696424303006
 10
122.9402994484316
 20
-157.1848930813635
 10
123.1687092791037
 20
-157.1649115275491
 10
123.3423420915603
 20
-157.1649115275491
 10
123.5135633371772
 20
-157.1649115275491
 10
123.7440402251404
 20
-157.1831705336209
 10
123.9366210627659
 20
-157.2696424303006
 97
        0
 97
        0
 92
        1
 93
        1
 72
     4
 94
        3
 73
     0
 74
     1
 95
       17
 96
       13
 40
0.0
 40
0.0
 40
0.0
 40
0.0
 40
1.0
 40
1.0
 40
1.0
 40
2.0
 40
2.0
 40
2.0
 40
3.0
 40
3.0
 40
3.0
 40
4.0
 40
4.0
 40
4.0
 40
4.0
 10
122.7139566750507
 20
-157.6086398260492
 10
122.7139566750507
 20
-157.8212022174891
 10
122.9974880334867
 20
-157.861165325118
 10
123.3423420915603
 20
-157.861165325118
 10
123.6617024430429
 20
-157.861165325118
 10
123.9703829985213
 20
-157.8305039752993
 10
123.9703829985213
 20
-157.6086398260492
 10
123.9703829985213
 20
-157.3974554728034
 10
123.6892632069249
 20
-157.3561143269804
 10
123.3423420915603
 20
-157.3561143269804
 10
123.0226372305291
 20
-157.3561143269804
 10
122.7139566750507
 20
-157.3884982245418
 10
122.7139566750507
 20
-157.6086398260492
 97
        0
 97
        0
 75
     2
 76
     1
 98
        0
  0
POLYLINE
  5
90
330
89
100
AcDbEntity
  8
_U+30EC_U+30A4_U+30E4_U+30FC 1
370
     0
100
AcDb2dPolyline
 66
     1
 10
0.0
 20
0.0
 30
0.0
  0
VERTEX
  5
91
330
90
100
AcDbEntity
  8
_U+30EC_U+30A4_U+30E4_U+30FC 1
370
     0
100
AcDbVertex
100
AcDb2dVertex
 10
124.1143879898047
 20
-156.9819769572823
 30
0.0
  0
VERTEX
  5
92
330
90
100
AcDbEntity
  8
_U+30EC_U+30A4_U+30E4_U+30FC 1
370
     0
100
AcDbVertex
100
AcDb2dVertex
 10
123.862551509833
 20
-156.9819769572823
 30
0.0
  0
VERTEX
  5
93
330
90
100
AcDbEntity
  8
_U+30EC_U+30A4_U+30E4_U+30FC 1
370
     0
100
AcDbVertex
100
AcDb2dVertex
 10
123.862551509833
 20
-156.7673475085512
 30
0.0
  0
VERTEX
  5
94
330
90
100
AcDbEntity
  8
_U+30EC_U+30A4_U+30E4_U+30FC 1
370
     0
100
AcDbVertex
100
AcDb2dVertex
 10
124.1143879898047
 20
-156.7673475085512
 30
0.0
  0
VERTEX
  5
95
330
90
100
AcDbEntity
  8
_U+30EC_U+30A4_U+30E4_U+30FC 1
370
     0
100
AcDbVertex
100
AcDb2dVertex
 10
124.1143879898047
 20
-156.9819769572823
 30
0.0
  0
SEQEND
  5
96
330
90
100
AcDbEntity
  8
_U+30EC_U+30A4_U+30E4_U+30FC 1
370
     0
  0
HATCH
  5
97
330
89
100
AcDbEntity
  8
_U+30EC_U+30A4_U+30E4_U+30FC 1
 62
   179
420
  2234388
100
AcDbHatch
 10
0.0
 20
0.0
 30
0.0
210
0.0
220
0.0
230
1.0
  2
SOLID
 70
     1
 71
     0
 91
        1
 92
        1
 93
        4
 72
     1
 10
124.1143879898047
 20
-156.9819769572823
 11
123.862551509833
 21
-156.9819769572823
 72
     1
 10
123.862551509833
 20
-156.9819769572823
 11
123.862551509833
 21
-156.7673475085512
 72
     1
 10
123.862551509833
 20
-156.7673475085512
 11
124.1143879898047
 21
-156.7673475085512
 72
     1
 10
124.1143879898047
 20
-156.7673475085512
 11
124.1143879898047
 21
-156.9819769572823
 97
        0
 75
     2
 76
     1
 98
        0
  0
POLYLINE
  5
98
330
89
100
AcDbEntity
  8
_U+30EC_U+30A4_U+30E4_U+30FC 1
370
     0
100
AcDb2dPolyline
 66
     1
 10
0.0
 20
0.0
 30
0.0
  0
VERTEX
  5
99
330
98
100
AcDbEntity
  8
_U+30EC_U+30A4_U+30E4_U+30FC 1
370
     0
100
AcDbVertex
100
AcDb2dVertex
 10
123.7674668744401
 20
-155.8568087717997
 30
0.0
  0
VERTEX
  5
9A
330
98
100
AcDbEntity
  8
_U+30EC_U+30A4_U+30E4_U+30FC 1
370
     0
100
AcDbVertex
100
AcDb2dVertex
 10
124.1143879898047
 20
-155.8568087717997
 30
0.0
  0
VERTEX
  5
9B
330
98
100
AcDbEntity
  8
_U+30EC_U+30A4_U+30E4_U+30FC 1
370
     0
100
AcDbVertex
100
AcDb2dVertex
 10
124.1143879898047
 20
-156.0424994184547
 30
0.0
  0
VERTEX
  5
9C
330
98
100
AcDbEntity
  8
_U+30EC_U+30A4_U+30E4_U+30FC 1
370
     0
100
AcDbVertex
100
AcDb2dVertex
 10
123.7674668744401
 20
-156.0424994184547
 30
0.0
  0
VERTEX
  5
9D
330
98
100
AcDbEntity
  8
_U+30EC_U+30A4_U+30E4_U+30FC 1
370
     0
100
AcDbVertex
100
AcDb2dVertex
 10
123.7674668744401
 20
-156.6016384157107
 30
0.0
  0
VERTEX
  5
9E
330
98
100
AcDbEntity
  8
_U+30EC_U+30A4_U+30E4_U+30FC 1
370
     0
100
AcDbVertex
100
AcDb2dVertex
 10
123.5431911583503
 20
-156.6016384157107
 30
0.0
  0
VERTEX
  5
9F
330
98
100
AcDbEntity
  8
_U+30EC_U+30A4_U+30E4_U+30FC 1
370
     0
100
AcDbVertex
100
AcDb2dVertex
 10
122.5699516837672
 20
-156.0228623741887
 30
0.0
  0
VERTEX
  5
A0
330
98
100
AcDbEntity
  8
_U+30EC_U+30A4_U+30E4_U+30FC 1
370
     0
100
AcDbVertex
100
AcDb2dVertex
 10
122.5699516837672
 20
-155.8568087717997
 30
0.0
  0
VERTEX
  5
A1
330
98
100
AcDbEntity
  8
_U+30EC_U+30A4_U+30E4_U+30FC 1
370
     0
100
AcDbVertex
100
AcDb2dVertex
 10
123.5686848649412
 20
-155.8568087717997
 30
0.0
  0
VERTEX
  5
A2
330
98
100
AcDbEntity
  8
_U+30EC_U+30A4_U+30E4_U+30FC 1
370
     0
100
AcDbVertex
100
AcDb2dVertex
 10
123.5686848649412
 20
-155.6800753734064
 30
0.0
  0
VERTEX
  5
A3
330
98
100
AcDbEntity
  8
_U+30EC_U+30A4_U+30E4_U+30FC 1
370
     0
100
AcDbVertex
100
AcDb2dVertex
 10
123.7674668744401
 20
-155.6800753734064
 30
0.0
  0
VERTEX
  5
A4
330
98
100
AcDbEntity
  8
_U+30EC_U+30A4_U+30E4_U+30FC 1
370
     0
100
AcDbVertex
100
AcDb2dVertex
 10
123.7674668744401
 20
-155.8568087717997
 30
0.0
  0
SEQEND
  5
A5
330
98
100
AcDbEntity
  8
_U+30EC_U+30A4_U+30E4_U+30FC 1
370
     0
  0
POLYLINE
  5
A6
330
89
100
AcDbEntity
  8
_U+30EC_U+30A4_U+30E4_U+30FC 1
370
     0
100
AcDb2dPolyline
 66
     1
 10
0.0
 20
0.0
 30
0.0
  0
VERTEX
  5
A7
330
A6
100
AcDbEntity
  8
_U+30EC_U+30A4_U+30E4_U+30FC 1
370
     0
100
AcDbVertex
100
AcDb2dVertex
 10
122.9127386845496
 20
-156.0424994184547
 30
0.0
  0
VERTEX
  5
A8
330
A6
100
AcDbEntity
  8
_U+30EC_U+30A4_U+30E4_U+30FC 1
370
     0
100
AcDbVertex
100
AcDb2dVertex
 10
123.5686848649412
 20
-156.4321397178364
 30
0.0
  0
VERTEX
  5
A9
330
A6
100
AcDbEntity
  8
_U+30EC_U+30A4_U+30E4_U+30FC 1
370
     0
100
AcDbVertex
100
AcDb2dVertex
 10
123.5686848649412
 20
-156.0424994184547
 30
0.0
  0
VERTEX
  5
AA
330
A6
100
AcDbEntity
  8
_U+30EC_U+30A4_U+30E4_U+30FC 1
370
     0
100
AcDbVertex
100
AcDb2dVertex
 10
122.9127386845496
 20
-156.0424994184547
 30
0.0
  0
SEQEND
  5
AB
330
A6
100
AcDbEntity
  8
_U+30EC_U+30A4_U+30E4_U+30FC 1
370
     0
  0
HATCH
  5
AC
330
89
100
AcDbEntity
  8
_U+30EC_U+30A4_U+30E4_U+30FC 1
 62
   179
420
  2234388
100
AcDbHatch
 10
0.0
 20
0.0
 30
0.0
210
0.0
220
0.0
230
1.0
  2
SOLID
 70
     1
 71
     0
 91
        2
 92
        1
 93
       11
 72
     1
 10
123.7674668744401
 20
-155.8568087717997
 11
124.1143879898047
 21
-155.8568087717997
 72
     1
 10
124.1143879898047
 20
-155.8568087717997
 11
124.1143879898047
 21
-156.0424994184547
 72
     1
 10
124.1143879898047
 20
-156.0424994184547
 11
123.7674668744401
 21
-156.0424994184547
 72
     1
 10
123.7674668744401
 20
-156.0424994184547
 11
123.7674668744401
 21
-156.6016384157107
 72
     1
 10
123.7674668744401
 20
-156.6016384157107
 11
123.5431911583503
 21
-156.6016384157107
 72
     1
 10
123.5431911583503
 20
-156.6016384157107
 11
122.5699516837672
 21
-156.0228623741887
 72
     1
 10
122.5699516837672
 20
-156.0228623741887
 11
122.5699516837672
 21
-155.8568087717997
 72
     1
 10
122.5699516837672
 20
-155.8568087717997
 11
123.5686848649412
 21
-155.8568087717997
 72
     1
 10
123.5686848649412
 20
-155.8568087717997
 11
123.5686848649412
 21
-155.6800753734064
 72
     1
 10
123.5686848649412
 20
-155.6800753734064
 11
123.7674668744401
 21
-155.6800753734064
 72
     1
 10
123.7674668744401
 20
-155.6800753734064
 11
123.7674668744401
 21
-155.8568087717997
 97
        0
 92
        1
 93
        3
 72
     1
 10
122.9127386845496
 20
-156.0424994184547
 11
123.5686848649412
 21
-156.4321397178364
 72
     1
 10
123.5686848649412
 20
-156.4321397178364
 11
123.5686848649412
 21
-156.0424994184547
 72
     1
 10
123.5686848649412
 20
-156.0424994184547
 11
122.9127386845496
 21
-156.0424994184547
 97
        0
 75
     2
 76
     1
 98
        0
  0
ENDBLK
  5
8C
330
89
100
AcDbEntity
  8
0
100
AcDbBlockEnd
  0
BLOCK
  5
BF
330
BD
100
AcDbEntity
  8
0
100
AcDbBlockBegin
  2
block 4
 70
     0
 10
0.0
 20
0.0
 30
0.0
  3
block 4
  1

  0
SPLINE
  5
C1
330
BD
100
AcDbEntity
  8
_U+30EC_U+30A4_U+30E4_U+30FC 1
370
     0
100
AcDbSpline
210
0.0
220
0.0
230
1.0
 70
    11
 71
     3
 72
    26
 73
    22
 74
     0
 42
0.0000000001
 43
0.0000000001
 12
1.0
 22
0.0
 32
0.0
 13
1.0
 23
0.0
 33
0.0
 40
0.0
 40
0.0
 40
0.0
 40
0.0
 40
1.0
 40
1.0
 40
1.0
 40
2.0
 40
2.0
 40
2.0
 40
3.0
 40
3.0
 40
3.0
 40
4.0
 40
4.0
 40
4.0
 40
5.0
 40
5.0
 40
5.0
 40
6.0
 40
6.0
 40
6.0
 40
7.0
 40
7.0
 40
7.0
 40
7.0
 10
87.24876571169476
 20
-139.2349120745663
 30
0.0
 10
87.24876571169476
 20
-139.2349120745663
 30
0.0
 10
86.14461260867219
 20
-139.2349120745663
 30
0.0
 10
86.14461260867219
 20
-139.2349120745663
 30
0.0
 10
86.14461260867219
 20
-139.2349120745663
 30
0.0
 10
86.14461260867219
 20
-139.5163763757112
 30
0.0
 10
86.14461260867219
 20
-139.5163763757112
 30
0.0
 10
86.14461260867219
 20
-139.5163763757112
 30
0.0
 10
85.99647350280644
 20
-139.5163763757112
 30
0.0
 10
85.99647350280644
 20
-139.5163763757112
 30
0.0
 10
85.98165959221987
 20
-139.2331895268237
 30
0.0
 10
85.81870657576755
 20
-139.1935709287433
 30
0.0
 10
85.70432940565726
 20
-139.168421731701
 30
0.0
 10
85.70432940565726
 20
-139.168421731701
 30
0.0
 10
85.70432940565726
 20
-139.0437092751349
 30
0.0
 10
85.70432940565726
 20
-139.0437092751349
 30
0.0
 10
85.70432940565726
 20
-139.0437092751349
 30
0.0
 10
87.24876571169476
 20
-139.0437092751349
 30
0.0
 10
87.24876571169476
 20
-139.0437092751349
 30
0.0
 10
87.24876571169476
 20
-139.0437092751349
 30
0.0
 10
87.24876571169476
 20
-139.2349120745663
 30
0.0
 10
87.24876571169476
 20
-139.2349120745663
 30
0.0
  0
HATCH
  5
C2
330
BD
100
AcDbEntity
  8
_U+30EC_U+30A4_U+30E4_U+30FC 1
 62
   179
420
  2234388
100
AcDbHatch
 10
0.0
 20
0.0
 30
0.0
210
0.0
220
0.0
230
1.0
  2
SOLID
 70
     1
 71
     0
 91
        1
 92
        1
 93
        1
 72
     4
 94
        3
 73
     0
 74
     1
 95
       26
 96
       22
 40
0.0
 40
0.0
 40
0.0
 40
0.0
 40
1.0
 40
1.0
 40
1.0
 40
2.0
 40
2.0
 40
2.0
 40
3.0
 40
3.0
 40
3.0
 40
4.0
 40
4.0
 40
4.0
 40
5.0
 40
5.0
 40
5.0
 40
6.0
 40
6.0
 40
6.0
 40
7.0
 40
7.0
 40
7.0
 40
7.0
 10
87.24876571169476
 20
-139.2349120745663
 10
87.24876571169476
 20
-139.2349120745663
 10
86.14461260867219
 20
-139.2349120745663
 10
86.14461260867219
 20
-139.2349120745663
 10
86.14461260867219
 20
-139.2349120745663
 10
86.14461260867219
 20
-139.5163763757112
 10
86.14461260867219
 20
-139.5163763757112
 10
86.14461260867219
 20
-139.5163763757112
 10
85.99647350280644
 20
-139.5163763757112
 10
85.99647350280644
 20
-139.5163763757112
 10
85.98165959221987
 20
-139.2331895268237
 10
85.81870657576755
 20
-139.1935709287433
 10
85.70432940565726
 20
-139.168421731701
 10
85.70432940565726
 20
-139.168421731701
 10
85.70432940565726
 20
-139.0437092751349
 10
85.70432940565726
 20
-139.0437092751349
 10
85.70432940565726
 20
-139.0437092751349
 10
87.24876571169476
 20
-139.0437092751349
 10
87.24876571169476
 20
-139.0437092751349
 10
87.24876571169476
 20
-139.0437092751349
 10
87.24876571169476
 20
-139.2349120745663
 10
87.24876571169476
 20
-139.2349120745663
 97
        0
 97
        0
 75
     2
 76
     1
 98
        0
  0
POLYLINE
  5
C3
330
BD
100
AcDbEntity
  8
_U+30EC_U+30A4_U+30E4_U+30FC 1
370
     0
100
AcDb2dPolyline
 66
     1
 10
0.0
 20
0.0
 30
0.0
  0
VERTEX
  5
C4
330
C3
100
AcDbEntity
  8
_U+30EC_U+30A4_U+30E4_U+30FC 1
370
     0
100
AcDbVertex
100
AcDb2dVertex
 10
87.24876571169476
 20
-138.5669080599763
 30
0.0
  0
VERTEX
  5
C5
330
C3
100
AcDbEntity
  8
_U+30EC_U+30A4_U+30E4_U+30FC 1
370
     0
100
AcDbVertex
100
AcDb2dVertex
 10
86.99692923172299
 20
-138.5669080599763
 30
0.0
  0
VERTEX
  5
C6
330
C3
100
AcDbEntity
  8
_U+30EC_U+30A4_U+30E4_U+30FC 1
370
     0
100
AcDbVertex
100
AcDb2dVertex
 10
86.99692923172299
 20
-138.3522786112453
 30
0.0
  0
VERTEX
  5
C7
330
C3
100
AcDbEntity
  8
_U+30EC_U+30A4_U+30E4_U+30FC 1
370
     0
100
AcDbVertex
100
AcDb2dVertex
 10
87.24876571169476
 20
-138.3522786112453
 30
0.0
  0
VERTEX
  5
C8
330
C3
100
AcDbEntity
  8
_U+30EC_U+30A4_U+30E4_U+30FC 1
370
     0
100
AcDbVertex
100
AcDb2dVertex
 10
87.24876571169476
 20
-138.5669080599763
 30
0.0
  0
SEQEND
  5
C9
330
C3
100
AcDbEntity
  8
_U+30EC_U+30A4_U+30E4_U+30FC 1
370
     0
  0
HATCH
  5
CA
330
BD
100
AcDbEntity
  8
_U+30EC_U+30A4_U+30E4_U+30FC 1
 62
   179
420
  2234388
100
AcDbHatch
 10
0.0
 20
0.0
 30
0.0
210
0.0
220
0.0
230
1.0
  2
SOLID
 70
     1
 71
     0
 91
        1
 92
        1
 93
        4
 72
     1
 10
87.24876571169476
 20
-138.5669080599763
 11
86.99692923172299
 21
-138.5669080599763
 72
     1
 10
86.99692923172299
 20
-138.5669080599763
 11
86.99692923172299
 21
-138.3522786112453
 72
     1
 10
86.99692923172299
 20
-138.3522786112453
 11
87.24876571169476
 21
-138.3522786112453
 72
     1
 10
87.24876571169476
 20
-138.3522786112453
 11
87.24876571169476
 21
-138.5669080599763
 97
        0
 75
     2
 76
     1
 98
        0
  0
SPLINE
  5
CB
330
BD
100
AcDbEntity
  8
_U+30EC_U+30A4_U+30E4_U+30FC 1
370
     0
100
AcDbSpline
210
0.0
220
0.0
230
1.0
 70
    11
 71
     3
 72
    26
 73
    22
 74
     0
 42
0.0000000001
 43
0.0000000001
 12
1.0
 22
0.0
 32
0.0
 13
1.0
 23
0.0
 33
0.0
 40
0.0
 40
0.0
 40
0.0
 40
0.0
 40
1.0
 40
1.0
 40
1.0
 40
2.0
 40
2.0
 40
2.0
 40
3.0
 40
3.0
 40
3.0
 40
4.0
 40
4.0
 40
4.0
 40
5.0
 40
5.0
 40
5.0
 40
6.0
 40
6.0
 40
6.0
 40
7.0
 40
7.0
 40
7.0
 40
7.0
 10
87.24876571169476
 20
-137.7662678692043
 30
0.0
 10
87.24876571169476
 20
-137.7662678692043
 30
0.0
 10
86.14461260867219
 20
-137.7662678692043
 30
0.0
 10
86.14461260867219
 20
-137.7662678692043
 30
0.0
 10
86.14461260867219
 20
-137.7662678692043
 30
0.0
 10
86.14461260867219
 20
-138.0477321703492
 30
0.0
 10
86.14461260867219
 20
-138.0477321703492
 30
0.0
 10
86.14461260867219
 20
-138.0477321703492
 30
0.0
 10
85.99647350280644
 20
-138.0477321703492
 30
0.0
 10
85.99647350280644
 20
-138.0477321703492
 30
0.0
 10
85.98165959221987
 20
-137.7645453214616
 30
0.0
 10
85.81870657576755
 20
-137.7249267233813
 30
0.0
 10
85.70432940565726
 20
-137.6997775263389
 30
0.0
 10
85.70432940565726
 20
-137.6997775263389
 30
0.0
 10
85.70432940565726
 20
-137.5750650697729
 30
0.0
 10
85.70432940565726
 20
-137.5750650697729
 30
0.0
 10
85.70432940565726
 20
-137.5750650697729
 30
0.0
 10
87.24876571169476
 20
-137.5750650697729
 30
0.0
 10
87.24876571169476
 20
-137.5750650697729
 30
0.0
 10
87.24876571169476
 20
-137.5750650697729
 30
0.0
 10
87.24876571169476
 20
-137.7662678692043
 30
0.0
 10
87.24876571169476
 20
-137.7662678692043
 30
0.0
  0
HATCH
  5
CC
330
BD
100
AcDbEntity
  8
_U+30EC_U+30A4_U+30E4_U+30FC 1
 62
   179
420
  2234388
100
AcDbHatch
 10
0.0
 20
0.0
 30
0.0
210
0.0
220
0.0
230
1.0
  2
SOLID
 70
     1
 71
     0
 91
        1
 92
        1
 93
        1
 72
     4
 94
        3
 73
     0
 74
     1
 95
       26
 96
       22
 40
0.0
 40
0.0
 40
0.0
 40
0.0
 40
1.0
 40
1.0
 40
1.0
 40
2.0
 40
2.0
 40
2.0
 40
3.0
 40
3.0
 40
3.0
 40
4.0
 40
4.0
 40
4.0
 40
5.0
 40
5.0
 40
5.0
 40
6.0
 40
6.0
 40
6.0
 40
7.0
 40
7.0
 40
7.0
 40
7.0
 10
87.24876571169476
 20
-137.7662678692043
 10
87.24876571169476
 20
-137.7662678692043
 10
86.14461260867219
 20
-137.7662678692043
 10
86.14461260867219
 20
-137.7662678692043
 10
86.14461260867219
 20
-137.7662678692043
 10
86.14461260867219
 20
-138.0477321703492
 10
86.14461260867219
 20
-138.0477321703492
 10
86.14461260867219
 20
-138.0477321703492
 10
85.99647350280644
 20
-138.0477321703492
 10
85.99647350280644
 20
-138.0477321703492
 10
85.98165959221987
 20
-137.7645453214616
 10
85.81870657576755
 20
-137.7249267233813
 10
85.70432940565726
 20
-137.6997775263389
 10
85.70432940565726
 20
-137.6997775263389
 10
85.70432940565726
 20
-137.5750650697729
 10
85.70432940565726
 20
-137.5750650697729
 10
85.70432940565726
 20
-137.5750650697729
 10
87.24876571169476
 20
-137.5750650697729
 10
87.24876571169476
 20
-137.5750650697729
 10
87.24876571169476
 20
-137.5750650697729
 10
87.24876571169476
 20
-137.7662678692043
 10
87.24876571169476
 20
-137.7662678692043
 97
        0
 97
        0
 75
     2
 76
     1
 98
        0
  0
ENDBLK
  5
C0
330
BD
100
AcDbEntity
  8
0
100
AcDbBlockEnd
  0
BLOCK
  5
DB
330
D9
100
AcDbEntity
  8
0
100
AcDbBlockBegin
  2
block 5
 70
     0
 10
0.0
 20
0.0
 30
0.0
  3
block 5
  1

  0
SPLINE
  5
DD
330
D9
100
AcDbEntity
  8
_U+30EC_U+30A4_U+30E4_U+30FC 1
370
     0
100
AcDbSpline
210
0.0
220
0.0
230
1.0
 70
    11
 71
     3
 72
    26
 73
    22
 74
     0
 42
0.0000000001
 43
0.0000000001
 12
1.0
 22
0.0
 32
0.0
 13
1.0
 23
0.0
 33
0.0
 40
0.0
 40
0.0
 40
0.0
 40
0.0
 40
1.0
 40
1.0
 40
1.0
 40
2.0
 40
2.0
 40
2.0
 40
3.0
 40
3.0
 40
3.0
 40
4.0
 40
4.0
 40
4.0
 40
5.0
 40
5.0
 40
5.0
 40
6.0
 40
6.0
 40
6.0
 40
7.0
 40
7.0
 40
7.0
 40
7.0
 10
120.3785264455998
 20
-149.3855414123064
 30
0.0
 10
120.3785264455998
 20
-149.3855414123064
 30
0.0
 10
119.2743733425772
 20
-149.3855414123064
 30
0.0
 10
119.2743733425772
 20
-149.3855414123064
 30
0.0
 10
119.2743733425772
 20
-149.3855414123064
 30
0.0
 10
119.2743733425772
 20
-149.6670057134513
 30
0.0
 10
119.2743733425772
 20
-149.6670057134513
 30
0.0
 10
119.2743733425772
 20
-149.6670057134513
 30
0.0
 10
119.1262342367115
 20
-149.6670057134513
 30
0.0
 10
119.1262342367115
 20
-149.6670057134513
 30
0.0
 10
119.1114203261249
 20
-149.3838188645638
 30
0.0
 10
118.9484673096726
 20
-149.3442002664834
 30
0.0
 10
118.8340901395623
 20
-149.3190510694411
 30
0.0
 10
118.8340901395623
 20
-149.3190510694411
 30
0.0
 10
118.8340901395623
 20
-149.194338612875
 30
0.0
 10
118.8340901395623
 20
-149.194338612875
 30
0.0
 10
118.8340901395623
 20
-149.194338612875
 30
0.0
 10
120.3785264455998
 20
-149.194338612875
 30
0.0
 10
120.3785264455998
 20
-149.194338612875
 30
0.0
 10
120.3785264455998
 20
-149.194338612875
 30
0.0
 10
120.3785264455998
 20
-149.3855414123064
 30
0.0
 10
120.3785264455998
 20
-149.3855414123064
 30
0.0
  0
HATCH
  5
DE
330
D9
100
AcDbEntity
  8
_U+30EC_U+30A4_U+30E4_U+30FC 1
 62
   179
420
  2234388
100
AcDbHatch
 10
0.0
 20
0.0
 30
0.0
210
0.0
220
0.0
230
1.0
  2
SOLID
 70
     1
 71
     0
 91
        1
 92
        1
 93
        1
 72
     4
 94
        3
 73
     0
 74
     1
 95
       26
 96
       22
 40
0.0
 40
0.0
 40
0.0
 40
0.0
 40
1.0
 40
1.0
 40
1.0
 40
2.0
 40
2.0
 40
2.0
 40
3.0
 40
3.0
 40
3.0
 40
4.0
 40
4.0
 40
4.0
 40
5.0
 40
5.0
 40
5.0
 40
6.0
 40
6.0
 40
6.0
 40
7.0
 40
7.0
 40
7.0
 40
7.0
 10
120.3785264455998
 20
-149.3855414123064
 10
120.3785264455998
 20
-149.3855414123064
 10
119.2743733425772
 20
-149.3855414123064
 10
119.2743733425772
 20
-149.3855414123064
 10
119.2743733425772
 20
-149.3855414123064
 10
119.2743733425772
 20
-149.6670057134513
 10
119.2743733425772
 20
-149.6670057134513
 10
119.2743733425772
 20
-149.6670057134513
 10
119.1262342367115
 20
-149.6670057134513
 10
119.1262342367115
 20
-149.6670057134513
 10
119.1114203261249
 20
-149.3838188645638
 10
118.9484673096726
 20
-149.3442002664834
 10
118.8340901395623
 20
-149.3190510694411
 10
118.8340901395623
 20
-149.3190510694411
 10
118.8340901395623
 20
-149.194338612875
 10
118.8340901395623
 20
-149.194338612875
 10
118.8340901395623
 20
-149.194338612875
 10
120.3785264455998
 20
-149.194338612875
 10
120.3785264455998
 20
-149.194338612875
 10
120.3785264455998
 20
-149.194338612875
 10
120.3785264455998
 20
-149.3855414123064
 10
120.3785264455998
 20
-149.3855414123064
 97
        0
 97
        0
 75
     2
 76
     1
 98
        0
  0
SPLINE
  5
DF
330
D9
100
AcDbEntity
  8
_U+30EC_U+30A4_U+30E4_U+30FC 1
370
     0
100
AcDbSpline
210
0.0
220
0.0
230
1.0
 70
    11
 71
     3
 72
    53
 73
    49
 74
     0
 42
0.0000000001
 43
0.0000000001
 12
1.0
 22
0.0
 32
0.0
 13
1.0
 23
0.0
 33
0.0
 40
0.0
 40
0.0
 40
0.0
 40
0.0
 40
1.0
 40
1.0
 40
1.0
 40
2.0
 40
2.0
 40
2.0
 40
3.0
 40
3.0
 40
3.0
 40
4.0
 40
4.0
 40
4.0
 40
5.0
 40
5.0
 40
5.0
 40
6.0
 40
6.0
 40
6.0
 40
7.0
 40
7.0
 40
7.0
 40
8.0
 40
8.0
 40
8.0
 40
9.0
 40
9.0
 40
9.0
 40
10.0
 40
10.0
 40
10.0
 40
11.0
 40
11.0
 40
11.0
 40
12.0
 40
12.0
 40
12.0
 40
13.0
 40
13.0
 40
13.0
 40
14.0
 40
14.0
 40
14.0
 40
15.0
 40
15.0
 40
15.0
 40
16.0
 40
16.0
 40
16.0
 40
16.0
 10
120.429169349233
 20
-148.3585584481534
 30
0.0
 10
120.429169349233
 20
-148.4253933005673
 30
0.0
 10
120.4122883813553
 20
-148.511865197247
 30
0.0
 10
120.3488986244267
 20
-148.5983370939268
 30
0.0
 10
120.2390000784472
 20
-148.746131690244
 30
0.0
 10
120.1077419404592
 20
-148.7643906963158
 30
0.0
 10
119.9999104517709
 20
-148.7805826450965
 30
0.0
 10
119.9999104517709
 20
-148.7805826450965
 30
0.0
 10
119.9999104517709
 20
-148.5911023934078
 30
0.0
 10
119.9999104517709
 20
-148.5911023934078
 30
0.0
 10
120.1986924612698
 20
-148.5442490948084
 30
0.0
 10
120.2283202824429
 20
-148.4360730965715
 30
0.0
 10
120.2283202824429
 20
-148.3568359004108
 30
0.0
 10
120.2283202824429
 20
-148.2376355966211
 30
0.0
 10
120.1287570229192
 20
-148.1077554968272
 30
0.0
 10
119.8962130776648
 20
-148.1077554968272
 30
0.0
 10
119.6402424831108
 20
-148.1077554968272
 30
0.0
 10
119.5703070447602
 20
-148.2610622459208
 30
0.0
 10
119.5703070447602
 20
-148.3640706009298
 30
0.0
 10
119.5703070447602
 20
-148.3909423457148
 30
0.0
 10
119.5703070447602
 20
-148.511865197247
 30
0.0
 10
119.6994981254571
 20
-148.5876572979225
 30
0.0
 10
119.6994981254571
 20
-148.5876572979225
 30
0.0
 10
119.6805501002882
 20
-148.7371744419824
 30
0.0
 10
119.6805501002882
 20
-148.7371744419824
 30
0.0
 10
119.6805501002882
 20
-148.7371744419824
 30
0.0
 10
118.8340901395623
 20
-148.6345105965219
 30
0.0
 10
118.8340901395623
 20
-148.6345105965219
 30
0.0
 10
118.8340901395623
 20
-148.6345105965219
 30
0.0
 10
118.8340901395623
 20
-147.9709852060628
 30
0.0
 10
118.8340901395623
 20
-147.9709852060628
 30
0.0
 10
118.8340901395623
 20
-147.9709852060628
 30
0.0
 10
119.0287380344789
 20
-147.9709852060628
 30
0.0
 10
119.0287380344789
 20
-147.9709852060628
 30
0.0
 10
119.0287380344789
 20
-147.9709852060628
 30
0.0
 10
119.0287380344789
 20
-148.4956732484664
 30
0.0
 10
119.0287380344789
 20
-148.4956732484664
 30
0.0
 10
119.0287380344789
 20
-148.4956732484664
 30
0.0
 10
119.4517957600676
 20
-148.5514837953274
 30
0.0
 10
119.4517957600676
 20
-148.5514837953274
 30
0.0
 10
119.4180338243122
 20
-148.4991183439516
 30
0.0
 10
119.3777262071347
 20
-148.4288383960525
 30
0.0
 10
119.3777262071347
 20
-148.3278970983347
 30
0.0
 10
119.3777262071347
 20
-148.111545101861
 30
0.0
 10
119.5641058728868
 20
-147.9096625064254
 30
0.0
 10
119.877265052496
 20
-147.9096625064254
 30
0.0
 10
120.1945583466875
 20
-147.9096625064254
 30
0.0
 10
120.429169349233
 20
-148.1005207963082
 30
0.0
 10
120.429169349233
 20
-148.3585584481534
 30
0.0
  0
HATCH
  5
E0
330
D9
100
AcDbEntity
  8
_U+30EC_U+30A4_U+30E4_U+30FC 1
 62
   179
420
  2234388
100
AcDbHatch
 10
0.0
 20
0.0
 30
0.0
210
0.0
220
0.0
230
1.0
  2
SOLID
 70
     1
 71
     0
 91
        1
 92
        1
 93
        1
 72
     4
 94
        3
 73
     0
 74
     1
 95
       53
 96
       49
 40
0.0
 40
0.0
 40
0.0
 40
0.0
 40
1.0
 40
1.0
 40
1.0
 40
2.0
 40
2.0
 40
2.0
 40
3.0
 40
3.0
 40
3.0
 40
4.0
 40
4.0
 40
4.0
 40
5.0
 40
5.0
 40
5.0
 40
6.0
 40
6.0
 40
6.0
 40
7.0
 40
7.0
 40
7.0
 40
8.0
 40
8.0
 40
8.0
 40
9.0
 40
9.0
 40
9.0
 40
10.0
 40
10.0
 40
10.0
 40
11.0
 40
11.0
 40
11.0
 40
12.0
 40
12.0
 40
12.0
 40
13.0
 40
13.0
 40
13.0
 40
14.0
 40
14.0
 40
14.0
 40
15.0
 40
15.0
 40
15.0
 40
16.0
 40
16.0
 40
16.0
 40
16.0
 10
120.429169349233
 20
-148.3585584481534
 10
120.429169349233
 20
-148.4253933005673
 10
120.4122883813553
 20
-148.511865197247
 10
120.3488986244267
 20
-148.5983370939268
 10
120.2390000784472
 20
-148.746131690244
 10
120.1077419404592
 20
-148.7643906963158
 10
119.9999104517709
 20
-148.7805826450965
 10
119.9999104517709
 20
-148.7805826450965
 10
119.9999104517709
 20
-148.5911023934078
 10
119.9999104517709
 20
-148.5911023934078
 10
120.1986924612698
 20
-148.5442490948084
 10
120.2283202824429
 20
-148.4360730965715
 10
120.2283202824429
 20
-148.3568359004108
 10
120.2283202824429
 20
-148.2376355966211
 10
120.1287570229192
 20
-148.1077554968272
 10
119.8962130776648
 20
-148.1077554968272
 10
119.6402424831108
 20
-148.1077554968272
 10
119.5703070447602
 20
-148.2610622459208
 10
119.5703070447602
 20
-148.3640706009298
 10
119.5703070447602
 20
-148.3909423457148
 10
119.5703070447602
 20
-148.511865197247
 10
119.6994981254571
 20
-148.5876572979225
 10
119.6994981254571
 20
-148.5876572979225
 10
119.6805501002882
 20
-148.7371744419824
 10
119.6805501002882
 20
-148.7371744419824
 10
119.6805501002882
 20
-148.7371744419824
 10
118.8340901395623
 20
-148.6345105965219
 10
118.8340901395623
 20
-148.6345105965219
 10
118.8340901395623
 20
-148.6345105965219
 10
118.8340901395623
 20
-147.9709852060628
 10
118.8340901395623
 20
-147.9709852060628
 10
118.8340901395623
 20
-147.9709852060628
 10
119.0287380344789
 20
-147.9709852060628
 10
119.0287380344789
 20
-147.9709852060628
 10
119.0287380344789
 20
-147.9709852060628
 10
119.0287380344789
 20
-148.4956732484664
 10
119.0287380344789
 20
-148.4956732484664
 10
119.0287380344789
 20
-148.4956732484664
 10
119.4517957600676
 20
-148.5514837953274
 10
119.4517957600676
 20
-148.5514837953274
 10
119.4180338243122
 20
-148.4991183439516
 10
119.3777262071347
 20
-148.4288383960525
 10
119.3777262071347
 20
-148.3278970983347
 10
119.3777262071347
 20
-148.111545101861
 10
119.5641058728868
 20
-147.9096625064254
 10
119.877265052496
 20
-147.9096625064254
 10
120.1945583466875
 20
-147.9096625064254
 10
120.429169349233
 20
-148.1005207963082
 10
120.429169349233
 20
-148.3585584481534
 97
        0
 97
        0
 75
     2
 76
     1
 98
        0
  0
ENDBLK
  5
DC
330
D9
100
AcDbEntity
  8
0
100
AcDbBlockEnd
  0
BLOCK
  5
EF
330
ED
100
AcDbEntity
  8
0
100
AcDbBlockBegin
  2
block 6
 70
     0
 10
0.0
 20
0.0
 30
0.0
  3
block 6
  1

  0
SPLINE
  5
F1
330
ED
100
AcDbEntity
  8
_U+30EC_U+30A4_U+30E4_U+30FC 1
370
     0
100
AcDbSpline
210
0.0
220
0.0
230
1.0
 70
    11
 71
     3
 72
    26
 73
    22
 74
     0
 42
0.0000000001
 43
0.0000000001
 12
1.0
 22
0.0
 32
0.0
 13
1.0
 23
0.0
 33
0.0
 40
0.0
 40
0.0
 40
0.0
 40
0.0
 40
1.0
 40
1.0
 40
1.0
 40
2.0
 40
2.0
 40
2.0
 40
3.0
 40
3.0
 40
3.0
 40
4.0
 40
4.0
 40
4.0
 40
5.0
 40
5.0
 40
5.0
 40
6.0
 40
6.0
 40
6.0
 40
7.0
 40
7.0
 40
7.0
 40
7.0
 10
94.48226044729958
 20
-160.9069742436274
 30
0.0
 10
94.48226044729958
 20
-160.9069742436274
 30
0.0
 10
94.48226044729958
 20
-159.8028211406049
 30
0.0
 10
94.48226044729958
 20
-159.8028211406049
 30
0.0
 10
94.48226044729958
 20
-159.8028211406049
 30
0.0
 10
94.20079614615467
 20
-159.8028211406049
 30
0.0
 10
94.20079614615467
 20
-159.8028211406049
 30
0.0
 10
94.20079614615467
 20
-159.8028211406049
 30
0.0
 10
94.20079614615467
 20
-159.6546820347391
 30
0.0
 10
94.20079614615467
 20
-159.6546820347391
 30
0.0
 10
94.4839829950422
 20
-159.6398681241525
 30
0.0
 10
94.52360159312258
 20
-159.4769151077002
 30
0.0
 10
94.54892304493916
 20
-159.3625379375899
 30
0.0
 10
94.54892304493916
 20
-159.3625379375899
 30
0.0
 10
94.67329099195668
 20
-159.3625379375899
 30
0.0
 10
94.67329099195668
 20
-159.3625379375899
 30
0.0
 10
94.67329099195668
 20
-159.3625379375899
 30
0.0
 10
94.67329099195668
 20
-160.9069742436274
 30
0.0
 10
94.67329099195668
 20
-160.9069742436274
 30
0.0
 10
94.67329099195668
 20
-160.9069742436274
 30
0.0
 10
94.48226044729958
 20
-160.9069742436274
 30
0.0
 10
94.48226044729958
 20
-160.9069742436274
 30
0.0
  0
HATCH
  5
F2
330
ED
100
AcDbEntity
  8
_U+30EC_U+30A4_U+30E4_U+30FC 1
 62
   179
420
  2234388
100
AcDbHatch
 10
0.0
 20
0.0
 30
0.0
210
0.0
220
0.0
230
1.0
  2
SOLID
 70
     1
 71
     0
 91
        1
 92
        1
 93
        1
 72
     4
 94
        3
 73
     0
 74
     1
 95
       26
 96
       22
 40
0.0
 40
0.0
 40
0.0
 40
0.0
 40
1.0
 40
1.0
 40
1.0
 40
2.0
 40
2.0
 40
2.0
 40
3.0
 40
3.0
 40
3.0
 40
4.0
 40
4.0
 40
4.0
 40
5.0
 40
5.0
 40
5.0
 40
6.0
 40
6.0
 40
6.0
 40
7.0
 40
7.0
 40
7.0
 40
7.0
 10
94.48226044729958
 20
-160.9069742436274
 10
94.48226044729958
 20
-160.9069742436274
 10
94.48226044729958
 20
-159.8028211406049
 10
94.48226044729958
 20
-159.8028211406049
 10
94.48226044729958
 20
-159.8028211406049
 10
94.20079614615467
 20
-159.8028211406049
 10
94.20079614615467
 20
-159.8028211406049
 10
94.20079614615467
 20
-159.8028211406049
 10
94.20079614615467
 20
-159.6546820347391
 10
94.20079614615467
 20
-159.6546820347391
 10
94.4839829950422
 20
-159.6398681241525
 10
94.52360159312258
 20
-159.4769151077002
 10
94.54892304493916
 20
-159.3625379375899
 10
94.54892304493916
 20
-159.3625379375899
 10
94.67329099195668
 20
-159.3625379375899
 10
94.67329099195668
 20
-159.3625379375899
 10
94.67329099195668
 20
-159.3625379375899
 10
94.67329099195668
 20
-160.9069742436274
 10
94.67329099195668
 20
-160.9069742436274
 10
94.67329099195668
 20
-160.9069742436274
 10
94.48226044729958
 20
-160.9069742436274
 10
94.48226044729958
 20
-160.9069742436274
 97
        0
 97
        0
 75
     2
 76
     1
 98
        0
  0
SPLINE
  5
F3
330
ED
100
AcDbEntity
  8
_U+30EC_U+30A4_U+30E4_U+30FC 1
370
     0
100
AcDbSpline
210
0.0
220
0.0
230
1.0
 70
    11
 71
     3
 72
    29
 73
    25
 74
     0
 42
0.0000000001
 43
0.0000000001
 12
1.0
 22
0.0
 32
0.0
 13
1.0
 23
0.0
 33
0.0
 40
0.0
 40
0.0
 40
0.0
 40
0.0
 40
1.0
 40
1.0
 40
1.0
 40
2.0
 40
2.0
 40
2.0
 40
3.0
 40
3.0
 40
3.0
 40
4.0
 40
4.0
 40
4.0
 40
5.0
 40
5.0
 40
5.0
 40
6.0
 40
6.0
 40
6.0
 40
7.0
 40
7.0
 40
7.0
 40
8.0
 40
8.0
 40
8.0
 40
8.0
 10
95.86443275598181
 20
-160.7292073165885
 30
0.0
 10
95.7726209612999
 20
-160.9386691220917
 30
0.0
 10
95.62465411020843
 20
-160.9576171472606
 30
0.0
 10
95.52543536023323
 20
-160.9576171472606
 30
0.0
 10
95.38849281469454
 20
-160.9576171472606
 30
0.0
 10
95.26756996316227
 20
-160.9111083582097
 30
0.0
 10
95.18643796448464
 20
-160.7292073165885
 30
0.0
 10
95.09807126528798
 20
-160.5345594216719
 30
0.0
 10
95.08187931650731
 20
-160.2978813618353
 30
0.0
 10
95.08187931650731
 20
-160.1349283453829
 30
0.0
 10
95.08187931650731
 20
-159.9909233540995
 30
0.0
 10
95.09634871754537
 20
-159.7390868741277
 30
0.0
 10
95.18643796448464
 20
-159.5403048646288
 30
0.0
 10
95.27842201394081
 20
-159.3373887405476
 30
0.0
 10
95.41553681425376
 20
-159.3139620912479
 30
0.0
 10
95.52543536023323
 20
-159.3139620912479
 30
0.0
 10
95.66065535802929
 20
-159.3139620912479
 30
0.0
 10
95.78330075730418
 20
-159.3584038230076
 30
0.0
 10
95.86443275598181
 20
-159.5403048646288
 30
0.0
 10
95.94918210491896
 20
-159.7328857022543
 30
0.0
 10
95.96916365873341
 20
-159.9612955329264
 30
0.0
 10
95.96916365873341
 20
-160.1349283453829
 30
0.0
 10
95.96916365873341
 20
-160.3061495909999
 30
0.0
 10
95.95107690743585
 20
-160.5366264789631
 30
0.0
 10
95.86443275598181
 20
-160.7292073165885
 30
0.0
  0
SPLINE
  5
F4
330
ED
100
AcDbEntity
  8
_U+30EC_U+30A4_U+30E4_U+30FC 1
370
     0
100
AcDbSpline
210
0.0
220
0.0
230
1.0
 70
    11
 71
     3
 72
    17
 73
    13
 74
     0
 42
0.0000000001
 43
0.0000000001
 12
1.0
 22
0.0
 32
0.0
 13
1.0
 23
0.0
 33
0.0
 40
0.0
 40
0.0
 40
0.0
 40
0.0
 40
1.0
 40
1.0
 40
1.0
 40
2.0
 40
2.0
 40
2.0
 40
3.0
 40
3.0
 40
3.0
 40
4.0
 40
4.0
 40
4.0
 40
4.0
 10
95.52543536023323
 20
-159.5065429288734
 30
0.0
 10
95.31270071401904
 20
-159.5065429288734
 30
0.0
 10
95.27308211593868
 20
-159.7900742873094
 30
0.0
 10
95.27308211593868
 20
-160.1349283453829
 30
0.0
 10
95.27308211593868
 20
-160.4542886968656
 30
0.0
 10
95.3037434657574
 20
-160.762969252344
 30
0.0
 10
95.52543536023323
 20
-160.762969252344
 30
0.0
 10
95.73644745870479
 20
-160.762969252344
 30
0.0
 10
95.77796085930204
 20
-160.4818494607476
 30
0.0
 10
95.77796085930204
 20
-160.1349283453829
 30
0.0
 10
95.77796085930204
 20
-159.8152234843517
 30
0.0
 10
95.7455769617407
 20
-159.5065429288734
 30
0.0
 10
95.52543536023323
 20
-159.5065429288734
 30
0.0
  0
HATCH
  5
F5
330
ED
100
AcDbEntity
  8
_U+30EC_U+30A4_U+30E4_U+30FC 1
 62
   179
420
  2234388
100
AcDbHatch
 10
0.0
 20
0.0
 30
0.0
210
0.0
220
0.0
230
1.0
  2
SOLID
 70
     1
 71
     0
 91
        2
 92
        1
 93
        1
 72
     4
 94
        3
 73
     0
 74
     1
 95
       29
 96
       25
 40
0.0
 40
0.0
 40
0.0
 40
0.0
 40
1.0
 40
1.0
 40
1.0
 40
2.0
 40
2.0
 40
2.0
 40
3.0
 40
3.0
 40
3.0
 40
4.0
 40
4.0
 40
4.0
 40
5.0
 40
5.0
 40
5.0
 40
6.0
 40
6.0
 40
6.0
 40
7.0
 40
7.0
 40
7.0
 40
8.0
 40
8.0
 40
8.0
 40
8.0
 10
95.86443275598181
 20
-160.7292073165885
 10
95.7726209612999
 20
-160.9386691220917
 10
95.62465411020843
 20
-160.9576171472606
 10
95.52543536023323
 20
-160.9576171472606
 10
95.38849281469454
 20
-160.9576171472606
 10
95.26756996316227
 20
-160.9111083582097
 10
95.18643796448464
 20
-160.7292073165885
 10
95.09807126528798
 20
-160.5345594216719
 10
95.08187931650731
 20
-160.2978813618353
 10
95.08187931650731
 20
-160.1349283453829
 10
95.08187931650731
 20
-159.9909233540995
 10
95.09634871754537
 20
-159.7390868741277
 10
95.18643796448464
 20
-159.5403048646288
 10
95.27842201394081
 20
-159.3373887405476
 10
95.41553681425376
 20
-159.3139620912479
 10
95.52543536023323
 20
-159.3139620912479
 10
95.66065535802929
 20
-159.3139620912479
 10
95.78330075730418
 20
-159.3584038230076
 10
95.86443275598181
 20
-159.5403048646288
 10
95.94918210491896
 20
-159.7328857022543
 10
95.96916365873341
 20
-159.9612955329264
 10
95.96916365873341
 20
-160.1349283453829
 10
95.96916365873341
 20
-160.3061495909999
 10
95.95107690743585
 20
-160.5366264789631
 10
95.86443275598181
 20
-160.7292073165885
 97
        0
 97
        0
 92
        1
 93
        1
 72
     4
 94
        3
 73
     0
 74
     1
 95
       17
 96
       13
 40
0.0
 40
0.0
 40
0.0
 40
0.0
 40
1.0
 40
1.0
 40
1.0
 40
2.0
 40
2.0
 40
2.0
 40
3.0
 40
3.0
 40
3.0
 40
4.0
 40
4.0
 40
4.0
 40
4.0
 10
95.52543536023323
 20
-159.5065429288734
 10
95.31270071401904
 20
-159.5065429288734
 10
95.27308211593868
 20
-159.7900742873094
 10
95.27308211593868
 20
-160.1349283453829
 10
95.27308211593868
 20
-160.4542886968656
 10
95.3037434657574
 20
-160.762969252344
 10
95.52543536023323
 20
-160.762969252344
 10
95.73644745870479
 20
-160.762969252344
 10
95.77796085930204
 20
-160.4818494607476
 10
95.77796085930204
 20
-160.1349283453829
 10
95.77796085930204
 20
-159.8152234843517
 10
95.7455769617407
 20
-159.5065429288734
 10
95.52543536023323
 20
-159.5065429288734
 97
        0
 97
        0
 75
     2
 76
     1
 98
        0
  0
ENDBLK
  5
F0
330
ED
100
AcDbEntity
  8
0
100
AcDbBlockEnd
  0
ENDSEC
  0
SECTION
  2
ENTITIES
  0
POLYLINE
  5
41
330
1F
100
AcDbEntity
  8
_U+30EC_U+30A4_U+30E4_U+30FC 1
 62
   179
420
  2234388
370
    25
100
AcDb2dPolyline
 66
     1
 10
0.0
 20
0.0
 30
0.0
  0
VERTEX
  5
42
330
41
100
AcDbEntity
  8
_U+30EC_U+30A4_U+30E4_U+30FC 1
 62
   179
420
  2234388
370
    25
100
AcDbVertex
100
AcDb2dVertex
 10
90.02377131441337
 20
-141.4587382979685
 30
0.0
  0
VERTEX
  5
43
330
41
100
AcDbEntity
  8
_U+30EC_U+30A4_U+30E4_U+30FC 1
 62
   179
420
  2234388
370
    25
100
AcDbVertex
100
AcDb2dVertex
 10
101.1238885312258
 20
-141.4587382979685
 30
0.0
  0
SEQEND
  5
44
330
41
100
AcDbEntity
  8
_U+30EC_U+30A4_U+30E4_U+30FC 1
 62
   179
420
  2234388
370
    25
  0
POLYLINE
  5
45
330
1F
100
AcDbEntity
  8
_U+30EC_U+30A4_U+30E4_U+30FC 1
 62
   179
420
  2234388
370
    25
100
AcDb2dPolyline
 66
     1
 10
0.0
 20
0.0
 30
0.0
  0
VERTEX
  5
46
330
45
100
AcDbEntity
  8
_U+30EC_U+30A4_U+30E4_U+30FC 1
 62
   179
420
  2234388
370
    25
100
AcDbVertex
100
AcDb2dVertex
 10
100.024209670392
 20
-142.5532313532507
 30
0.0
  0
VERTEX
  5
47
330
45
100
AcDbEntity
  8
_U+30EC_U+30A4_U+30E4_U+30FC 1
 62
   179
420
  2234388
370
    25
100
AcDbVertex
100
AcDb2dVertex
 10
100.024209670392
 20
-157.5531660717231
 30
0.0
  0
SEQEND
  5
48
330
45
100
AcDbEntity
  8
_U+30EC_U+30A4_U+30E4_U+30FC 1
 62
   179
420
  2234388
370
    25
  0
POLYLINE
  5
49
330
1F
100
AcDbEntity
  8
_U+30EC_U+30A4_U+30E4_U+30FC 1
 62
   179
420
  2234388
370
    25
100
AcDb2dPolyline
 66
     1
 10
0.0
 20
0.0
 30
0.0
  0
VERTEX
  5
4A
330
49
100
AcDbEntity
  8
_U+30EC_U+30A4_U+30E4_U+30FC 1
 62
   179
420
  2234388
370
    25
100
AcDbVertex
100
AcDb2dVertex
 10
90.02377131441337
 20
-141.4587382979685
 30
0.0
  0
VERTEX
  5
4B
330
49
100
AcDbEntity
  8
_U+30EC_U+30A4_U+30E4_U+30FC 1
 62
   179
420
  2234388
370
    25
100
AcDbVertex
100
AcDb2dVertex
 10
90.02377131441337
 20
-142.5583819088048
 30
0.0
  0
SEQEND
  5
4C
330
49
100
AcDbEntity
  8
_U+30EC_U+30A4_U+30E4_U+30FC 1
 62
   179
420
  2234388
370
    25
  0
POLYLINE
  5
4D
330
1F
100
AcDbEntity
  8
_U+30EC_U+30A4_U+30E4_U+30FC 1
 62
   179
420
  2234388
370
    25
100
AcDb2dPolyline
 66
     1
 10
0.0
 20
0.0
 30
0.0
  0
VERTEX
  5
4E
330
4D
100
AcDbEntity
  8
_U+30EC_U+30A4_U+30E4_U+30FC 1
 62
   179
420
  2234388
370
    25
100
AcDbVertex
100
AcDb2dVertex
 10
101.1238885312258
 20
-141.4535524646366
 30
0.0
  0
VERTEX
  5
4F
330
4D
100
AcDbEntity
  8
_U+30EC_U+30A4_U+30E4_U+30FC 1
 62
   179
420
  2234388
370
    25
100
AcDbVertex
100
AcDb2dVertex
 10
101.1238885312258
 20
-156.4534871831089
 30
0.0
  0
SEQEND
  5
50
330
4D
100
AcDbEntity
  8
_U+30EC_U+30A4_U+30E4_U+30FC 1
 62
   179
420
  2234388
370
    25
  0
POLYLINE
  5
51
330
1F
100
AcDbEntity
  8
_U+30EC_U+30A4_U+30E4_U+30FC 1
 62
   179
420
  2234388
370
    25
100
AcDb2dPolyline
 66
     1
 10
0.0
 20
0.0
 30
0.0
  0
VERTEX
  5
52
330
51
100
AcDbEntity
  8
_U+30EC_U+30A4_U+30E4_U+30FC 1
 62
   179
420
  2234388
370
    25
100
AcDbVertex
100
AcDb2dVertex
 10
117.0243939589034
 20
-156.4534871831089
 30
0.0
  0
VERTEX
  5
53
330
51
100
AcDbEntity
  8
_U+30EC_U+30A4_U+30E4_U+30FC 1
 62
   179
420
  2234388
370
    25
100
AcDbVertex
100
AcDb2dVertex
 10
117.0243939589034
 20
-156.8534666274532
 30
0.0
  0
SEQEND
  5
54
330
51
100
AcDbEntity
  8
_U+30EC_U+30A4_U+30E4_U+30FC 1
 62
   179
420
  2234388
370
    25
  0
POLYLINE
  5
55
330
1F
100
AcDbEntity
  8
_U+30EC_U+30A4_U+30E4_U+30FC 1
 62
   179
420
  2234388
370
    25
100
AcDb2dPolyline
 66
     1
 10
0.0
 20
0.0
 30
0.0
  0
VERTEX
  5
56
330
55
100
AcDbEntity
  8
_U+30EC_U+30A4_U+30E4_U+30FC 1
 62
   179
420
  2234388
370
    25
100
AcDbVertex
100
AcDb2dVertex
 10
101.1238885312258
 20
-156.4534871831089
 30
0.0
  0
VERTEX
  5
57
330
55
100
AcDbEntity
  8
_U+30EC_U+30A4_U+30E4_U+30FC 1
 62
   179
420
  2234388
370
    25
100
AcDbVertex
100
AcDb2dVertex
 10
117.0243939589034
 20
-156.4534871831089
 30
0.0
  0
SEQEND
  5
58
330
55
100
AcDbEntity
  8
_U+30EC_U+30A4_U+30E4_U+30FC 1
 62
   179
420
  2234388
370
    25
  0
POLYLINE
  5
59
330
1F
100
AcDbEntity
  8
_U+30EC_U+30A4_U+30E4_U+30FC 1
 62
   179
420
  2234388
370
    25
100
AcDb2dPolyline
 66
     1
 10
0.0
 20
0.0
 30
0.0
  0
VERTEX
  5
5A
330
59
100
AcDbEntity
  8
_U+30EC_U+30A4_U+30E4_U+30FC 1
 62
   179
420
  2234388
370
    25
100
AcDbVertex
100
AcDb2dVertex
 10
117.0243939589034
 20
-156.8534666274532
 30
0.0
  0
VERTEX
  5
5B
330
59
100
AcDbEntity
  8
_U+30EC_U+30A4_U+30E4_U+30FC 1
 62
   179
420
  2234388
370
    25
100
AcDbVertex
100
AcDb2dVertex
 10
100.024209670392
 20
-157.5531660717231
 30
0.0
  0
SEQEND
  5
5C
330
59
100
AcDbEntity
  8
_U+30EC_U+30A4_U+30E4_U+30FC 1
 62
   179
420
  2234388
370
    25
  0
POLYLINE
  5
5D
330
1F
100
AcDbEntity
  8
_U+30EC_U+30A4_U+30E4_U+30FC 1
 62
   179
420
  2234388
370
    25
100
AcDb2dPolyline
 66
     1
 10
0.0
 20
0.0
 30
0.0
  0
VERTEX
  5
5E
330
5D
100
AcDbEntity
  8
_U+30EC_U+30A4_U+30E4_U+30FC 1
 62
   179
420
  2234388
370
    25
100
AcDbVertex
100
AcDb2dVertex
 10
90.02377131441337
 20
-142.5583819088048
 30
0.0
  0
VERTEX
  5
5F
330
5D
100
AcDbEntity
  8
_U+30EC_U+30A4_U+30E4_U+30FC 1
 62
   179
420
  2234388
370
    25
100
AcDbVertex
100
AcDb2dVertex
 10
100.024209670392
 20
-142.5583819088048
 30
0.0
  0
SEQEND
  5
60
330
5D
100
AcDbEntity
  8
_U+30EC_U+30A4_U+30E4_U+30FC 1
 62
   179
420
  2234388
370
    25
  0
SPLINE
  5
61
330
1F
100
AcDbEntity
  8
_U+30EC_U+30A4_U+30E4_U+30FC 1
 62
   179
420
  2234388
370
     9
100
AcDbSpline
210
0.0
220
0.0
230
1.0
 70
    11
 71
     3
 72
    17
 73
    13
 74
     0
 42
0.0000000001
 43
0.0000000001
 12
1.0
 22
0.0
 32
0.0
 13
1.0
 23
0.0
 33
0.0
 40
0.0
 40
0.0
 40
0.0
 40
0.0
 40
1.0
 40
1.0
 40
1.0
 40
2.0
 40
2.0
 40
2.0
 40
3.0
 40
3.0
 40
3.0
 40
4.0
 40
4.0
 40
4.0
 40
4.0
 10
121.1240596876456
 20
-141.3760471868783
 30
0.0
 10
121.1240596876456
 20
-141.3205905202253
 30
0.0
 10
121.0792569110108
 20
-141.2761405202367
 30
0.0
 10
121.0241177457509
 20
-141.2761405202367
 30
0.0
 10
120.9690138582678
 20
-141.2761405202367
 30
0.0
 10
120.924211081633
 20
-141.3205905202253
 30
0.0
 10
120.924211081633
 20
-141.3760471868783
 30
0.0
 10
120.924211081633
 20
-141.431503853531
 30
0.0
 10
120.9690138582678
 20
-141.4763066312977
 30
0.0
 10
121.0241177457509
 20
-141.4763066312977
 30
0.0
 10
121.0792569110108
 20
-141.4763066312977
 30
0.0
 10
121.1240596876456
 20
-141.431503853531
 30
0.0
 10
121.1240596876456
 20
-141.3760471868783
 30
0.0
  0
SPLINE
  5
62
330
1F
100
AcDbEntity
  8
_U+30EC_U+30A4_U+30E4_U+30FC 1
 62
   179
420
  2234388
370
     9
100
AcDbSpline
210
0.0
220
0.0
230
1.0
 70
    11
 71
     3
 72
    17
 73
    13
 74
     0
 42
0.0000000001
 43
0.0000000001
 12
1.0
 22
0.0
 32
0.0
 13
1.0
 23
0.0
 33
0.0
 40
0.0
 40
0.0
 40
0.0
 40
0.0
 40
1.0
 40
1.0
 40
1.0
 40
2.0
 40
2.0
 40
2.0
 40
3.0
 40
3.0
 40
3.0
 40
4.0
 40
4.0
 40
4.0
 40
4.0
 10
121.1240596876456
 20
-156.4534871831089
 30
0.0
 10
121.1240596876456
 20
-156.3980305164562
 30
0.0
 10
121.0792569110108
 20
-156.3532630164671
 30
0.0
 10
121.0241177457509
 20
-156.3532630164671
 30
0.0
 10
120.9690138582678
 20
-156.3532630164671
 30
0.0
 10
120.924211081633
 20
-156.3980305164562
 30
0.0
 10
120.924211081633
 20
-156.4534871831089
 30
0.0
 10
120.924211081633
 20
-156.508626349762
 30
0.0
 10
120.9690138582678
 20
-156.5533938497506
 30
0.0
 10
121.0241177457509
 20
-156.5533938497506
 30
0.0
 10
121.0792569110108
 20
-156.5533938497506
 30
0.0
 10
121.1240596876456
 20
-156.508626349762
 30
0.0
 10
121.1240596876456
 20
-156.4534871831089
 30
0.0
  0
SPLINE
  5
63
330
1F
100
AcDbEntity
  8
_U+30EC_U+30A4_U+30E4_U+30FC 1
 62
   179
420
  2234388
370
     9
100
AcDbSpline
210
0.0
220
0.0
230
1.0
 70
    11
 71
     3
 72
    17
 73
    13
 74
     0
 42
0.0000000001
 43
0.0000000001
 12
1.0
 22
0.0
 32
0.0
 13
1.0
 23
0.0
 33
0.0
 40
0.0
 40
0.0
 40
0.0
 40
0.0
 40
1.0
 40
1.0
 40
1.0
 40
2.0
 40
2.0
 40
2.0
 40
3.0
 40
3.0
 40
3.0
 40
4.0
 40
4.0
 40
4.0
 40
4.0
 10
121.1240596876456
 20
-156.8534666274532
 30
0.0
 10
121.1240596876456
 20
-156.7980099608006
 30
0.0
 10
121.0792569110108
 20
-156.7532071830338
 30
0.0
 10
121.0241177457509
 20
-156.7532071830338
 30
0.0
 10
120.9690138582678
 20
-156.7532071830338
 30
0.0
 10
120.924211081633
 20
-156.7980099608006
 30
0.0
 10
120.924211081633
 20
-156.8534666274532
 30
0.0
 10
120.924211081633
 20
-156.9086057941063
 30
0.0
 10
120.9690138582678
 20
-156.9533732940949
 30
0.0
 10
121.0241177457509
 20
-156.9533732940949
 30
0.0
 10
121.0792569110108
 20
-156.9533732940949
 30
0.0
 10
121.1240596876456
 20
-156.9086057941063
 30
0.0
 10
121.1240596876456
 20
-156.8534666274532
 30
0.0
  0
SPLINE
  5
64
330
1F
100
AcDbEntity
  8
_U+30EC_U+30A4_U+30E4_U+30FC 1
 62
   179
420
  2234388
370
     9
100
AcDbSpline
210
0.0
220
0.0
230
1.0
 70
    11
 71
     3
 72
    17
 73
    13
 74
     0
 42
0.0000000001
 43
0.0000000001
 12
1.0
 22
0.0
 32
0.0
 13
1.0
 23
0.0
 33
0.0
 40
0.0
 40
0.0
 40
0.0
 40
0.0
 40
1.0
 40
1.0
 40
1.0
 40
2.0
 40
2.0
 40
2.0
 40
3.0
 40
3.0
 40
3.0
 40
4.0
 40
4.0
 40
4.0
 40
4.0
 10
117.1243006230213
 20
-161.5532780151671
 30
0.0
 10
117.1243006230213
 20
-161.4981388485147
 30
0.0
 10
117.0794978463865
 20
-161.4533713485255
 30
0.0
 10
117.0243939589034
 20
-161.4533713485255
 30
0.0
 10
116.9685845158828
 20
-161.4533713485255
 30
0.0
 10
116.923781739248
 20
-161.4981388485147
 30
0.0
 10
116.923781739248
 20
-161.5532780151671
 30
0.0
 10
116.923781739248
 20
-161.6083819040427
 30
0.0
 10
116.9685845158828
 20
-161.6531846818087
 30
0.0
 10
117.0243939589034
 20
-161.6531846818087
 30
0.0
 10
117.0794978463865
 20
-161.6531846818087
 30
0.0
 10
117.1243006230213
 20
-161.6083819040427
 30
0.0
 10
117.1243006230213
 20
-161.5532780151671
 30
0.0
  0
SPLINE
  5
65
330
1F
100
AcDbEntity
  8
_U+30EC_U+30A4_U+30E4_U+30FC 1
 62
   179
420
  2234388
370
     9
100
AcDbSpline
210
0.0
220
0.0
230
1.0
 70
    11
 71
     3
 72
    17
 73
    13
 74
     0
 42
0.0000000001
 43
0.0000000001
 12
1.0
 22
0.0
 32
0.0
 13
1.0
 23
0.0
 33
0.0
 40
0.0
 40
0.0
 40
0.0
 40
0.0
 40
1.0
 40
1.0
 40
1.0
 40
2.0
 40
2.0
 40
2.0
 40
3.0
 40
3.0
 40
3.0
 40
4.0
 40
4.0
 40
4.0
 40
4.0
 10
90.12371325630808
 20
-161.5532780151671
 30
0.0
 10
90.12371325630808
 20
-161.4981388485147
 30
0.0
 10
90.07891047967331
 20
-161.4533713485255
 30
0.0
 10
90.02377131441337
 20
-161.4533713485255
 30
0.0
 10
89.9686674269303
 20
-161.4533713485255
 30
0.0
 10
89.92386465029553
 20
-161.4981388485147
 30
0.0
 10
89.92386465029553
 20
-161.5532780151671
 30
0.0
 10
89.92386465029553
 20
-161.6083819040427
 30
0.0
 10
89.9686674269303
 20
-161.6531846818087
 30
0.0
 10
90.02377131441337
 20
-161.6531846818087
 30
0.0
 10
90.07891047967331
 20
-161.6531846818087
 30
0.0
 10
90.12371325630808
 20
-161.6083819040427
 30
0.0
 10
90.12371325630808
 20
-161.5532780151671
 30
0.0
  0
SPLINE
  5
66
330
1F
100
AcDbEntity
  8
_U+30EC_U+30A4_U+30E4_U+30FC 1
 62
   179
420
  2234388
370
     9
100
AcDbSpline
210
0.0
220
0.0
230
1.0
 70
    11
 71
     3
 72
    17
 73
    13
 74
     0
 42
0.0000000001
 43
0.0000000001
 12
1.0
 22
0.0
 32
0.0
 13
1.0
 23
0.0
 33
0.0
 40
0.0
 40
0.0
 40
0.0
 40
0.0
 40
1.0
 40
1.0
 40
1.0
 40
2.0
 40
2.0
 40
2.0
 40
3.0
 40
3.0
 40
3.0
 40
4.0
 40
4.0
 40
4.0
 40
4.0
 10
87.99498164394988
 20
-141.4587382979685
 30
0.0
 10
87.99498164394988
 20
-141.4028935757605
 30
0.0
 10
87.95017886731512
 20
-141.3587963535493
 30
0.0
 10
87.89507497983205
 20
-141.3587963535493
 30
0.0
 10
87.8399358145721
 20
-141.3587963535493
 30
0.0
 10
87.7951683157142
 20
-141.4028935757605
 30
0.0
 10
87.7951683157142
 20
-141.4587382979685
 30
0.0
 10
87.7951683157142
 20
-141.5138421868437
 30
0.0
 10
87.8399358145721
 20
-141.5586449646105
 30
0.0
 10
87.89507497983205
 20
-141.5586449646105
 30
0.0
 10
87.95017886731512
 20
-141.5586449646105
 30
0.0
 10
87.99498164394988
 20
-141.5138421868437
 30
0.0
 10
87.99498164394988
 20
-141.4587382979685
 30
0.0
  0
SPLINE
  5
67
330
1F
100
AcDbEntity
  8
_U+30EC_U+30A4_U+30E4_U+30FC 1
 62
   179
420
  2234388
370
     9
100
AcDbSpline
210
0.0
220
0.0
230
1.0
 70
    11
 71
     3
 72
    17
 73
    13
 74
     0
 42
0.0000000001
 43
0.0000000001
 12
1.0
 22
0.0
 32
0.0
 13
1.0
 23
0.0
 33
0.0
 40
0.0
 40
0.0
 40
0.0
 40
0.0
 40
1.0
 40
1.0
 40
1.0
 40
2.0
 40
2.0
 40
2.0
 40
3.0
 40
3.0
 40
3.0
 40
4.0
 40
4.0
 40
4.0
 40
4.0
 10
87.99498164394988
 20
-142.5583819088048
 30
0.0
 10
87.99498164394988
 20
-142.5032780199296
 30
0.0
 10
87.95017886731512
 20
-142.4584752421632
 30
0.0
 10
87.89507497983205
 20
-142.4584752421632
 30
0.0
 10
87.8399358145721
 20
-142.4584752421632
 30
0.0
 10
87.7951683157142
 20
-142.5032780199296
 30
0.0
 10
87.7951683157142
 20
-142.5583819088048
 30
0.0
 10
87.7951683157142
 20
-142.6135210754576
 30
0.0
 10
87.8399358145721
 20
-142.6582885754465
 30
0.0
 10
87.89507497983205
 20
-142.6582885754465
 30
0.0
 10
87.95017886731512
 20
-142.6582885754465
 30
0.0
 10
87.99498164394988
 20
-142.6135210754576
 30
0.0
 10
87.99498164394988
 20
-142.5583819088048
 30
0.0
  0
SPLINE
  5
68
330
1F
100
AcDbEntity
  8
_U+30EC_U+30A4_U+30E4_U+30FC 1
 62
   179
420
  2234388
370
     9
100
AcDbSpline
210
0.0
220
0.0
230
1.0
 70
    11
 71
     3
 72
    17
 73
    13
 74
     0
 42
0.0000000001
 43
0.0000000001
 12
1.0
 22
0.0
 32
0.0
 13
1.0
 23
0.0
 33
0.0
 40
0.0
 40
0.0
 40
0.0
 40
0.0
 40
1.0
 40
1.0
 40
1.0
 40
2.0
 40
2.0
 40
2.0
 40
3.0
 40
3.0
 40
3.0
 40
4.0
 40
4.0
 40
4.0
 40
4.0
 10
100.1241163345099
 20
-161.5532780151671
 30
0.0
 10
100.1241163345099
 20
-161.4981388485147
 30
0.0
 10
100.079348835652
 20
-161.4533713485255
 30
0.0
 10
100.024209670392
 20
-161.4533713485255
 30
0.0
 10
99.9691083083412
 20
-161.4533713485255
 30
0.0
 10
99.92430553057449
 20
-161.4981388485147
 30
0.0
 10
99.92430553057449
 20
-161.5532780151671
 30
0.0
 10
99.92430553057449
 20
-161.6083819040427
 30
0.0
 10
99.9691083083412
 20
-161.6531846818087
 30
0.0
 10
100.024209670392
 20
-161.6531846818087
 30
0.0
 10
100.079348835652
 20
-161.6531846818087
 30
0.0
 10
100.1241163345099
 20
-161.6083819040427
 30
0.0
 10
100.1241163345099
 20
-161.5532780151671
 30
0.0
  0
POLYLINE
  5
69
330
1F
100
AcDbEntity
  8
_U+30EC_U+30A4_U+30E4_U+30FC 1
 62
   179
420
  2234388
370
     9
100
AcDb2dPolyline
 66
     1
 10
0.0
 20
0.0
 30
0.0
  0
VERTEX
  5
6A
330
69
100
AcDbEntity
  8
_U+30EC_U+30A4_U+30E4_U+30FC 1
 62
   179
420
  2234388
370
     9
100
AcDbVertex
100
AcDb2dVertex
 10
100.024209670392
 20
-161.5532780151671
 30
0.0
  0
VERTEX
  5
6B
330
69
100
AcDbEntity
  8
_U+30EC_U+30A4_U+30E4_U+30FC 1
 62
   179
420
  2234388
370
     9
100
AcDbVertex
100
AcDb2dVertex
 10
117.0243939589034
 20
-161.5532780151671
 30
0.0
  0
SEQEND
  5
6C
330
69
100
AcDbEntity
  8
_U+30EC_U+30A4_U+30E4_U+30FC 1
 62
   179
420
  2234388
370
     9
  0
POLYLINE
  5
6D
330
1F
100
AcDbEntity
  8
_U+30EC_U+30A4_U+30E4_U+30FC 1
 62
   179
420
  2234388
370
     9
100
AcDb2dPolyline
 66
     1
 10
0.0
 20
0.0
 30
0.0
  0
VERTEX
  5
6E
330
6D
100
AcDbEntity
  8
_U+30EC_U+30A4_U+30E4_U+30FC 1
 62
   179
420
  2234388
370
     9
100
AcDbVertex
100
AcDb2dVertex
 10
117.0243939589034
 20
-159.3931844045964
 30
0.0
  0
VERTEX
  5
6F
330
6D
100
AcDbEntity
  8
_U+30EC_U+30A4_U+30E4_U+30FC 1
 62
   179
420
  2234388
370
     9
100
AcDbVertex
100
AcDb2dVertex
 10
117.0243939589034
 20
-162.5534030149174
 30
0.0
  0
SEQEND
  5
70
330
6D
100
AcDbEntity
  8
_U+30EC_U+30A4_U+30E4_U+30FC 1
 62
   179
420
  2234388
370
     9
  0
INSERT
  5
72
330
1F
100
AcDbEntity
  8
_U+30EC_U+30A4_U+30E4_U+30FC 1
100
AcDbBlockReference
  2
block 2
 10
0.0
 20
0.0
 30
0.0
  0
POLYLINE
  5
79
330
1F
100
AcDbEntity
  8
_U+30EC_U+30A4_U+30E4_U+30FC 1
 62
   179
420
  2234388
370
     9
100
AcDb2dPolyline
 66
     1
 10
0.0
 20
0.0
 30
0.0
  0
VERTEX
  5
7A
330
79
100
AcDbEntity
  8
_U+30EC_U+30A4_U+30E4_U+30FC 1
 62
   179
420
  2234388
370
     9
100
AcDbVertex
100
AcDb2dVertex
 10
121.0241177457509
 20
-156.8534666274532
 30
0.0
  0
VERTEX
  5
7B
330
79
100
AcDbEntity
  8
_U+30EC_U+30A4_U+30E4_U+30FC 1
 62
   179
420
  2234388
370
     9
100
AcDbVertex
100
AcDb2dVertex
 10
121.0241177457509
 20
-157.8532388494258
 30
0.0
  0
SEQEND
  5
7C
330
79
100
AcDbEntity
  8
_U+30EC_U+30A4_U+30E4_U+30FC 1
 62
   179
420
  2234388
370
     9
  0
POLYLINE
  5
7D
330
1F
100
AcDbEntity
  8
_U+30EC_U+30A4_U+30E4_U+30FC 1
 62
   179
420
  2234388
370
     9
100
AcDb2dPolyline
 66
     1
 10
0.0
 20
0.0
 30
0.0
  0
VERTEX
  5
7E
330
7D
100
AcDbEntity
  8
_U+30EC_U+30A4_U+30E4_U+30FC 1
 62
   179
420
  2234388
370
     9
100
AcDbVertex
100
AcDb2dVertex
 10
121.0241177457509
 20
-156.4534871831089
 30
0.0
  0
VERTEX
  5
7F
330
7D
100
AcDbEntity
  8
_U+30EC_U+30A4_U+30E4_U+30FC 1
 62
   179
420
  2234388
370
     9
100
AcDbVertex
100
AcDb2dVertex
 10
121.0241177457509
 20
-156.8534666274532
 30
0.0
  0
SEQEND
  5
80
330
7D
100
AcDbEntity
  8
_U+30EC_U+30A4_U+30E4_U+30FC 1
 62
   179
420
  2234388
370
     9
  0
POLYLINE
  5
81
330
1F
100
AcDbEntity
  8
_U+30EC_U+30A4_U+30E4_U+30FC 1
 62
   179
420
  2234388
370
     9
100
AcDb2dPolyline
 66
     1
 10
0.0
 20
0.0
 30
0.0
  0
VERTEX
  5
82
330
81
100
AcDbEntity
  8
_U+30EC_U+30A4_U+30E4_U+30FC 1
 62
   179
420
  2234388
370
     9
100
AcDbVertex
100
AcDb2dVertex
 10
119.5641116718876
 20
-156.4534871831089
 30
0.0
  0
VERTEX
  5
83
330
81
100
AcDbEntity
  8
_U+30EC_U+30A4_U+30E4_U+30FC 1
 62
   179
420
  2234388
370
     9
100
AcDbVertex
100
AcDb2dVertex
 10
122.0238899424668
 20
-156.4534871831089
 30
0.0
  0
SEQEND
  5
84
330
81
100
AcDbEntity
  8
_U+30EC_U+30A4_U+30E4_U+30FC 1
 62
   179
420
  2234388
370
     9
  0
POLYLINE
  5
85
330
1F
100
AcDbEntity
  8
_U+30EC_U+30A4_U+30E4_U+30FC 1
 62
   179
420
  2234388
370
     9
100
AcDb2dPolyline
 66
     1
 10
0.0
 20
0.0
 30
0.0
  0
VERTEX
  5
86
330
85
100
AcDbEntity
  8
_U+30EC_U+30A4_U+30E4_U+30FC 1
 62
   179
420
  2234388
370
     9
100
AcDbVertex
100
AcDb2dVertex
 10
119.5641116718876
 20
-156.8534666274532
 30
0.0
  0
VERTEX
  5
87
330
85
100
AcDbEntity
  8
_U+30EC_U+30A4_U+30E4_U+30FC 1
 62
   179
420
  2234388
370
     9
100
AcDbVertex
100
AcDb2dVertex
 10
122.0238899424668
 20
-156.8534666274532
 30
0.0
  0
SEQEND
  5
88
330
85
100
AcDbEntity
  8
_U+30EC_U+30A4_U+30E4_U+30FC 1
 62
   179
420
  2234388
370
     9
  0
INSERT
  5
8A
330
1F
100
AcDbEntity
  8
_U+30EC_U+30A4_U+30E4_U+30FC 1
100
AcDbBlockReference
  2
block 3
 10
0.0
 20
0.0
 30
0.0
  0
POLYLINE
  5
AD
330
1F
100
AcDbEntity
  8
_U+30EC_U+30A4_U+30E4_U+30FC 1
 62
   179
420
  2234388
370
     9
100
AcDb2dPolyline
 66
     1
 10
0.0
 20
0.0
 30
0.0
  0
VERTEX
  5
AE
330
AD
100
AcDbEntity
  8
_U+30EC_U+30A4_U+30E4_U+30FC 1
 62
   179
420
  2234388
370
     9
100
AcDbVertex
100
AcDb2dVertex
 10
87.89507497983205
 20
-141.4587382979685
 30
0.0
  0
VERTEX
  5
AF
330
AD
100
AcDbEntity
  8
_U+30EC_U+30A4_U+30E4_U+30FC 1
 62
   179
420
  2234388
370
     9
100
AcDbVertex
100
AcDb2dVertex
 10
87.89507497983205
 20
-140.4582605204411
 30
0.0
  0
SEQEND
  5
B0
330
AD
100
AcDbEntity
  8
_U+30EC_U+30A4_U+30E4_U+30FC 1
 62
   179
420
  2234388
370
     9
  0
POLYLINE
  5
B1
330
1F
100
AcDbEntity
  8
_U+30EC_U+30A4_U+30E4_U+30FC 1
 62
   179
420
  2234388
370
     9
100
AcDb2dPolyline
 66
     1
 10
0.0
 20
0.0
 30
0.0
  0
VERTEX
  5
B2
330
B1
100
AcDbEntity
  8
_U+30EC_U+30A4_U+30E4_U+30FC 1
 62
   179
420
  2234388
370
     9
100
AcDbVertex
100
AcDb2dVertex
 10
87.89507497983205
 20
-141.4587382979685
 30
0.0
  0
VERTEX
  5
B3
330
B1
100
AcDbEntity
  8
_U+30EC_U+30A4_U+30E4_U+30FC 1
 62
   179
420
  2234388
370
     9
100
AcDbVertex
100
AcDb2dVertex
 10
87.89507497983205
 20
-143.5581541307771
 30
0.0
  0
SEQEND
  5
B4
330
B1
100
AcDbEntity
  8
_U+30EC_U+30A4_U+30E4_U+30FC 1
 62
   179
420
  2234388
370
     9
  0
POLYLINE
  5
B5
330
1F
100
AcDbEntity
  8
_U+30EC_U+30A4_U+30E4_U+30FC 1
 62
   179
420
  2234388
370
     9
100
AcDb2dPolyline
 66
     1
 10
0.0
 20
0.0
 30
0.0
  0
VERTEX
  5
B6
330
B5
100
AcDbEntity
  8
_U+30EC_U+30A4_U+30E4_U+30FC 1
 62
   179
420
  2234388
370
     9
100
AcDbVertex
100
AcDb2dVertex
 10
89.35508331099456
 20
-141.4587382979685
 30
0.0
  0
VERTEX
  5
B7
330
B5
100
AcDbEntity
  8
_U+30EC_U+30A4_U+30E4_U+30FC 1
 62
   179
420
  2234388
370
     9
100
AcDbVertex
100
AcDb2dVertex
 10
86.89495000534735
 20
-141.4587382979685
 30
0.0
  0
SEQEND
  5
B8
330
B5
100
AcDbEntity
  8
_U+30EC_U+30A4_U+30E4_U+30FC 1
 62
   179
420
  2234388
370
     9
  0
POLYLINE
  5
B9
330
1F
100
AcDbEntity
  8
_U+30EC_U+30A4_U+30E4_U+30FC 1
 62
   179
420
  2234388
370
     9
100
AcDb2dPolyline
 66
     1
 10
0.0
 20
0.0
 30
0.0
  0
VERTEX
  5
BA
330
B9
100
AcDbEntity
  8
_U+30EC_U+30A4_U+30E4_U+30FC 1
 62
   179
420
  2234388
370
     9
100
AcDbVertex
100
AcDb2dVertex
 10
89.35508331099456
 20
-142.5583819088048
 30
0.0
  0
VERTEX
  5
BB
330
B9
100
AcDbEntity
  8
_U+30EC_U+30A4_U+30E4_U+30FC 1
 62
   179
420
  2234388
370
     9
100
AcDbVertex
100
AcDb2dVertex
 10
86.89495000534735
 20
-142.5583819088048
 30
0.0
  0
SEQEND
  5
BC
330
B9
100
AcDbEntity
  8
_U+30EC_U+30A4_U+30E4_U+30FC 1
 62
   179
420
  2234388
370
     9
  0
INSERT
  5
BE
330
1F
100
AcDbEntity
  8
_U+30EC_U+30A4_U+30E4_U+30FC 1
100
AcDbBlockReference
  2
block 4
 10
0.0
 20
0.0
 30
0.0
  0
POLYLINE
  5
CD
330
1F
100
AcDbEntity
  8
_U+30EC_U+30A4_U+30E4_U+30FC 1
 62
   179
420
  2234388
370
     9
100
AcDb2dPolyline
 66
     1
 10
0.0
 20
0.0
 30
0.0
  0
VERTEX
  5
CE
330
CD
100
AcDbEntity
  8
_U+30EC_U+30A4_U+30E4_U+30FC 1
 62
   179
420
  2234388
370
     9
100
AcDbVertex
100
AcDb2dVertex
 10
121.0241177457509
 20
-141.4535524646366
 30
0.0
  0
VERTEX
  5
CF
330
CD
100
AcDbEntity
  8
_U+30EC_U+30A4_U+30E4_U+30FC 1
 62
   179
420
  2234388
370
     9
100
AcDbVertex
100
AcDb2dVertex
 10
121.0241177457509
 20
-156.4534871831089
 30
0.0
  0
SEQEND
  5
D0
330
CD
100
AcDbEntity
  8
_U+30EC_U+30A4_U+30E4_U+30FC 1
 62
   179
420
  2234388
370
     9
  0
POLYLINE
  5
D1
330
1F
100
AcDbEntity
  8
_U+30EC_U+30A4_U+30E4_U+30FC 1
 62
   179
420
  2234388
370
     9
100
AcDb2dPolyline
 66
     1
 10
0.0
 20
0.0
 30
0.0
  0
VERTEX
  5
D2
330
D1
100
AcDbEntity
  8
_U+30EC_U+30A4_U+30E4_U+30FC 1
 62
   179
420
  2234388
370
     9
100
AcDbVertex
100
AcDb2dVertex
 10
103.6643117997475
 20
-141.3760471868783
 30
0.0
  0
VERTEX
  5
D3
330
D1
100
AcDbEntity
  8
_U+30EC_U+30A4_U+30E4_U+30FC 1
 62
   179
420
  2234388
370
     9
100
AcDbVertex
100
AcDb2dVertex
 10
122.0238899424668
 20
-141.3760471868783
 30
0.0
  0
SEQEND
  5
D4
330
D1
100
AcDbEntity
  8
_U+30EC_U+30A4_U+30E4_U+30FC 1
 62
   179
420
  2234388
370
     9
  0
POLYLINE
  5
D5
330
1F
100
AcDbEntity
  8
_U+30EC_U+30A4_U+30E4_U+30FC 1
 62
   179
420
  2234388
370
     9
100
AcDb2dPolyline
 66
     1
 10
0.0
 20
0.0
 30
0.0
  0
VERTEX
  5
D6
330
D5
100
AcDbEntity
  8
_U+30EC_U+30A4_U+30E4_U+30FC 1
 62
   179
420
  2234388
370
     9
100
AcDbVertex
100
AcDb2dVertex
 10
119.5641116718876
 20
-156.4534871831089
 30
0.0
  0
VERTEX
  5
D7
330
D5
100
AcDbEntity
  8
_U+30EC_U+30A4_U+30E4_U+30FC 1
 62
   179
420
  2234388
370
     9
100
AcDbVertex
100
AcDb2dVertex
 10
122.0238899424668
 20
-156.4534871831089
 30
0.0
  0
SEQEND
  5
D8
330
D5
100
AcDbEntity
  8
_U+30EC_U+30A4_U+30E4_U+30FC 1
 62
   179
420
  2234388
370
     9
  0
INSERT
  5
DA
330
1F
100
AcDbEntity
  8
_U+30EC_U+30A4_U+30E4_U+30FC 1
100
AcDbBlockReference
  2
block 5
 10
0.0
 20
0.0
 30
0.0
  0
POLYLINE
  5
E1
330
1F
100
AcDbEntity
  8
_U+30EC_U+30A4_U+30E4_U+30FC 1
 62
   179
420
  2234388
370
     9
100
AcDb2dPolyline
 66
     1
 10
0.0
 20
0.0
 30
0.0
  0
VERTEX
  5
E2
330
E1
100
AcDbEntity
  8
_U+30EC_U+30A4_U+30E4_U+30FC 1
 62
   179
420
  2234388
370
     9
100
AcDbVertex
100
AcDb2dVertex
 10
90.02377131441337
 20
-161.5532780151671
 30
0.0
  0
VERTEX
  5
E3
330
E1
100
AcDbEntity
  8
_U+30EC_U+30A4_U+30E4_U+30FC 1
 62
   179
420
  2234388
370
     9
100
AcDbVertex
100
AcDb2dVertex
 10
100.024209670392
 20
-161.5532780151671
 30
0.0
  0
SEQEND
  5
E4
330
E1
100
AcDbEntity
  8
_U+30EC_U+30A4_U+30E4_U+30FC 1
 62
   179
420
  2234388
370
     9
  0
POLYLINE
  5
E5
330
1F
100
AcDbEntity
  8
_U+30EC_U+30A4_U+30E4_U+30FC 1
 62
   179
420
  2234388
370
     9
100
AcDb2dPolyline
 66
     1
 10
0.0
 20
0.0
 30
0.0
  0
VERTEX
  5
E6
330
E5
100
AcDbEntity
  8
_U+30EC_U+30A4_U+30E4_U+30FC 1
 62
   179
420
  2234388
370
     9
100
AcDbVertex
100
AcDb2dVertex
 10
90.02377131441337
 20
-147.5934027408794
 30
0.0
  0
VERTEX
  5
E7
330
E5
100
AcDbEntity
  8
_U+30EC_U+30A4_U+30E4_U+30FC 1
 62
   179
420
  2234388
370
     9
100
AcDbVertex
100
AcDb2dVertex
 10
90.02377131441337
 20
-162.5534030149174
 30
0.0
  0
SEQEND
  5
E8
330
E5
100
AcDbEntity
  8
_U+30EC_U+30A4_U+30E4_U+30FC 1
 62
   179
420
  2234388
370
     9
  0
POLYLINE
  5
E9
330
1F
100
AcDbEntity
  8
_U+30EC_U+30A4_U+30E4_U+30FC 1
 62
   179
420
  2234388
370
     9
100
AcDb2dPolyline
 66
     1
 10
0.0
 20
0.0
 30
0.0
  0
VERTEX
  5
EA
330
E9
100
AcDbEntity
  8
_U+30EC_U+30A4_U+30E4_U+30FC 1
 62
   179
420
  2234388
370
     9
100
AcDbVertex
100
AcDb2dVertex
 10
100.024209670392
 20
-160.0932366266434
 30
0.0
  0
VERTEX
  5
EB
330
E9
100
AcDbEntity
  8
_U+30EC_U+30A4_U+30E4_U+30FC 1
 62
   179
420
  2234388
370
     9
100
AcDbVertex
100
AcDb2dVertex
 10
100.024209670392
 20
-162.5534030149174
 30
0.0
  0
SEQEND
  5
EC
330
E9
100
AcDbEntity
  8
_U+30EC_U+30A4_U+30E4_U+30FC 1
 62
   179
420
  2234388
370
     9
  0
INSERT
  5
EE
330
1F
100
AcDbEntity
  8
_U+30EC_U+30A4_U+30E4_U+30FC 1
100
AcDbBlockReference
  2
block 6
 10
0.0
 20
0.0
 30
0.0
  0
ENDSEC
  0
SECTION
  2
OBJECTS
  0
DICTIONARY
  5
C
330
0
100
AcDbDictionary
281
     1
  3
ACAD_GROUP
350
D
  3
ACAD_LAYOUT
350
1A
  3
ACAD_MATERIAL
350
3B
  3
ACAD_MLEADERSTYLE
350
F7
  3
ACAD_MLINESTYLE
350
17
  3
ACAD_PLOTSETTINGS
350
19
  3
ACAD_PLOTSTYLENAME
350
E
  3
ACAD_TABLESTYLE
350
F6
  3
ACAD_VISUALSTYLE
350
2A
  0
SUN
  5
3F
330
29
100
AcDbSun
 90
        1
290
     0
 63
     7
421
 16777215
 40
1.0
291
     1
 91
  2455826
 92
 54000000
292
     0
 70
     2
 71
   256
280
     1
  0
DICTIONARY
  5
D
102
{ACAD_REACTORS
330
C
102
}
330
C
100
AcDbDictionary
281
     1
  0
DICTIONARY
  5
1A
102
{ACAD_REACTORS
330
C
102
}
330
C
100
AcDbDictionary
281
     1
  3
Layout1
350
1E
  3
Layout2
350
26
  3
Model
350
22
  0
DICTIONARY
  5
3B
102
{ACAD_REACTORS
330
C
102
}
330
C
100
AcDbDictionary
281
     1
  3
ByBlock
350
3D
  3
ByLayer
350
3C
  3
Global
350
3E
  0
DICTIONARY
  5
F7
102
{ACAD_REACTORS
330
C
102
}
330
C
100
AcDbDictionary
281
     1
  0
DICTIONARY
  5
17
102
{ACAD_REACTORS
330
C
102
}
330
C
100
AcDbDictionary
281
     1
  3
Standard
350
18
  0
DICTIONARY
  5
19
102
{ACAD_REACTORS
330
C
102
}
330
C
100
AcDbDictionary
281
     1
  0
ACDBDICTIONARYWDFLT
  5
E
102
{ACAD_REACTORS
330
C
102
}
330
C
100
AcDbDictionary
281
     1
  3
Normal
350
F
100
AcDbDictionaryWithDefault
340
F
  0
DICTIONARY
  5
F6
102
{ACAD_REACTORS
330
C
102
}
330
C
100
AcDbDictionary
281
     1
  0
DICTIONARY
  5
2A
102
{ACAD_REACTORS
330
C
102
}
330
C
100
AcDbDictionary
281
     1
  3
2dWireframe
350
2F
  3
3D Hidden
350
31
  3
3dWireframe
350
30
  3
Basic
350
32
  3
Brighten
350
36
  3
ColorChange
350
3A
  3
Conceptual
350
34
  3
Dim
350
35
  3
Facepattern
350
39
  3
Flat
350
2B
  3
FlatWithEdges
350
2C
  3
Gouraud
350
2D
  3
GouraudWithEdges
350
2E
  3
Linepattern
350
38
  3
Realistic
350
33
  3
Thicken
350
37
  0
LAYOUT
  5
1E
102
{ACAD_REACTORS
330
1A
102
}
330
1A
100
AcDbPlotSettings
  1

  2
none_device
  4

  6

 40
0.0
 41
0.0
 42
0.0
 43
0.0
 44
0.0
 45
0.0
 46
0.0
 47
0.0
 48
0.0
 49
0.0
140
0.0
141
0.0
142
1.0
143
1.0
 70
   688
 72
     0
 73
     0
 74
     5
  7

 75
    16
 76
     0
 77
     2
 78
   300
147
1.0
148
0.0
149
0.0
100
AcDbLayout
  1
Layout1
 70
     1
 71
     1
 10
0.0
 20
0.0
 11
12.0
 21
9.0
 12
0.0
 22
0.0
 32
0.0
 14
1.000000000000000E+20
 24
1.000000000000000E+20
 34
1.000000000000000E+20
 15
-1.000000000000000E+20
 25
-1.000000000000000E+20
 35
-1.000000000000000E+20
146
0.0
 13
0.0
 23
0.0
 33
0.0
 16
1.0
 26
0.0
 36
0.0
 17
0.0
 27
1.0
 37
0.0
 76
     0
330
1B
  0
LAYOUT
  5
26
102
{ACAD_REACTORS
330
1A
102
}
330
1A
100
AcDbPlotSettings
  1

  2
none_device
  4

  6

 40
0.0
 41
0.0
 42
0.0
 43
0.0
 44
0.0
 45
0.0
 46
0.0
 47
0.0
 48
0.0
 49
0.0
140
0.0
141
0.0
142
1.0
143
1.0
 70
   688
 72
     0
 73
     0
 74
     5
  7

 75
    16
 76
     0
 77
     2
 78
   300
147
1.0
148
0.0
149
0.0
100
AcDbLayout
  1
Layout2
 70
     1
 71
     2
 10
0.0
 20
0.0
 11
0.0
 21
0.0
 12
0.0
 22
0.0
 32
0.0
 14
0.0
 24
0.0
 34
0.0
 15
0.0
 25
0.0
 35
0.0
146
0.0
 13
0.0
 23
0.0
 33
0.0
 16
1.0
 26
0.0
 36
0.0
 17
0.0
 27
1.0
 37
0.0
 76
     0
330
23
  0
LAYOUT
  5
22
102
{ACAD_REACTORS
330
1A
102
}
330
1A
100
AcDbPlotSettings
  1

  2
none_device
  4

  6

 40
0.0
 41
0.0
 42
0.0
 43
0.0
 44
0.0
 45
0.0
 46
0.0
 47
0.0
 48
0.0
 49
0.0
140
0.0
141
0.0
142
1.0
143
1.0
 70
  1712
 72
     0
 73
     0
 74
     0
  7

 75
     0
 76
     0
 77
     2
 78
   300
147
1.0
148
0.0
149
0.0
100
AcDbLayout
  1
Model
 70
     1
 71
     0
 10
0.0
 20
0.0
 11
12.0
 21
9.0
 12
0.0
 22
0.0
 32
0.0
 14
1.000000000000000E+20
 24
1.000000000000000E+20
 34
1.000000000000000E+20
 15
-1.000000000000000E+20
 25
-1.000000000000000E+20
 35
-1.000000000000000E+20
146
0.0
 13
0.0
 23
0.0
 33
0.0
 16
1.0
 26
0.0
 36
0.0
 17
0.0
 27
1.0
 37
0.0
 76
     0
330
1F
331
29
  0
MATERIAL
  5
3D
102
{ACAD_REACTORS
330
3B
102
}
330
3B
100
AcDbMaterial
  1
ByBlock
 72
     1
 94
      127
  0
MATERIAL
  5
3C
102
{ACAD_REACTORS
330
3B
102
}
330
3B
100
AcDbMaterial
  1
ByLayer
 72
     1
 94
      127
  0
MATERIAL
  5
3E
102
{ACAD_REACTORS
330
3B
102
}
330
3B
100
AcDbMaterial
  1
Global
 72
     1
 94
      127
  0
MLINESTYLE
  5
18
102
{ACAD_REACTORS
330
17
102
}
330
17
100
AcDbMlineStyle
  2
Standard
 70
     0
  3

 62
   256
 51
90.0
 52
90.0
 71
     2
 49
0.5
 62
   256
  6
BYLAYER
 49
-0.5
 62
   256
  6
BYLAYER
  0
ACDBPLACEHOLDER
  5
F
102
{ACAD_REACTORS
330
E
102
}
330
E
  0
VISUALSTYLE
  5
2F
102
{ACAD_REACTORS
330
2A
102
}
330
2A
100
AcDbVisualStyle
  2
2dWireframe
 70
     4
177
     2
291
     0
 71
     0
176
     1
 72
     2
176
     1
 73
     0
176
     1
 90
        0
176
     1
 40
-0.6
176
     1
 41
-30.0
176
     1
 62
     5
 63
     7
421
 16777215
176
     1
 74
     1
176
     1
 91
        4
176
     1
 64
     7
176
     1
 65
   257
176
     1
 75
     1
176
     1
175
     1
176
     1
 42
1.0
176
     1
 92
        0
176
     1
 66
   257
176
     1
 43
1.0
176
     1
 76
     1
176
     1
 77
     6
176
     1
 78
     2
176
     1
 67
     7
176
     1
 79
     5
176
     1
170
     0
176
     1
171
     0
176
     1
290
     0
176
     1
 93
        1
176
     1
 44
0.0
176
     1
173
     0
176
     1
  0
VISUALSTYLE
  5
31
102
{ACAD_REACTORS
330
2A
102
}
330
2A
100
AcDbVisualStyle
  2
3D Hidden
 70
     6
177
     2
291
     0
 71
     1
176
     1
 72
     2
176
     1
 73
     2
176
     1
 90
        0
176
     1
 40
-0.6
176
     1
 41
-30.0
176
     1
 62
     5
 63
     7
421
 16777215
176
     1
 74
     2
176
     1
 91
        2
176
     1
 64
     7
176
     1
 65
   257
176
     1
 75
     2
176
     1
175
     1
176
     1
 42
40.0
176
     1
 92
        0
176
     1
 66
   257
176
     1
 43
1.0
176
     1
 76
     1
176
     1
 77
     6
176
     1
 78
     2
176
     1
 67
     7
176
     1
 79
     3
176
     1
170
     0
176
     1
171
     0
176
     1
290
     0
176
     1
 93
        1
176
     1
 44
0.0
176
     1
173
     0
176
     1
  0
VISUALSTYLE
  5
30
102
{ACAD_REACTORS
330
2A
102
}
330
2A
100
AcDbVisualStyle
  2
3dWireframe
 70
     5
177
     2
291
     0
 71
     0
176
     1
 72
     2
176
     1
 73
     0
176
     1
 90
        0
176
     1
 40
-0.6
176
     1
 41
-30.0
176
     1
 62
     5
 63
     7
421
 16777215
176
     1
 74
     1
176
     1
 91
        4
176
     1
 64
     7
176
     1
 65
   257
176
     1
 75
     1
176
     1
175
     1
176
     1
 42
1.0
176
     1
 92
        0
176
     1
 66
   257
176
     1
 43
1.0
176
     1
 76
     1
176
     1
 77
     6
176
     1
 78
     2
176
     1
 67
     7
176
     1
 79
     5
176
     1
170
     0
176
     1
171
     0
176
     1
290
     0
176
     1
 93
        1
176
     1
 44
0.0
176
     1
173
     0
176
     1
  0
VISUALSTYLE
  5
32
102
{ACAD_REACTORS
330
2A
102
}
330
2A
100
AcDbVisualStyle
  2
Basic
 70
     7
177
     2
291
     1
 71
     1
176
     1
 72
     0
176
     1
 73
     1
176
     1
 90
        0
176
     1
 40
-0.6
176
     1
 41
-30.0
176
     1
 62
     5
 63
     7
421
 16777215
176
     1
 74
     0
176
     1
 91
        4
176
     1
 64
     7
176
     1
 65
   257
176
     1
 75
     1
176
     1
175
     1
176
     1
 42
1.0
176
     1
 92
        8
176
     1
 66
     7
176
     1
 43
1.0
176
     1
 76
     1
176
     1
 77
     6
176
     1
 78
     2
176
     1
 67
     7
176
     1
 79
     5
176
     1
170
     0
176
     1
171
     0
176
     1
290
     0
176
     1
 93
        1
176
     1
 44
0.0
176
     1
173
     0
176
     1
  0
VISUALSTYLE
  5
36
102
{ACAD_REACTORS
330
2A
102
}
330
2A
100
AcDbVisualStyle
  2
Brighten
 70
    12
177
     2
291
     1
 71
     2
176
     1
 72
     2
176
     1
 73
     0
176
     1
 90
        0
176
     1
 40
-0.6
176
     1
 41
-30.0
176
     1
 62
     5
 63
     7
421
 16777215
176
     1
 74
     1
176
     1
 91
        4
176
     1
 64
     7
176
     1
 65
   257
176
     1
 75
     1
176
     1
175
     1
176
     1
 42
1.0
176
     1
 92
        8
176
     1
 66
     7
176
     1
 43
1.0
176
     1
 76
     1
176
     1
 77
     6
176
     1
 78
     2
176
     1
 67
     7
176
     1
 79
     5
176
     1
170
     0
176
     1
171
     0
176
     1
290
     0
176
     1
 93
        1
176
     1
 44
50.0
176
     1
173
     0
176
     1
  0
VISUALSTYLE
  5
3A
102
{ACAD_REACTORS
330
2A
102
}
330
2A
100
AcDbVisualStyle
  2
ColorChange
 70
    16
177
     2
291
     1
 71
     2
176
     1
 72
     2
176
     1
 73
     3
176
     1
 90
        0
176
     1
 40
-0.6
176
     1
 41
-30.0
176
     1
 62
     5
 63
     8
421
  8421504
176
     1
 74
     1
176
     1
 91
        4
176
     1
 64
     7
176
     1
 65
   257
176
     1
 75
     1
176
     1
175
     1
176
     1
 42
1.0
176
     1
 92
        8
176
     1
 66
     8
424
  8421504
176
     1
 43
1.0
176
     1
 76
     1
176
     1
 77
     6
176
     1
 78
     2
176
     1
 67
     7
176
     1
 79
     5
176
     1
170
     0
176
     1
171
     0
176
     1
290
     0
176
     1
 93
        1
176
     1
 44
0.0
176
     1
173
     0
176
     1
  0
VISUALSTYLE
  5
34
102
{ACAD_REACTORS
330
2A
102
}
330
2A
100
AcDbVisualStyle
  2
Conceptual
 70
     9
177
     2
291
     0
 71
     3
176
     1
 72
     2
176
     1
 73
     0
176
     1
 90
        0
176
     1
 40
-0.6
176
     1
 41
-30.0
176
     1
 62
     5
 63
     7
421
 16777215
176
     1
 74
     2
176
     1
 91
        2
176
     1
 64
     7
176
     1
 65
   257
176
     1
 75
     1
176
     1
175
     1
176
     1
 42
40.0
176
     1
 92
        8
176
     1
 66
     7
176
     1
 43
1.0
176
     1
 76
     1
176
     1
 77
     6
176
     1
 78
     2
176
     1
 67
     7
176
     1
 79
     3
176
     1
170
     0
176
     1
171
     0
176
     1
290
     0
176
     1
 93
        1
176
     1
 44
0.0
176
     1
173
     0
176
     1
  0
VISUALSTYLE
  5
35
102
{ACAD_REACTORS
330
2A
102
}
330
2A
100
AcDbVisualStyle
  2
Dim
 70
    11
177
     2
291
     1
 71
     2
176
     1
 72
     2
176
     1
 73
     0
176
     1
 90
        0
176
     1
 40
-0.6
176
     1
 41
-30.0
176
     1
 62
     5
 63
     7
421
 16777215
176
     1
 74
     1
176
     1
 91
        4
176
     1
 64
     7
176
     1
 65
   257
176
     1
 75
     1
176
     1
175
     1
176
     1
 42
1.0
176
     1
 92
        8
176
     1
 66
     7
176
     1
 43
1.0
176
     1
 76
     1
176
     1
 77
     6
176
     1
 78
     2
176
     1
 67
     7
176
     1
 79
     5
176
     1
170
     0
176
     1
171
     0
176
     1
290
     0
176
     1
 93
        1
176
     1
 44
-50.0
176
     1
173
     0
176
     1
  0
VISUALSTYLE
  5
39
102
{ACAD_REACTORS
330
2A
102
}
330
2A
100
AcDbVisualStyle
  2
Facepattern
 70
    15
177
     2
291
     1
 71
     2
176
     1
 72
     2
176
     1
 73
     0
176
     1
 90
        0
176
     1
 40
-0.6
176
     1
 41
-30.0
176
     1
 62
     5
 63
     7
421
 16777215
176
     1
 74
     1
176
     1
 91
        4
176
     1
 64
     7
176
     1
 65
   257
176
     1
 75
     1
176
     1
175
     1
176
     1
 42
1.0
176
     1
 92
        8
176
     1
 66
     7
176
     1
 43
1.0
176
     1
 76
     1
176
     1
 77
     6
176
     1
 78
     2
176
     1
 67
     7
176
     1
 79
     5
176
     1
170
     0
176
     1
171
     0
176
     1
290
     0
176
     1
 93
        1
176
     1
 44
0.0
176
     1
173
     0
176
     1
  0
VISUALSTYLE
  5
2B
102
{ACAD_REACTORS
330
2A
102
}
330
2A
100
AcDbVisualStyle
  2
Flat
 70
     0
177
     2
291
     1
 71
     2
176
     1
 72
     1
176
     1
 73
     1
176
     1
 90
        2
176
     1
 40
-0.6
176
     1
 41
30.0
176
     1
 62
     5
 63
     7
421
 16777215
176
     1
 74
     0
176
     1
 91
        4
176
     1
 64
     7
176
     1
 65
   257
176
     1
 75
     1
176
     1
175
     1
176
     1
 42
1.0
176
     1
 92
        8
176
     1
 66
     7
176
     1
 43
1.0
176
     1
 76
     1
176
     1
 77
     6
176
     1
 78
     2
176
     1
 67
     7
176
     1
 79
     5
176
     1
170
     0
176
     1
171
     0
176
     1
290
     0
176
     1
 93
       13
176
     1
 44
0.0
176
     1
173
     0
176
     1
  0
VISUALSTYLE
  5
2C
102
{ACAD_REACTORS
330
2A
102
}
330
2A
100
AcDbVisualStyle
  2
FlatWithEdges
 70
     1
177
     2
291
     1
 71
     2
176
     1
 72
     1
176
     1
 73
     1
176
     1
 90
        2
176
     1
 40
-0.6
176
     1
 41
30.0
176
     1
 62
     5
 63
     7
421
 16777215
176
     1
 74
     1
176
     1
 91
        4
176
     1
 64
     7
176
     1
 65
   257
176
     1
 75
     1
176
     1
175
     1
176
     1
 42
1.0
176
     1
 92
        0
176
     1
 66
   257
176
     1
 43
1.0
176
     1
 76
     1
176
     1
 77
     6
176
     1
 78
     2
176
     1
 67
     7
176
     1
 79
     5
176
     1
170
     0
176
     1
171
     0
176
     1
290
     0
176
     1
 93
       13
176
     1
 44
0.0
176
     1
173
     0
176
     1
  0
VISUALSTYLE
  5
2D
102
{ACAD_REACTORS
330
2A
102
}
330
2A
100
AcDbVisualStyle
  2
Gouraud
 70
     2
177
     2
291
     1
 71
     2
176
     1
 72
     2
176
     1
 73
     1
176
     1
 90
        2
176
     1
 40
-0.6
176
     1
 41
30.0
176
     1
 62
     5
 63
     7
421
 16777215
176
     1
 74
     0
176
     1
 91
        4
176
     1
 64
     7
176
     1
 65
   257
176
     1
 75
     1
176
     1
175
     1
176
     1
 42
1.0
176
     1
 92
        0
176
     1
 66
     7
176
     1
 43
1.0
176
     1
 76
     1
176
     1
 77
     6
176
     1
 78
     2
176
     1
 67
     7
176
     1
 79
     5
176
     1
170
     0
176
     1
171
     0
176
     1
290
     0
176
     1
 93
       13
176
     1
 44
0.0
176
     1
173
     0
176
     1
  0
VISUALSTYLE
  5
2E
102
{ACAD_REACTORS
330
2A
102
}
330
2A
100
AcDbVisualStyle
  2
GouraudWithEdges
 70
     3
177
     2
291
     1
 71
     2
176
     1
 72
     2
176
     1
 73
     1
176
     1
 90
        2
176
     1
 40
-0.6
176
     1
 41
30.0
176
     1
 62
     5
 63
     7
421
 16777215
176
     1
 74
     1
176
     1
 91
        4
176
     1
 64
     7
176
     1
 65
   257
176
     1
 75
     1
176
     1
175
     1
176
     1
 42
1.0
176
     1
 92
        0
176
     1
 66
   257
176
     1
 43
1.0
176
     1
 76
     1
176
     1
 77
     6
176
     1
 78
     2
176
     1
 67
     7
176
     1
 79
     5
176
     1
170
     0
176
     1
171
     0
176
     1
290
     0
176
     1
 93
       13
176
     1
 44
0.0
176
     1
173
     0
176
     1
  0
VISUALSTYLE
  5
38
102
{ACAD_REACTORS
330
2A
102
}
330
2A
100
AcDbVisualStyle
  2
Linepattern
 70
    14
177
     2
291
     1
 71
     2
176
     1
 72
     2
176
     1
 73
     0
176
     1
 90
        0
176
     1
 40
-0.6
176
     1
 41
-30.0
176
     1
 62
     5
 63
     7
421
 16777215
176
     1
 74
     1
176
     1
 91
        4
176
     1
 64
     7
176
     1
 65
   257
176
     1
 75
     7
176
     1
175
     7
176
     1
 42
1.0
176
     1
 92
        8
176
     1
 66
     7
176
     1
 43
1.0
176
     1
 76
     1
176
     1
 77
     6
176
     1
 78
     2
176
     1
 67
     7
176
     1
 79
     5
176
     1
170
     0
176
     1
171
     0
176
     1
290
     0
176
     1
 93
        1
176
     1
 44
0.0
176
     1
173
     0
176
     1
  0
VISUALSTYLE
  5
33
102
{ACAD_REACTORS
330
2A
102
}
330
2A
100
AcDbVisualStyle
  2
Realistic
 70
     8
177
     2
291
     0
 71
     2
176
     1
 72
     2
176
     1
 73
     0
176
     1
 90
        0
176
     1
 40
-0.6
176
     1
 41
-30.0
176
     1
 62
     5
 63
     7
421
 16777215
176
     1
 74
     1
176
     1
 91
        0
176
     1
 64
     7
176
     1
 65
   257
176
     1
 75
     1
176
     1
175
     1
176
     1
 42
1.0
176
     1
 92
        8
176
     1
 66
     8
424
  7895160
176
     1
 43
1.0
176
     1
 76
     1
176
     1
 77
     6
176
     1
 78
     2
176
     1
 67
     7
176
     1
 79
     5
176
     1
170
     0
176
     1
171
     0
176
     1
290
     0
176
     1
 93
       13
176
     1
 44
0.0
176
     1
173
     0
176
     1
  0
VISUALSTYLE
  5
37
102
{ACAD_REACTORS
330
2A
102
}
330
2A
100
AcDbVisualStyle
  2
Thicken
 70
    13
177
     2
291
     1
 71
     2
176
     1
 72
     2
176
     1
 73
     0
176
     1
 90
        0
176
     1
 40
-0.6
176
     1
 41
-30.0
176
     1
 62
     5
 63
     7
421
 16777215
176
     1
 74
     1
176
     1
 91
        4
176
     1
 64
     7
176
     1
 65
   257
176
     1
 75
     1
176
     1
175
     1
176
     1
 42
1.0
176
     1
 92
       12
176
     1
 66
     7
176
     1
 43
1.0
176
     1
 76
     1
176
     1
 77
     6
176
     1
 78
     2
176
     1
 67
     7
176
     1
 79
     5
176
     1
170
     0
176
     1
171
     0
176
     1
290
     0
176
     1
 93
        1
176
     1
 44
0.0
176
     1
173
     0
176
     1
  0
ENDSEC
  0
EOF
