  0
SECTION
  2
HEADER
  9
$ACADVER
  1
AC1024
  9
$ACADMAINTVER
 70
     6
  9
$DWGCODEPAGE
  3
UNDEFINED
  9
$INSBASE
 10
0.0
 20
0.0
 30
0.0
  9
$EXTMIN
 10
1.000000000000000E+20
 20
1.000000000000000E+20
 30
1.000000000000000E+20
  9
$EXTMAX
 10
-1.000000000000000E+20
 20
-1.000000000000000E+20
 30
-1.000000000000000E+20
  9
$LIMMIN
 10
0.0
 20
0.0
  9
$LIMMAX
 10
12.0
 20
9.0
  9
$ORTHOMODE
 70
     0
  9
$REGENMODE
 70
     1
  9
$FILLMODE
 70
     1
  9
$QTEXTMODE
 70
     0
  9
$MIRRTEXT
 70
     1
  9
$LTSCALE
 40
1.0
  9
$ATTMODE
 70
     1
  9
$TEXTSIZE
 40
0.2
  9
$TRACEWID
 40
0.05
  9
$TEXTSTYLE
  7
Standard
  9
$CLAYER
  8
0
  9
$CELTYPE
  6
ByLayer
  9
$CECOLOR
 62
   256
  9
$CELTSCALE
 40
1.0
  9
$DISPSILH
 70
     0
  9
$DIMSCALE
 40
1.0
  9
$DIMASZ
 40
0.18
  9
$DIMEXO
 40
0.0625
  9
$DIMDLI
 40
0.38
  9
$DIMRND
 40
0.0
  9
$DIMDLE
 40
0.0
  9
$DIMEXE
 40
0.18
  9
$DIMTP
 40
0.0
  9
$DIMTM
 40
0.0
  9
$DIMTXT
 40
0.18
  9
$DIMCEN
 40
0.09
  9
$DIMTSZ
 40
0.0
  9
$DIMTOL
 70
     0
  9
$DIMLIM
 70
     0
  9
$DIMTIH
 70
     1
  9
$DIMTOH
 70
     1
  9
$DIMSE1
 70
     0
  9
$DIMSE2
 70
     0
  9
$DIMTAD
 70
     0
  9
$DIMZIN
 70
     0
  9
$DIMBLK
  1

  9
$DIMASO
 70
     1
  9
$DIMSHO
 70
     1
  9
$DIMPOST
  1

  9
$DIMAPOST
  1

  9
$DIMALT
 70
     0
  9
$DIMALTD
 70
     2
  9
$DIMALTF
 40
25.4
  9
$DIMLFAC
 40
1.0
  9
$DIMTOFL
 70
     0
  9
$DIMTVP
 40
0.0
  9
$DIMTIX
 70
     0
  9
$DIMSOXD
 70
     0
  9
$DIMSAH
 70
     0
  9
$DIMBLK1
  1

  9
$DIMBLK2
  1

  9
$DIMSTYLE
  2
Standard
  9
$DIMCLRD
 70
     0
  9
$DIMCLRE
 70
     0
  9
$DIMCLRT
 70
     0
  9
$DIMTFAC
 40
1.0
  9
$DIMGAP
 40
0.09
  9
$DIMJUST
 70
     0
  9
$DIMSD1
 70
     0
  9
$DIMSD2
 70
     0
  9
$DIMTOLJ
 70
     1
  9
$DIMTZIN
 70
     0
  9
$DIMALTZ
 70
     0
  9
$DIMALTTZ
 70
     0
  9
$DIMUPT
 70
     0
  9
$DIMDEC
 70
     4
  9
$DIMTDEC
 70
     4
  9
$DIMALTU
 70
     2
  9
$DIMALTTD
 70
     2
  9
$DIMTXSTY
  7
Standard
  9
$DIMAUNIT
 70
     0
  9
$DIMADEC
 70
     0
  9
$DIMALTRND
 40
0.0
  9
$DIMAZIN
 70
     0
  9
$DIMDSEP
 70
    46
  9
$DIMATFIT
 70
     3
  9
$DIMFRAC
 70
     0
  9
$DIMLDRBLK
  1

  9
$DIMLUNIT
 70
     2
  9
$DIMLWD
 70
    -2
  9
$DIMLWE
 70
    -2
  9
$DIMTMOVE
 70
     0
  9
$DIMFXL
 40
1.0
  9
$DIMFXLON
 70
     0
  9
$DIMJOGANG
 40
0.7853981633974483
  9
$DIMTFILL
 70
     0
  9
$DIMTFILLCLR
 70
     0
  9
$DIMARCSYM
 70
     0
  9
$DIMLTYPE
  6

  9
$DIMLTEX1
  6

  9
$DIMLTEX2
  6

  9
$DIMTXTDIRECTION
 70
     0
  9
$LUNITS
 70
     2
  9
$LUPREC
 70
     4
  9
$SKETCHINC
 40
0.1
  9
$FILLETRAD
 40
0.5
  9
$AUNITS
 70
     0
  9
$AUPREC
 70
     0
  9
$MENU
  1
.
  9
$ELEVATION
 40
0.0
  9
$PELEVATION
 40
0.0
  9
$THICKNESS
 40
0.0
  9
$LIMCHECK
 70
     0
  9
$CHAMFERA
 40
0.5
  9
$CHAMFERB
 40
0.5
  9
$CHAMFERC
 40
1.0
  9
$CHAMFERD
 40
0.0
  9
$SKPOLY
 70
     0
  9
$TDCREATE
 40
2457917.587523137
  9
$TDUCREATE
 40
2457917.212523148
  9
$TDUPDATE
 40
2457917.587523137
  9
$TDUUPDATE
 40
2457917.212523148
  9
$TDINDWG
 40
0.0000000116
  9
$TDUSRTIMER
 40
0.0000000116
  9
$USRTIMER
 70
     1
  9
$ANGBASE
 50
0.0
  9
$ANGDIR
 70
     0
  9
$PDMODE
 70
     0
  9
$PDSIZE
 40
0.0
  9
$PLINEWID
 40
0.0
  9
$SPLFRAME
 70
     0
  9
$SPLINETYPE
 70
     6
  9
$SPLINESEGS
 70
     8
  9
$HANDSEED
  5
13E
  9
$SURFTAB1
 70
     6
  9
$SURFTAB2
 70
     6
  9
$SURFTYPE
 70
     6
  9
$SURFU
 70
     6
  9
$SURFV
 70
     6
  9
$UCSBASE
  2

  9
$UCSNAME
  2

  9
$UCSORG
 10
0.0
 20
0.0
 30
0.0
  9
$UCSXDIR
 10
1.0
 20
0.0
 30
0.0
  9
$UCSYDIR
 10
0.0
 20
1.0
 30
0.0
  9
$UCSORTHOREF
  2

  9
$UCSORTHOVIEW
 70
     0
  9
$UCSORGTOP
 10
0.0
 20
0.0
 30
0.0
  9
$UCSORGBOTTOM
 10
0.0
 20
0.0
 30
0.0
  9
$UCSORGLEFT
 10
0.0
 20
0.0
 30
0.0
  9
$UCSORGRIGHT
 10
0.0
 20
0.0
 30
0.0
  9
$UCSORGFRONT
 10
0.0
 20
0.0
 30
0.0
  9
$UCSORGBACK
 10
0.0
 20
0.0
 30
0.0
  9
$PUCSBASE
  2

  9
$PUCSNAME
  2

  9
$PUCSORG
 10
0.0
 20
0.0
 30
0.0
  9
$PUCSXDIR
 10
1.0
 20
0.0
 30
0.0
  9
$PUCSYDIR
 10
0.0
 20
1.0
 30
0.0
  9
$PUCSORTHOREF
  2

  9
$PUCSORTHOVIEW
 70
     0
  9
$PUCSORGTOP
 10
0.0
 20
0.0
 30
0.0
  9
$PUCSORGBOTTOM
 10
0.0
 20
0.0
 30
0.0
  9
$PUCSORGLEFT
 10
0.0
 20
0.0
 30
0.0
  9
$PUCSORGRIGHT
 10
0.0
 20
0.0
 30
0.0
  9
$PUCSORGFRONT
 10
0.0
 20
0.0
 30
0.0
  9
$PUCSORGBACK
 10
0.0
 20
0.0
 30
0.0
  9
$USERI1
 70
     0
  9
$USERI2
 70
     0
  9
$USERI3
 70
     0
  9
$USERI4
 70
     0
  9
$USERI5
 70
     0
  9
$USERR1
 40
0.0
  9
$USERR2
 40
0.0
  9
$USERR3
 40
0.0
  9
$USERR4
 40
0.0
  9
$USERR5
 40
0.0
  9
$WORLDVIEW
 70
     1
  9
$SHADEDGE
 70
     3
  9
$SHADEDIF
 70
    70
  9
$TILEMODE
 70
     1
  9
$MAXACTVP
 70
    64
  9
$PINSBASE
 10
0.0
 20
0.0
 30
0.0
  9
$PLIMCHECK
 70
     0
  9
$PEXTMIN
 10
1.000000000000000E+20
 20
1.000000000000000E+20
 30
1.000000000000000E+20
  9
$PEXTMAX
 10
-1.000000000000000E+20
 20
-1.000000000000000E+20
 30
-1.000000000000000E+20
  9
$PLIMMIN
 10
0.0
 20
0.0
  9
$PLIMMAX
 10
12.0
 20
9.0
  9
$UNITMODE
 70
     0
  9
$VISRETAIN
 70
     1
  9
$PLINEGEN
 70
     0
  9
$PSLTSCALE
 70
     1
  9
$TREEDEPTH
 70
  3020
  9
$CMLSTYLE
  2
Standard
  9
$CMLJUST
 70
     0
  9
$CMLSCALE
 40
1.0
  9
$PROXYGRAPHICS
 70
     1
  9
$MEASUREMENT
 70
     0
  9
$CELWEIGHT
370
    -1
  9
$ENDCAPS
280
     0
  9
$JOINSTYLE
280
     0
  9
$LWDISPLAY
290
     1
  9
$INSUNITS
 70
     1
  9
$HYPERLINKBASE
  1

  9
$STYLESHEET
  1

  9
$XEDIT
290
     1
  9
$CEPSNTYPE
380
     0
  9
$PSTYLEMODE
290
     1
  9
$FINGERPRINTGUID
  2
{5D56C782-D5F8-333C-D676-AF213A3D564A}
  9
$VERSIONGUID
  2
{FAEB1C32-E019-11D5-929B-00C0DF256EC4}
  9
$EXTNAMES
290
     1
  9
$PSVPSCALE
 40
0.0
  9
$OLESTARTUP
290
     0
  9
$SORTENTS
280
   127
  9
$INDEXCTL
280
     0
  9
$HIDETEXT
280
     1
  9
$XCLIPFRAME
280
     2
  9
$HALOGAP
280
     0
  9
$OBSCOLOR
 70
   257
  9
$OBSLTYPE
280
     0
  9
$INTERSECTIONDISPLAY
280
     0
  9
$INTERSECTIONCOLOR
 70
   257
  9
$DIMASSOC
280
     2
  9
$PROJECTNAME
  1

  9
$CAMERADISPLAY
290
     0
  9
$LENSLENGTH
 40
50.0
  9
$CAMERAHEIGHT
 40
0.0
  9
$STEPSPERSEC
 40
2.0
  9
$STEPSIZE
 40
6.0
  9
$3DDWFPREC
 40
2.0
  9
$PSOLWIDTH
 40
0.25
  9
$PSOLHEIGHT
 40
4.0
  9
$LOFTANG1
 40
1.570796326794897
  9
$LOFTANG2
 40
1.570796326794897
  9
$LOFTMAG1
 40
0.0
  9
$LOFTMAG2
 40
0.0
  9
$LOFTPARAM
 70
     7
  9
$LOFTNORMALS
280
     1
  9
$LATITUDE
 40
37.795
  9
$LONGITUDE
 40
-122.394
  9
$NORTHDIRECTION
 40
0.0
  9
$TIMEZONE
 70
 -8000
  9
$LIGHTGLYPHDISPLAY
280
     1
  9
$TILEMODELIGHTSYNCH
280
     1
  9
$CMATERIAL
347
3C
  9
$SOLIDHIST
280
     1
  9
$SHOWHIST
280
     1
  9
$DWFFRAME
280
     2
  9
$DGNFRAME
280
     2
  9
$REALWORLDSCALE
290
     1
  9
$INTERFERECOLOR
 62
   256
  9
$CSHADOW
280
     0
  9
$SHADOWPLANELOCATION
 40
0.0
  0
ENDSEC
  0
SECTION
  2
CLASSES
  0
CLASS
  1
ACDBDICTIONARYWDFLT
  2
AcDbDictionaryWithDefault
  3
ObjectDBX Classes
 90
        0
 91
        4
280
     0
281
     0
  0
CLASS
  1
VISUALSTYLE
  2
AcDbVisualStyle
  3
ObjectDBX Classes
 90
     4095
 91
        4
280
     0
281
     0
  0
CLASS
  1
MATERIAL
  2
AcDbMaterial
  3
ObjectDBX Classes
 90
     1153
 91
        4
280
     0
281
     0
  0
CLASS
  1
SUN
  2
AcDbSun
  3
SCENEOE
 90
     1024
 91
        4
280
     0
281
     0
  0
ENDSEC
  0
SECTION
  2
TABLES
  0
TABLE
  2
VPORT
  5
8
330
0
100
AcDbSymbolTable
 70
     1
  0
VPORT
  5
29
330
8
100
AcDbSymbolTableRecord
100
AcDbViewportTableRecord
  2
*Active
 70
     0
 10
0.0
 20
0.0
 11
1.0
 21
1.0
 12
0.0
 22
0.0
 13
0.0
 23
0.0
 14
0.5
 24
0.5
 15
0.5
 25
0.5
 16
0.0
 26
0.0
 36
1.0
 17
105.0008280156501
 27
-148.4999710739862
 37
0.0
 40
296.9999421479724
 41
0.7070764206636528
 42
50.0
 43
0.0
 44
0.0
 50
0.0
 51
0.0
 71
     0
 72
   100
 73
     1
 74
     3
 75
     0
 76
     0
 77
     0
 78
     0
281
     0
 65
     1
110
0.0
120
0.0
130
0.0
111
1.0
121
0.0
131
0.0
112
0.0
122
1.0
132
0.0
 79
     0
146
0.0
 60
     3
 61
     5
292
     1
282
     1
141
0.0
142
0.0
 63
   250
361
3F
  0
ENDTAB
  0
TABLE
  2
LTYPE
  5
5
330
0
100
AcDbSymbolTable
 70
     1
  0
LTYPE
  5
14
330
5
100
AcDbSymbolTableRecord
100
AcDbLinetypeTableRecord
  2
ByBlock
 70
     0
  3

 72
    65
 73
     0
 40
0.0
  0
LTYPE
  5
15
330
5
100
AcDbSymbolTableRecord
100
AcDbLinetypeTableRecord
  2
ByLayer
 70
     0
  3

 72
    65
 73
     0
 40
0.0
  0
LTYPE
  5
16
330
5
100
AcDbSymbolTableRecord
100
AcDbLinetypeTableRecord
  2
Continuous
 70
     0
  3
Solid line
 72
    65
 73
     0
 40
0.0
  0
ENDTAB
  0
TABLE
  2
LAYER
  5
2
330
0
100
AcDbSymbolTable
 70
     2
  0
LAYER
  5
10
330
2
100
AcDbSymbolTableRecord
100
AcDbLayerTableRecord
  2
0
 70
     0
 62
     7
  6
Continuous
370
    -3
390
F
347
3E
  0
LAYER
  5
40
330
2
100
AcDbSymbolTableRecord
100
AcDbLayerTableRecord
  2
_U+30EC_U+30A4_U+30E4_U+30FC 1
 70
     0
 62
     7
  6
Continuous
370
    -3
390
F
347
3E
  0
ENDTAB
  0
TABLE
  2
STYLE
  5
3
330
0
100
AcDbSymbolTable
 70
     1
  0
STYLE
  5
11
330
3
100
AcDbSymbolTableRecord
100
AcDbTextStyleTableRecord
  2
Standard
 70
     0
 40
0.0
 41
1.0
 50
0.0
 71
     0
 42
0.2
  3
txt
  4

  0
ENDTAB
  0
TABLE
  2
VIEW
  5
6
330
0
100
AcDbSymbolTable
 70
     0
  0
ENDTAB
  0
TABLE
  2
UCS
  5
7
330
0
100
AcDbSymbolTable
 70
     0
  0
ENDTAB
  0
TABLE
  2
APPID
  5
9
330
0
100
AcDbSymbolTable
 70
     1
  0
APPID
  5
12
330
9
100
AcDbSymbolTableRecord
100
AcDbRegAppTableRecord
  2
ACAD
 70
     0
  0
ENDTAB
  0
TABLE
  2
DIMSTYLE
  5
A
330
0
100
AcDbSymbolTable
 70
     1
100
AcDbDimStyleTable
  0
DIMSTYLE
105
27
330
A
100
AcDbSymbolTableRecord
100
AcDbDimStyleTableRecord
  2
Standard
 70
     0
178
     0
340
11
  0
ENDTAB
  0
TABLE
  2
BLOCK_RECORD
  5
1
330
0
100
AcDbSymbolTable
 70
    13
  0
BLOCK_RECORD
  5
1F
330
1
100
AcDbSymbolTableRecord
100
AcDbBlockTableRecord
  2
*Model_Space
340
22
 70
     0
280
     1
281
     0
  0
BLOCK_RECORD
  5
1B
330
1
100
AcDbSymbolTableRecord
100
AcDbBlockTableRecord
  2
*Paper_Space
340
1E
 70
     0
280
     1
281
     0
  0
BLOCK_RECORD
  5
23
330
1
100
AcDbSymbolTableRecord
100
AcDbBlockTableRecord
  2
*Paper_Space0
340
26
 70
     0
280
     1
281
     0
  0
BLOCK_RECORD
  5
84
330
1
100
AcDbSymbolTableRecord
100
AcDbBlockTableRecord
  2
block 2
340
0
102
{BLKREFS
331
85
102
}
 70
     0
280
     1
281
     0
  0
BLOCK_RECORD
  5
98
330
1
100
AcDbSymbolTableRecord
100
AcDbBlockTableRecord
  2
block 3
340
0
102
{BLKREFS
331
99
102
}
 70
     0
280
     1
281
     0
  0
BLOCK_RECORD
  5
AA
330
1
100
AcDbSymbolTableRecord
100
AcDbBlockTableRecord
  2
block 4
340
0
102
{BLKREFS
331
AB
102
}
 70
     0
280
     1
281
     0
  0
BLOCK_RECORD
  5
B2
330
1
100
AcDbSymbolTableRecord
100
AcDbBlockTableRecord
  2
block 5
340
0
102
{BLKREFS
331
B3
102
}
 70
     0
280
     1
281
     0
  0
BLOCK_RECORD
  5
C6
330
1
100
AcDbSymbolTableRecord
100
AcDbBlockTableRecord
  2
block 6
340
0
102
{BLKREFS
331
C7
102
}
 70
     0
280
     1
281
     0
  0
BLOCK_RECORD
  5
D7
330
1
100
AcDbSymbolTableRecord
100
AcDbBlockTableRecord
  2
block 7
340
0
102
{BLKREFS
331
D8
102
}
 70
     0
280
     1
281
     0
  0
BLOCK_RECORD
  5
E7
330
1
100
AcDbSymbolTableRecord
100
AcDbBlockTableRecord
  2
block 8
340
0
102
{BLKREFS
331
E8
102
}
 70
     0
280
     1
281
     0
  0
BLOCK_RECORD
  5
F8
330
1
100
AcDbSymbolTableRecord
100
AcDbBlockTableRecord
  2
block 9
340
0
102
{BLKREFS
331
F9
102
}
 70
     0
280
     1
281
     0
  0
BLOCK_RECORD
  5
100
330
1
100
AcDbSymbolTableRecord
100
AcDbBlockTableRecord
  2
block 10
340
0
102
{BLKREFS
331
101
102
}
 70
     0
280
     1
281
     0
  0
BLOCK_RECORD
  5
114
330
1
100
AcDbSymbolTableRecord
100
AcDbBlockTableRecord
  2
block 11
340
0
102
{BLKREFS
331
115
102
}
 70
     0
280
     1
281
     0
  0
BLOCK_RECORD
  5
11A
330
1
100
AcDbSymbolTableRecord
100
AcDbBlockTableRecord
  2
block 12
340
0
102
{BLKREFS
331
11B
102
}
 70
     0
280
     1
281
     0
  0
BLOCK_RECORD
  5
12A
330
1
100
AcDbSymbolTableRecord
100
AcDbBlockTableRecord
  2
block 13
340
0
102
{BLKREFS
331
12B
102
}
 70
     0
280
     1
281
     0
  0
ENDTAB
  0
ENDSEC
  0
SECTION
  2
BLOCKS
  0
BLOCK
  5
20
330
1F
100
AcDbEntity
  8
0
100
AcDbBlockBegin
  2
*Model_Space
 70
     0
 10
0.0
 20
0.0
 30
0.0
  3
*Model_Space
  1

  0
ENDBLK
  5
21
330
1F
100
AcDbEntity
  8
0
100
AcDbBlockEnd
  0
BLOCK
  5
1C
330
1B
100
AcDbEntity
 67
     1
  8
0
100
AcDbBlockBegin
  2
*Paper_Space
 70
     0
 10
0.0
 20
0.0
 30
0.0
  3
*Paper_Space
  1

  0
ENDBLK
  5
1D
330
1B
100
AcDbEntity
 67
     1
  8
0
100
AcDbBlockEnd
  0
BLOCK
  5
24
330
23
100
AcDbEntity
  8
0
100
AcDbBlockBegin
  2
*Paper_Space0
 70
     0
 10
0.0
 20
0.0
 30
0.0
  3
*Paper_Space0
  1

  0
ENDBLK
  5
25
330
23
100
AcDbEntity
  8
0
100
AcDbBlockEnd
  0
BLOCK
  5
86
330
84
100
AcDbEntity
  8
0
100
AcDbBlockBegin
  2
block 2
 70
     0
 10
0.0
 20
0.0
 30
0.0
  3
block 2
  1

  0
POLYLINE
  5
88
330
84
100
AcDbEntity
  8
_U+30EC_U+30A4_U+30E4_U+30FC 1
 62
   179
420
  2234388
370
     9
100
AcDb2dPolyline
 66
     1
 10
0.0
 20
0.0
 30
0.0
  0
VERTEX
  5
89
330
88
100
AcDbEntity
  8
_U+30EC_U+30A4_U+30E4_U+30FC 1
 62
   179
420
  2234388
370
     9
100
AcDbVertex
100
AcDb2dVertex
 10
126.6644345462988
 20
-141.6845513534678
 30
0.0
  0
VERTEX
  5
8A
330
88
100
AcDbEntity
  8
_U+30EC_U+30A4_U+30E4_U+30FC 1
 62
   179
420
  2234388
370
     9
100
AcDbVertex
100
AcDb2dVertex
 10
126.6644345462988
 20
-137.9142388544104
 30
0.0
  0
SEQEND
  5
8B
330
88
100
AcDbEntity
  8
_U+30EC_U+30A4_U+30E4_U+30FC 1
 62
   179
420
  2234388
370
     9
  0
POLYLINE
  5
8C
330
84
100
AcDbEntity
  8
_U+30EC_U+30A4_U+30E4_U+30FC 1
 62
   179
420
  2234388
370
     9
100
AcDb2dPolyline
 66
     1
 10
0.0
 20
0.0
 30
0.0
  0
VERTEX
  5
8D
330
8C
100
AcDbEntity
  8
_U+30EC_U+30A4_U+30E4_U+30FC 1
 62
   179
420
  2234388
370
     9
100
AcDbVertex
100
AcDb2dVertex
 10
126.6644345462988
 20
-141.6845513534678
 30
0.0
  0
VERTEX
  5
8E
330
8C
100
AcDbEntity
  8
_U+30EC_U+30A4_U+30E4_U+30FC 1
 62
   179
420
  2234388
370
     9
100
AcDbVertex
100
AcDb2dVertex
 10
126.6644345462988
 20
-142.68432357544
 30
0.0
  0
SEQEND
  5
8F
330
8C
100
AcDbEntity
  8
_U+30EC_U+30A4_U+30E4_U+30FC 1
 62
   179
420
  2234388
370
     9
  0
POLYLINE
  5
90
330
84
100
AcDbEntity
  8
_U+30EC_U+30A4_U+30E4_U+30FC 1
 62
   179
420
  2234388
370
     9
100
AcDb2dPolyline
 66
     1
 10
0.0
 20
0.0
 30
0.0
  0
VERTEX
  5
91
330
90
100
AcDbEntity
  8
_U+30EC_U+30A4_U+30E4_U+30FC 1
 62
   179
420
  2234388
370
     9
100
AcDbVertex
100
AcDb2dVertex
 10
125.2044284724356
 20
-141.6845513534678
 30
0.0
  0
VERTEX
  5
92
330
90
100
AcDbEntity
  8
_U+30EC_U+30A4_U+30E4_U+30FC 1
 62
   179
420
  2234388
370
     9
100
AcDbVertex
100
AcDb2dVertex
 10
127.6642067430147
 20
-141.6845513534678
 30
0.0
  0
SEQEND
  5
93
330
90
100
AcDbEntity
  8
_U+30EC_U+30A4_U+30E4_U+30FC 1
 62
   179
420
  2234388
370
     9
  0
POLYLINE
  5
94
330
84
100
AcDbEntity
  8
_U+30EC_U+30A4_U+30E4_U+30FC 1
 62
   179
420
  2234388
370
     9
100
AcDb2dPolyline
 66
     1
 10
0.0
 20
0.0
 30
0.0
  0
VERTEX
  5
95
330
94
100
AcDbEntity
  8
_U+30EC_U+30A4_U+30E4_U+30FC 1
 62
   179
420
  2234388
370
     9
100
AcDbVertex
100
AcDb2dVertex
 10
125.2044284724356
 20
-142.68432357544
 30
0.0
  0
VERTEX
  5
96
330
94
100
AcDbEntity
  8
_U+30EC_U+30A4_U+30E4_U+30FC 1
 62
   179
420
  2234388
370
     9
100
AcDbVertex
100
AcDb2dVertex
 10
127.6642067430147
 20
-142.68432357544
 30
0.0
  0
SEQEND
  5
97
330
94
100
AcDbEntity
  8
_U+30EC_U+30A4_U+30E4_U+30FC 1
 62
   179
420
  2234388
370
     9
  0
INSERT
  5
99
330
84
100
AcDbEntity
  8
_U+30EC_U+30A4_U+30E4_U+30FC 1
100
AcDbBlockReference
  2
block 3
 10
0.0
 20
0.0
 30
0.0
  0
ENDBLK
  5
87
330
84
100
AcDbEntity
  8
0
100
AcDbBlockEnd
  0
BLOCK
  5
9A
330
98
100
AcDbEntity
  8
0
100
AcDbBlockBegin
  2
block 3
 70
     0
 10
0.0
 20
0.0
 30
0.0
  3
block 3
  1

  0
SPLINE
  5
9C
330
98
100
AcDbEntity
  8
_U+30EC_U+30A4_U+30E4_U+30FC 1
370
     0
100
AcDbSpline
210
0.0
220
0.0
230
1.0
 70
    11
 71
     3
 72
    26
 73
    22
 74
     0
 42
0.0000000001
 43
0.0000000001
 12
1.0
 22
0.0
 32
0.0
 13
1.0
 23
0.0
 33
0.0
 40
0.0
 40
0.0
 40
0.0
 40
0.0
 40
1.0
 40
1.0
 40
1.0
 40
2.0
 40
2.0
 40
2.0
 40
3.0
 40
3.0
 40
3.0
 40
4.0
 40
4.0
 40
4.0
 40
5.0
 40
5.0
 40
5.0
 40
6.0
 40
6.0
 40
6.0
 40
7.0
 40
7.0
 40
7.0
 40
7.0
 10
125.3129367091232
 20
-138.7367512673991
 30
0.0
 10
125.3129367091232
 20
-138.7367512673991
 30
0.0
 10
124.2087836061006
 20
-138.7367512673991
 30
0.0
 10
124.2087836061006
 20
-138.7367512673991
 30
0.0
 10
124.2087836061006
 20
-138.7367512673991
 30
0.0
 10
124.2087836061006
 20
-139.0891845355402
 30
0.0
 10
124.2087836061006
 20
-139.0891845355402
 30
0.0
 10
124.2087836061006
 20
-139.0891845355402
 30
0.0
 10
124.0606445002348
 20
-139.0891845355402
 30
0.0
 10
124.0606445002348
 20
-139.0891845355402
 30
0.0
 10
124.0458305896483
 20
-138.7343397005595
 30
0.0
 10
123.882877573196
 20
-138.6847303255719
 30
0.0
 10
123.7685004030857
 20
-138.6530354471076
 30
0.0
 10
123.7685004030857
 20
-138.6530354471076
 30
0.0
 10
123.7685004030857
 20
-138.4969726216258
 30
0.0
 10
123.7685004030857
 20
-138.4969726216258
 30
0.0
 10
123.7685004030857
 20
-138.4969726216258
 30
0.0
 10
125.3129367091232
 20
-138.4969726216258
 30
0.0
 10
125.3129367091232
 20
-138.4969726216258
 30
0.0
 10
125.3129367091232
 20
-138.4969726216258
 30
0.0
 10
125.3129367091232
 20
-138.7367512673991
 30
0.0
 10
125.3129367091232
 20
-138.7367512673991
 30
0.0
  0
HATCH
  5
9D
330
98
100
AcDbEntity
  8
_U+30EC_U+30A4_U+30E4_U+30FC 1
 62
   179
420
  2234388
100
AcDbHatch
 10
0.0
 20
0.0
 30
0.0
210
0.0
220
0.0
230
1.0
  2
SOLID
 70
     1
 71
     0
 91
        1
 92
        1
 93
        1
 72
     4
 94
        3
 73
     0
 74
     1
 95
       26
 96
       22
 40
0.0
 40
0.0
 40
0.0
 40
0.0
 40
1.0
 40
1.0
 40
1.0
 40
2.0
 40
2.0
 40
2.0
 40
3.0
 40
3.0
 40
3.0
 40
4.0
 40
4.0
 40
4.0
 40
5.0
 40
5.0
 40
5.0
 40
6.0
 40
6.0
 40
6.0
 40
7.0
 40
7.0
 40
7.0
 40
7.0
 10
125.3129367091232
 20
-138.7367512673991
 10
125.3129367091232
 20
-138.7367512673991
 10
124.2087836061006
 20
-138.7367512673991
 10
124.2087836061006
 20
-138.7367512673991
 10
124.2087836061006
 20
-138.7367512673991
 10
124.2087836061006
 20
-139.0891845355402
 10
124.2087836061006
 20
-139.0891845355402
 10
124.2087836061006
 20
-139.0891845355402
 10
124.0606445002348
 20
-139.0891845355402
 10
124.0606445002348
 20
-139.0891845355402
 10
124.0458305896483
 20
-138.7343397005595
 10
123.882877573196
 20
-138.6847303255719
 10
123.7685004030857
 20
-138.6530354471076
 10
123.7685004030857
 20
-138.6530354471076
 10
123.7685004030857
 20
-138.4969726216258
 10
123.7685004030857
 20
-138.4969726216258
 10
123.7685004030857
 20
-138.4969726216258
 10
125.3129367091232
 20
-138.4969726216258
 10
125.3129367091232
 20
-138.4969726216258
 10
125.3129367091232
 20
-138.4969726216258
 10
125.3129367091232
 20
-138.7367512673991
 10
125.3129367091232
 20
-138.7367512673991
 97
        0
 97
        0
 75
     2
 76
     1
 98
        0
  0
ENDBLK
  5
9B
330
98
100
AcDbEntity
  8
0
100
AcDbBlockEnd
  0
BLOCK
  5
AC
330
AA
100
AcDbEntity
  8
0
100
AcDbBlockBegin
  2
block 4
 70
     0
 10
0.0
 20
0.0
 30
0.0
  3
block 4
  1

  0
SPLINE
  5
AE
330
AA
100
AcDbEntity
  8
_U+30EC_U+30A4_U+30E4_U+30FC 1
370
     0
100
AcDbSpline
210
0.0
220
0.0
230
1.0
 70
    11
 71
     3
 72
    62
 73
    58
 74
     0
 42
0.0000000001
 43
0.0000000001
 12
1.0
 22
0.0
 32
0.0
 13
1.0
 23
0.0
 33
0.0
 40
0.0
 40
0.0
 40
0.0
 40
0.0
 40
1.0
 40
1.0
 40
1.0
 40
2.0
 40
2.0
 40
2.0
 40
3.0
 40
3.0
 40
3.0
 40
4.0
 40
4.0
 40
4.0
 40
5.0
 40
5.0
 40
5.0
 40
6.0
 40
6.0
 40
6.0
 40
7.0
 40
7.0
 40
7.0
 40
8.0
 40
8.0
 40
8.0
 40
9.0
 40
9.0
 40
9.0
 40
10.0
 40
10.0
 40
10.0
 40
11.0
 40
11.0
 40
11.0
 40
12.0
 40
12.0
 40
12.0
 40
13.0
 40
13.0
 40
13.0
 40
14.0
 40
14.0
 40
14.0
 40
15.0
 40
15.0
 40
15.0
 40
16.0
 40
16.0
 40
16.0
 40
17.0
 40
17.0
 40
17.0
 40
18.0
 40
18.0
 40
18.0
 40
19.0
 40
19.0
 40
19.0
 40
19.0
 10
105.4667751472444
 20
-136.3835787961993
 30
0.0
 10
105.3651448304296
 20
-136.3835787961993
 30
0.0
 10
105.1322563756267
 20
-136.362391458965
 30
0.0
 10
104.9987589255732
 20
-136.1761840479872
 30
0.0
 10
104.9196939841868
 20
-136.0640461899423
 30
0.0
 10
104.9152153600559
 20
-135.9646551851929
 30
0.0
 10
104.9105644811508
 20
-135.88007809103
 30
0.0
 10
104.9105644811508
 20
-135.88007809103
 30
0.0
 10
105.1458645027934
 20
-135.88007809103
 30
0.0
 10
105.1458645027934
 20
-135.88007809103
 30
0.0
 10
105.1481038148588
 20
-135.9541476439629
 30
0.0
 10
105.1593003751859
 20
-136.1889309012826
 30
0.0
 10
105.4622965231136
 20
-136.1889309012826
 30
0.0
 10
105.6094021003338
 20
-136.1889309012826
 30
0.0
 10
105.7720106072376
 20
-136.1191677177063
 30
0.0
 10
105.7720106072376
 20
-135.89058563226
 30
0.0
 10
105.7720106072376
 20
-135.7743136596328
 30
0.0
 10
105.7313584805116
 20
-135.7255655585165
 30
0.0
 10
105.6975965447562
 20
-135.6938706800522
 30
0.0
 10
105.6183593485954
 20
-135.6198011271194
 30
0.0
 10
105.4939914015779
 20
-135.6072265285982
 30
0.0
 10
105.4352525235544
 20
-135.6072265285982
 30
0.0
 10
105.4147542054172
 20
-135.6072265285982
 30
0.0
 10
105.3763413907566
 20
-135.6092935858894
 30
0.0
 10
105.347058079132
 20
-135.6134277004716
 30
0.0
 10
105.347058079132
 20
-135.6134277004716
 30
0.0
 10
105.347058079132
 20
-135.418779805555
 30
0.0
 10
105.347058079132
 20
-135.418779805555
 30
0.0
 10
105.3877102058579
 20
-135.4251532322027
 30
0.0
 10
105.4328409567147
 20
-135.4273925442681
 30
0.0
 10
105.4397311476852
 20
-135.4273925442681
 30
0.0
 10
105.50983884081
 20
-135.4273925442681
 30
0.0
 10
105.72240123225
 20
-135.4062052070339
 30
0.0
 10
105.72240123225
 20
-135.1691826376487
 30
0.0
 10
105.72240123225
 20
-134.991587965384
 30
0.0
 10
105.5821858460003
 20
-134.9364664376201
 30
0.0
 10
105.464535835179
 20
-134.9364664376201
 30
0.0
 10
105.1820380053885
 20
-134.9364664376201
 30
0.0
 10
105.1729085023526
 20
-135.1691826376487
 30
0.0
 10
105.1684298782218
 20
-135.2411851332904
 30
0.0
 10
105.1684298782218
 20
-135.2411851332904
 30
0.0
 10
104.951388862651
 20
-135.2411851332904
 30
0.0
 10
104.951388862651
 20
-135.2411851332904
 30
0.0
 10
104.9603461109127
 20
-135.1163004219501
 30
0.0
 10
104.9898016773116
 20
-134.7397514854123
 30
0.0
 10
105.4781439623457
 20
-134.7397514854123
 30
0.0
 10
105.7175780985706
 20
-134.7397514854123
 30
0.0
 10
105.9752712408673
 20
-134.8667032540438
 30
0.0
 10
105.9752712408673
 20
-135.162809211001
 30
0.0
 10
105.9752712408673
 20
-135.3490166219787
 30
0.0
 10
105.873985433601
 20
-135.4315266588505
 30
0.0
 10
105.7675319831067
 20
-135.4928493584879
 30
0.0
 10
105.833333306875
 20
-135.5204101223699
 30
0.0
 10
106.0276366922431
 20
-135.6008531019505
 30
0.0
 10
106.0276366922431
 20
-135.8780110337388
 30
0.0
 10
106.0276366922431
 20
-136.2164916651646
 30
0.0
 10
105.7630533589759
 20
-136.3835787961993
 30
0.0
 10
105.4667751472444
 20
-136.3835787961993
 30
0.0
  0
HATCH
  5
AF
330
AA
100
AcDbEntity
  8
_U+30EC_U+30A4_U+30E4_U+30FC 1
 62
   179
420
  2234388
100
AcDbHatch
 10
0.0
 20
0.0
 30
0.0
210
0.0
220
0.0
230
1.0
  2
SOLID
 70
     1
 71
     0
 91
        1
 92
        1
 93
        1
 72
     4
 94
        3
 73
     0
 74
     1
 95
       62
 96
       58
 40
0.0
 40
0.0
 40
0.0
 40
0.0
 40
1.0
 40
1.0
 40
1.0
 40
2.0
 40
2.0
 40
2.0
 40
3.0
 40
3.0
 40
3.0
 40
4.0
 40
4.0
 40
4.0
 40
5.0
 40
5.0
 40
5.0
 40
6.0
 40
6.0
 40
6.0
 40
7.0
 40
7.0
 40
7.0
 40
8.0
 40
8.0
 40
8.0
 40
9.0
 40
9.0
 40
9.0
 40
10.0
 40
10.0
 40
10.0
 40
11.0
 40
11.0
 40
11.0
 40
12.0
 40
12.0
 40
12.0
 40
13.0
 40
13.0
 40
13.0
 40
14.0
 40
14.0
 40
14.0
 40
15.0
 40
15.0
 40
15.0
 40
16.0
 40
16.0
 40
16.0
 40
17.0
 40
17.0
 40
17.0
 40
18.0
 40
18.0
 40
18.0
 40
19.0
 40
19.0
 40
19.0
 40
19.0
 10
105.4667751472444
 20
-136.3835787961993
 10
105.3651448304296
 20
-136.3835787961993
 10
105.1322563756267
 20
-136.362391458965
 10
104.9987589255732
 20
-136.1761840479872
 10
104.9196939841868
 20
-136.0640461899423
 10
104.9152153600559
 20
-135.9646551851929
 10
104.9105644811508
 20
-135.88007809103
 10
104.9105644811508
 20
-135.88007809103
 10
105.1458645027934
 20
-135.88007809103
 10
105.1458645027934
 20
-135.88007809103
 10
105.1481038148588
 20
-135.9541476439629
 10
105.1593003751859
 20
-136.1889309012826
 10
105.4622965231136
 20
-136.1889309012826
 10
105.6094021003338
 20
-136.1889309012826
 10
105.7720106072376
 20
-136.1191677177063
 10
105.7720106072376
 20
-135.89058563226
 10
105.7720106072376
 20
-135.7743136596328
 10
105.7313584805116
 20
-135.7255655585165
 10
105.6975965447562
 20
-135.6938706800522
 10
105.6183593485954
 20
-135.6198011271194
 10
105.4939914015779
 20
-135.6072265285982
 10
105.4352525235544
 20
-135.6072265285982
 10
105.4147542054172
 20
-135.6072265285982
 10
105.3763413907566
 20
-135.6092935858894
 10
105.347058079132
 20
-135.6134277004716
 10
105.347058079132
 20
-135.6134277004716
 10
105.347058079132
 20
-135.418779805555
 10
105.347058079132
 20
-135.418779805555
 10
105.3877102058579
 20
-135.4251532322027
 10
105.4328409567147
 20
-135.4273925442681
 10
105.4397311476852
 20
-135.4273925442681
 10
105.50983884081
 20
-135.4273925442681
 10
105.72240123225
 20
-135.4062052070339
 10
105.72240123225
 20
-135.1691826376487
 10
105.72240123225
 20
-134.991587965384
 10
105.5821858460003
 20
-134.9364664376201
 10
105.464535835179
 20
-134.9364664376201
 10
105.1820380053885
 20
-134.9364664376201
 10
105.1729085023526
 20
-135.1691826376487
 10
105.1684298782218
 20
-135.2411851332904
 10
105.1684298782218
 20
-135.2411851332904
 10
104.951388862651
 20
-135.2411851332904
 10
104.951388862651
 20
-135.2411851332904
 10
104.9603461109127
 20
-135.1163004219501
 10
104.9898016773116
 20
-134.7397514854123
 10
105.4781439623457
 20
-134.7397514854123
 10
105.7175780985706
 20
-134.7397514854123
 10
105.9752712408673
 20
-134.8667032540438
 10
105.9752712408673
 20
-135.162809211001
 10
105.9752712408673
 20
-135.3490166219787
 10
105.873985433601
 20
-135.4315266588505
 10
105.7675319831067
 20
-135.4928493584879
 10
105.833333306875
 20
-135.5204101223699
 10
106.0276366922431
 20
-135.6008531019505
 10
106.0276366922431
 20
-135.8780110337388
 10
106.0276366922431
 20
-136.2164916651646
 10
105.7630533589759
 20
-136.3835787961993
 10
105.4667751472444
 20
-136.3835787961993
 97
        0
 97
        0
 75
     2
 76
     1
 98
        0
  0
SPLINE
  5
B0
330
AA
100
AcDbEntity
  8
_U+30EC_U+30A4_U+30E4_U+30FC 1
370
     0
100
AcDbSpline
210
0.0
220
0.0
230
1.0
 70
    11
 71
     3
 72
    62
 73
    58
 74
     0
 42
0.0000000001
 43
0.0000000001
 12
1.0
 22
0.0
 32
0.0
 13
1.0
 23
0.0
 33
0.0
 40
0.0
 40
0.0
 40
0.0
 40
0.0
 40
1.0
 40
1.0
 40
1.0
 40
2.0
 40
2.0
 40
2.0
 40
3.0
 40
3.0
 40
3.0
 40
4.0
 40
4.0
 40
4.0
 40
5.0
 40
5.0
 40
5.0
 40
6.0
 40
6.0
 40
6.0
 40
7.0
 40
7.0
 40
7.0
 40
8.0
 40
8.0
 40
8.0
 40
9.0
 40
9.0
 40
9.0
 40
10.0
 40
10.0
 40
10.0
 40
11.0
 40
11.0
 40
11.0
 40
12.0
 40
12.0
 40
12.0
 40
13.0
 40
13.0
 40
13.0
 40
14.0
 40
14.0
 40
14.0
 40
15.0
 40
15.0
 40
15.0
 40
16.0
 40
16.0
 40
16.0
 40
17.0
 40
17.0
 40
17.0
 40
18.0
 40
18.0
 40
18.0
 40
19.0
 40
19.0
 40
19.0
 40
19.0
 10
106.7245795089091
 20
-136.3835787961993
 30
0.0
 10
106.6229491920943
 20
-136.3835787961993
 30
0.0
 10
106.3900607372914
 20
-136.362391458965
 30
0.0
 10
106.2563910324637
 20
-136.1761840479872
 30
0.0
 10
106.1774983458515
 20
-136.0640461899423
 30
0.0
 10
106.1730197217206
 20
-135.9646551851929
 30
0.0
 10
106.1681965880413
 20
-135.88007809103
 30
0.0
 10
106.1681965880413
 20
-135.88007809103
 30
0.0
 10
106.4038411192324
 20
-135.88007809103
 30
0.0
 10
106.4038411192324
 20
-135.88007809103
 30
0.0
 10
106.4059081765235
 20
-135.9541476439629
 30
0.0
 10
106.4169324820763
 20
-136.1889309012826
 30
0.0
 10
106.7201008847783
 20
-136.1889309012826
 30
0.0
 10
106.86686195245
 20
-136.1889309012826
 30
0.0
 10
107.0298149689023
 20
-136.1191677177063
 30
0.0
 10
107.0298149689023
 20
-135.89058563226
 30
0.0
 10
107.0298149689023
 20
-135.7743136596328
 30
0.0
 10
106.9891628421763
 20
-135.7255655585165
 30
0.0
 10
106.9550563968724
 20
-135.6938706800522
 30
0.0
 10
106.8761637102601
 20
-135.6198011271194
 30
0.0
 10
106.7517957632426
 20
-135.6072265285982
 30
0.0
 10
106.6932291399934
 20
-135.6072265285982
 30
0.0
 10
106.6725585670819
 20
-135.6072265285982
 30
0.0
 10
106.6339734976471
 20
-135.6092935858894
 30
0.0
 10
106.605034695571
 20
-135.6134277004716
 30
0.0
 10
106.605034695571
 20
-135.6134277004716
 30
0.0
 10
106.605034695571
 20
-135.418779805555
 30
0.0
 10
106.605034695571
 20
-135.418779805555
 30
0.0
 10
106.6456868222969
 20
-135.4251532322027
 30
0.0
 10
106.6904730636052
 20
-135.4273925442681
 30
0.0
 10
106.6973632545757
 20
-135.4273925442681
 30
0.0
 10
106.7676432024748
 20
-135.4273925442681
 30
0.0
 10
106.9798610843661
 20
-135.4062052070339
 30
0.0
 10
106.9798610843661
 20
-135.1691826376487
 30
0.0
 10
106.9798610843661
 20
-134.991587965384
 30
0.0
 10
106.839990207665
 20
-134.9364664376201
 30
0.0
 10
106.7221679420695
 20
-134.9364664376201
 30
0.0
 10
106.439670112279
 20
-134.9364664376201
 30
0.0
 10
106.4307128640173
 20
-135.1691826376487
 30
0.0
 10
106.4262342398865
 20
-135.2411851332904
 30
0.0
 10
106.4262342398865
 20
-135.2411851332904
 30
0.0
 10
106.2091932243158
 20
-135.2411851332904
 30
0.0
 10
106.2091932243158
 20
-135.2411851332904
 30
0.0
 10
106.2181504725774
 20
-135.1163004219501
 30
0.0
 10
106.247433784202
 20
-134.7397514854123
 30
0.0
 10
106.7359483240105
 20
-134.7397514854123
 30
0.0
 10
106.9757269697838
 20
-134.7397514854123
 30
0.0
 10
107.2334201120805
 20
-134.8667032540438
 30
0.0
 10
107.2334201120805
 20
-135.162809211001
 30
0.0
 10
107.2334201120805
 20
-135.3490166219787
 30
0.0
 10
107.1314452857171
 20
-135.4315266588505
 30
0.0
 10
107.0253363447714
 20
-135.4928493584879
 30
0.0
 10
107.0907931589912
 20
-135.5204101223699
 30
0.0
 10
107.2850965443593
 20
-135.6008531019505
 30
0.0
 10
107.2850965443593
 20
-135.8780110337388
 30
0.0
 10
107.2850965443593
 20
-136.2164916651646
 30
0.0
 10
107.0208577206406
 20
-136.3835787961993
 30
0.0
 10
106.7245795089091
 20
-136.3835787961993
 30
0.0
  0
HATCH
  5
B1
330
AA
100
AcDbEntity
  8
_U+30EC_U+30A4_U+30E4_U+30FC 1
 62
   179
420
  2234388
100
AcDbHatch
 10
0.0
 20
0.0
 30
0.0
210
0.0
220
0.0
230
1.0
  2
SOLID
 70
     1
 71
     0
 91
        1
 92
        1
 93
        1
 72
     4
 94
        3
 73
     0
 74
     1
 95
       62
 96
       58
 40
0.0
 40
0.0
 40
0.0
 40
0.0
 40
1.0
 40
1.0
 40
1.0
 40
2.0
 40
2.0
 40
2.0
 40
3.0
 40
3.0
 40
3.0
 40
4.0
 40
4.0
 40
4.0
 40
5.0
 40
5.0
 40
5.0
 40
6.0
 40
6.0
 40
6.0
 40
7.0
 40
7.0
 40
7.0
 40
8.0
 40
8.0
 40
8.0
 40
9.0
 40
9.0
 40
9.0
 40
10.0
 40
10.0
 40
10.0
 40
11.0
 40
11.0
 40
11.0
 40
12.0
 40
12.0
 40
12.0
 40
13.0
 40
13.0
 40
13.0
 40
14.0
 40
14.0
 40
14.0
 40
15.0
 40
15.0
 40
15.0
 40
16.0
 40
16.0
 40
16.0
 40
17.0
 40
17.0
 40
17.0
 40
18.0
 40
18.0
 40
18.0
 40
19.0
 40
19.0
 40
19.0
 40
19.0
 10
106.7245795089091
 20
-136.3835787961993
 10
106.6229491920943
 20
-136.3835787961993
 10
106.3900607372914
 20
-136.362391458965
 10
106.2563910324637
 20
-136.1761840479872
 10
106.1774983458515
 20
-136.0640461899423
 10
106.1730197217206
 20
-135.9646551851929
 10
106.1681965880413
 20
-135.88007809103
 10
106.1681965880413
 20
-135.88007809103
 10
106.4038411192324
 20
-135.88007809103
 10
106.4038411192324
 20
-135.88007809103
 10
106.4059081765235
 20
-135.9541476439629
 10
106.4169324820763
 20
-136.1889309012826
 10
106.7201008847783
 20
-136.1889309012826
 10
106.86686195245
 20
-136.1889309012826
 10
107.0298149689023
 20
-136.1191677177063
 10
107.0298149689023
 20
-135.89058563226
 10
107.0298149689023
 20
-135.7743136596328
 10
106.9891628421763
 20
-135.7255655585165
 10
106.9550563968724
 20
-135.6938706800522
 10
106.8761637102601
 20
-135.6198011271194
 10
106.7517957632426
 20
-135.6072265285982
 10
106.6932291399934
 20
-135.6072265285982
 10
106.6725585670819
 20
-135.6072265285982
 10
106.6339734976471
 20
-135.6092935858894
 10
106.605034695571
 20
-135.6134277004716
 10
106.605034695571
 20
-135.6134277004716
 10
106.605034695571
 20
-135.418779805555
 10
106.605034695571
 20
-135.418779805555
 10
106.6456868222969
 20
-135.4251532322027
 10
106.6904730636052
 20
-135.4273925442681
 10
106.6973632545757
 20
-135.4273925442681
 10
106.7676432024748
 20
-135.4273925442681
 10
106.9798610843661
 20
-135.4062052070339
 10
106.9798610843661
 20
-135.1691826376487
 10
106.9798610843661
 20
-134.991587965384
 10
106.839990207665
 20
-134.9364664376201
 10
106.7221679420695
 20
-134.9364664376201
 10
106.439670112279
 20
-134.9364664376201
 10
106.4307128640173
 20
-135.1691826376487
 10
106.4262342398865
 20
-135.2411851332904
 10
106.4262342398865
 20
-135.2411851332904
 10
106.2091932243158
 20
-135.2411851332904
 10
106.2091932243158
 20
-135.2411851332904
 10
106.2181504725774
 20
-135.1163004219501
 10
106.247433784202
 20
-134.7397514854123
 10
106.7359483240105
 20
-134.7397514854123
 10
106.9757269697838
 20
-134.7397514854123
 10
107.2334201120805
 20
-134.8667032540438
 10
107.2334201120805
 20
-135.162809211001
 10
107.2334201120805
 20
-135.3490166219787
 10
107.1314452857171
 20
-135.4315266588505
 10
107.0253363447714
 20
-135.4928493584879
 10
107.0907931589912
 20
-135.5204101223699
 10
107.2850965443593
 20
-135.6008531019505
 10
107.2850965443593
 20
-135.8780110337388
 10
107.2850965443593
 20
-136.2164916651646
 10
107.0208577206406
 20
-136.3835787961993
 10
106.7245795089091
 20
-136.3835787961993
 97
        0
 97
        0
 75
     2
 76
     1
 98
        0
  0
ENDBLK
  5
AD
330
AA
100
AcDbEntity
  8
0
100
AcDbBlockEnd
  0
BLOCK
  5
B4
330
B2
100
AcDbEntity
  8
0
100
AcDbBlockBegin
  2
block 5
 70
     0
 10
0.0
 20
0.0
 30
0.0
  3
block 5
  1

  0
POLYLINE
  5
B6
330
B2
100
AcDbEntity
  8
_U+30EC_U+30A4_U+30E4_U+30FC 1
 62
   179
420
  2234388
370
     9
100
AcDb2dPolyline
 66
     1
 10
0.0
 20
0.0
 30
0.0
  0
VERTEX
  5
B7
330
B6
100
AcDbEntity
  8
_U+30EC_U+30A4_U+30E4_U+30FC 1
 62
   179
420
  2234388
370
     9
100
AcDbVertex
100
AcDb2dVertex
 10
111.6645002067568
 20
-158.1843207937875
 30
0.0
  0
VERTEX
  5
B8
330
B6
100
AcDbEntity
  8
_U+30EC_U+30A4_U+30E4_U+30FC 1
 62
   179
420
  2234388
370
     9
100
AcDbVertex
100
AcDb2dVertex
 10
111.6645002067568
 20
-152.9267677395464
 30
0.0
  0
SEQEND
  5
B9
330
B6
100
AcDbEntity
  8
_U+30EC_U+30A4_U+30E4_U+30FC 1
 62
   179
420
  2234388
370
     9
  0
POLYLINE
  5
BA
330
B2
100
AcDbEntity
  8
_U+30EC_U+30A4_U+30E4_U+30FC 1
 62
   179
420
  2234388
370
     9
100
AcDb2dPolyline
 66
     1
 10
0.0
 20
0.0
 30
0.0
  0
VERTEX
  5
BB
330
BA
100
AcDbEntity
  8
_U+30EC_U+30A4_U+30E4_U+30FC 1
 62
   179
420
  2234388
370
     9
100
AcDbVertex
100
AcDb2dVertex
 10
111.6645002067568
 20
-158.1843207937875
 30
0.0
  0
VERTEX
  5
BC
330
BA
100
AcDbEntity
  8
_U+30EC_U+30A4_U+30E4_U+30FC 1
 62
   179
420
  2234388
370
     9
100
AcDbVertex
100
AcDb2dVertex
 10
111.6645002067568
 20
-159.6856724600785
 30
0.0
  0
SEQEND
  5
BD
330
BA
100
AcDbEntity
  8
_U+30EC_U+30A4_U+30E4_U+30FC 1
 62
   179
420
  2234388
370
     9
  0
POLYLINE
  5
BE
330
B2
100
AcDbEntity
  8
_U+30EC_U+30A4_U+30E4_U+30FC 1
 62
   179
420
  2234388
370
     9
100
AcDb2dPolyline
 66
     1
 10
0.0
 20
0.0
 30
0.0
  0
VERTEX
  5
BF
330
BE
100
AcDbEntity
  8
_U+30EC_U+30A4_U+30E4_U+30FC 1
 62
   179
420
  2234388
370
     9
100
AcDbVertex
100
AcDb2dVertex
 10
110.2044588551167
 20
-158.1843207937875
 30
0.0
  0
VERTEX
  5
C0
330
BE
100
AcDbEntity
  8
_U+30EC_U+30A4_U+30E4_U+30FC 1
 62
   179
420
  2234388
370
     9
100
AcDbVertex
100
AcDb2dVertex
 10
112.6646251812415
 20
-158.1843207937875
 30
0.0
  0
SEQEND
  5
C1
330
BE
100
AcDbEntity
  8
_U+30EC_U+30A4_U+30E4_U+30FC 1
 62
   179
420
  2234388
370
     9
  0
POLYLINE
  5
C2
330
B2
100
AcDbEntity
  8
_U+30EC_U+30A4_U+30E4_U+30FC 1
 62
   179
420
  2234388
370
     9
100
AcDb2dPolyline
 66
     1
 10
0.0
 20
0.0
 30
0.0
  0
VERTEX
  5
C3
330
C2
100
AcDbEntity
  8
_U+30EC_U+30A4_U+30E4_U+30FC 1
 62
   179
420
  2234388
370
     9
100
AcDbVertex
100
AcDb2dVertex
 10
110.2044588551167
 20
-158.6845596825512
 30
0.0
  0
VERTEX
  5
C4
330
C2
100
AcDbEntity
  8
_U+30EC_U+30A4_U+30E4_U+30FC 1
 62
   179
420
  2234388
370
     9
100
AcDbVertex
100
AcDb2dVertex
 10
112.6646251812415
 20
-158.6845596825512
 30
0.0
  0
SEQEND
  5
C5
330
C2
100
AcDbEntity
  8
_U+30EC_U+30A4_U+30E4_U+30FC 1
 62
   179
420
  2234388
370
     9
  0
INSERT
  5
C7
330
B2
100
AcDbEntity
  8
_U+30EC_U+30A4_U+30E4_U+30FC 1
100
AcDbBlockReference
  2
block 6
 10
0.0
 20
0.0
 30
0.0
  0
ENDBLK
  5
B5
330
B2
100
AcDbEntity
  8
0
100
AcDbBlockEnd
  0
BLOCK
  5
C8
330
C6
100
AcDbEntity
  8
0
100
AcDbBlockBegin
  2
block 6
 70
     0
 10
0.0
 20
0.0
 30
0.0
  3
block 6
  1

  0
SPLINE
  5
CA
330
C6
100
AcDbEntity
  8
_U+30EC_U+30A4_U+30E4_U+30FC 1
370
     0
100
AcDbSpline
210
0.0
220
0.0
230
1.0
 70
    11
 71
     3
 72
    29
 73
    25
 74
     0
 42
0.0000000001
 43
0.0000000001
 12
1.0
 22
0.0
 32
0.0
 13
1.0
 23
0.0
 33
0.0
 40
0.0
 40
0.0
 40
0.0
 40
0.0
 40
1.0
 40
1.0
 40
1.0
 40
2.0
 40
2.0
 40
2.0
 40
3.0
 40
3.0
 40
3.0
 40
4.0
 40
4.0
 40
4.0
 40
5.0
 40
5.0
 40
5.0
 40
6.0
 40
6.0
 40
6.0
 40
7.0
 40
7.0
 40
7.0
 40
8.0
 40
8.0
 40
8.0
 40
8.0
 10
110.134879529758
 20
-155.681108902052
 30
0.0
 10
110.3443413352611
 20
-155.7965196008078
 30
0.0
 10
110.36328936043
 20
-155.9818657379143
 30
0.0
 10
110.36328936043
 20
-156.1062336849318
 30
0.0
 10
110.36328936043
 20
-156.2777994400972
 30
0.0
 10
110.3167805713791
 20
-156.4293836414482
 30
0.0
 10
110.134879529758
 20
-156.5310139582631
 30
0.0
 10
109.9402316348413
 20
-156.6419460328881
 30
0.0
 10
109.7035535750047
 20
-156.6622720962511
 30
0.0
 10
109.5406005585524
 20
-156.6622720962511
 30
0.0
 10
109.3965955672689
 20
-156.6622720962511
 30
0.0
 10
109.1447590872971
 20
-156.6443575997278
 30
0.0
 10
108.9459770777982
 20
-156.5310139582631
 30
0.0
 10
108.743060953717
 20
-156.4159477690557
 30
0.0
 10
108.7196343044173
 20
-156.2440375043418
 30
0.0
 10
108.7196343044173
 20
-156.1062336849318
 30
0.0
 10
108.7196343044173
 20
-155.936390477509
 30
0.0
 10
108.764076036177
 20
-155.7827392188668
 30
0.0
 10
108.9459770777982
 20
-155.681108902052
 30
0.0
 10
109.1385579154237
 20
-155.5746554515577
 30
0.0
 10
109.3669677460958
 20
-155.5498507640639
 30
0.0
 10
109.5406005585524
 20
-155.5498507640639
 30
0.0
 10
109.7118218041693
 20
-155.5498507640639
 30
0.0
 10
109.9422986921325
 20
-155.5725883942666
 30
0.0
 10
110.134879529758
 20
-155.681108902052
 30
0.0
  0
SPLINE
  5
CB
330
C6
100
AcDbEntity
  8
_U+30EC_U+30A4_U+30E4_U+30FC 1
370
     0
100
AcDbSpline
210
0.0
220
0.0
230
1.0
 70
    11
 71
     3
 72
    17
 73
    13
 74
     0
 42
0.0000000001
 43
0.0000000001
 12
1.0
 22
0.0
 32
0.0
 13
1.0
 23
0.0
 33
0.0
 40
0.0
 40
0.0
 40
0.0
 40
0.0
 40
1.0
 40
1.0
 40
1.0
 40
2.0
 40
2.0
 40
2.0
 40
3.0
 40
3.0
 40
3.0
 40
4.0
 40
4.0
 40
4.0
 40
4.0
 10
108.9122151420428
 20
-156.1062336849318
 30
0.0
 10
108.9122151420428
 20
-156.3728840754901
 30
0.0
 10
109.1957465004788
 20
-156.4224934504777
 30
0.0
 10
109.5406005585524
 20
-156.4224934504777
 30
0.0
 10
109.859960910035
 20
-156.4224934504777
 30
0.0
 10
110.1686414655134
 20
-156.3842528905915
 30
0.0
 10
110.1686414655134
 20
-156.1062336849318
 30
0.0
 10
110.1686414655134
 20
-155.8416503516646
 30
0.0
 10
109.887521673917
 20
-155.7896294098373
 30
0.0
 10
109.5406005585524
 20
-155.7896294098373
 30
0.0
 10
109.2208956975212
 20
-155.7896294098373
 30
0.0
 10
108.9122151420428
 20
-155.8302815365633
 30
0.0
 10
108.9122151420428
 20
-156.1062336849318
 30
0.0
  0
HATCH
  5
CC
330
C6
100
AcDbEntity
  8
_U+30EC_U+30A4_U+30E4_U+30FC 1
 62
   179
420
  2234388
100
AcDbHatch
 10
0.0
 20
0.0
 30
0.0
210
0.0
220
0.0
230
1.0
  2
SOLID
 70
     1
 71
     0
 91
        2
 92
        1
 93
        1
 72
     4
 94
        3
 73
     0
 74
     1
 95
       29
 96
       25
 40
0.0
 40
0.0
 40
0.0
 40
0.0
 40
1.0
 40
1.0
 40
1.0
 40
2.0
 40
2.0
 40
2.0
 40
3.0
 40
3.0
 40
3.0
 40
4.0
 40
4.0
 40
4.0
 40
5.0
 40
5.0
 40
5.0
 40
6.0
 40
6.0
 40
6.0
 40
7.0
 40
7.0
 40
7.0
 40
8.0
 40
8.0
 40
8.0
 40
8.0
 10
110.134879529758
 20
-155.681108902052
 10
110.3443413352611
 20
-155.7965196008078
 10
110.36328936043
 20
-155.9818657379143
 10
110.36328936043
 20
-156.1062336849318
 10
110.36328936043
 20
-156.2777994400972
 10
110.3167805713791
 20
-156.4293836414482
 10
110.134879529758
 20
-156.5310139582631
 10
109.9402316348413
 20
-156.6419460328881
 10
109.7035535750047
 20
-156.6622720962511
 10
109.5406005585524
 20
-156.6622720962511
 10
109.3965955672689
 20
-156.6622720962511
 10
109.1447590872971
 20
-156.6443575997278
 10
108.9459770777982
 20
-156.5310139582631
 10
108.743060953717
 20
-156.4159477690557
 10
108.7196343044173
 20
-156.2440375043418
 10
108.7196343044173
 20
-156.1062336849318
 10
108.7196343044173
 20
-155.936390477509
 10
108.764076036177
 20
-155.7827392188668
 10
108.9459770777982
 20
-155.681108902052
 10
109.1385579154237
 20
-155.5746554515577
 10
109.3669677460958
 20
-155.5498507640639
 10
109.5406005585524
 20
-155.5498507640639
 10
109.7118218041693
 20
-155.5498507640639
 10
109.9422986921325
 20
-155.5725883942666
 10
110.134879529758
 20
-155.681108902052
 97
        0
 97
        0
 92
        1
 93
        1
 72
     4
 94
        3
 73
     0
 74
     1
 95
       17
 96
       13
 40
0.0
 40
0.0
 40
0.0
 40
0.0
 40
1.0
 40
1.0
 40
1.0
 40
2.0
 40
2.0
 40
2.0
 40
3.0
 40
3.0
 40
3.0
 40
4.0
 40
4.0
 40
4.0
 40
4.0
 10
108.9122151420428
 20
-156.1062336849318
 10
108.9122151420428
 20
-156.3728840754901
 10
109.1957465004788
 20
-156.4224934504777
 10
109.5406005585524
 20
-156.4224934504777
 10
109.859960910035
 20
-156.4224934504777
 10
110.1686414655134
 20
-156.3842528905915
 10
110.1686414655134
 20
-156.1062336849318
 10
110.1686414655134
 20
-155.8416503516646
 10
109.887521673917
 20
-155.7896294098373
 10
109.5406005585524
 20
-155.7896294098373
 10
109.2208956975212
 20
-155.7896294098373
 10
108.9122151420428
 20
-155.8302815365633
 10
108.9122151420428
 20
-156.1062336849318
 97
        0
 97
        0
 75
     2
 76
     1
 98
        0
  0
POLYLINE
  5
CD
330
C6
100
AcDbEntity
  8
_U+30EC_U+30A4_U+30E4_U+30FC 1
370
     0
100
AcDb2dPolyline
 66
     1
 10
0.0
 20
0.0
 30
0.0
  0
VERTEX
  5
CE
330
CD
100
AcDbEntity
  8
_U+30EC_U+30A4_U+30E4_U+30FC 1
370
     0
100
AcDbVertex
100
AcDb2dVertex
 10
110.3126464567968
 20
-155.3186848570037
 30
0.0
  0
VERTEX
  5
CF
330
CD
100
AcDbEntity
  8
_U+30EC_U+30A4_U+30E4_U+30FC 1
370
     0
100
AcDbVertex
100
AcDb2dVertex
 10
110.0608099768251
 20
-155.3186848570037
 30
0.0
  0
VERTEX
  5
D0
330
CD
100
AcDbEntity
  8
_U+30EC_U+30A4_U+30E4_U+30FC 1
370
     0
100
AcDbVertex
100
AcDb2dVertex
 10
110.0608099768251
 20
-155.0496228996057
 30
0.0
  0
VERTEX
  5
D1
330
CD
100
AcDbEntity
  8
_U+30EC_U+30A4_U+30E4_U+30FC 1
370
     0
100
AcDbVertex
100
AcDb2dVertex
 10
110.3126464567968
 20
-155.0496228996057
 30
0.0
  0
VERTEX
  5
D2
330
CD
100
AcDbEntity
  8
_U+30EC_U+30A4_U+30E4_U+30FC 1
370
     0
100
AcDbVertex
100
AcDb2dVertex
 10
110.3126464567968
 20
-155.3186848570037
 30
0.0
  0
SEQEND
  5
D3
330
CD
100
AcDbEntity
  8
_U+30EC_U+30A4_U+30E4_U+30FC 1
370
     0
  0
HATCH
  5
D4
330
C6
100
AcDbEntity
  8
_U+30EC_U+30A4_U+30E4_U+30FC 1
 62
   179
420
  2234388
100
AcDbHatch
 10
0.0
 20
0.0
 30
0.0
210
0.0
220
0.0
230
1.0
  2
SOLID
 70
     1
 71
     0
 91
        1
 92
        1
 93
        4
 72
     1
 10
110.3126464567968
 20
-155.3186848570037
 11
110.0608099768251
 21
-155.3186848570037
 72
     1
 10
110.0608099768251
 20
-155.3186848570037
 11
110.0608099768251
 21
-155.0496228996057
 72
     1
 10
110.0608099768251
 20
-155.0496228996057
 11
110.3126464567968
 21
-155.0496228996057
 72
     1
 10
110.3126464567968
 20
-155.0496228996057
 11
110.3126464567968
 21
-155.3186848570037
 97
        0
 75
     2
 76
     1
 98
        0
  0
SPLINE
  5
D5
330
C6
100
AcDbEntity
  8
_U+30EC_U+30A4_U+30E4_U+30FC 1
370
     0
100
AcDbSpline
210
0.0
220
0.0
230
1.0
 70
    11
 71
     3
 72
    53
 73
    49
 74
     0
 42
0.0000000001
 43
0.0000000001
 12
1.0
 22
0.0
 32
0.0
 13
1.0
 23
0.0
 33
0.0
 40
0.0
 40
0.0
 40
0.0
 40
0.0
 40
1.0
 40
1.0
 40
1.0
 40
2.0
 40
2.0
 40
2.0
 40
3.0
 40
3.0
 40
3.0
 40
4.0
 40
4.0
 40
4.0
 40
5.0
 40
5.0
 40
5.0
 40
6.0
 40
6.0
 40
6.0
 40
7.0
 40
7.0
 40
7.0
 40
8.0
 40
8.0
 40
8.0
 40
9.0
 40
9.0
 40
9.0
 40
10.0
 40
10.0
 40
10.0
 40
11.0
 40
11.0
 40
11.0
 40
12.0
 40
12.0
 40
12.0
 40
13.0
 40
13.0
 40
13.0
 40
14.0
 40
14.0
 40
14.0
 40
15.0
 40
15.0
 40
15.0
 40
16.0
 40
16.0
 40
16.0
 40
16.0
 10
110.36328936043
 20
-154.282744644589
 30
0.0
 10
110.36328936043
 20
-154.3664604648806
 30
0.0
 10
110.3464083925523
 20
-154.4746364631175
 30
0.0
 10
110.2830186356237
 20
-154.5835014804514
 30
0.0
 10
110.1731200896442
 20
-154.7688476175578
 30
0.0
 10
110.0418619516562
 20
-154.7912407382119
 30
0.0
 10
109.9340304629679
 20
-154.8115668015749
 30
0.0
 10
109.9340304629679
 20
-154.8115668015749
 30
0.0
 10
109.9340304629679
 20
-154.5741997226412
 30
0.0
 10
109.9340304629679
 20
-154.5741997226412
 30
0.0
 10
110.1328124724668
 20
-154.5156330993919
 30
0.0
 10
110.1624402936399
 20
-154.3798963372731
 30
0.0
 10
110.1624402936399
 20
-154.2803330777494
 30
0.0
 10
110.1624402936399
 20
-154.1311604432381
 30
0.0
 10
110.0628770341162
 20
-153.9682074267857
 30
0.0
 10
109.8303330888619
 20
-153.9682074267857
 30
0.0
 10
109.5743624943078
 20
-153.9682074267857
 30
0.0
 10
109.5044270559572
 20
-154.1604437548627
 30
0.0
 10
109.5044270559572
 20
-154.289290326011
 30
0.0
 10
109.5044270559572
 20
-154.323396771315
 30
0.0
 10
109.5044270559572
 20
-154.4746364631175
 30
0.0
 10
109.6336181366541
 20
-154.5697210985103
 30
0.0
 10
109.6336181366541
 20
-154.5697210985103
 30
0.0
 10
109.6146701114852
 20
-154.7574788024565
 30
0.0
 10
109.6146701114852
 20
-154.7574788024565
 30
0.0
 10
109.6146701114852
 20
-154.7574788024565
 30
0.0
 10
108.7682101507593
 20
-154.6286322313081
 30
0.0
 10
108.7682101507593
 20
-154.6286322313081
 30
0.0
 10
108.7682101507593
 20
-154.6286322313081
 30
0.0
 10
108.7682101507593
 20
-153.7966416716203
 30
0.0
 10
108.7682101507593
 20
-153.7966416716203
 30
0.0
 10
108.7682101507593
 20
-153.7966416716203
 30
0.0
 10
108.962858045676
 20
-153.7966416716203
 30
0.0
 10
108.962858045676
 20
-153.7966416716203
 30
0.0
 10
108.962858045676
 20
-153.7966416716203
 30
0.0
 10
108.962858045676
 20
-154.4543103997545
 30
0.0
 10
108.962858045676
 20
-154.4543103997545
 30
0.0
 10
108.962858045676
 20
-154.4543103997545
 30
0.0
 10
109.3859157712646
 20
-154.5245903476536
 30
0.0
 10
109.3859157712646
 20
-154.5245903476536
 30
0.0
 10
109.3521538355092
 20
-154.4591335334338
 30
0.0
 10
109.3118462183318
 20
-154.3709390890114
 30
0.0
 10
109.3118462183318
 20
-154.2441595751542
 30
0.0
 10
109.3118462183318
 20
-153.9730305604651
 30
0.0
 10
109.4982258840838
 20
-153.7198160422992
 30
0.0
 10
109.811385063693
 20
-153.7198160422992
 30
0.0
 10
110.1286783578845
 20
-153.7198160422992
 30
0.0
 10
110.36328936043
 20
-153.9592501785241
 30
0.0
 10
110.36328936043
 20
-154.282744644589
 30
0.0
  0
HATCH
  5
D6
330
C6
100
AcDbEntity
  8
_U+30EC_U+30A4_U+30E4_U+30FC 1
 62
   179
420
  2234388
100
AcDbHatch
 10
0.0
 20
0.0
 30
0.0
210
0.0
220
0.0
230
1.0
  2
SOLID
 70
     1
 71
     0
 91
        1
 92
        1
 93
        1
 72
     4
 94
        3
 73
     0
 74
     1
 95
       53
 96
       49
 40
0.0
 40
0.0
 40
0.0
 40
0.0
 40
1.0
 40
1.0
 40
1.0
 40
2.0
 40
2.0
 40
2.0
 40
3.0
 40
3.0
 40
3.0
 40
4.0
 40
4.0
 40
4.0
 40
5.0
 40
5.0
 40
5.0
 40
6.0
 40
6.0
 40
6.0
 40
7.0
 40
7.0
 40
7.0
 40
8.0
 40
8.0
 40
8.0
 40
9.0
 40
9.0
 40
9.0
 40
10.0
 40
10.0
 40
10.0
 40
11.0
 40
11.0
 40
11.0
 40
12.0
 40
12.0
 40
12.0
 40
13.0
 40
13.0
 40
13.0
 40
14.0
 40
14.0
 40
14.0
 40
15.0
 40
15.0
 40
15.0
 40
16.0
 40
16.0
 40
16.0
 40
16.0
 10
110.36328936043
 20
-154.282744644589
 10
110.36328936043
 20
-154.3664604648806
 10
110.3464083925523
 20
-154.4746364631175
 10
110.2830186356237
 20
-154.5835014804514
 10
110.1731200896442
 20
-154.7688476175578
 10
110.0418619516562
 20
-154.7912407382119
 10
109.9340304629679
 20
-154.8115668015749
 10
109.9340304629679
 20
-154.8115668015749
 10
109.9340304629679
 20
-154.5741997226412
 10
109.9340304629679
 20
-154.5741997226412
 10
110.1328124724668
 20
-154.5156330993919
 10
110.1624402936399
 20
-154.3798963372731
 10
110.1624402936399
 20
-154.2803330777494
 10
110.1624402936399
 20
-154.1311604432381
 10
110.0628770341162
 20
-153.9682074267857
 10
109.8303330888619
 20
-153.9682074267857
 10
109.5743624943078
 20
-153.9682074267857
 10
109.5044270559572
 20
-154.1604437548627
 10
109.5044270559572
 20
-154.289290326011
 10
109.5044270559572
 20
-154.323396771315
 10
109.5044270559572
 20
-154.4746364631175
 10
109.6336181366541
 20
-154.5697210985103
 10
109.6336181366541
 20
-154.5697210985103
 10
109.6146701114852
 20
-154.7574788024565
 10
109.6146701114852
 20
-154.7574788024565
 10
109.6146701114852
 20
-154.7574788024565
 10
108.7682101507593
 20
-154.6286322313081
 10
108.7682101507593
 20
-154.6286322313081
 10
108.7682101507593
 20
-154.6286322313081
 10
108.7682101507593
 20
-153.7966416716203
 10
108.7682101507593
 20
-153.7966416716203
 10
108.7682101507593
 20
-153.7966416716203
 10
108.962858045676
 20
-153.7966416716203
 10
108.962858045676
 20
-153.7966416716203
 10
108.962858045676
 20
-153.7966416716203
 10
108.962858045676
 20
-154.4543103997545
 10
108.962858045676
 20
-154.4543103997545
 10
108.962858045676
 20
-154.4543103997545
 10
109.3859157712646
 20
-154.5245903476536
 10
109.3859157712646
 20
-154.5245903476536
 10
109.3521538355092
 20
-154.4591335334338
 10
109.3118462183318
 20
-154.3709390890114
 10
109.3118462183318
 20
-154.2441595751542
 10
109.3118462183318
 20
-153.9730305604651
 10
109.4982258840838
 20
-153.7198160422992
 10
109.811385063693
 20
-153.7198160422992
 10
110.1286783578845
 20
-153.7198160422992
 10
110.36328936043
 20
-153.9592501785241
 10
110.36328936043
 20
-154.282744644589
 97
        0
 97
        0
 75
     2
 76
     1
 98
        0
  0
ENDBLK
  5
C9
330
C6
100
AcDbEntity
  8
0
100
AcDbBlockEnd
  0
BLOCK
  5
D9
330
D7
100
AcDbEntity
  8
0
100
AcDbBlockBegin
  2
block 7
 70
     0
 10
0.0
 20
0.0
 30
0.0
  3
block 7
  1

  0
POLYLINE
  5
DB
330
D7
100
AcDbEntity
  8
_U+30EC_U+30A4_U+30E4_U+30FC 1
 62
   179
420
  2234388
370
     9
100
AcDb2dPolyline
 66
     1
 10
0.0
 20
0.0
 30
0.0
  0
VERTEX
  5
DC
330
DB
100
AcDbEntity
  8
_U+30EC_U+30A4_U+30E4_U+30FC 1
 62
   179
420
  2234388
370
     9
100
AcDbVertex
100
AcDb2dVertex
 10
97.66465556392261
 20
-163.1852280147592
 30
0.0
  0
VERTEX
  5
DD
330
DB
100
AcDbEntity
  8
_U+30EC_U+30A4_U+30E4_U+30FC 1
 62
   179
420
  2234388
370
     9
100
AcDbVertex
100
AcDb2dVertex
 10
107.6647411421325
 20
-163.1852280147592
 30
0.0
  0
SEQEND
  5
DE
330
DB
100
AcDbEntity
  8
_U+30EC_U+30A4_U+30E4_U+30FC 1
 62
   179
420
  2234388
370
     9
  0
POLYLINE
  5
DF
330
D7
100
AcDbEntity
  8
_U+30EC_U+30A4_U+30E4_U+30FC 1
 62
   179
420
  2234388
370
     9
100
AcDb2dPolyline
 66
     1
 10
0.0
 20
0.0
 30
0.0
  0
VERTEX
  5
E0
330
DF
100
AcDbEntity
  8
_U+30EC_U+30A4_U+30E4_U+30FC 1
 62
   179
420
  2234388
370
     9
100
AcDbVertex
100
AcDb2dVertex
 10
97.66465556392261
 20
-161.7251866262355
 30
0.0
  0
VERTEX
  5
E1
330
DF
100
AcDbEntity
  8
_U+30EC_U+30A4_U+30E4_U+30FC 1
 62
   179
420
  2234388
370
     9
100
AcDbVertex
100
AcDb2dVertex
 10
97.66465556392261
 20
-164.1850002367317
 30
0.0
  0
SEQEND
  5
E2
330
DF
100
AcDbEntity
  8
_U+30EC_U+30A4_U+30E4_U+30FC 1
 62
   179
420
  2234388
370
     9
  0
POLYLINE
  5
E3
330
D7
100
AcDbEntity
  8
_U+30EC_U+30A4_U+30E4_U+30FC 1
 62
   179
420
  2234388
370
     9
100
AcDb2dPolyline
 66
     1
 10
0.0
 20
0.0
 30
0.0
  0
VERTEX
  5
E4
330
E3
100
AcDbEntity
  8
_U+30EC_U+30A4_U+30E4_U+30FC 1
 62
   179
420
  2234388
370
     9
100
AcDbVertex
100
AcDb2dVertex
 10
107.6647411421325
 20
-161.0251344041879
 30
0.0
  0
VERTEX
  5
E5
330
E3
100
AcDbEntity
  8
_U+30EC_U+30A4_U+30E4_U+30FC 1
 62
   179
420
  2234388
370
     9
100
AcDbVertex
100
AcDb2dVertex
 10
107.6647411421325
 20
-164.1850002367317
 30
0.0
  0
SEQEND
  5
E6
330
E3
100
AcDbEntity
  8
_U+30EC_U+30A4_U+30E4_U+30FC 1
 62
   179
420
  2234388
370
     9
  0
INSERT
  5
E8
330
D7
100
AcDbEntity
  8
_U+30EC_U+30A4_U+30E4_U+30FC 1
100
AcDbBlockReference
  2
block 8
 10
0.0
 20
0.0
 30
0.0
  0
ENDBLK
  5
DA
330
D7
100
AcDbEntity
  8
0
100
AcDbBlockEnd
  0
BLOCK
  5
E9
330
E7
100
AcDbEntity
  8
0
100
AcDbBlockBegin
  2
block 8
 70
     0
 10
0.0
 20
0.0
 30
0.0
  3
block 8
  1

  0
SPLINE
  5
EB
330
E7
100
AcDbEntity
  8
_U+30EC_U+30A4_U+30E4_U+30FC 1
370
     0
100
AcDbSpline
210
0.0
220
0.0
230
1.0
 70
    11
 71
     3
 72
    26
 73
    22
 74
     0
 42
0.0000000001
 43
0.0000000001
 12
1.0
 22
0.0
 32
0.0
 13
1.0
 23
0.0
 33
0.0
 40
0.0
 40
0.0
 40
0.0
 40
0.0
 40
1.0
 40
1.0
 40
1.0
 40
2.0
 40
2.0
 40
2.0
 40
3.0
 40
3.0
 40
3.0
 40
4.0
 40
4.0
 40
4.0
 40
5.0
 40
5.0
 40
5.0
 40
6.0
 40
6.0
 40
6.0
 40
7.0
 40
7.0
 40
7.0
 40
7.0
 10
101.9834391021083
 20
-161.8326714005141
 30
0.0
 10
101.9834391021083
 20
-161.8326714005141
 30
0.0
 10
101.9834391021083
 20
-160.7285182974915
 30
0.0
 10
101.9834391021083
 20
-160.7285182974915
 30
0.0
 10
101.9834391021083
 20
-160.7285182974915
 30
0.0
 10
101.6306613244187
 20
-160.7285182974915
 30
0.0
 10
101.6306613244187
 20
-160.7285182974915
 30
0.0
 10
101.6306613244187
 20
-160.7285182974915
 30
0.0
 10
101.6306613244187
 20
-160.5803791916258
 30
0.0
 10
101.6306613244187
 20
-160.5803791916258
 30
0.0
 10
101.9856784141737
 20
-160.5655652810392
 30
0.0
 10
102.0354600439356
 20
-160.4026122645868
 30
0.0
 10
102.0671549223999
 20
-160.2882350944766
 30
0.0
 10
102.0671549223999
 20
-160.2882350944766
 30
0.0
 10
102.2230454931074
 20
-160.2882350944766
 30
0.0
 10
102.2230454931074
 20
-160.2882350944766
 30
0.0
 10
102.2230454931074
 20
-160.2882350944766
 30
0.0
 10
102.2230454931074
 20
-161.8326714005141
 30
0.0
 10
102.2230454931074
 20
-161.8326714005141
 30
0.0
 10
102.2230454931074
 20
-161.8326714005141
 30
0.0
 10
101.9834391021083
 20
-161.8326714005141
 30
0.0
 10
101.9834391021083
 20
-161.8326714005141
 30
0.0
  0
HATCH
  5
EC
330
E7
100
AcDbEntity
  8
_U+30EC_U+30A4_U+30E4_U+30FC 1
 62
   179
420
  2234388
100
AcDbHatch
 10
0.0
 20
0.0
 30
0.0
210
0.0
220
0.0
230
1.0
  2
SOLID
 70
     1
 71
     0
 91
        1
 92
        1
 93
        1
 72
     4
 94
        3
 73
     0
 74
     1
 95
       26
 96
       22
 40
0.0
 40
0.0
 40
0.0
 40
0.0
 40
1.0
 40
1.0
 40
1.0
 40
2.0
 40
2.0
 40
2.0
 40
3.0
 40
3.0
 40
3.0
 40
4.0
 40
4.0
 40
4.0
 40
5.0
 40
5.0
 40
5.0
 40
6.0
 40
6.0
 40
6.0
 40
7.0
 40
7.0
 40
7.0
 40
7.0
 10
101.9834391021083
 20
-161.8326714005141
 10
101.9834391021083
 20
-161.8326714005141
 10
101.9834391021083
 20
-160.7285182974915
 10
101.9834391021083
 20
-160.7285182974915
 10
101.9834391021083
 20
-160.7285182974915
 10
101.6306613244187
 20
-160.7285182974915
 10
101.6306613244187
 20
-160.7285182974915
 10
101.6306613244187
 20
-160.7285182974915
 10
101.6306613244187
 20
-160.5803791916258
 10
101.6306613244187
 20
-160.5803791916258
 10
101.9856784141737
 20
-160.5655652810392
 10
102.0354600439356
 20
-160.4026122645868
 10
102.0671549223999
 20
-160.2882350944766
 10
102.0671549223999
 20
-160.2882350944766
 10
102.2230454931074
 20
-160.2882350944766
 10
102.2230454931074
 20
-160.2882350944766
 10
102.2230454931074
 20
-160.2882350944766
 10
102.2230454931074
 20
-161.8326714005141
 10
102.2230454931074
 20
-161.8326714005141
 10
102.2230454931074
 20
-161.8326714005141
 10
101.9834391021083
 20
-161.8326714005141
 10
101.9834391021083
 20
-161.8326714005141
 97
        0
 97
        0
 75
     2
 76
     1
 98
        0
  0
SPLINE
  5
ED
330
E7
100
AcDbEntity
  8
_U+30EC_U+30A4_U+30E4_U+30FC 1
370
     0
100
AcDbSpline
210
0.0
220
0.0
230
1.0
 70
    11
 71
     3
 72
    29
 73
    25
 74
     0
 42
0.0000000001
 43
0.0000000001
 12
1.0
 22
0.0
 32
0.0
 13
1.0
 23
0.0
 33
0.0
 40
0.0
 40
0.0
 40
0.0
 40
0.0
 40
1.0
 40
1.0
 40
1.0
 40
2.0
 40
2.0
 40
2.0
 40
3.0
 40
3.0
 40
3.0
 40
4.0
 40
4.0
 40
4.0
 40
5.0
 40
5.0
 40
5.0
 40
6.0
 40
6.0
 40
6.0
 40
7.0
 40
7.0
 40
7.0
 40
8.0
 40
8.0
 40
8.0
 40
8.0
 10
103.7182169337059
 20
-161.6549044734752
 30
0.0
 10
103.6029784897243
 20
-161.8643662789784
 30
0.0
 10
103.4176323526178
 20
-161.8833143041472
 30
0.0
 10
103.2932644056003
 20
-161.8833143041472
 30
0.0
 10
103.1213541408863
 20
-161.8833143041472
 30
0.0
 10
102.9699421943096
 20
-161.8368055150964
 30
0.0
 10
102.8681396227205
 20
-161.6549044734752
 30
0.0
 10
102.7573798028697
 20
-161.4602565785586
 30
0.0
 10
102.7370537395067
 20
-161.2232340091734
 30
0.0
 10
102.7370537395067
 20
-161.0606255022696
 30
0.0
 10
102.7370537395067
 20
-160.9166205109861
 30
0.0
 10
102.7551404908043
 20
-160.6647840310144
 30
0.0
 10
102.8681396227205
 20
-160.4660020215155
 30
0.0
 10
102.9835503214763
 20
-160.2630858974342
 30
0.0
 10
103.155288331416
 20
-160.2396592481345
 30
0.0
 10
103.2932644056003
 20
-160.2396592481345
 30
0.0
 10
103.4627631034746
 20
-160.2396592481345
 30
0.0
 10
103.616586616891
 20
-160.2841009798942
 30
0.0
 10
103.7182169337059
 20
-160.4660020215155
 30
0.0
 10
103.8244981294258
 20
-160.6585828591409
 30
0.0
 10
103.8493028169196
 20
-160.886992689813
 30
0.0
 10
103.8493028169196
 20
-161.0606255022696
 30
0.0
 10
103.8493028169196
 20
-161.2318467478865
 30
0.0
 10
103.8267374414912
 20
-161.4623236358497
 30
0.0
 10
103.7182169337059
 20
-161.6549044734752
 30
0.0
  0
SPLINE
  5
EE
330
E7
100
AcDbEntity
  8
_U+30EC_U+30A4_U+30E4_U+30FC 1
370
     0
100
AcDbSpline
210
0.0
220
0.0
230
1.0
 70
    11
 71
     3
 72
    17
 73
    13
 74
     0
 42
0.0000000001
 43
0.0000000001
 12
1.0
 22
0.0
 32
0.0
 13
1.0
 23
0.0
 33
0.0
 40
0.0
 40
0.0
 40
0.0
 40
0.0
 40
1.0
 40
1.0
 40
1.0
 40
2.0
 40
2.0
 40
2.0
 40
3.0
 40
3.0
 40
3.0
 40
4.0
 40
4.0
 40
4.0
 40
4.0
 10
103.2932644056003
 20
-160.43224008576
 30
0.0
 10
103.0264417602677
 20
-160.43224008576
 30
0.0
 10
102.9766601305058
 20
-160.7157714441961
 30
0.0
 10
102.9766601305058
 20
-161.0606255022696
 30
0.0
 10
102.9766601305058
 20
-161.3799858537522
 30
0.0
 10
103.0150729451664
 20
-161.6886664092306
 30
0.0
 10
103.2932644056003
 20
-161.6886664092306
 30
0.0
 10
103.5576754840932
 20
-161.6886664092306
 30
0.0
 10
103.6096964259205
 20
-161.4075466176342
 30
0.0
 10
103.6096964259205
 20
-161.0606255022696
 30
0.0
 10
103.6096964259205
 20
-160.7409206412384
 30
0.0
 10
103.5690442991945
 20
-160.43224008576
 30
0.0
 10
103.2932644056003
 20
-160.43224008576
 30
0.0
  0
HATCH
  5
EF
330
E7
100
AcDbEntity
  8
_U+30EC_U+30A4_U+30E4_U+30FC 1
 62
   179
420
  2234388
100
AcDbHatch
 10
0.0
 20
0.0
 30
0.0
210
0.0
220
0.0
230
1.0
  2
SOLID
 70
     1
 71
     0
 91
        2
 92
        1
 93
        1
 72
     4
 94
        3
 73
     0
 74
     1
 95
       29
 96
       25
 40
0.0
 40
0.0
 40
0.0
 40
0.0
 40
1.0
 40
1.0
 40
1.0
 40
2.0
 40
2.0
 40
2.0
 40
3.0
 40
3.0
 40
3.0
 40
4.0
 40
4.0
 40
4.0
 40
5.0
 40
5.0
 40
5.0
 40
6.0
 40
6.0
 40
6.0
 40
7.0
 40
7.0
 40
7.0
 40
8.0
 40
8.0
 40
8.0
 40
8.0
 10
103.7182169337059
 20
-161.6549044734752
 10
103.6029784897243
 20
-161.8643662789784
 10
103.4176323526178
 20
-161.8833143041472
 10
103.2932644056003
 20
-161.8833143041472
 10
103.1213541408863
 20
-161.8833143041472
 10
102.9699421943096
 20
-161.8368055150964
 10
102.8681396227205
 20
-161.6549044734752
 10
102.7573798028697
 20
-161.4602565785586
 10
102.7370537395067
 20
-161.2232340091734
 10
102.7370537395067
 20
-161.0606255022696
 10
102.7370537395067
 20
-160.9166205109861
 10
102.7551404908043
 20
-160.6647840310144
 10
102.8681396227205
 20
-160.4660020215155
 10
102.9835503214763
 20
-160.2630858974342
 10
103.155288331416
 20
-160.2396592481345
 10
103.2932644056003
 20
-160.2396592481345
 10
103.4627631034746
 20
-160.2396592481345
 10
103.616586616891
 20
-160.2841009798942
 10
103.7182169337059
 20
-160.4660020215155
 10
103.8244981294258
 20
-160.6585828591409
 10
103.8493028169196
 20
-160.886992689813
 10
103.8493028169196
 20
-161.0606255022696
 10
103.8493028169196
 20
-161.2318467478865
 10
103.8267374414912
 20
-161.4623236358497
 10
103.7182169337059
 20
-161.6549044734752
 97
        0
 97
        0
 92
        1
 93
        1
 72
     4
 94
        3
 73
     0
 74
     1
 95
       17
 96
       13
 40
0.0
 40
0.0
 40
0.0
 40
0.0
 40
1.0
 40
1.0
 40
1.0
 40
2.0
 40
2.0
 40
2.0
 40
3.0
 40
3.0
 40
3.0
 40
4.0
 40
4.0
 40
4.0
 40
4.0
 10
103.2932644056003
 20
-160.43224008576
 10
103.0264417602677
 20
-160.43224008576
 10
102.9766601305058
 20
-160.7157714441961
 10
102.9766601305058
 20
-161.0606255022696
 10
102.9766601305058
 20
-161.3799858537522
 10
103.0150729451664
 20
-161.6886664092306
 10
103.2932644056003
 20
-161.6886664092306
 10
103.5576754840932
 20
-161.6886664092306
 10
103.6096964259205
 20
-161.4075466176342
 10
103.6096964259205
 20
-161.0606255022696
 10
103.6096964259205
 20
-160.7409206412384
 10
103.5690442991945
 20
-160.43224008576
 10
103.2932644056003
 20
-160.43224008576
 97
        0
 97
        0
 75
     2
 76
     1
 98
        0
  0
ENDBLK
  5
EA
330
E7
100
AcDbEntity
  8
0
100
AcDbBlockEnd
  0
BLOCK
  5
FA
330
F8
100
AcDbEntity
  8
0
100
AcDbBlockBegin
  2
block 9
 70
     0
 10
0.0
 20
0.0
 30
0.0
  3
block 9
  1

  0
SPLINE
  5
FC
330
F8
100
AcDbEntity
  8
_U+30EC_U+30A4_U+30E4_U+30FC 1
370
     0
100
AcDbSpline
210
0.0
220
0.0
230
1.0
 70
    11
 71
     3
 72
    29
 73
    25
 74
     0
 42
0.0000000001
 43
0.0000000001
 12
1.0
 22
0.0
 32
0.0
 13
1.0
 23
0.0
 33
0.0
 40
0.0
 40
0.0
 40
0.0
 40
0.0
 40
1.0
 40
1.0
 40
1.0
 40
2.0
 40
2.0
 40
2.0
 40
3.0
 40
3.0
 40
3.0
 40
4.0
 40
4.0
 40
4.0
 40
5.0
 40
5.0
 40
5.0
 40
6.0
 40
6.0
 40
6.0
 40
7.0
 40
7.0
 40
7.0
 40
8.0
 40
8.0
 40
8.0
 40
8.0
 10
93.60462237243219
 20
-161.8833143041472
 30
0.0
 10
93.31971297580202
 20
-161.8833143041472
 30
0.0
 10
93.0484117063386
 20
-161.7458549942858
 30
0.0
 10
93.0484117063386
 20
-161.39686682163
 30
0.0
 10
93.0484117063386
 20
-161.1408962270759
 30
0.0
 10
93.19982365291533
 20
-161.045811591683
 30
0.0
 10
93.31299503960578
 20
-160.9844888920456
 30
0.0
 10
93.17949758955235
 20
-160.9252332496993
 30
0.0
 10
93.09819333610045
 20
-160.810856079589
 30
0.0
 10
93.09819333610045
 20
-160.6499701204278
 30
0.0
 10
93.09819333610045
 20
-160.3750515007048
 30
0.0
 10
93.31058347276611
 20
-160.2396592481345
 30
0.0
 10
93.60462237243219
 20
-160.2396592481345
 30
0.0
 10
93.9076185203599
 20
-160.2396592481345
 30
0.0
 10
94.11105140876391
 20
-160.383664239418
 30
0.0
 10
94.11105140876391
 20
-160.6499701204278
 30
0.0
 10
94.11105140876391
 20
-160.810856079589
 30
0.0
 10
94.02733558847234
 20
-160.9252332496993
 30
0.0
 10
93.89401039319317
 20
-160.9844888920456
 30
0.0
 10
93.98892277381181
 20
-161.0351317956787
 30
0.0
 10
94.1584214716861
 20
-161.1302164310716
 30
0.0
 10
94.1584214716861
 20
-161.3927327070477
 30
0.0
 10
94.1584214716861
 20
-161.7672145862943
 30
0.0
 10
93.86007620266346
 20
-161.8833143041472
 30
0.0
 10
93.60462237243219
 20
-161.8833143041472
 30
0.0
  0
SPLINE
  5
FD
330
F8
100
AcDbEntity
  8
_U+30EC_U+30A4_U+30E4_U+30FC 1
370
     0
100
AcDbSpline
210
0.0
220
0.0
230
1.0
 70
    11
 71
     3
 72
    17
 73
    13
 74
     0
 42
0.0000000001
 43
0.0000000001
 12
1.0
 22
0.0
 32
0.0
 13
1.0
 23
0.0
 33
0.0
 40
0.0
 40
0.0
 40
0.0
 40
0.0
 40
1.0
 40
1.0
 40
1.0
 40
2.0
 40
2.0
 40
2.0
 40
3.0
 40
3.0
 40
3.0
 40
4.0
 40
4.0
 40
4.0
 40
4.0
 10
93.60462237243219
 20
-161.0923203807339
 30
0.0
 10
93.45079885901578
 20
-161.0923203807339
 30
0.0
 10
93.28801809733773
 20
-161.1791367869622
 30
0.0
 10
93.28801809733773
 20
-161.3820529110434
 30
0.0
 10
93.28801809733773
 20
-161.5873806019643
 30
0.0
 10
93.42375485945657
 20
-161.6886664092306
 30
0.0
 10
93.60462237243219
 20
-161.6886664092306
 30
0.0
 10
93.80357663670536
 20
-161.6886664092306
 30
0.0
 10
93.92105439275238
 20
-161.5660210099557
 30
0.0
 10
93.92105439275238
 20
-161.3882540829168
 30
0.0
 10
93.92105439275238
 20
-161.1663899336667
 30
0.0
 10
93.74707707074727
 20
-161.0923203807339
 30
0.0
 10
93.60462237243219
 20
-161.0923203807339
 30
0.0
  0
SPLINE
  5
FE
330
F8
100
AcDbEntity
  8
_U+30EC_U+30A4_U+30E4_U+30FC 1
370
     0
100
AcDbSpline
210
0.0
220
0.0
230
1.0
 70
    11
 71
     3
 72
    17
 73
    13
 74
     0
 42
0.0000000001
 43
0.0000000001
 12
1.0
 22
0.0
 32
0.0
 13
1.0
 23
0.0
 33
0.0
 40
0.0
 40
0.0
 40
0.0
 40
0.0
 40
1.0
 40
1.0
 40
1.0
 40
2.0
 40
2.0
 40
2.0
 40
3.0
 40
3.0
 40
3.0
 40
4.0
 40
4.0
 40
4.0
 40
4.0
 10
93.60462237243219
 20
-160.43224008576
 30
0.0
 10
93.42823348358739
 20
-160.43224008576
 30
0.0
 10
93.33779972709958
 20
-160.5273247211529
 30
0.0
 10
93.33779972709958
 20
-160.6627169737232
 30
0.0
 10
93.33779972709958
 20
-160.7853623729981
 30
0.0
 10
93.41462535642066
 20
-160.9038736576907
 30
0.0
 10
93.60462237243219
 20
-160.9038736576907
 30
0.0
 10
93.79444713366945
 20
-160.9038736576907
 30
0.0
 10
93.87144501776478
 20
-160.7853623729981
 30
0.0
 10
93.87144501776478
 20
-160.6627169737232
 30
0.0
 10
93.87144501776478
 20
-160.5273247211529
 30
0.0
 10
93.7785996944373
 20
-160.43224008576
 30
0.0
 10
93.60462237243219
 20
-160.43224008576
 30
0.0
  0
HATCH
  5
FF
330
F8
100
AcDbEntity
  8
_U+30EC_U+30A4_U+30E4_U+30FC 1
 62
   179
420
  2234388
100
AcDbHatch
 10
0.0
 20
0.0
 30
0.0
210
0.0
220
0.0
230
1.0
  2
SOLID
 70
     1
 71
     0
 91
        3
 92
        1
 93
        1
 72
     4
 94
        3
 73
     0
 74
     1
 95
       29
 96
       25
 40
0.0
 40
0.0
 40
0.0
 40
0.0
 40
1.0
 40
1.0
 40
1.0
 40
2.0
 40
2.0
 40
2.0
 40
3.0
 40
3.0
 40
3.0
 40
4.0
 40
4.0
 40
4.0
 40
5.0
 40
5.0
 40
5.0
 40
6.0
 40
6.0
 40
6.0
 40
7.0
 40
7.0
 40
7.0
 40
8.0
 40
8.0
 40
8.0
 40
8.0
 10
93.60462237243219
 20
-161.8833143041472
 10
93.31971297580202
 20
-161.8833143041472
 10
93.0484117063386
 20
-161.7458549942858
 10
93.0484117063386
 20
-161.39686682163
 10
93.0484117063386
 20
-161.1408962270759
 10
93.19982365291533
 20
-161.045811591683
 10
93.31299503960578
 20
-160.9844888920456
 10
93.17949758955235
 20
-160.9252332496993
 10
93.09819333610045
 20
-160.810856079589
 10
93.09819333610045
 20
-160.6499701204278
 10
93.09819333610045
 20
-160.3750515007048
 10
93.31058347276611
 20
-160.2396592481345
 10
93.60462237243219
 20
-160.2396592481345
 10
93.9076185203599
 20
-160.2396592481345
 10
94.11105140876391
 20
-160.383664239418
 10
94.11105140876391
 20
-160.6499701204278
 10
94.11105140876391
 20
-160.810856079589
 10
94.02733558847234
 20
-160.9252332496993
 10
93.89401039319317
 20
-160.9844888920456
 10
93.98892277381181
 20
-161.0351317956787
 10
94.1584214716861
 20
-161.1302164310716
 10
94.1584214716861
 20
-161.3927327070477
 10
94.1584214716861
 20
-161.7672145862943
 10
93.86007620266346
 20
-161.8833143041472
 10
93.60462237243219
 20
-161.8833143041472
 97
        0
 97
        0
 92
        1
 93
        1
 72
     4
 94
        3
 73
     0
 74
     1
 95
       17
 96
       13
 40
0.0
 40
0.0
 40
0.0
 40
0.0
 40
1.0
 40
1.0
 40
1.0
 40
2.0
 40
2.0
 40
2.0
 40
3.0
 40
3.0
 40
3.0
 40
4.0
 40
4.0
 40
4.0
 40
4.0
 10
93.60462237243219
 20
-161.0923203807339
 10
93.45079885901578
 20
-161.0923203807339
 10
93.28801809733773
 20
-161.1791367869622
 10
93.28801809733773
 20
-161.3820529110434
 10
93.28801809733773
 20
-161.5873806019643
 10
93.42375485945657
 20
-161.6886664092306
 10
93.60462237243219
 20
-161.6886664092306
 10
93.80357663670536
 20
-161.6886664092306
 10
93.92105439275238
 20
-161.5660210099557
 10
93.92105439275238
 20
-161.3882540829168
 10
93.92105439275238
 20
-161.1663899336667
 10
93.74707707074727
 20
-161.0923203807339
 10
93.60462237243219
 20
-161.0923203807339
 97
        0
 97
        0
 92
        1
 93
        1
 72
     4
 94
        3
 73
     0
 74
     1
 95
       17
 96
       13
 40
0.0
 40
0.0
 40
0.0
 40
0.0
 40
1.0
 40
1.0
 40
1.0
 40
2.0
 40
2.0
 40
2.0
 40
3.0
 40
3.0
 40
3.0
 40
4.0
 40
4.0
 40
4.0
 40
4.0
 10
93.60462237243219
 20
-160.43224008576
 10
93.42823348358739
 20
-160.43224008576
 10
93.33779972709958
 20
-160.5273247211529
 10
93.33779972709958
 20
-160.6627169737232
 10
93.33779972709958
 20
-160.7853623729981
 10
93.41462535642066
 20
-160.9038736576907
 10
93.60462237243219
 20
-160.9038736576907
 10
93.79444713366945
 20
-160.9038736576907
 10
93.87144501776478
 20
-160.7853623729981
 10
93.87144501776478
 20
-160.6627169737232
 10
93.87144501776478
 20
-160.5273247211529
 10
93.7785996944373
 20
-160.43224008576
 10
93.60462237243219
 20
-160.43224008576
 97
        0
 97
        0
 75
     2
 76
     1
 98
        0
  0
ENDBLK
  5
FB
330
F8
100
AcDbEntity
  8
0
100
AcDbBlockEnd
  0
BLOCK
  5
102
330
100
100
AcDbEntity
  8
0
100
AcDbBlockBegin
  2
block 10
 70
     0
 10
0.0
 20
0.0
 30
0.0
  3
block 10
  1

  0
POLYLINE
  5
104
330
100
100
AcDbEntity
  8
_U+30EC_U+30A4_U+30E4_U+30FC 1
 62
   179
420
  2234388
370
     9
100
AcDb2dPolyline
 66
     1
 10
0.0
 20
0.0
 30
0.0
  0
VERTEX
  5
105
330
104
100
AcDbEntity
  8
_U+30EC_U+30A4_U+30E4_U+30FC 1
 62
   179
420
  2234388
370
     9
100
AcDbVertex
100
AcDb2dVertex
 10
87.36795443772445
 20
-140.6841088537179
 30
0.0
  0
VERTEX
  5
106
330
104
100
AcDbEntity
  8
_U+30EC_U+30A4_U+30E4_U+30FC 1
 62
   179
420
  2234388
370
     9
100
AcDbVertex
100
AcDb2dVertex
 10
87.36795443772445
 20
-136.4266455214489
 30
0.0
  0
SEQEND
  5
107
330
104
100
AcDbEntity
  8
_U+30EC_U+30A4_U+30E4_U+30FC 1
 62
   179
420
  2234388
370
     9
  0
POLYLINE
  5
108
330
100
100
AcDbEntity
  8
_U+30EC_U+30A4_U+30E4_U+30FC 1
 62
   179
420
  2234388
370
     9
100
AcDb2dPolyline
 66
     1
 10
0.0
 20
0.0
 30
0.0
  0
VERTEX
  5
109
330
108
100
AcDbEntity
  8
_U+30EC_U+30A4_U+30E4_U+30FC 1
 62
   179
420
  2234388
370
     9
100
AcDbVertex
100
AcDb2dVertex
 10
87.36795443772445
 20
-140.6841088537179
 30
0.0
  0
VERTEX
  5
10A
330
108
100
AcDbEntity
  8
_U+30EC_U+30A4_U+30E4_U+30FC 1
 62
   179
420
  2234388
370
     9
100
AcDbVertex
100
AcDb2dVertex
 10
87.36795443772445
 20
-143.6847660751899
 30
0.0
  0
SEQEND
  5
10B
330
108
100
AcDbEntity
  8
_U+30EC_U+30A4_U+30E4_U+30FC 1
 62
   179
420
  2234388
370
     9
  0
POLYLINE
  5
10C
330
100
100
AcDbEntity
  8
_U+30EC_U+30A4_U+30E4_U+30FC 1
 62
   179
420
  2234388
370
     9
100
AcDb2dPolyline
 66
     1
 10
0.0
 20
0.0
 30
0.0
  0
VERTEX
  5
10D
330
10C
100
AcDbEntity
  8
_U+30EC_U+30A4_U+30E4_U+30FC 1
 62
   179
420
  2234388
370
     9
100
AcDbVertex
100
AcDb2dVertex
 10
88.82799578936458
 20
-141.6845513534678
 30
0.0
  0
VERTEX
  5
10E
330
10C
100
AcDbEntity
  8
_U+30EC_U+30A4_U+30E4_U+30FC 1
 62
   179
420
  2234388
370
     9
100
AcDbVertex
100
AcDb2dVertex
 10
86.36786474101665
 20
-141.6845513534678
 30
0.0
  0
SEQEND
  5
10F
330
10C
100
AcDbEntity
  8
_U+30EC_U+30A4_U+30E4_U+30FC 1
 62
   179
420
  2234388
370
     9
  0
POLYLINE
  5
110
330
100
100
AcDbEntity
  8
_U+30EC_U+30A4_U+30E4_U+30FC 1
 62
   179
420
  2234388
370
     9
100
AcDb2dPolyline
 66
     1
 10
0.0
 20
0.0
 30
0.0
  0
VERTEX
  5
111
330
110
100
AcDbEntity
  8
_U+30EC_U+30A4_U+30E4_U+30FC 1
 62
   179
420
  2234388
370
     9
100
AcDbVertex
100
AcDb2dVertex
 10
88.82799578936458
 20
-142.6849938532177
 30
0.0
  0
VERTEX
  5
112
330
110
100
AcDbEntity
  8
_U+30EC_U+30A4_U+30E4_U+30FC 1
 62
   179
420
  2234388
370
     9
100
AcDbVertex
100
AcDb2dVertex
 10
86.36786474101665
 20
-142.6849938532177
 30
0.0
  0
SEQEND
  5
113
330
110
100
AcDbEntity
  8
_U+30EC_U+30A4_U+30E4_U+30FC 1
 62
   179
420
  2234388
370
     9
  0
INSERT
  5
115
330
100
100
AcDbEntity
  8
_U+30EC_U+30A4_U+30E4_U+30FC 1
100
AcDbBlockReference
  2
block 11
 10
0.0
 20
0.0
 30
0.0
  0
ENDBLK
  5
103
330
100
100
AcDbEntity
  8
0
100
AcDbBlockEnd
  0
BLOCK
  5
116
330
114
100
AcDbEntity
  8
0
100
AcDbBlockBegin
  2
block 11
 70
     0
 10
0.0
 20
0.0
 30
0.0
  3
block 11
  1

  0
SPLINE
  5
118
330
114
100
AcDbEntity
  8
_U+30EC_U+30A4_U+30E4_U+30FC 1
370
     0
100
AcDbSpline
210
0.0
220
0.0
230
1.0
 70
    11
 71
     3
 72
    26
 73
    22
 74
     0
 42
0.0000000001
 43
0.0000000001
 12
1.0
 22
0.0
 32
0.0
 13
1.0
 23
0.0
 33
0.0
 40
0.0
 40
0.0
 40
0.0
 40
0.0
 40
1.0
 40
1.0
 40
1.0
 40
2.0
 40
2.0
 40
2.0
 40
3.0
 40
3.0
 40
3.0
 40
4.0
 40
4.0
 40
4.0
 40
5.0
 40
5.0
 40
5.0
 40
6.0
 40
6.0
 40
6.0
 40
7.0
 40
7.0
 40
7.0
 40
7.0
 10
86.01611054707236
 20
-138.7364067578506
 30
0.0
 10
86.01611054707236
 20
-138.7364067578506
 30
0.0
 10
84.91195744404979
 20
-138.7364067578506
 30
0.0
 10
84.91195744404979
 20
-138.7364067578506
 30
0.0
 10
84.91195744404979
 20
-138.7364067578506
 30
0.0
 10
84.91195744404979
 20
-139.0888400259917
 30
0.0
 10
84.91195744404979
 20
-139.0888400259917
 30
0.0
 10
84.91195744404979
 20
-139.0888400259917
 30
0.0
 10
84.76381833818405
 20
-139.0888400259917
 30
0.0
 10
84.76381833818405
 20
-139.0888400259917
 30
0.0
 10
84.74900442759747
 20
-138.733995191011
 30
0.0
 10
84.58605141114516
 20
-138.6843858160234
 30
0.0
 10
84.47167424103486
 20
-138.652690937559
 30
0.0
 10
84.47167424103486
 20
-138.652690937559
 30
0.0
 10
84.47167424103486
 20
-138.4966281120772
 30
0.0
 10
84.47167424103486
 20
-138.4966281120772
 30
0.0
 10
84.47167424103486
 20
-138.4966281120772
 30
0.0
 10
86.01611054707236
 20
-138.4966281120772
 30
0.0
 10
86.01611054707236
 20
-138.4966281120772
 30
0.0
 10
86.01611054707236
 20
-138.4966281120772
 30
0.0
 10
86.01611054707236
 20
-138.7364067578506
 30
0.0
 10
86.01611054707236
 20
-138.7364067578506
 30
0.0
  0
HATCH
  5
119
330
114
100
AcDbEntity
  8
_U+30EC_U+30A4_U+30E4_U+30FC 1
 62
   179
420
  2234388
100
AcDbHatch
 10
0.0
 20
0.0
 30
0.0
210
0.0
220
0.0
230
1.0
  2
SOLID
 70
     1
 71
     0
 91
        1
 92
        1
 93
        1
 72
     4
 94
        3
 73
     0
 74
     1
 95
       26
 96
       22
 40
0.0
 40
0.0
 40
0.0
 40
0.0
 40
1.0
 40
1.0
 40
1.0
 40
2.0
 40
2.0
 40
2.0
 40
3.0
 40
3.0
 40
3.0
 40
4.0
 40
4.0
 40
4.0
 40
5.0
 40
5.0
 40
5.0
 40
6.0
 40
6.0
 40
6.0
 40
7.0
 40
7.0
 40
7.0
 40
7.0
 10
86.01611054707236
 20
-138.7364067578506
 10
86.01611054707236
 20
-138.7364067578506
 10
84.91195744404979
 20
-138.7364067578506
 10
84.91195744404979
 20
-138.7364067578506
 10
84.91195744404979
 20
-138.7364067578506
 10
84.91195744404979
 20
-139.0888400259917
 10
84.91195744404979
 20
-139.0888400259917
 10
84.91195744404979
 20
-139.0888400259917
 10
84.76381833818405
 20
-139.0888400259917
 10
84.76381833818405
 20
-139.0888400259917
 10
84.74900442759747
 20
-138.733995191011
 10
84.58605141114516
 20
-138.6843858160234
 10
84.47167424103486
 20
-138.652690937559
 10
84.47167424103486
 20
-138.652690937559
 10
84.47167424103486
 20
-138.4966281120772
 10
84.47167424103486
 20
-138.4966281120772
 10
84.47167424103486
 20
-138.4966281120772
 10
86.01611054707236
 20
-138.4966281120772
 10
86.01611054707236
 20
-138.4966281120772
 10
86.01611054707236
 20
-138.4966281120772
 10
86.01611054707236
 20
-138.7364067578506
 10
86.01611054707236
 20
-138.7364067578506
 97
        0
 97
        0
 75
     2
 76
     1
 98
        0
  0
ENDBLK
  5
117
330
114
100
AcDbEntity
  8
0
100
AcDbBlockEnd
  0
BLOCK
  5
11C
330
11A
100
AcDbEntity
  8
0
100
AcDbBlockBegin
  2
block 12
 70
     0
 10
0.0
 20
0.0
 30
0.0
  3
block 12
  1

  0
POLYLINE
  5
11E
330
11A
100
AcDbEntity
  8
_U+30EC_U+30A4_U+30E4_U+30FC 1
 62
   179
420
  2234388
370
     9
100
AcDb2dPolyline
 66
     1
 10
0.0
 20
0.0
 30
0.0
  0
VERTEX
  5
11F
330
11E
100
AcDbEntity
  8
_U+30EC_U+30A4_U+30E4_U+30FC 1
 62
   179
420
  2234388
370
     9
100
AcDbVertex
100
AcDb2dVertex
 10
126.6644345462988
 20
-142.68432357544
 30
0.0
  0
VERTEX
  5
120
330
11E
100
AcDbEntity
  8
_U+30EC_U+30A4_U+30E4_U+30FC 1
 62
   179
420
  2234388
370
     9
100
AcDbVertex
100
AcDb2dVertex
 10
126.6644345462988
 20
-158.1843207937875
 30
0.0
  0
SEQEND
  5
121
330
11E
100
AcDbEntity
  8
_U+30EC_U+30A4_U+30E4_U+30FC 1
 62
   179
420
  2234388
370
     9
  0
POLYLINE
  5
122
330
11A
100
AcDbEntity
  8
_U+30EC_U+30A4_U+30E4_U+30FC 1
 62
   179
420
  2234388
370
     9
100
AcDb2dPolyline
 66
     1
 10
0.0
 20
0.0
 30
0.0
  0
VERTEX
  5
123
330
122
100
AcDbEntity
  8
_U+30EC_U+30A4_U+30E4_U+30FC 1
 62
   179
420
  2234388
370
     9
100
AcDbVertex
100
AcDb2dVertex
 10
125.2044284724356
 20
-142.68432357544
 30
0.0
  0
VERTEX
  5
124
330
122
100
AcDbEntity
  8
_U+30EC_U+30A4_U+30E4_U+30FC 1
 62
   179
420
  2234388
370
     9
100
AcDbVertex
100
AcDb2dVertex
 10
127.6642067430147
 20
-142.68432357544
 30
0.0
  0
SEQEND
  5
125
330
122
100
AcDbEntity
  8
_U+30EC_U+30A4_U+30E4_U+30FC 1
 62
   179
420
  2234388
370
     9
  0
POLYLINE
  5
126
330
11A
100
AcDbEntity
  8
_U+30EC_U+30A4_U+30E4_U+30FC 1
 62
   179
420
  2234388
370
     9
100
AcDb2dPolyline
 66
     1
 10
0.0
 20
0.0
 30
0.0
  0
VERTEX
  5
127
330
126
100
AcDbEntity
  8
_U+30EC_U+30A4_U+30E4_U+30FC 1
 62
   179
420
  2234388
370
     9
100
AcDbVertex
100
AcDb2dVertex
 10
110.2044588551167
 20
-158.1843207937875
 30
0.0
  0
VERTEX
  5
128
330
126
100
AcDbEntity
  8
_U+30EC_U+30A4_U+30E4_U+30FC 1
 62
   179
420
  2234388
370
     9
100
AcDbVertex
100
AcDb2dVertex
 10
127.6642067430147
 20
-158.1843207937875
 30
0.0
  0
SEQEND
  5
129
330
126
100
AcDbEntity
  8
_U+30EC_U+30A4_U+30E4_U+30FC 1
 62
   179
420
  2234388
370
     9
  0
INSERT
  5
12B
330
11A
100
AcDbEntity
  8
_U+30EC_U+30A4_U+30E4_U+30FC 1
100
AcDbBlockReference
  2
block 13
 10
0.0
 20
0.0
 30
0.0
  0
ENDBLK
  5
11D
330
11A
100
AcDbEntity
  8
0
100
AcDbBlockEnd
  0
BLOCK
  5
12C
330
12A
100
AcDbEntity
  8
0
100
AcDbBlockBegin
  2
block 13
 70
     0
 10
0.0
 20
0.0
 30
0.0
  3
block 13
  1

  0
SPLINE
  5
12E
330
12A
100
AcDbEntity
  8
_U+30EC_U+30A4_U+30E4_U+30FC 1
370
     0
100
AcDbSpline
210
0.0
220
0.0
230
1.0
 70
    11
 71
     3
 72
    26
 73
    22
 74
     0
 42
0.0000000001
 43
0.0000000001
 12
1.0
 22
0.0
 32
0.0
 13
1.0
 23
0.0
 33
0.0
 40
0.0
 40
0.0
 40
0.0
 40
0.0
 40
1.0
 40
1.0
 40
1.0
 40
2.0
 40
2.0
 40
2.0
 40
3.0
 40
3.0
 40
3.0
 40
4.0
 40
4.0
 40
4.0
 40
5.0
 40
5.0
 40
5.0
 40
6.0
 40
6.0
 40
6.0
 40
7.0
 40
7.0
 40
7.0
 40
7.0
 10
125.3129367091232
 20
-152.0372314073032
 30
0.0
 10
125.3129367091232
 20
-152.0372314073032
 30
0.0
 10
124.2087836061006
 20
-152.0372314073032
 30
0.0
 10
124.2087836061006
 20
-152.0372314073032
 30
0.0
 10
124.2087836061006
 20
-152.0372314073032
 30
0.0
 10
124.2087836061006
 20
-152.3896646754443
 30
0.0
 10
124.2087836061006
 20
-152.3896646754443
 30
0.0
 10
124.2087836061006
 20
-152.3896646754443
 30
0.0
 10
124.0606445002348
 20
-152.3896646754443
 30
0.0
 10
124.0606445002348
 20
-152.3896646754443
 30
0.0
 10
124.0458305896483
 20
-152.0348198404635
 30
0.0
 10
123.882877573196
 20
-151.9852104654759
 30
0.0
 10
123.7685004030857
 20
-151.9535155870116
 30
0.0
 10
123.7685004030857
 20
-151.9535155870116
 30
0.0
 10
123.7685004030857
 20
-151.7974527615298
 30
0.0
 10
123.7685004030857
 20
-151.7974527615298
 30
0.0
 10
123.7685004030857
 20
-151.7974527615298
 30
0.0
 10
125.3129367091232
 20
-151.7974527615298
 30
0.0
 10
125.3129367091232
 20
-151.7974527615298
 30
0.0
 10
125.3129367091232
 20
-151.7974527615298
 30
0.0
 10
125.3129367091232
 20
-152.0372314073032
 30
0.0
 10
125.3129367091232
 20
-152.0372314073032
 30
0.0
  0
HATCH
  5
12F
330
12A
100
AcDbEntity
  8
_U+30EC_U+30A4_U+30E4_U+30FC 1
 62
   179
420
  2234388
100
AcDbHatch
 10
0.0
 20
0.0
 30
0.0
210
0.0
220
0.0
230
1.0
  2
SOLID
 70
     1
 71
     0
 91
        1
 92
        1
 93
        1
 72
     4
 94
        3
 73
     0
 74
     1
 95
       26
 96
       22
 40
0.0
 40
0.0
 40
0.0
 40
0.0
 40
1.0
 40
1.0
 40
1.0
 40
2.0
 40
2.0
 40
2.0
 40
3.0
 40
3.0
 40
3.0
 40
4.0
 40
4.0
 40
4.0
 40
5.0
 40
5.0
 40
5.0
 40
6.0
 40
6.0
 40
6.0
 40
7.0
 40
7.0
 40
7.0
 40
7.0
 10
125.3129367091232
 20
-152.0372314073032
 10
125.3129367091232
 20
-152.0372314073032
 10
124.2087836061006
 20
-152.0372314073032
 10
124.2087836061006
 20
-152.0372314073032
 10
124.2087836061006
 20
-152.0372314073032
 10
124.2087836061006
 20
-152.3896646754443
 10
124.2087836061006
 20
-152.3896646754443
 10
124.2087836061006
 20
-152.3896646754443
 10
124.0606445002348
 20
-152.3896646754443
 10
124.0606445002348
 20
-152.3896646754443
 10
124.0458305896483
 20
-152.0348198404635
 10
123.882877573196
 20
-151.9852104654759
 10
123.7685004030857
 20
-151.9535155870116
 10
123.7685004030857
 20
-151.9535155870116
 10
123.7685004030857
 20
-151.7974527615298
 10
123.7685004030857
 20
-151.7974527615298
 10
123.7685004030857
 20
-151.7974527615298
 10
125.3129367091232
 20
-151.7974527615298
 10
125.3129367091232
 20
-151.7974527615298
 10
125.3129367091232
 20
-151.7974527615298
 10
125.3129367091232
 20
-152.0372314073032
 10
125.3129367091232
 20
-152.0372314073032
 97
        0
 97
        0
 75
     2
 76
     1
 98
        0
  0
SPLINE
  5
130
330
12A
100
AcDbEntity
  8
_U+30EC_U+30A4_U+30E4_U+30FC 1
370
     0
100
AcDbSpline
210
0.0
220
0.0
230
1.0
 70
    11
 71
     3
 72
    53
 73
    49
 74
     0
 42
0.0000000001
 43
0.0000000001
 12
1.0
 22
0.0
 32
0.0
 13
1.0
 23
0.0
 33
0.0
 40
0.0
 40
0.0
 40
0.0
 40
0.0
 40
1.0
 40
1.0
 40
1.0
 40
2.0
 40
2.0
 40
2.0
 40
3.0
 40
3.0
 40
3.0
 40
4.0
 40
4.0
 40
4.0
 40
5.0
 40
5.0
 40
5.0
 40
6.0
 40
6.0
 40
6.0
 40
7.0
 40
7.0
 40
7.0
 40
8.0
 40
8.0
 40
8.0
 40
9.0
 40
9.0
 40
9.0
 40
10.0
 40
10.0
 40
10.0
 40
11.0
 40
11.0
 40
11.0
 40
12.0
 40
12.0
 40
12.0
 40
13.0
 40
13.0
 40
13.0
 40
14.0
 40
14.0
 40
14.0
 40
15.0
 40
15.0
 40
15.0
 40
16.0
 40
16.0
 40
16.0
 40
16.0
 10
125.3635796127563
 20
-150.7477321671742
 30
0.0
 10
125.3635796127563
 20
-150.8311034779172
 30
0.0
 10
125.3466986448786
 20
-150.9399684952511
 30
0.0
 10
125.28330888795
 20
-151.048144493488
 30
0.0
 10
125.1734103419705
 20
-151.2338351401429
 30
0.0
 10
125.0421522039825
 20
-151.2562282607971
 30
0.0
 10
124.9343207152942
 20
-151.27655432416
 30
0.0
 10
124.9343207152942
 20
-151.27655432416
 30
0.0
 10
124.9343207152942
 20
-151.0391872452263
 30
0.0
 10
124.9343207152942
 20
-151.0391872452263
 30
0.0
 10
125.1331027247931
 20
-150.9806206219771
 30
0.0
 10
125.1627305459663
 20
-150.8448838598582
 30
0.0
 10
125.1627305459663
 20
-150.7453206003345
 30
0.0
 10
125.1627305459663
 20
-150.5961479658232
 30
0.0
 10
125.0631672864425
 20
-150.4335394589194
 30
0.0
 10
124.8306233411882
 20
-150.4335394589194
 30
0.0
 10
124.5746527466341
 20
-150.4335394589194
 30
0.0
 10
124.5047173082835
 20
-150.6254312774478
 30
0.0
 10
124.5047173082835
 20
-150.7542778485962
 30
0.0
 10
124.5047173082835
 20
-150.7883842939001
 30
0.0
 10
124.5047173082835
 20
-150.9399684952511
 30
0.0
 10
124.6339083889804
 20
-151.0347086210955
 30
0.0
 10
124.6339083889804
 20
-151.0347086210955
 30
0.0
 10
124.6149603638115
 20
-151.2224663250416
 30
0.0
 10
124.6149603638115
 20
-151.2224663250416
 30
0.0
 10
124.6149603638115
 20
-151.2224663250416
 30
0.0
 10
123.7685004030857
 20
-151.0936197538933
 30
0.0
 10
123.7685004030857
 20
-151.0936197538933
 30
0.0
 10
123.7685004030857
 20
-151.0936197538933
 30
0.0
 10
123.7685004030857
 20
-150.2616291942054
 30
0.0
 10
123.7685004030857
 20
-150.2616291942054
 30
0.0
 10
123.7685004030857
 20
-150.2616291942054
 30
0.0
 10
123.9631482980023
 20
-150.2616291942054
 30
0.0
 10
123.9631482980023
 20
-150.2616291942054
 30
0.0
 10
123.9631482980023
 20
-150.2616291942054
 30
0.0
 10
123.9631482980023
 20
-150.9192979223396
 30
0.0
 10
123.9631482980023
 20
-150.9192979223396
 30
0.0
 10
123.9631482980023
 20
-150.9192979223396
 30
0.0
 10
124.386206023591
 20
-150.9895778702387
 30
0.0
 10
124.386206023591
 20
-150.9895778702387
 30
0.0
 10
124.3524440878355
 20
-150.924121056019
 30
0.0
 10
124.3121364706581
 20
-150.8359266115966
 30
0.0
 10
124.3121364706581
 20
-150.7091470977394
 30
0.0
 10
124.3121364706581
 20
-150.4380180830502
 30
0.0
 10
124.4985161364101
 20
-150.1848035648844
 30
0.0
 10
124.8116753160193
 20
-150.1848035648844
 30
0.0
 10
125.1289686102108
 20
-150.1848035648844
 30
0.0
 10
125.3635796127563
 20
-150.4242377011092
 30
0.0
 10
125.3635796127563
 20
-150.7477321671742
 30
0.0
  0
HATCH
  5
131
330
12A
100
AcDbEntity
  8
_U+30EC_U+30A4_U+30E4_U+30FC 1
 62
   179
420
  2234388
100
AcDbHatch
 10
0.0
 20
0.0
 30
0.0
210
0.0
220
0.0
230
1.0
  2
SOLID
 70
     1
 71
     0
 91
        1
 92
        1
 93
        1
 72
     4
 94
        3
 73
     0
 74
     1
 95
       53
 96
       49
 40
0.0
 40
0.0
 40
0.0
 40
0.0
 40
1.0
 40
1.0
 40
1.0
 40
2.0
 40
2.0
 40
2.0
 40
3.0
 40
3.0
 40
3.0
 40
4.0
 40
4.0
 40
4.0
 40
5.0
 40
5.0
 40
5.0
 40
6.0
 40
6.0
 40
6.0
 40
7.0
 40
7.0
 40
7.0
 40
8.0
 40
8.0
 40
8.0
 40
9.0
 40
9.0
 40
9.0
 40
10.0
 40
10.0
 40
10.0
 40
11.0
 40
11.0
 40
11.0
 40
12.0
 40
12.0
 40
12.0
 40
13.0
 40
13.0
 40
13.0
 40
14.0
 40
14.0
 40
14.0
 40
15.0
 40
15.0
 40
15.0
 40
16.0
 40
16.0
 40
16.0
 40
16.0
 10
125.3635796127563
 20
-150.7477321671742
 10
125.3635796127563
 20
-150.8311034779172
 10
125.3466986448786
 20
-150.9399684952511
 10
125.28330888795
 20
-151.048144493488
 10
125.1734103419705
 20
-151.2338351401429
 10
125.0421522039825
 20
-151.2562282607971
 10
124.9343207152942
 20
-151.27655432416
 10
124.9343207152942
 20
-151.27655432416
 10
124.9343207152942
 20
-151.0391872452263
 10
124.9343207152942
 20
-151.0391872452263
 10
125.1331027247931
 20
-150.9806206219771
 10
125.1627305459663
 20
-150.8448838598582
 10
125.1627305459663
 20
-150.7453206003345
 10
125.1627305459663
 20
-150.5961479658232
 10
125.0631672864425
 20
-150.4335394589194
 10
124.8306233411882
 20
-150.4335394589194
 10
124.5746527466341
 20
-150.4335394589194
 10
124.5047173082835
 20
-150.6254312774478
 10
124.5047173082835
 20
-150.7542778485962
 10
124.5047173082835
 20
-150.7883842939001
 10
124.5047173082835
 20
-150.9399684952511
 10
124.6339083889804
 20
-151.0347086210955
 10
124.6339083889804
 20
-151.0347086210955
 10
124.6149603638115
 20
-151.2224663250416
 10
124.6149603638115
 20
-151.2224663250416
 10
124.6149603638115
 20
-151.2224663250416
 10
123.7685004030857
 20
-151.0936197538933
 10
123.7685004030857
 20
-151.0936197538933
 10
123.7685004030857
 20
-151.0936197538933
 10
123.7685004030857
 20
-150.2616291942054
 10
123.7685004030857
 20
-150.2616291942054
 10
123.7685004030857
 20
-150.2616291942054
 10
123.9631482980023
 20
-150.2616291942054
 10
123.9631482980023
 20
-150.2616291942054
 10
123.9631482980023
 20
-150.2616291942054
 10
123.9631482980023
 20
-150.9192979223396
 10
123.9631482980023
 20
-150.9192979223396
 10
123.9631482980023
 20
-150.9192979223396
 10
124.386206023591
 20
-150.9895778702387
 10
124.386206023591
 20
-150.9895778702387
 10
124.3524440878355
 20
-150.924121056019
 10
124.3121364706581
 20
-150.8359266115966
 10
124.3121364706581
 20
-150.7091470977394
 10
124.3121364706581
 20
-150.4380180830502
 10
124.4985161364101
 20
-150.1848035648844
 10
124.8116753160193
 20
-150.1848035648844
 10
125.1289686102108
 20
-150.1848035648844
 10
125.3635796127563
 20
-150.4242377011092
 10
125.3635796127563
 20
-150.7477321671742
 97
        0
 97
        0
 75
     2
 76
     1
 98
        0
  0
POLYLINE
  5
132
330
12A
100
AcDbEntity
  8
_U+30EC_U+30A4_U+30E4_U+30FC 1
370
     0
100
AcDb2dPolyline
 66
     1
 10
0.0
 20
0.0
 30
0.0
  0
VERTEX
  5
133
330
132
100
AcDbEntity
  8
_U+30EC_U+30A4_U+30E4_U+30FC 1
370
     0
100
AcDbVertex
100
AcDb2dVertex
 10
125.3129367091232
 20
-149.9398572758831
 30
0.0
  0
VERTEX
  5
134
330
132
100
AcDbEntity
  8
_U+30EC_U+30A4_U+30E4_U+30FC 1
370
     0
100
AcDbVertex
100
AcDb2dVertex
 10
125.0611002291514
 20
-149.9398572758831
 30
0.0
  0
VERTEX
  5
135
330
132
100
AcDbEntity
  8
_U+30EC_U+30A4_U+30E4_U+30FC 1
370
     0
100
AcDbVertex
100
AcDb2dVertex
 10
125.0611002291514
 20
-149.6707953184851
 30
0.0
  0
VERTEX
  5
136
330
132
100
AcDbEntity
  8
_U+30EC_U+30A4_U+30E4_U+30FC 1
370
     0
100
AcDbVertex
100
AcDb2dVertex
 10
125.3129367091232
 20
-149.6707953184851
 30
0.0
  0
VERTEX
  5
137
330
132
100
AcDbEntity
  8
_U+30EC_U+30A4_U+30E4_U+30FC 1
370
     0
100
AcDbVertex
100
AcDb2dVertex
 10
125.3129367091232
 20
-149.9398572758831
 30
0.0
  0
SEQEND
  5
138
330
132
100
AcDbEntity
  8
_U+30EC_U+30A4_U+30E4_U+30FC 1
370
     0
  0
HATCH
  5
139
330
12A
100
AcDbEntity
  8
_U+30EC_U+30A4_U+30E4_U+30FC 1
 62
   179
420
  2234388
100
AcDbHatch
 10
0.0
 20
0.0
 30
0.0
210
0.0
220
0.0
230
1.0
  2
SOLID
 70
     1
 71
     0
 91
        1
 92
        1
 93
        4
 72
     1
 10
125.3129367091232
 20
-149.9398572758831
 11
125.0611002291514
 21
-149.9398572758831
 72
     1
 10
125.0611002291514
 20
-149.9398572758831
 11
125.0611002291514
 21
-149.6707953184851
 72
     1
 10
125.0611002291514
 20
-149.6707953184851
 11
125.3129367091232
 21
-149.6707953184851
 72
     1
 10
125.3129367091232
 20
-149.6707953184851
 11
125.3129367091232
 21
-149.9398572758831
 97
        0
 75
     2
 76
     1
 98
        0
  0
SPLINE
  5
13A
330
12A
100
AcDbEntity
  8
_U+30EC_U+30A4_U+30E4_U+30FC 1
370
     0
100
AcDbSpline
210
0.0
220
0.0
230
1.0
 70
    11
 71
     3
 72
    53
 73
    49
 74
     0
 42
0.0000000001
 43
0.0000000001
 12
1.0
 22
0.0
 32
0.0
 13
1.0
 23
0.0
 33
0.0
 40
0.0
 40
0.0
 40
0.0
 40
0.0
 40
1.0
 40
1.0
 40
1.0
 40
2.0
 40
2.0
 40
2.0
 40
3.0
 40
3.0
 40
3.0
 40
4.0
 40
4.0
 40
4.0
 40
5.0
 40
5.0
 40
5.0
 40
6.0
 40
6.0
 40
6.0
 40
7.0
 40
7.0
 40
7.0
 40
8.0
 40
8.0
 40
8.0
 40
9.0
 40
9.0
 40
9.0
 40
10.0
 40
10.0
 40
10.0
 40
11.0
 40
11.0
 40
11.0
 40
12.0
 40
12.0
 40
12.0
 40
13.0
 40
13.0
 40
13.0
 40
14.0
 40
14.0
 40
14.0
 40
15.0
 40
15.0
 40
15.0
 40
16.0
 40
16.0
 40
16.0
 40
16.0
 10
125.3635796127563
 20
-148.9039170634685
 30
0.0
 10
125.3635796127563
 20
-148.9872883742115
 30
0.0
 10
125.3466986448786
 20
-149.0961533915454
 30
0.0
 10
125.28330888795
 20
-149.2043293897823
 30
0.0
 10
125.1734103419705
 20
-149.3900200364372
 30
0.0
 10
125.0421522039825
 20
-149.4124131570914
 30
0.0
 10
124.9343207152942
 20
-149.4327392204543
 30
0.0
 10
124.9343207152942
 20
-149.4327392204543
 30
0.0
 10
124.9343207152942
 20
-149.1953721415206
 30
0.0
 10
124.9343207152942
 20
-149.1953721415206
 30
0.0
 10
125.1331027247931
 20
-149.1368055182714
 30
0.0
 10
125.1627305459663
 20
-149.0010687561525
 30
0.0
 10
125.1627305459663
 20
-148.9015054966288
 30
0.0
 10
125.1627305459663
 20
-148.7523328621175
 30
0.0
 10
125.0631672864425
 20
-148.5897243552137
 30
0.0
 10
124.8306233411882
 20
-148.5897243552137
 30
0.0
 10
124.5746527466341
 20
-148.5897243552137
 30
0.0
 10
124.5047173082835
 20
-148.7816161737421
 30
0.0
 10
124.5047173082835
 20
-148.9104627448905
 30
0.0
 10
124.5047173082835
 20
-148.9445691901944
 30
0.0
 10
124.5047173082835
 20
-149.0961533915454
 30
0.0
 10
124.6339083889804
 20
-149.1908935173898
 30
0.0
 10
124.6339083889804
 20
-149.1908935173898
 30
0.0
 10
124.6149603638115
 20
-149.3786512213359
 30
0.0
 10
124.6149603638115
 20
-149.3786512213359
 30
0.0
 10
124.6149603638115
 20
-149.3786512213359
 30
0.0
 10
123.7685004030857
 20
-149.2498046501875
 30
0.0
 10
123.7685004030857
 20
-149.2498046501875
 30
0.0
 10
123.7685004030857
 20
-149.2498046501875
 30
0.0
 10
123.7685004030857
 20
-148.4178140904997
 30
0.0
 10
123.7685004030857
 20
-148.4178140904997
 30
0.0
 10
123.7685004030857
 20
-148.4178140904997
 30
0.0
 10
123.9631482980023
 20
-148.4178140904997
 30
0.0
 10
123.9631482980023
 20
-148.4178140904997
 30
0.0
 10
123.9631482980023
 20
-148.4178140904997
 30
0.0
 10
123.9631482980023
 20
-149.0754828186339
 30
0.0
 10
123.9631482980023
 20
-149.0754828186339
 30
0.0
 10
123.9631482980023
 20
-149.0754828186339
 30
0.0
 10
124.386206023591
 20
-149.145762766533
 30
0.0
 10
124.386206023591
 20
-149.145762766533
 30
0.0
 10
124.3524440878355
 20
-149.0803059523133
 30
0.0
 10
124.3121364706581
 20
-148.9921115078909
 30
0.0
 10
124.3121364706581
 20
-148.8653319940337
 30
0.0
 10
124.3121364706581
 20
-148.5942029793445
 30
0.0
 10
124.4985161364101
 20
-148.3409884611787
 30
0.0
 10
124.8116753160193
 20
-148.3409884611787
 30
0.0
 10
125.1289686102108
 20
-148.3409884611787
 30
0.0
 10
125.3635796127563
 20
-148.5804225974035
 30
0.0
 10
125.3635796127563
 20
-148.9039170634685
 30
0.0
  0
HATCH
  5
13B
330
12A
100
AcDbEntity
  8
_U+30EC_U+30A4_U+30E4_U+30FC 1
 62
   179
420
  2234388
100
AcDbHatch
 10
0.0
 20
0.0
 30
0.0
210
0.0
220
0.0
230
1.0
  2
SOLID
 70
     1
 71
     0
 91
        1
 92
        1
 93
        1
 72
     4
 94
        3
 73
     0
 74
     1
 95
       53
 96
       49
 40
0.0
 40
0.0
 40
0.0
 40
0.0
 40
1.0
 40
1.0
 40
1.0
 40
2.0
 40
2.0
 40
2.0
 40
3.0
 40
3.0
 40
3.0
 40
4.0
 40
4.0
 40
4.0
 40
5.0
 40
5.0
 40
5.0
 40
6.0
 40
6.0
 40
6.0
 40
7.0
 40
7.0
 40
7.0
 40
8.0
 40
8.0
 40
8.0
 40
9.0
 40
9.0
 40
9.0
 40
10.0
 40
10.0
 40
10.0
 40
11.0
 40
11.0
 40
11.0
 40
12.0
 40
12.0
 40
12.0
 40
13.0
 40
13.0
 40
13.0
 40
14.0
 40
14.0
 40
14.0
 40
15.0
 40
15.0
 40
15.0
 40
16.0
 40
16.0
 40
16.0
 40
16.0
 10
125.3635796127563
 20
-148.9039170634685
 10
125.3635796127563
 20
-148.9872883742115
 10
125.3466986448786
 20
-149.0961533915454
 10
125.28330888795
 20
-149.2043293897823
 10
125.1734103419705
 20
-149.3900200364372
 10
125.0421522039825
 20
-149.4124131570914
 10
124.9343207152942
 20
-149.4327392204543
 10
124.9343207152942
 20
-149.4327392204543
 10
124.9343207152942
 20
-149.1953721415206
 10
124.9343207152942
 20
-149.1953721415206
 10
125.1331027247931
 20
-149.1368055182714
 10
125.1627305459663
 20
-149.0010687561525
 10
125.1627305459663
 20
-148.9015054966288
 10
125.1627305459663
 20
-148.7523328621175
 10
125.0631672864425
 20
-148.5897243552137
 10
124.8306233411882
 20
-148.5897243552137
 10
124.5746527466341
 20
-148.5897243552137
 10
124.5047173082835
 20
-148.7816161737421
 10
124.5047173082835
 20
-148.9104627448905
 10
124.5047173082835
 20
-148.9445691901944
 10
124.5047173082835
 20
-149.0961533915454
 10
124.6339083889804
 20
-149.1908935173898
 10
124.6339083889804
 20
-149.1908935173898
 10
124.6149603638115
 20
-149.3786512213359
 10
124.6149603638115
 20
-149.3786512213359
 10
124.6149603638115
 20
-149.3786512213359
 10
123.7685004030857
 20
-149.2498046501875
 10
123.7685004030857
 20
-149.2498046501875
 10
123.7685004030857
 20
-149.2498046501875
 10
123.7685004030857
 20
-148.4178140904997
 10
123.7685004030857
 20
-148.4178140904997
 10
123.7685004030857
 20
-148.4178140904997
 10
123.9631482980023
 20
-148.4178140904997
 10
123.9631482980023
 20
-148.4178140904997
 10
123.9631482980023
 20
-148.4178140904997
 10
123.9631482980023
 20
-149.0754828186339
 10
123.9631482980023
 20
-149.0754828186339
 10
123.9631482980023
 20
-149.0754828186339
 10
124.386206023591
 20
-149.145762766533
 10
124.386206023591
 20
-149.145762766533
 10
124.3524440878355
 20
-149.0803059523133
 10
124.3121364706581
 20
-148.9921115078909
 10
124.3121364706581
 20
-148.8653319940337
 10
124.3121364706581
 20
-148.5942029793445
 10
124.4985161364101
 20
-148.3409884611787
 10
124.8116753160193
 20
-148.3409884611787
 10
125.1289686102108
 20
-148.3409884611787
 10
125.3635796127563
 20
-148.5804225974035
 10
125.3635796127563
 20
-148.9039170634685
 97
        0
 97
        0
 75
     2
 76
     1
 98
        0
  0
ENDBLK
  5
12D
330
12A
100
AcDbEntity
  8
0
100
AcDbBlockEnd
  0
ENDSEC
  0
SECTION
  2
ENTITIES
  0
POLYLINE
  5
41
330
1F
100
AcDbEntity
  8
_U+30EC_U+30A4_U+30E4_U+30FC 1
 62
   179
420
  2234388
370
    25
100
AcDb2dPolyline
 66
     1
 10
0.0
 20
0.0
 30
0.0
  0
VERTEX
  5
42
330
41
100
AcDbEntity
  8
_U+30EC_U+30A4_U+30E4_U+30FC 1
 62
   179
420
  2234388
370
    25
100
AcDbVertex
100
AcDb2dVertex
 10
89.54526354884334
 20
-141.6845513534678
 30
0.0
  0
VERTEX
  5
43
330
41
100
AcDbEntity
  8
_U+30EC_U+30A4_U+30E4_U+30FC 1
 62
   179
420
  2234388
370
    25
100
AcDbVertex
100
AcDb2dVertex
 10
98.6647805384073
 20
-141.6845513534678
 30
0.0
  0
SEQEND
  5
44
330
41
100
AcDbEntity
  8
_U+30EC_U+30A4_U+30E4_U+30FC 1
 62
   179
420
  2234388
370
    25
  0
POLYLINE
  5
45
330
1F
100
AcDbEntity
  8
_U+30EC_U+30A4_U+30E4_U+30FC 1
 62
   179
420
  2234388
370
    25
100
AcDb2dPolyline
 66
     1
 10
0.0
 20
0.0
 30
0.0
  0
VERTEX
  5
46
330
45
100
AcDbEntity
  8
_U+30EC_U+30A4_U+30E4_U+30FC 1
 62
   179
420
  2234388
370
    25
100
AcDbVertex
100
AcDb2dVertex
 10
122.6646754816745
 20
-141.6845513534678
 30
0.0
  0
VERTEX
  5
47
330
45
100
AcDbEntity
  8
_U+30EC_U+30A4_U+30E4_U+30FC 1
 62
   179
420
  2234388
370
    25
100
AcDbVertex
100
AcDb2dVertex
 10
122.6646754816745
 20
-142.68432357544
 30
0.0
  0
SEQEND
  5
48
330
45
100
AcDbEntity
  8
_U+30EC_U+30A4_U+30E4_U+30FC 1
 62
   179
420
  2234388
370
    25
  0
POLYLINE
  5
49
330
1F
100
AcDbEntity
  8
_U+30EC_U+30A4_U+30E4_U+30FC 1
 62
   179
420
  2234388
370
    25
100
AcDb2dPolyline
 66
     1
 10
0.0
 20
0.0
 30
0.0
  0
VERTEX
  5
4A
330
49
100
AcDbEntity
  8
_U+30EC_U+30A4_U+30E4_U+30FC 1
 62
   179
420
  2234388
370
    25
100
AcDbVertex
100
AcDb2dVertex
 10
100.664642431831
 20
-142.68432357544
 30
0.0
  0
VERTEX
  5
4B
330
49
100
AcDbEntity
  8
_U+30EC_U+30A4_U+30E4_U+30FC 1
 62
   179
420
  2234388
370
    25
100
AcDbVertex
100
AcDb2dVertex
 10
122.6646754816745
 20
-142.68432357544
 30
0.0
  0
SEQEND
  5
4C
330
49
100
AcDbEntity
  8
_U+30EC_U+30A4_U+30E4_U+30FC 1
 62
   179
420
  2234388
370
    25
  0
POLYLINE
  5
4D
330
1F
100
AcDbEntity
  8
_U+30EC_U+30A4_U+30E4_U+30FC 1
 62
   179
420
  2234388
370
    25
100
AcDb2dPolyline
 66
     1
 10
0.0
 20
0.0
 30
0.0
  0
VERTEX
  5
4E
330
4D
100
AcDbEntity
  8
_U+30EC_U+30A4_U+30E4_U+30FC 1
 62
   179
420
  2234388
370
    25
100
AcDbVertex
100
AcDb2dVertex
 10
89.54526354884334
 20
-141.6845513534678
 30
0.0
  0
VERTEX
  5
4F
330
4D
100
AcDbEntity
  8
_U+30EC_U+30A4_U+30E4_U+30FC 1
 62
   179
420
  2234388
370
    25
100
AcDbVertex
100
AcDb2dVertex
 10
89.54526354884334
 20
-142.6849938532177
 30
0.0
  0
SEQEND
  5
50
330
4D
100
AcDbEntity
  8
_U+30EC_U+30A4_U+30E4_U+30FC 1
 62
   179
420
  2234388
370
    25
  0
POLYLINE
  5
51
330
1F
100
AcDbEntity
  8
_U+30EC_U+30A4_U+30E4_U+30FC 1
 62
   179
420
  2234388
370
    25
100
AcDb2dPolyline
 66
     1
 10
0.0
 20
0.0
 30
0.0
  0
VERTEX
  5
52
330
51
100
AcDbEntity
  8
_U+30EC_U+30A4_U+30E4_U+30FC 1
 62
   179
420
  2234388
370
    25
100
AcDbVertex
100
AcDb2dVertex
 10
97.66465556392261
 20
-142.6849938532177
 30
0.0
  0
VERTEX
  5
53
330
51
100
AcDbEntity
  8
_U+30EC_U+30A4_U+30E4_U+30FC 1
 62
   179
420
  2234388
370
    25
100
AcDbVertex
100
AcDb2dVertex
 10
97.66465556392261
 20
-159.1840930157594
 30
0.0
  0
SEQEND
  5
54
330
51
100
AcDbEntity
  8
_U+30EC_U+30A4_U+30E4_U+30FC 1
 62
   179
420
  2234388
370
    25
  0
POLYLINE
  5
55
330
1F
100
AcDbEntity
  8
_U+30EC_U+30A4_U+30E4_U+30FC 1
 62
   179
420
  2234388
370
    25
100
AcDb2dPolyline
 66
     1
 10
0.0
 20
0.0
 30
0.0
  0
VERTEX
  5
56
330
55
100
AcDbEntity
  8
_U+30EC_U+30A4_U+30E4_U+30FC 1
 62
   179
420
  2234388
370
    25
100
AcDbVertex
100
AcDb2dVertex
 10
107.6647411421325
 20
-158.1843207937875
 30
0.0
  0
VERTEX
  5
57
330
55
100
AcDbEntity
  8
_U+30EC_U+30A4_U+30E4_U+30FC 1
 62
   179
420
  2234388
370
    25
100
AcDbVertex
100
AcDb2dVertex
 10
107.6647411421325
 20
-158.6845596825512
 30
0.0
  0
SEQEND
  5
58
330
55
100
AcDbEntity
  8
_U+30EC_U+30A4_U+30E4_U+30FC 1
 62
   179
420
  2234388
370
    25
  0
POLYLINE
  5
59
330
1F
100
AcDbEntity
  8
_U+30EC_U+30A4_U+30E4_U+30FC 1
 62
   179
420
  2234388
370
    25
100
AcDb2dPolyline
 66
     1
 10
0.0
 20
0.0
 30
0.0
  0
VERTEX
  5
5A
330
59
100
AcDbEntity
  8
_U+30EC_U+30A4_U+30E4_U+30FC 1
 62
   179
420
  2234388
370
    25
100
AcDbVertex
100
AcDb2dVertex
 10
100.664642431831
 20
-158.1843207937875
 30
0.0
  0
VERTEX
  5
5B
330
59
100
AcDbEntity
  8
_U+30EC_U+30A4_U+30E4_U+30FC 1
 62
   179
420
  2234388
370
    25
100
AcDbVertex
100
AcDb2dVertex
 10
107.6647411421325
 20
-158.1843207937875
 30
0.0
  0
SEQEND
  5
5C
330
59
100
AcDbEntity
  8
_U+30EC_U+30A4_U+30E4_U+30FC 1
 62
   179
420
  2234388
370
    25
  0
POLYLINE
  5
5D
330
1F
100
AcDbEntity
  8
_U+30EC_U+30A4_U+30E4_U+30FC 1
 62
   179
420
  2234388
370
    25
100
AcDb2dPolyline
 66
     1
 10
0.0
 20
0.0
 30
0.0
  0
VERTEX
  5
5E
330
5D
100
AcDbEntity
  8
_U+30EC_U+30A4_U+30E4_U+30FC 1
 62
   179
420
  2234388
370
    25
100
AcDbVertex
100
AcDb2dVertex
 10
99.66455273512321
 20
-141.6845513534678
 30
0.0
  0
VERTEX
  5
5F
330
5D
100
AcDbEntity
  8
_U+30EC_U+30A4_U+30E4_U+30FC 1
 62
   179
420
  2234388
370
    25
100
AcDbVertex
100
AcDb2dVertex
 10
122.6646754816745
 20
-141.6845513534678
 30
0.0
  0
SEQEND
  5
60
330
5D
100
AcDbEntity
  8
_U+30EC_U+30A4_U+30E4_U+30FC 1
 62
   179
420
  2234388
370
    25
  0
POLYLINE
  5
61
330
1F
100
AcDbEntity
  8
_U+30EC_U+30A4_U+30E4_U+30FC 1
 62
   179
420
  2234388
370
    25
100
AcDb2dPolyline
 66
     1
 10
0.0
 20
0.0
 30
0.0
  0
VERTEX
  5
62
330
61
100
AcDbEntity
  8
_U+30EC_U+30A4_U+30E4_U+30FC 1
 62
   179
420
  2234388
370
    25
100
AcDbVertex
100
AcDb2dVertex
 10
89.54526354884334
 20
-142.6849938532177
 30
0.0
  0
VERTEX
  5
63
330
61
100
AcDbEntity
  8
_U+30EC_U+30A4_U+30E4_U+30FC 1
 62
   179
420
  2234388
370
    25
100
AcDbVertex
100
AcDb2dVertex
 10
97.66465556392261
 20
-142.6849938532177
 30
0.0
  0
SEQEND
  5
64
330
61
100
AcDbEntity
  8
_U+30EC_U+30A4_U+30E4_U+30FC 1
 62
   179
420
  2234388
370
    25
  0
POLYLINE
  5
65
330
1F
100
AcDbEntity
  8
_U+30EC_U+30A4_U+30E4_U+30FC 1
 62
   179
420
  2234388
370
    25
100
AcDb2dPolyline
 66
     1
 10
0.0
 20
0.0
 30
0.0
  0
VERTEX
  5
66
330
65
100
AcDbEntity
  8
_U+30EC_U+30A4_U+30E4_U+30FC 1
 62
   179
420
  2234388
370
    25
100
AcDbVertex
100
AcDb2dVertex
 10
98.6647805384073
 20
-141.6845513534678
 30
0.0
  0
VERTEX
  5
67
330
65
100
AcDbEntity
  8
_U+30EC_U+30A4_U+30E4_U+30FC 1
 62
   179
420
  2234388
370
    25
100
AcDbVertex
100
AcDb2dVertex
 10
98.6647805384073
 20
-158.1843207937875
 30
0.0
  0
SEQEND
  5
68
330
65
100
AcDbEntity
  8
_U+30EC_U+30A4_U+30E4_U+30FC 1
 62
   179
420
  2234388
370
    25
  0
POLYLINE
  5
69
330
1F
100
AcDbEntity
  8
_U+30EC_U+30A4_U+30E4_U+30FC 1
 62
   179
420
  2234388
370
    25
100
AcDb2dPolyline
 66
     1
 10
0.0
 20
0.0
 30
0.0
  0
VERTEX
  5
6A
330
69
100
AcDbEntity
  8
_U+30EC_U+30A4_U+30E4_U+30FC 1
 62
   179
420
  2234388
370
    25
100
AcDbVertex
100
AcDb2dVertex
 10
99.66455273512321
 20
-141.6845513534678
 30
0.0
  0
VERTEX
  5
6B
330
69
100
AcDbEntity
  8
_U+30EC_U+30A4_U+30E4_U+30FC 1
 62
   179
420
  2234388
370
    25
100
AcDbVertex
100
AcDb2dVertex
 10
99.66455273512321
 20
-158.1843207937875
 30
0.0
  0
SEQEND
  5
6C
330
69
100
AcDbEntity
  8
_U+30EC_U+30A4_U+30E4_U+30FC 1
 62
   179
420
  2234388
370
    25
  0
POLYLINE
  5
6D
330
1F
100
AcDbEntity
  8
_U+30EC_U+30A4_U+30E4_U+30FC 1
 62
   179
420
  2234388
370
    25
100
AcDb2dPolyline
 66
     1
 10
0.0
 20
0.0
 30
0.0
  0
VERTEX
  5
6E
330
6D
100
AcDbEntity
  8
_U+30EC_U+30A4_U+30E4_U+30FC 1
 62
   179
420
  2234388
370
    25
100
AcDbVertex
100
AcDb2dVertex
 10
100.664642431831
 20
-142.68432357544
 30
0.0
  0
VERTEX
  5
6F
330
6D
100
AcDbEntity
  8
_U+30EC_U+30A4_U+30E4_U+30FC 1
 62
   179
420
  2234388
370
    25
100
AcDbVertex
100
AcDb2dVertex
 10
100.664642431831
 20
-158.1843207937875
 30
0.0
  0
SEQEND
  5
70
330
6D
100
AcDbEntity
  8
_U+30EC_U+30A4_U+30E4_U+30FC 1
 62
   179
420
  2234388
370
    25
  0
POLYLINE
  5
71
330
1F
100
AcDbEntity
  8
_U+30EC_U+30A4_U+30E4_U+30FC 1
 62
   179
420
  2234388
370
    25
100
AcDb2dPolyline
 66
     1
 10
0.0
 20
0.0
 30
0.0
  0
VERTEX
  5
72
330
71
100
AcDbEntity
  8
_U+30EC_U+30A4_U+30E4_U+30FC 1
 62
   179
420
  2234388
370
    25
100
AcDbVertex
100
AcDb2dVertex
 10
98.6647805384073
 20
-158.1843207937875
 30
0.0
  0
VERTEX
  5
73
330
71
100
AcDbEntity
  8
_U+30EC_U+30A4_U+30E4_U+30FC 1
 62
   179
420
  2234388
370
    25
100
AcDbVertex
100
AcDb2dVertex
 10
99.66455273512321
 20
-158.1843207937875
 30
0.0
  0
SEQEND
  5
74
330
71
100
AcDbEntity
  8
_U+30EC_U+30A4_U+30E4_U+30FC 1
 62
   179
420
  2234388
370
    25
  0
POLYLINE
  5
75
330
1F
100
AcDbEntity
  8
_U+30EC_U+30A4_U+30E4_U+30FC 1
 62
   179
420
  2234388
370
    25
100
AcDb2dPolyline
 66
     1
 10
0.0
 20
0.0
 30
0.0
  0
VERTEX
  5
76
330
75
100
AcDbEntity
  8
_U+30EC_U+30A4_U+30E4_U+30FC 1
 62
   179
420
  2234388
370
    25
100
AcDbVertex
100
AcDb2dVertex
 10
97.66465556392261
 20
-159.1840930157594
 30
0.0
  0
VERTEX
  5
77
330
75
100
AcDbEntity
  8
_U+30EC_U+30A4_U+30E4_U+30FC 1
 62
   179
420
  2234388
370
    25
100
AcDbVertex
100
AcDb2dVertex
 10
107.6647411421325
 20
-158.6845596825512
 30
0.0
  0
SEQEND
  5
78
330
75
100
AcDbEntity
  8
_U+30EC_U+30A4_U+30E4_U+30FC 1
 62
   179
420
  2234388
370
    25
  0
SPLINE
  5
79
330
1F
100
AcDbEntity
  8
_U+30EC_U+30A4_U+30E4_U+30FC 1
 62
   179
420
  2234388
370
     9
100
AcDbSpline
210
0.0
220
0.0
230
1.0
 70
    11
 71
     3
 72
    17
 73
    13
 74
     0
 42
0.0000000001
 43
0.0000000001
 12
1.0
 22
0.0
 32
0.0
 13
1.0
 23
0.0
 33
0.0
 40
0.0
 40
0.0
 40
0.0
 40
0.0
 40
1.0
 40
1.0
 40
1.0
 40
2.0
 40
2.0
 40
2.0
 40
3.0
 40
3.0
 40
3.0
 40
4.0
 40
4.0
 40
4.0
 40
4.0
 10
122.7645821457924
 20
-137.6844394100235
 30
0.0
 10
122.7645821457924
 20
-137.6289827433705
 30
0.0
 10
122.7198146469345
 20
-137.5841799656041
 30
0.0
 10
122.6646754816745
 20
-137.5841799656041
 30
0.0
 10
122.6095715941915
 20
-137.5841799656041
 30
0.0
 10
122.5647688175567
 20
-137.6289827433705
 30
0.0
 10
122.5647688175567
 20
-137.6844394100235
 30
0.0
 10
122.5647688175567
 20
-137.7395785766762
 30
0.0
 10
122.6095715941915
 20
-137.7843460766651
 30
0.0
 10
122.6646754816745
 20
-137.7843460766651
 30
0.0
 10
122.7198146469345
 20
-137.7843460766651
 30
0.0
 10
122.7645821457924
 20
-137.7395785766762
 30
0.0
 10
122.7645821457924
 20
-137.6844394100235
 30
0.0
  0
SPLINE
  5
7A
330
1F
100
AcDbEntity
  8
_U+30EC_U+30A4_U+30E4_U+30FC 1
 62
   179
420
  2234388
370
     9
100
AcDbSpline
210
0.0
220
0.0
230
1.0
 70
    11
 71
     3
 72
    17
 73
    13
 74
     0
 42
0.0000000001
 43
0.0000000001
 12
1.0
 22
0.0
 32
0.0
 13
1.0
 23
0.0
 33
0.0
 40
0.0
 40
0.0
 40
0.0
 40
0.0
 40
1.0
 40
1.0
 40
1.0
 40
2.0
 40
2.0
 40
2.0
 40
3.0
 40
3.0
 40
3.0
 40
4.0
 40
4.0
 40
4.0
 40
4.0
 10
126.7643444127535
 20
-141.6845513534678
 30
0.0
 10
126.7643444127535
 20
-141.6287419090374
 30
0.0
 10
126.7195737115588
 20
-141.5846446868262
 30
0.0
 10
126.6644345462988
 20
-141.5846446868262
 30
0.0
 10
126.6093306588158
 20
-141.5846446868262
 30
0.0
 10
126.564527882181
 20
-141.6287419090374
 30
0.0
 10
126.564527882181
 20
-141.6845513534678
 30
0.0
 10
126.564527882181
 20
-141.7396552423427
 30
0.0
 10
126.6093306588158
 20
-141.7844580201094
 30
0.0
 10
126.6644345462988
 20
-141.7844580201094
 30
0.0
 10
126.7195737115588
 20
-141.7844580201094
 30
0.0
 10
126.7643444127535
 20
-141.7396552423427
 30
0.0
 10
126.7643444127535
 20
-141.6845513534678
 30
0.0
  0
SPLINE
  5
7B
330
1F
100
AcDbEntity
  8
_U+30EC_U+30A4_U+30E4_U+30FC 1
 62
   179
420
  2234388
370
     9
100
AcDbSpline
210
0.0
220
0.0
230
1.0
 70
    11
 71
     3
 72
    17
 73
    13
 74
     0
 42
0.0000000001
 43
0.0000000001
 12
1.0
 22
0.0
 32
0.0
 13
1.0
 23
0.0
 33
0.0
 40
0.0
 40
0.0
 40
0.0
 40
0.0
 40
1.0
 40
1.0
 40
1.0
 40
2.0
 40
2.0
 40
2.0
 40
3.0
 40
3.0
 40
3.0
 40
4.0
 40
4.0
 40
4.0
 40
4.0
 10
126.7643444127535
 20
-142.68432357544
 30
0.0
 10
126.7643444127535
 20
-142.6291844087873
 30
0.0
 10
126.7195737115588
 20
-142.5844169087984
 30
0.0
 10
126.6644345462988
 20
-142.5844169087984
 30
0.0
 10
126.6093306588158
 20
-142.5844169087984
 30
0.0
 10
126.564527882181
 20
-142.6291844087873
 30
0.0
 10
126.564527882181
 20
-142.68432357544
 30
0.0
 10
126.564527882181
 20
-142.7394274643152
 30
0.0
 10
126.6093306588158
 20
-142.7842302420817
 30
0.0
 10
126.6644345462988
 20
-142.7842302420817
 30
0.0
 10
126.7195737115588
 20
-142.7842302420817
 30
0.0
 10
126.7643444127535
 20
-142.7394274643152
 30
0.0
 10
126.7643444127535
 20
-142.68432357544
 30
0.0
  0
SPLINE
  5
7C
330
1F
100
AcDbEntity
  8
_U+30EC_U+30A4_U+30E4_U+30FC 1
 62
   179
420
  2234388
370
     9
100
AcDbSpline
210
0.0
220
0.0
230
1.0
 70
    11
 71
     3
 72
    17
 73
    13
 74
     0
 42
0.0000000001
 43
0.0000000001
 12
1.0
 22
0.0
 32
0.0
 13
1.0
 23
0.0
 33
0.0
 40
0.0
 40
0.0
 40
0.0
 40
0.0
 40
1.0
 40
1.0
 40
1.0
 40
2.0
 40
2.0
 40
2.0
 40
3.0
 40
3.0
 40
3.0
 40
4.0
 40
4.0
 40
4.0
 40
4.0
 10
87.46821387961107
 20
-141.6845513534678
 30
0.0
 10
87.46821387961107
 20
-141.6287419090374
 30
0.0
 10
87.42344638075318
 20
-141.5846446868262
 30
0.0
 10
87.36795443772445
 20
-141.5846446868262
 30
0.0
 10
87.31285275594963
 20
-141.5846446868262
 30
0.0
 10
87.26804997818292
 20
-141.6287419090374
 30
0.0
 10
87.26804997818292
 20
-141.6845513534678
 30
0.0
 10
87.26804997818292
 20
-141.7396552423427
 30
0.0
 10
87.31285275594963
 20
-141.7844580201094
 30
0.0
 10
87.36795443772445
 20
-141.7844580201094
 30
0.0
 10
87.42344638075318
 20
-141.7844580201094
 30
0.0
 10
87.46821387961107
 20
-141.7396552423427
 30
0.0
 10
87.46821387961107
 20
-141.6845513534678
 30
0.0
  0
SPLINE
  5
7D
330
1F
100
AcDbEntity
  8
_U+30EC_U+30A4_U+30E4_U+30FC 1
 62
   179
420
  2234388
370
     9
100
AcDbSpline
210
0.0
220
0.0
230
1.0
 70
    11
 71
     3
 72
    17
 73
    13
 74
     0
 42
0.0000000001
 43
0.0000000001
 12
1.0
 22
0.0
 32
0.0
 13
1.0
 23
0.0
 33
0.0
 40
0.0
 40
0.0
 40
0.0
 40
0.0
 40
1.0
 40
1.0
 40
1.0
 40
2.0
 40
2.0
 40
2.0
 40
3.0
 40
3.0
 40
3.0
 40
4.0
 40
4.0
 40
4.0
 40
4.0
 10
87.46821387961107
 20
-142.6849938532177
 30
0.0
 10
87.46821387961107
 20
-142.6298899643425
 30
0.0
 10
87.42344638075318
 20
-142.5850871865761
 30
0.0
 10
87.36795443772445
 20
-142.5850871865761
 30
0.0
 10
87.31285275594963
 20
-142.5850871865761
 30
0.0
 10
87.26804997818292
 20
-142.6298899643425
 30
0.0
 10
87.26804997818292
 20
-142.6849938532177
 30
0.0
 10
87.26804997818292
 20
-142.7401330198705
 30
0.0
 10
87.31285275594963
 20
-142.7849005198593
 30
0.0
 10
87.36795443772445
 20
-142.7849005198593
 30
0.0
 10
87.42344638075318
 20
-142.7849005198593
 30
0.0
 10
87.46821387961107
 20
-142.7401330198705
 30
0.0
 10
87.46821387961107
 20
-142.6849938532177
 30
0.0
  0
SPLINE
  5
7E
330
1F
100
AcDbEntity
  8
_U+30EC_U+30A4_U+30E4_U+30FC 1
 62
   179
420
  2234388
370
     9
100
AcDbSpline
210
0.0
220
0.0
230
1.0
 70
    11
 71
     3
 72
    17
 73
    13
 74
     0
 42
0.0000000001
 43
0.0000000001
 12
1.0
 22
0.0
 32
0.0
 13
1.0
 23
0.0
 33
0.0
 40
0.0
 40
0.0
 40
0.0
 40
0.0
 40
1.0
 40
1.0
 40
1.0
 40
2.0
 40
2.0
 40
2.0
 40
3.0
 40
3.0
 40
3.0
 40
4.0
 40
4.0
 40
4.0
 40
4.0
 10
89.64344160189417
 20
-137.6844394100235
 30
0.0
 10
89.64344160189417
 20
-137.6289827433705
 30
0.0
 10
89.59867410303627
 20
-137.5841799656041
 30
0.0
 10
89.54353493777633
 20
-137.5841799656041
 30
0.0
 10
89.48843331096111
 20
-137.5841799656041
 30
0.0
 10
89.4436305331947
 20
-137.6289827433705
 30
0.0
 10
89.4436305331947
 20
-137.6844394100235
 30
0.0
 10
89.4436305331947
 20
-137.7395785766762
 30
0.0
 10
89.48843331096111
 20
-137.7843460766651
 30
0.0
 10
89.54353493777633
 20
-137.7843460766651
 30
0.0
 10
89.59867410303627
 20
-137.7843460766651
 30
0.0
 10
89.64344160189417
 20
-137.7395785766762
 30
0.0
 10
89.64344160189417
 20
-137.6844394100235
 30
0.0
  0
SPLINE
  5
7F
330
1F
100
AcDbEntity
  8
_U+30EC_U+30A4_U+30E4_U+30FC 1
 62
   179
420
  2234388
370
     9
100
AcDbSpline
210
0.0
220
0.0
230
1.0
 70
    11
 71
     3
 72
    17
 73
    13
 74
     0
 42
0.0000000001
 43
0.0000000001
 12
1.0
 22
0.0
 32
0.0
 13
1.0
 23
0.0
 33
0.0
 40
0.0
 40
0.0
 40
0.0
 40
0.0
 40
1.0
 40
1.0
 40
1.0
 40
2.0
 40
2.0
 40
2.0
 40
3.0
 40
3.0
 40
3.0
 40
4.0
 40
4.0
 40
4.0
 40
4.0
 10
107.7646478062503
 20
-163.1852280147592
 30
0.0
 10
107.7646478062503
 20
-163.1294185703287
 30
0.0
 10
107.7198803073925
 20
-163.084615792562
 30
0.0
 10
107.6647411421325
 20
-163.084615792562
 30
0.0
 10
107.6096372546494
 20
-163.084615792562
 30
0.0
 10
107.5648344780147
 20
-163.1294185703287
 30
0.0
 10
107.5648344780147
 20
-163.1852280147592
 30
0.0
 10
107.5648344780147
 20
-163.2403319036341
 30
0.0
 10
107.6096372546494
 20
-163.2851346814008
 30
0.0
 10
107.6647411421325
 20
-163.2851346814008
 30
0.0
 10
107.7198803073925
 20
-163.2851346814008
 30
0.0
 10
107.7646478062503
 20
-163.2403319036341
 30
0.0
 10
107.7646478062503
 20
-163.1852280147592
 30
0.0
  0
SPLINE
  5
80
330
1F
100
AcDbEntity
  8
_U+30EC_U+30A4_U+30E4_U+30FC 1
 62
   179
420
  2234388
370
     9
100
AcDbSpline
210
0.0
220
0.0
230
1.0
 70
    11
 71
     3
 72
    17
 73
    13
 74
     0
 42
0.0000000001
 43
0.0000000001
 12
1.0
 22
0.0
 32
0.0
 13
1.0
 23
0.0
 33
0.0
 40
0.0
 40
0.0
 40
0.0
 40
0.0
 40
1.0
 40
1.0
 40
1.0
 40
2.0
 40
2.0
 40
2.0
 40
3.0
 40
3.0
 40
3.0
 40
4.0
 40
4.0
 40
4.0
 40
4.0
 10
97.76456222804045
 20
-163.1852280147592
 30
0.0
 10
97.76456222804045
 20
-163.1294185703287
 30
0.0
 10
97.71979719779235
 20
-163.084615792562
 30
0.0
 10
97.66465556392261
 20
-163.084615792562
 30
0.0
 10
97.60919889867077
 20
-163.084615792562
 30
0.0
 10
97.564396122036
 20
-163.1294185703287
 30
0.0
 10
97.564396122036
 20
-163.1852280147592
 30
0.0
 10
97.564396122036
 20
-163.2403319036341
 30
0.0
 10
97.60919889867077
 20
-163.2851346814008
 30
0.0
 10
97.66465556392261
 20
-163.2851346814008
 30
0.0
 10
97.71979719779235
 20
-163.2851346814008
 30
0.0
 10
97.76456222804045
 20
-163.2403319036341
 30
0.0
 10
97.76456222804045
 20
-163.1852280147592
 30
0.0
  0
SPLINE
  5
81
330
1F
100
AcDbEntity
  8
_U+30EC_U+30A4_U+30E4_U+30FC 1
 62
   179
420
  2234388
370
     9
100
AcDbSpline
210
0.0
220
0.0
230
1.0
 70
    11
 71
     3
 72
    17
 73
    13
 74
     0
 42
0.0000000001
 43
0.0000000001
 12
1.0
 22
0.0
 32
0.0
 13
1.0
 23
0.0
 33
0.0
 40
0.0
 40
0.0
 40
0.0
 40
0.0
 40
1.0
 40
1.0
 40
1.0
 40
2.0
 40
2.0
 40
2.0
 40
3.0
 40
3.0
 40
3.0
 40
4.0
 40
4.0
 40
4.0
 40
4.0
 10
89.6448174351924
 20
-163.1852280147592
 30
0.0
 10
89.6448174351924
 20
-163.1294185703287
 30
0.0
 10
89.60004993633451
 20
-163.084615792562
 30
0.0
 10
89.54491077107456
 20
-163.084615792562
 30
0.0
 10
89.48980688359148
 20
-163.084615792562
 30
0.0
 10
89.44500410695673
 20
-163.1294185703287
 30
0.0
 10
89.44500410695673
 20
-163.1852280147592
 30
0.0
 10
89.44500410695673
 20
-163.2403319036341
 30
0.0
 10
89.48980688359148
 20
-163.2851346814008
 30
0.0
 10
89.54491077107456
 20
-163.2851346814008
 30
0.0
 10
89.60004993633451
 20
-163.2851346814008
 30
0.0
 10
89.6448174351924
 20
-163.2403319036341
 30
0.0
 10
89.6448174351924
 20
-163.1852280147592
 30
0.0
  0
SPLINE
  5
82
330
1F
100
AcDbEntity
  8
_U+30EC_U+30A4_U+30E4_U+30FC 1
 62
   179
420
  2234388
370
     9
100
AcDbSpline
210
0.0
220
0.0
230
1.0
 70
    11
 71
     3
 72
    17
 73
    13
 74
     0
 42
0.0000000001
 43
0.0000000001
 12
1.0
 22
0.0
 32
0.0
 13
1.0
 23
0.0
 33
0.0
 40
0.0
 40
0.0
 40
0.0
 40
0.0
 40
1.0
 40
1.0
 40
1.0
 40
2.0
 40
2.0
 40
2.0
 40
3.0
 40
3.0
 40
3.0
 40
4.0
 40
4.0
 40
4.0
 40
4.0
 10
111.7644068708747
 20
-158.6845596825512
 30
0.0
 10
111.7644068708747
 20
-158.6294205158981
 30
0.0
 10
111.7196040942399
 20
-158.5846530159096
 30
0.0
 10
111.6645002067568
 20
-158.5846530159096
 30
0.0
 10
111.6093638609864
 20
-158.5846530159096
 30
0.0
 10
111.564593542639
 20
-158.6294205158981
 30
0.0
 10
111.564593542639
 20
-158.6845596825512
 30
0.0
 10
111.564593542639
 20
-158.7396635714261
 30
0.0
 10
111.6093638609864
 20
-158.7844663491929
 30
0.0
 10
111.6645002067568
 20
-158.7844663491929
 30
0.0
 10
111.7196040942399
 20
-158.7844663491929
 30
0.0
 10
111.7644068708747
 20
-158.7396635714261
 30
0.0
 10
111.7644068708747
 20
-158.6845596825512
 30
0.0
  0
SPLINE
  5
83
330
1F
100
AcDbEntity
  8
_U+30EC_U+30A4_U+30E4_U+30FC 1
 62
   179
420
  2234388
370
     9
100
AcDbSpline
210
0.0
220
0.0
230
1.0
 70
    11
 71
     3
 72
    17
 73
    13
 74
     0
 42
0.0000000001
 43
0.0000000001
 12
1.0
 22
0.0
 32
0.0
 13
1.0
 23
0.0
 33
0.0
 40
0.0
 40
0.0
 40
0.0
 40
0.0
 40
1.0
 40
1.0
 40
1.0
 40
2.0
 40
2.0
 40
2.0
 40
3.0
 40
3.0
 40
3.0
 40
4.0
 40
4.0
 40
4.0
 40
4.0
 10
126.7643444127535
 20
-158.1843207937875
 30
0.0
 10
126.7643444127535
 20
-158.1291816271344
 30
0.0
 10
126.7195737115588
 20
-158.0844141271459
 30
0.0
 10
126.6644345462988
 20
-158.0844141271459
 30
0.0
 10
126.6093306588158
 20
-158.0844141271459
 30
0.0
 10
126.564527882181
 20
-158.1291816271344
 30
0.0
 10
126.564527882181
 20
-158.1843207937875
 30
0.0
 10
126.564527882181
 20
-158.2394246826624
 30
0.0
 10
126.6093306588158
 20
-158.2842274604292
 30
0.0
 10
126.6644345462988
 20
-158.2842274604292
 30
0.0
 10
126.7195737115588
 20
-158.2842274604292
 30
0.0
 10
126.7643444127535
 20
-158.2394246826624
 30
0.0
 10
126.7643444127535
 20
-158.1843207937875
 30
0.0
  0
INSERT
  5
85
330
1F
100
AcDbEntity
  8
_U+30EC_U+30A4_U+30E4_U+30FC 1
100
AcDbBlockReference
  2
block 2
 10
0.0
 20
0.0
 30
0.0
  0
POLYLINE
  5
9E
330
1F
100
AcDbEntity
  8
_U+30EC_U+30A4_U+30E4_U+30FC 1
 62
   179
420
  2234388
370
     9
100
AcDb2dPolyline
 66
     1
 10
0.0
 20
0.0
 30
0.0
  0
VERTEX
  5
9F
330
9E
100
AcDbEntity
  8
_U+30EC_U+30A4_U+30E4_U+30FC 1
 62
   179
420
  2234388
370
     9
100
AcDbVertex
100
AcDb2dVertex
 10
122.6646754816745
 20
-137.6844394100235
 30
0.0
  0
VERTEX
  5
A0
330
9E
100
AcDbEntity
  8
_U+30EC_U+30A4_U+30E4_U+30FC 1
 62
   179
420
  2234388
370
     9
100
AcDbVertex
100
AcDb2dVertex
 10
89.54491077107456
 20
-137.6844394100235
 30
0.0
  0
SEQEND
  5
A1
330
9E
100
AcDbEntity
  8
_U+30EC_U+30A4_U+30E4_U+30FC 1
 62
   179
420
  2234388
370
     9
  0
POLYLINE
  5
A2
330
1F
100
AcDbEntity
  8
_U+30EC_U+30A4_U+30E4_U+30FC 1
 62
   179
420
  2234388
370
     9
100
AcDb2dPolyline
 66
     1
 10
0.0
 20
0.0
 30
0.0
  0
VERTEX
  5
A3
330
A2
100
AcDbEntity
  8
_U+30EC_U+30A4_U+30E4_U+30FC 1
 62
   179
420
  2234388
370
     9
100
AcDbVertex
100
AcDb2dVertex
 10
122.6646754816745
 20
-139.1441280207694
 30
0.0
  0
VERTEX
  5
A4
330
A2
100
AcDbEntity
  8
_U+30EC_U+30A4_U+30E4_U+30FC 1
 62
   179
420
  2234388
370
     9
100
AcDbVertex
100
AcDb2dVertex
 10
122.6646754816745
 20
-136.684349688051
 30
0.0
  0
SEQEND
  5
A5
330
A2
100
AcDbEntity
  8
_U+30EC_U+30A4_U+30E4_U+30FC 1
 62
   179
420
  2234388
370
     9
  0
POLYLINE
  5
A6
330
1F
100
AcDbEntity
  8
_U+30EC_U+30A4_U+30E4_U+30FC 1
 62
   179
420
  2234388
370
     9
100
AcDb2dPolyline
 66
     1
 10
0.0
 20
0.0
 30
0.0
  0
VERTEX
  5
A7
330
A6
100
AcDbEntity
  8
_U+30EC_U+30A4_U+30E4_U+30FC 1
 62
   179
420
  2234388
370
     9
100
AcDbVertex
100
AcDb2dVertex
 10
89.54353493777633
 20
-139.1441280207694
 30
0.0
  0
VERTEX
  5
A8
330
A6
100
AcDbEntity
  8
_U+30EC_U+30A4_U+30E4_U+30FC 1
 62
   179
420
  2234388
370
     9
100
AcDbVertex
100
AcDb2dVertex
 10
89.54353493777633
 20
-136.684349688051
 30
0.0
  0
SEQEND
  5
A9
330
A6
100
AcDbEntity
  8
_U+30EC_U+30A4_U+30E4_U+30FC 1
 62
   179
420
  2234388
370
     9
  0
INSERT
  5
AB
330
1F
100
AcDbEntity
  8
_U+30EC_U+30A4_U+30E4_U+30FC 1
100
AcDbBlockReference
  2
block 4
 10
0.0
 20
0.0
 30
0.0
  0
INSERT
  5
B3
330
1F
100
AcDbEntity
  8
_U+30EC_U+30A4_U+30E4_U+30FC 1
100
AcDbBlockReference
  2
block 5
 10
0.0
 20
0.0
 30
0.0
  0
INSERT
  5
D8
330
1F
100
AcDbEntity
  8
_U+30EC_U+30A4_U+30E4_U+30FC 1
100
AcDbBlockReference
  2
block 7
 10
0.0
 20
0.0
 30
0.0
  0
POLYLINE
  5
F0
330
1F
100
AcDbEntity
  8
_U+30EC_U+30A4_U+30E4_U+30FC 1
 62
   179
420
  2234388
370
     9
100
AcDb2dPolyline
 66
     1
 10
0.0
 20
0.0
 30
0.0
  0
VERTEX
  5
F1
330
F0
100
AcDbEntity
  8
_U+30EC_U+30A4_U+30E4_U+30FC 1
 62
   179
420
  2234388
370
     9
100
AcDbVertex
100
AcDb2dVertex
 10
89.54491077107456
 20
-163.1852280147592
 30
0.0
  0
VERTEX
  5
F2
330
F0
100
AcDbEntity
  8
_U+30EC_U+30A4_U+30E4_U+30FC 1
 62
   179
420
  2234388
370
     9
100
AcDbVertex
100
AcDb2dVertex
 10
97.66465556392261
 20
-163.1852280147592
 30
0.0
  0
SEQEND
  5
F3
330
F0
100
AcDbEntity
  8
_U+30EC_U+30A4_U+30E4_U+30FC 1
 62
   179
420
  2234388
370
     9
  0
POLYLINE
  5
F4
330
1F
100
AcDbEntity
  8
_U+30EC_U+30A4_U+30E4_U+30FC 1
 62
   179
420
  2234388
370
     9
100
AcDb2dPolyline
 66
     1
 10
0.0
 20
0.0
 30
0.0
  0
VERTEX
  5
F5
330
F4
100
AcDbEntity
  8
_U+30EC_U+30A4_U+30E4_U+30FC 1
 62
   179
420
  2234388
370
     9
100
AcDbVertex
100
AcDb2dVertex
 10
89.54491077107456
 20
-145.7242802413466
 30
0.0
  0
VERTEX
  5
F6
330
F4
100
AcDbEntity
  8
_U+30EC_U+30A4_U+30E4_U+30FC 1
 62
   179
420
  2234388
370
     9
100
AcDbVertex
100
AcDb2dVertex
 10
89.54491077107456
 20
-164.1850002367317
 30
0.0
  0
SEQEND
  5
F7
330
F4
100
AcDbEntity
  8
_U+30EC_U+30A4_U+30E4_U+30FC 1
 62
   179
420
  2234388
370
     9
  0
INSERT
  5
F9
330
1F
100
AcDbEntity
  8
_U+30EC_U+30A4_U+30E4_U+30FC 1
100
AcDbBlockReference
  2
block 9
 10
0.0
 20
0.0
 30
0.0
  0
INSERT
  5
101
330
1F
100
AcDbEntity
  8
_U+30EC_U+30A4_U+30E4_U+30FC 1
100
AcDbBlockReference
  2
block 10
 10
0.0
 20
0.0
 30
0.0
  0
INSERT
  5
11B
330
1F
100
AcDbEntity
  8
_U+30EC_U+30A4_U+30E4_U+30FC 1
100
AcDbBlockReference
  2
block 12
 10
0.0
 20
0.0
 30
0.0
  0
ENDSEC
  0
SECTION
  2
OBJECTS
  0
DICTIONARY
  5
C
330
0
100
AcDbDictionary
281
     1
  3
ACAD_GROUP
350
D
  3
ACAD_LAYOUT
350
1A
  3
ACAD_MATERIAL
350
3B
  3
ACAD_MLEADERSTYLE
350
13D
  3
ACAD_MLINESTYLE
350
17
  3
ACAD_PLOTSETTINGS
350
19
  3
ACAD_PLOTSTYLENAME
350
E
  3
ACAD_TABLESTYLE
350
13C
  3
ACAD_VISUALSTYLE
350
2A
  0
SUN
  5
3F
330
29
100
AcDbSun
 90
        1
290
     0
 63
     7
421
 16777215
 40
1.0
291
     1
 91
  2455826
 92
 54000000
292
     0
 70
     2
 71
   256
280
     1
  0
DICTIONARY
  5
D
102
{ACAD_REACTORS
330
C
102
}
330
C
100
AcDbDictionary
281
     1
  0
DICTIONARY
  5
1A
102
{ACAD_REACTORS
330
C
102
}
330
C
100
AcDbDictionary
281
     1
  3
Layout1
350
1E
  3
Layout2
350
26
  3
Model
350
22
  0
DICTIONARY
  5
3B
102
{ACAD_REACTORS
330
C
102
}
330
C
100
AcDbDictionary
281
     1
  3
ByBlock
350
3D
  3
ByLayer
350
3C
  3
Global
350
3E
  0
DICTIONARY
  5
13D
102
{ACAD_REACTORS
330
C
102
}
330
C
100
AcDbDictionary
281
     1
  0
DICTIONARY
  5
17
102
{ACAD_REACTORS
330
C
102
}
330
C
100
AcDbDictionary
281
     1
  3
Standard
350
18
  0
DICTIONARY
  5
19
102
{ACAD_REACTORS
330
C
102
}
330
C
100
AcDbDictionary
281
     1
  0
ACDBDICTIONARYWDFLT
  5
E
102
{ACAD_REACTORS
330
C
102
}
330
C
100
AcDbDictionary
281
     1
  3
Normal
350
F
100
AcDbDictionaryWithDefault
340
F
  0
DICTIONARY
  5
13C
102
{ACAD_REACTORS
330
C
102
}
330
C
100
AcDbDictionary
281
     1
  0
DICTIONARY
  5
2A
102
{ACAD_REACTORS
330
C
102
}
330
C
100
AcDbDictionary
281
     1
  3
2dWireframe
350
2F
  3
3D Hidden
350
31
  3
3dWireframe
350
30
  3
Basic
350
32
  3
Brighten
350
36
  3
ColorChange
350
3A
  3
Conceptual
350
34
  3
Dim
350
35
  3
Facepattern
350
39
  3
Flat
350
2B
  3
FlatWithEdges
350
2C
  3
Gouraud
350
2D
  3
GouraudWithEdges
350
2E
  3
Linepattern
350
38
  3
Realistic
350
33
  3
Thicken
350
37
  0
LAYOUT
  5
1E
102
{ACAD_REACTORS
330
1A
102
}
330
1A
100
AcDbPlotSettings
  1

  2
none_device
  4

  6

 40
0.0
 41
0.0
 42
0.0
 43
0.0
 44
0.0
 45
0.0
 46
0.0
 47
0.0
 48
0.0
 49
0.0
140
0.0
141
0.0
142
1.0
143
1.0
 70
   688
 72
     0
 73
     0
 74
     5
  7

 75
    16
 76
     0
 77
     2
 78
   300
147
1.0
148
0.0
149
0.0
100
AcDbLayout
  1
Layout1
 70
     1
 71
     1
 10
0.0
 20
0.0
 11
12.0
 21
9.0
 12
0.0
 22
0.0
 32
0.0
 14
1.000000000000000E+20
 24
1.000000000000000E+20
 34
1.000000000000000E+20
 15
-1.000000000000000E+20
 25
-1.000000000000000E+20
 35
-1.000000000000000E+20
146
0.0
 13
0.0
 23
0.0
 33
0.0
 16
1.0
 26
0.0
 36
0.0
 17
0.0
 27
1.0
 37
0.0
 76
     0
330
1B
  0
LAYOUT
  5
26
102
{ACAD_REACTORS
330
1A
102
}
330
1A
100
AcDbPlotSettings
  1

  2
none_device
  4

  6

 40
0.0
 41
0.0
 42
0.0
 43
0.0
 44
0.0
 45
0.0
 46
0.0
 47
0.0
 48
0.0
 49
0.0
140
0.0
141
0.0
142
1.0
143
1.0
 70
   688
 72
     0
 73
     0
 74
     5
  7

 75
    16
 76
     0
 77
     2
 78
   300
147
1.0
148
0.0
149
0.0
100
AcDbLayout
  1
Layout2
 70
     1
 71
     2
 10
0.0
 20
0.0
 11
0.0
 21
0.0
 12
0.0
 22
0.0
 32
0.0
 14
0.0
 24
0.0
 34
0.0
 15
0.0
 25
0.0
 35
0.0
146
0.0
 13
0.0
 23
0.0
 33
0.0
 16
1.0
 26
0.0
 36
0.0
 17
0.0
 27
1.0
 37
0.0
 76
     0
330
23
  0
LAYOUT
  5
22
102
{ACAD_REACTORS
330
1A
102
}
330
1A
100
AcDbPlotSettings
  1

  2
none_device
  4

  6

 40
0.0
 41
0.0
 42
0.0
 43
0.0
 44
0.0
 45
0.0
 46
0.0
 47
0.0
 48
0.0
 49
0.0
140
0.0
141
0.0
142
1.0
143
1.0
 70
  1712
 72
     0
 73
     0
 74
     0
  7

 75
     0
 76
     0
 77
     2
 78
   300
147
1.0
148
0.0
149
0.0
100
AcDbLayout
  1
Model
 70
     1
 71
     0
 10
0.0
 20
0.0
 11
12.0
 21
9.0
 12
0.0
 22
0.0
 32
0.0
 14
1.000000000000000E+20
 24
1.000000000000000E+20
 34
1.000000000000000E+20
 15
-1.000000000000000E+20
 25
-1.000000000000000E+20
 35
-1.000000000000000E+20
146
0.0
 13
0.0
 23
0.0
 33
0.0
 16
1.0
 26
0.0
 36
0.0
 17
0.0
 27
1.0
 37
0.0
 76
     0
330
1F
331
29
  0
MATERIAL
  5
3D
102
{ACAD_REACTORS
330
3B
102
}
330
3B
100
AcDbMaterial
  1
ByBlock
 72
     1
 94
      127
  0
MATERIAL
  5
3C
102
{ACAD_REACTORS
330
3B
102
}
330
3B
100
AcDbMaterial
  1
ByLayer
 72
     1
 94
      127
  0
MATERIAL
  5
3E
102
{ACAD_REACTORS
330
3B
102
}
330
3B
100
AcDbMaterial
  1
Global
 72
     1
 94
      127
  0
MLINESTYLE
  5
18
102
{ACAD_REACTORS
330
17
102
}
330
17
100
AcDbMlineStyle
  2
Standard
 70
     0
  3

 62
   256
 51
90.0
 52
90.0
 71
     2
 49
0.5
 62
   256
  6
BYLAYER
 49
-0.5
 62
   256
  6
BYLAYER
  0
ACDBPLACEHOLDER
  5
F
102
{ACAD_REACTORS
330
E
102
}
330
E
  0
VISUALSTYLE
  5
2F
102
{ACAD_REACTORS
330
2A
102
}
330
2A
100
AcDbVisualStyle
  2
2dWireframe
 70
     4
177
     2
291
     0
 71
     0
176
     1
 72
     2
176
     1
 73
     0
176
     1
 90
        0
176
     1
 40
-0.6
176
     1
 41
-30.0
176
     1
 62
     5
 63
     7
421
 16777215
176
     1
 74
     1
176
     1
 91
        4
176
     1
 64
     7
176
     1
 65
   257
176
     1
 75
     1
176
     1
175
     1
176
     1
 42
1.0
176
     1
 92
        0
176
     1
 66
   257
176
     1
 43
1.0
176
     1
 76
     1
176
     1
 77
     6
176
     1
 78
     2
176
     1
 67
     7
176
     1
 79
     5
176
     1
170
     0
176
     1
171
     0
176
     1
290
     0
176
     1
 93
        1
176
     1
 44
0.0
176
     1
173
     0
176
     1
  0
VISUALSTYLE
  5
31
102
{ACAD_REACTORS
330
2A
102
}
330
2A
100
AcDbVisualStyle
  2
3D Hidden
 70
     6
177
     2
291
     0
 71
     1
176
     1
 72
     2
176
     1
 73
     2
176
     1
 90
        0
176
     1
 40
-0.6
176
     1
 41
-30.0
176
     1
 62
     5
 63
     7
421
 16777215
176
     1
 74
     2
176
     1
 91
        2
176
     1
 64
     7
176
     1
 65
   257
176
     1
 75
     2
176
     1
175
     1
176
     1
 42
40.0
176
     1
 92
        0
176
     1
 66
   257
176
     1
 43
1.0
176
     1
 76
     1
176
     1
 77
     6
176
     1
 78
     2
176
     1
 67
     7
176
     1
 79
     3
176
     1
170
     0
176
     1
171
     0
176
     1
290
     0
176
     1
 93
        1
176
     1
 44
0.0
176
     1
173
     0
176
     1
  0
VISUALSTYLE
  5
30
102
{ACAD_REACTORS
330
2A
102
}
330
2A
100
AcDbVisualStyle
  2
3dWireframe
 70
     5
177
     2
291
     0
 71
     0
176
     1
 72
     2
176
     1
 73
     0
176
     1
 90
        0
176
     1
 40
-0.6
176
     1
 41
-30.0
176
     1
 62
     5
 63
     7
421
 16777215
176
     1
 74
     1
176
     1
 91
        4
176
     1
 64
     7
176
     1
 65
   257
176
     1
 75
     1
176
     1
175
     1
176
     1
 42
1.0
176
     1
 92
        0
176
     1
 66
   257
176
     1
 43
1.0
176
     1
 76
     1
176
     1
 77
     6
176
     1
 78
     2
176
     1
 67
     7
176
     1
 79
     5
176
     1
170
     0
176
     1
171
     0
176
     1
290
     0
176
     1
 93
        1
176
     1
 44
0.0
176
     1
173
     0
176
     1
  0
VISUALSTYLE
  5
32
102
{ACAD_REACTORS
330
2A
102
}
330
2A
100
AcDbVisualStyle
  2
Basic
 70
     7
177
     2
291
     1
 71
     1
176
     1
 72
     0
176
     1
 73
     1
176
     1
 90
        0
176
     1
 40
-0.6
176
     1
 41
-30.0
176
     1
 62
     5
 63
     7
421
 16777215
176
     1
 74
     0
176
     1
 91
        4
176
     1
 64
     7
176
     1
 65
   257
176
     1
 75
     1
176
     1
175
     1
176
     1
 42
1.0
176
     1
 92
        8
176
     1
 66
     7
176
     1
 43
1.0
176
     1
 76
     1
176
     1
 77
     6
176
     1
 78
     2
176
     1
 67
     7
176
     1
 79
     5
176
     1
170
     0
176
     1
171
     0
176
     1
290
     0
176
     1
 93
        1
176
     1
 44
0.0
176
     1
173
     0
176
     1
  0
VISUALSTYLE
  5
36
102
{ACAD_REACTORS
330
2A
102
}
330
2A
100
AcDbVisualStyle
  2
Brighten
 70
    12
177
     2
291
     1
 71
     2
176
     1
 72
     2
176
     1
 73
     0
176
     1
 90
        0
176
     1
 40
-0.6
176
     1
 41
-30.0
176
     1
 62
     5
 63
     7
421
 16777215
176
     1
 74
     1
176
     1
 91
        4
176
     1
 64
     7
176
     1
 65
   257
176
     1
 75
     1
176
     1
175
     1
176
     1
 42
1.0
176
     1
 92
        8
176
     1
 66
     7
176
     1
 43
1.0
176
     1
 76
     1
176
     1
 77
     6
176
     1
 78
     2
176
     1
 67
     7
176
     1
 79
     5
176
     1
170
     0
176
     1
171
     0
176
     1
290
     0
176
     1
 93
        1
176
     1
 44
50.0
176
     1
173
     0
176
     1
  0
VISUALSTYLE
  5
3A
102
{ACAD_REACTORS
330
2A
102
}
330
2A
100
AcDbVisualStyle
  2
ColorChange
 70
    16
177
     2
291
     1
 71
     2
176
     1
 72
     2
176
     1
 73
     3
176
     1
 90
        0
176
     1
 40
-0.6
176
     1
 41
-30.0
176
     1
 62
     5
 63
     8
421
  8421504
176
     1
 74
     1
176
     1
 91
        4
176
     1
 64
     7
176
     1
 65
   257
176
     1
 75
     1
176
     1
175
     1
176
     1
 42
1.0
176
     1
 92
        8
176
     1
 66
     8
424
  8421504
176
     1
 43
1.0
176
     1
 76
     1
176
     1
 77
     6
176
     1
 78
     2
176
     1
 67
     7
176
     1
 79
     5
176
     1
170
     0
176
     1
171
     0
176
     1
290
     0
176
     1
 93
        1
176
     1
 44
0.0
176
     1
173
     0
176
     1
  0
VISUALSTYLE
  5
34
102
{ACAD_REACTORS
330
2A
102
}
330
2A
100
AcDbVisualStyle
  2
Conceptual
 70
     9
177
     2
291
     0
 71
     3
176
     1
 72
     2
176
     1
 73
     0
176
     1
 90
        0
176
     1
 40
-0.6
176
     1
 41
-30.0
176
     1
 62
     5
 63
     7
421
 16777215
176
     1
 74
     2
176
     1
 91
        2
176
     1
 64
     7
176
     1
 65
   257
176
     1
 75
     1
176
     1
175
     1
176
     1
 42
40.0
176
     1
 92
        8
176
     1
 66
     7
176
     1
 43
1.0
176
     1
 76
     1
176
     1
 77
     6
176
     1
 78
     2
176
     1
 67
     7
176
     1
 79
     3
176
     1
170
     0
176
     1
171
     0
176
     1
290
     0
176
     1
 93
        1
176
     1
 44
0.0
176
     1
173
     0
176
     1
  0
VISUALSTYLE
  5
35
102
{ACAD_REACTORS
330
2A
102
}
330
2A
100
AcDbVisualStyle
  2
Dim
 70
    11
177
     2
291
     1
 71
     2
176
     1
 72
     2
176
     1
 73
     0
176
     1
 90
        0
176
     1
 40
-0.6
176
     1
 41
-30.0
176
     1
 62
     5
 63
     7
421
 16777215
176
     1
 74
     1
176
     1
 91
        4
176
     1
 64
     7
176
     1
 65
   257
176
     1
 75
     1
176
     1
175
     1
176
     1
 42
1.0
176
     1
 92
        8
176
     1
 66
     7
176
     1
 43
1.0
176
     1
 76
     1
176
     1
 77
     6
176
     1
 78
     2
176
     1
 67
     7
176
     1
 79
     5
176
     1
170
     0
176
     1
171
     0
176
     1
290
     0
176
     1
 93
        1
176
     1
 44
-50.0
176
     1
173
     0
176
     1
  0
VISUALSTYLE
  5
39
102
{ACAD_REACTORS
330
2A
102
}
330
2A
100
AcDbVisualStyle
  2
Facepattern
 70
    15
177
     2
291
     1
 71
     2
176
     1
 72
     2
176
     1
 73
     0
176
     1
 90
        0
176
     1
 40
-0.6
176
     1
 41
-30.0
176
     1
 62
     5
 63
     7
421
 16777215
176
     1
 74
     1
176
     1
 91
        4
176
     1
 64
     7
176
     1
 65
   257
176
     1
 75
     1
176
     1
175
     1
176
     1
 42
1.0
176
     1
 92
        8
176
     1
 66
     7
176
     1
 43
1.0
176
     1
 76
     1
176
     1
 77
     6
176
     1
 78
     2
176
     1
 67
     7
176
     1
 79
     5
176
     1
170
     0
176
     1
171
     0
176
     1
290
     0
176
     1
 93
        1
176
     1
 44
0.0
176
     1
173
     0
176
     1
  0
VISUALSTYLE
  5
2B
102
{ACAD_REACTORS
330
2A
102
}
330
2A
100
AcDbVisualStyle
  2
Flat
 70
     0
177
     2
291
     1
 71
     2
176
     1
 72
     1
176
     1
 73
     1
176
     1
 90
        2
176
     1
 40
-0.6
176
     1
 41
30.0
176
     1
 62
     5
 63
     7
421
 16777215
176
     1
 74
     0
176
     1
 91
        4
176
     1
 64
     7
176
     1
 65
   257
176
     1
 75
     1
176
     1
175
     1
176
     1
 42
1.0
176
     1
 92
        8
176
     1
 66
     7
176
     1
 43
1.0
176
     1
 76
     1
176
     1
 77
     6
176
     1
 78
     2
176
     1
 67
     7
176
     1
 79
     5
176
     1
170
     0
176
     1
171
     0
176
     1
290
     0
176
     1
 93
       13
176
     1
 44
0.0
176
     1
173
     0
176
     1
  0
VISUALSTYLE
  5
2C
102
{ACAD_REACTORS
330
2A
102
}
330
2A
100
AcDbVisualStyle
  2
FlatWithEdges
 70
     1
177
     2
291
     1
 71
     2
176
     1
 72
     1
176
     1
 73
     1
176
     1
 90
        2
176
     1
 40
-0.6
176
     1
 41
30.0
176
     1
 62
     5
 63
     7
421
 16777215
176
     1
 74
     1
176
     1
 91
        4
176
     1
 64
     7
176
     1
 65
   257
176
     1
 75
     1
176
     1
175
     1
176
     1
 42
1.0
176
     1
 92
        0
176
     1
 66
   257
176
     1
 43
1.0
176
     1
 76
     1
176
     1
 77
     6
176
     1
 78
     2
176
     1
 67
     7
176
     1
 79
     5
176
     1
170
     0
176
     1
171
     0
176
     1
290
     0
176
     1
 93
       13
176
     1
 44
0.0
176
     1
173
     0
176
     1
  0
VISUALSTYLE
  5
2D
102
{ACAD_REACTORS
330
2A
102
}
330
2A
100
AcDbVisualStyle
  2
Gouraud
 70
     2
177
     2
291
     1
 71
     2
176
     1
 72
     2
176
     1
 73
     1
176
     1
 90
        2
176
     1
 40
-0.6
176
     1
 41
30.0
176
     1
 62
     5
 63
     7
421
 16777215
176
     1
 74
     0
176
     1
 91
        4
176
     1
 64
     7
176
     1
 65
   257
176
     1
 75
     1
176
     1
175
     1
176
     1
 42
1.0
176
     1
 92
        0
176
     1
 66
     7
176
     1
 43
1.0
176
     1
 76
     1
176
     1
 77
     6
176
     1
 78
     2
176
     1
 67
     7
176
     1
 79
     5
176
     1
170
     0
176
     1
171
     0
176
     1
290
     0
176
     1
 93
       13
176
     1
 44
0.0
176
     1
173
     0
176
     1
  0
VISUALSTYLE
  5
2E
102
{ACAD_REACTORS
330
2A
102
}
330
2A
100
AcDbVisualStyle
  2
GouraudWithEdges
 70
     3
177
     2
291
     1
 71
     2
176
     1
 72
     2
176
     1
 73
     1
176
     1
 90
        2
176
     1
 40
-0.6
176
     1
 41
30.0
176
     1
 62
     5
 63
     7
421
 16777215
176
     1
 74
     1
176
     1
 91
        4
176
     1
 64
     7
176
     1
 65
   257
176
     1
 75
     1
176
     1
175
     1
176
     1
 42
1.0
176
     1
 92
        0
176
     1
 66
   257
176
     1
 43
1.0
176
     1
 76
     1
176
     1
 77
     6
176
     1
 78
     2
176
     1
 67
     7
176
     1
 79
     5
176
     1
170
     0
176
     1
171
     0
176
     1
290
     0
176
     1
 93
       13
176
     1
 44
0.0
176
     1
173
     0
176
     1
  0
VISUALSTYLE
  5
38
102
{ACAD_REACTORS
330
2A
102
}
330
2A
100
AcDbVisualStyle
  2
Linepattern
 70
    14
177
     2
291
     1
 71
     2
176
     1
 72
     2
176
     1
 73
     0
176
     1
 90
        0
176
     1
 40
-0.6
176
     1
 41
-30.0
176
     1
 62
     5
 63
     7
421
 16777215
176
     1
 74
     1
176
     1
 91
        4
176
     1
 64
     7
176
     1
 65
   257
176
     1
 75
     7
176
     1
175
     7
176
     1
 42
1.0
176
     1
 92
        8
176
     1
 66
     7
176
     1
 43
1.0
176
     1
 76
     1
176
     1
 77
     6
176
     1
 78
     2
176
     1
 67
     7
176
     1
 79
     5
176
     1
170
     0
176
     1
171
     0
176
     1
290
     0
176
     1
 93
        1
176
     1
 44
0.0
176
     1
173
     0
176
     1
  0
VISUALSTYLE
  5
33
102
{ACAD_REACTORS
330
2A
102
}
330
2A
100
AcDbVisualStyle
  2
Realistic
 70
     8
177
     2
291
     0
 71
     2
176
     1
 72
     2
176
     1
 73
     0
176
     1
 90
        0
176
     1
 40
-0.6
176
     1
 41
-30.0
176
     1
 62
     5
 63
     7
421
 16777215
176
     1
 74
     1
176
     1
 91
        0
176
     1
 64
     7
176
     1
 65
   257
176
     1
 75
     1
176
     1
175
     1
176
     1
 42
1.0
176
     1
 92
        8
176
     1
 66
     8
424
  7895160
176
     1
 43
1.0
176
     1
 76
     1
176
     1
 77
     6
176
     1
 78
     2
176
     1
 67
     7
176
     1
 79
     5
176
     1
170
     0
176
     1
171
     0
176
     1
290
     0
176
     1
 93
       13
176
     1
 44
0.0
176
     1
173
     0
176
     1
  0
VISUALSTYLE
  5
37
102
{ACAD_REACTORS
330
2A
102
}
330
2A
100
AcDbVisualStyle
  2
Thicken
 70
    13
177
     2
291
     1
 71
     2
176
     1
 72
     2
176
     1
 73
     0
176
     1
 90
        0
176
     1
 40
-0.6
176
     1
 41
-30.0
176
     1
 62
     5
 63
     7
421
 16777215
176
     1
 74
     1
176
     1
 91
        4
176
     1
 64
     7
176
     1
 65
   257
176
     1
 75
     1
176
     1
175
     1
176
     1
 42
1.0
176
     1
 92
       12
176
     1
 66
     7
176
     1
 43
1.0
176
     1
 76
     1
176
     1
 77
     6
176
     1
 78
     2
176
     1
 67
     7
176
     1
 79
     5
176
     1
170
     0
176
     1
171
     0
176
     1
290
     0
176
     1
 93
        1
176
     1
 44
0.0
176
     1
173
     0
176
     1
  0
ENDSEC
  0
EOF
