  0
SECTION
  2
HEADER
  9
$ACADVER
  1
AC1024
  9
$ACADMAINTVER
 70
     6
  9
$DWGCODEPAGE
  3
UNDEFINED
  9
$INSBASE
 10
0.0
 20
0.0
 30
0.0
  9
$EXTMIN
 10
1.000000000000000E+20
 20
1.000000000000000E+20
 30
1.000000000000000E+20
  9
$EXTMAX
 10
-1.000000000000000E+20
 20
-1.000000000000000E+20
 30
-1.000000000000000E+20
  9
$LIMMIN
 10
0.0
 20
0.0
  9
$LIMMAX
 10
12.0
 20
9.0
  9
$ORTHOMODE
 70
     0
  9
$REGENMODE
 70
     1
  9
$FILLMODE
 70
     1
  9
$QTEXTMODE
 70
     0
  9
$MIRRTEXT
 70
     1
  9
$LTSCALE
 40
1.0
  9
$ATTMODE
 70
     1
  9
$TEXTSIZE
 40
0.2
  9
$TRACEWID
 40
0.05
  9
$TEXTSTYLE
  7
Standard
  9
$CLAYER
  8
0
  9
$CELTYPE
  6
ByLayer
  9
$CECOLOR
 62
   256
  9
$CELTSCALE
 40
1.0
  9
$DISPSILH
 70
     0
  9
$DIMSCALE
 40
1.0
  9
$DIMASZ
 40
0.18
  9
$DIMEXO
 40
0.0625
  9
$DIMDLI
 40
0.38
  9
$DIMRND
 40
0.0
  9
$DIMDLE
 40
0.0
  9
$DIMEXE
 40
0.18
  9
$DIMTP
 40
0.0
  9
$DIMTM
 40
0.0
  9
$DIMTXT
 40
0.18
  9
$DIMCEN
 40
0.09
  9
$DIMTSZ
 40
0.0
  9
$DIMTOL
 70
     0
  9
$DIMLIM
 70
     0
  9
$DIMTIH
 70
     1
  9
$DIMTOH
 70
     1
  9
$DIMSE1
 70
     0
  9
$DIMSE2
 70
     0
  9
$DIMTAD
 70
     0
  9
$DIMZIN
 70
     0
  9
$DIMBLK
  1

  9
$DIMASO
 70
     1
  9
$DIMSHO
 70
     1
  9
$DIMPOST
  1

  9
$DIMAPOST
  1

  9
$DIMALT
 70
     0
  9
$DIMALTD
 70
     2
  9
$DIMALTF
 40
25.4
  9
$DIMLFAC
 40
1.0
  9
$DIMTOFL
 70
     0
  9
$DIMTVP
 40
0.0
  9
$DIMTIX
 70
     0
  9
$DIMSOXD
 70
     0
  9
$DIMSAH
 70
     0
  9
$DIMBLK1
  1

  9
$DIMBLK2
  1

  9
$DIMSTYLE
  2
Standard
  9
$DIMCLRD
 70
     0
  9
$DIMCLRE
 70
     0
  9
$DIMCLRT
 70
     0
  9
$DIMTFAC
 40
1.0
  9
$DIMGAP
 40
0.09
  9
$DIMJUST
 70
     0
  9
$DIMSD1
 70
     0
  9
$DIMSD2
 70
     0
  9
$DIMTOLJ
 70
     1
  9
$DIMTZIN
 70
     0
  9
$DIMALTZ
 70
     0
  9
$DIMALTTZ
 70
     0
  9
$DIMUPT
 70
     0
  9
$DIMDEC
 70
     4
  9
$DIMTDEC
 70
     4
  9
$DIMALTU
 70
     2
  9
$DIMALTTD
 70
     2
  9
$DIMTXSTY
  7
Standard
  9
$DIMAUNIT
 70
     0
  9
$DIMADEC
 70
     0
  9
$DIMALTRND
 40
0.0
  9
$DIMAZIN
 70
     0
  9
$DIMDSEP
 70
    46
  9
$DIMATFIT
 70
     3
  9
$DIMFRAC
 70
     0
  9
$DIMLDRBLK
  1

  9
$DIMLUNIT
 70
     2
  9
$DIMLWD
 70
    -2
  9
$DIMLWE
 70
    -2
  9
$DIMTMOVE
 70
     0
  9
$DIMFXL
 40
1.0
  9
$DIMFXLON
 70
     0
  9
$DIMJOGANG
 40
0.7853981633974483
  9
$DIMTFILL
 70
     0
  9
$DIMTFILLCLR
 70
     0
  9
$DIMARCSYM
 70
     0
  9
$DIMLTYPE
  6

  9
$DIMLTEX1
  6

  9
$DIMLTEX2
  6

  9
$DIMTXTDIRECTION
 70
     0
  9
$LUNITS
 70
     2
  9
$LUPREC
 70
     4
  9
$SKETCHINC
 40
0.1
  9
$FILLETRAD
 40
0.5
  9
$AUNITS
 70
     0
  9
$AUPREC
 70
     0
  9
$MENU
  1
.
  9
$ELEVATION
 40
0.0
  9
$PELEVATION
 40
0.0
  9
$THICKNESS
 40
0.0
  9
$LIMCHECK
 70
     0
  9
$CHAMFERA
 40
0.5
  9
$CHAMFERB
 40
0.5
  9
$CHAMFERC
 40
1.0
  9
$CHAMFERD
 40
0.0
  9
$SKPOLY
 70
     0
  9
$TDCREATE
 40
2457917.58744213
  9
$TDUCREATE
 40
2457917.21244213
  9
$TDUPDATE
 40
2457917.58744213
  9
$TDUUPDATE
 40
2457917.21244213
  9
$TDINDWG
 40
0.0000000116
  9
$TDUSRTIMER
 40
0.0000000116
  9
$USRTIMER
 70
     1
  9
$ANGBASE
 50
0.0
  9
$ANGDIR
 70
     0
  9
$PDMODE
 70
     0
  9
$PDSIZE
 40
0.0
  9
$PLINEWID
 40
0.0
  9
$SPLFRAME
 70
     0
  9
$SPLINETYPE
 70
     6
  9
$SPLINESEGS
 70
     8
  9
$HANDSEED
  5
E6
  9
$SURFTAB1
 70
     6
  9
$SURFTAB2
 70
     6
  9
$SURFTYPE
 70
     6
  9
$SURFU
 70
     6
  9
$SURFV
 70
     6
  9
$UCSBASE
  2

  9
$UCSNAME
  2

  9
$UCSORG
 10
0.0
 20
0.0
 30
0.0
  9
$UCSXDIR
 10
1.0
 20
0.0
 30
0.0
  9
$UCSYDIR
 10
0.0
 20
1.0
 30
0.0
  9
$UCSORTHOREF
  2

  9
$UCSORTHOVIEW
 70
     0
  9
$UCSORGTOP
 10
0.0
 20
0.0
 30
0.0
  9
$UCSORGBOTTOM
 10
0.0
 20
0.0
 30
0.0
  9
$UCSORGLEFT
 10
0.0
 20
0.0
 30
0.0
  9
$UCSORGRIGHT
 10
0.0
 20
0.0
 30
0.0
  9
$UCSORGFRONT
 10
0.0
 20
0.0
 30
0.0
  9
$UCSORGBACK
 10
0.0
 20
0.0
 30
0.0
  9
$PUCSBASE
  2

  9
$PUCSNAME
  2

  9
$PUCSORG
 10
0.0
 20
0.0
 30
0.0
  9
$PUCSXDIR
 10
1.0
 20
0.0
 30
0.0
  9
$PUCSYDIR
 10
0.0
 20
1.0
 30
0.0
  9
$PUCSORTHOREF
  2

  9
$PUCSORTHOVIEW
 70
     0
  9
$PUCSORGTOP
 10
0.0
 20
0.0
 30
0.0
  9
$PUCSORGBOTTOM
 10
0.0
 20
0.0
 30
0.0
  9
$PUCSORGLEFT
 10
0.0
 20
0.0
 30
0.0
  9
$PUCSORGRIGHT
 10
0.0
 20
0.0
 30
0.0
  9
$PUCSORGFRONT
 10
0.0
 20
0.0
 30
0.0
  9
$PUCSORGBACK
 10
0.0
 20
0.0
 30
0.0
  9
$USERI1
 70
     0
  9
$USERI2
 70
     0
  9
$USERI3
 70
     0
  9
$USERI4
 70
     0
  9
$USERI5
 70
     0
  9
$USERR1
 40
0.0
  9
$USERR2
 40
0.0
  9
$USERR3
 40
0.0
  9
$USERR4
 40
0.0
  9
$USERR5
 40
0.0
  9
$WORLDVIEW
 70
     1
  9
$SHADEDGE
 70
     3
  9
$SHADEDIF
 70
    70
  9
$TILEMODE
 70
     1
  9
$MAXACTVP
 70
    64
  9
$PINSBASE
 10
0.0
 20
0.0
 30
0.0
  9
$PLIMCHECK
 70
     0
  9
$PEXTMIN
 10
1.000000000000000E+20
 20
1.000000000000000E+20
 30
1.000000000000000E+20
  9
$PEXTMAX
 10
-1.000000000000000E+20
 20
-1.000000000000000E+20
 30
-1.000000000000000E+20
  9
$PLIMMIN
 10
0.0
 20
0.0
  9
$PLIMMAX
 10
12.0
 20
9.0
  9
$UNITMODE
 70
     0
  9
$VISRETAIN
 70
     1
  9
$PLINEGEN
 70
     0
  9
$PSLTSCALE
 70
     1
  9
$TREEDEPTH
 70
  3020
  9
$CMLSTYLE
  2
Standard
  9
$CMLJUST
 70
     0
  9
$CMLSCALE
 40
1.0
  9
$PROXYGRAPHICS
 70
     1
  9
$MEASUREMENT
 70
     0
  9
$CELWEIGHT
370
    -1
  9
$ENDCAPS
280
     0
  9
$JOINSTYLE
280
     0
  9
$LWDISPLAY
290
     1
  9
$INSUNITS
 70
     1
  9
$HYPERLINKBASE
  1

  9
$STYLESHEET
  1

  9
$XEDIT
290
     1
  9
$CEPSNTYPE
380
     0
  9
$PSTYLEMODE
290
     1
  9
$FINGERPRINTGUID
  2
{E16C9F78-0D8C-69F3-7C9D-25B836F5C2C0}
  9
$VERSIONGUID
  2
{FAEB1C32-E019-11D5-929B-00C0DF256EC4}
  9
$EXTNAMES
290
     1
  9
$PSVPSCALE
 40
0.0
  9
$OLESTARTUP
290
     0
  9
$SORTENTS
280
   127
  9
$INDEXCTL
280
     0
  9
$HIDETEXT
280
     1
  9
$XCLIPFRAME
280
     2
  9
$HALOGAP
280
     0
  9
$OBSCOLOR
 70
   257
  9
$OBSLTYPE
280
     0
  9
$INTERSECTIONDISPLAY
280
     0
  9
$INTERSECTIONCOLOR
 70
   257
  9
$DIMASSOC
280
     2
  9
$PROJECTNAME
  1

  9
$CAMERADISPLAY
290
     0
  9
$LENSLENGTH
 40
50.0
  9
$CAMERAHEIGHT
 40
0.0
  9
$STEPSPERSEC
 40
2.0
  9
$STEPSIZE
 40
6.0
  9
$3DDWFPREC
 40
2.0
  9
$PSOLWIDTH
 40
0.25
  9
$PSOLHEIGHT
 40
4.0
  9
$LOFTANG1
 40
1.570796326794897
  9
$LOFTANG2
 40
1.570796326794897
  9
$LOFTMAG1
 40
0.0
  9
$LOFTMAG2
 40
0.0
  9
$LOFTPARAM
 70
     7
  9
$LOFTNORMALS
280
     1
  9
$LATITUDE
 40
37.795
  9
$LONGITUDE
 40
-122.394
  9
$NORTHDIRECTION
 40
0.0
  9
$TIMEZONE
 70
 -8000
  9
$LIGHTGLYPHDISPLAY
280
     1
  9
$TILEMODELIGHTSYNCH
280
     1
  9
$CMATERIAL
347
3C
  9
$SOLIDHIST
280
     1
  9
$SHOWHIST
280
     1
  9
$DWFFRAME
280
     2
  9
$DGNFRAME
280
     2
  9
$REALWORLDSCALE
290
     1
  9
$INTERFERECOLOR
 62
   256
  9
$CSHADOW
280
     0
  9
$SHADOWPLANELOCATION
 40
0.0
  0
ENDSEC
  0
SECTION
  2
CLASSES
  0
CLASS
  1
ACDBDICTIONARYWDFLT
  2
AcDbDictionaryWithDefault
  3
ObjectDBX Classes
 90
        0
 91
        4
280
     0
281
     0
  0
CLASS
  1
VISUALSTYLE
  2
AcDbVisualStyle
  3
ObjectDBX Classes
 90
     4095
 91
        4
280
     0
281
     0
  0
CLASS
  1
MATERIAL
  2
AcDbMaterial
  3
ObjectDBX Classes
 90
     1153
 91
        4
280
     0
281
     0
  0
CLASS
  1
SUN
  2
AcDbSun
  3
SCENEOE
 90
     1024
 91
        4
280
     0
281
     0
  0
ENDSEC
  0
SECTION
  2
TABLES
  0
TABLE
  2
VPORT
  5
8
330
0
100
AcDbSymbolTable
 70
     1
  0
VPORT
  5
29
330
8
100
AcDbSymbolTableRecord
100
AcDbViewportTableRecord
  2
*Active
 70
     0
 10
0.0
 20
0.0
 11
1.0
 21
1.0
 12
0.0
 22
0.0
 13
0.0
 23
0.0
 14
0.5
 24
0.5
 15
0.5
 25
0.5
 16
0.0
 26
0.0
 36
1.0
 17
105.0008280156501
 27
-148.4999710739862
 37
0.0
 40
296.9999421479724
 41
0.7070764206636528
 42
50.0
 43
0.0
 44
0.0
 50
0.0
 51
0.0
 71
     0
 72
   100
 73
     1
 74
     3
 75
     0
 76
     0
 77
     0
 78
     0
281
     0
 65
     1
110
0.0
120
0.0
130
0.0
111
1.0
121
0.0
131
0.0
112
0.0
122
1.0
132
0.0
 79
     0
146
0.0
 60
     3
 61
     5
292
     1
282
     1
141
0.0
142
0.0
 63
   250
361
3F
  0
ENDTAB
  0
TABLE
  2
LTYPE
  5
5
330
0
100
AcDbSymbolTable
 70
     1
  0
LTYPE
  5
14
330
5
100
AcDbSymbolTableRecord
100
AcDbLinetypeTableRecord
  2
ByBlock
 70
     0
  3

 72
    65
 73
     0
 40
0.0
  0
LTYPE
  5
15
330
5
100
AcDbSymbolTableRecord
100
AcDbLinetypeTableRecord
  2
ByLayer
 70
     0
  3

 72
    65
 73
     0
 40
0.0
  0
LTYPE
  5
16
330
5
100
AcDbSymbolTableRecord
100
AcDbLinetypeTableRecord
  2
Continuous
 70
     0
  3
Solid line
 72
    65
 73
     0
 40
0.0
  0
ENDTAB
  0
TABLE
  2
LAYER
  5
2
330
0
100
AcDbSymbolTable
 70
     2
  0
LAYER
  5
10
330
2
100
AcDbSymbolTableRecord
100
AcDbLayerTableRecord
  2
0
 70
     0
 62
     7
  6
Continuous
370
    -3
390
F
347
3E
  0
LAYER
  5
40
330
2
100
AcDbSymbolTableRecord
100
AcDbLayerTableRecord
  2
_U+30EC_U+30A4_U+30E4_U+30FC 1
 70
     0
 62
     7
  6
Continuous
370
    -3
390
F
347
3E
  0
ENDTAB
  0
TABLE
  2
STYLE
  5
3
330
0
100
AcDbSymbolTable
 70
     1
  0
STYLE
  5
11
330
3
100
AcDbSymbolTableRecord
100
AcDbTextStyleTableRecord
  2
Standard
 70
     0
 40
0.0
 41
1.0
 50
0.0
 71
     0
 42
0.2
  3
txt
  4

  0
ENDTAB
  0
TABLE
  2
VIEW
  5
6
330
0
100
AcDbSymbolTable
 70
     0
  0
ENDTAB
  0
TABLE
  2
UCS
  5
7
330
0
100
AcDbSymbolTable
 70
     0
  0
ENDTAB
  0
TABLE
  2
APPID
  5
9
330
0
100
AcDbSymbolTable
 70
     1
  0
APPID
  5
12
330
9
100
AcDbSymbolTableRecord
100
AcDbRegAppTableRecord
  2
ACAD
 70
     0
  0
ENDTAB
  0
TABLE
  2
DIMSTYLE
  5
A
330
0
100
AcDbSymbolTable
 70
     1
100
AcDbDimStyleTable
  0
DIMSTYLE
105
27
330
A
100
AcDbSymbolTableRecord
100
AcDbDimStyleTableRecord
  2
Standard
 70
     0
178
     0
340
11
  0
ENDTAB
  0
TABLE
  2
BLOCK_RECORD
  5
1
330
0
100
AcDbSymbolTable
 70
     6
  0
BLOCK_RECORD
  5
1F
330
1
100
AcDbSymbolTableRecord
100
AcDbBlockTableRecord
  2
*Model_Space
340
22
 70
     0
280
     1
281
     0
  0
BLOCK_RECORD
  5
1B
330
1
100
AcDbSymbolTableRecord
100
AcDbBlockTableRecord
  2
*Paper_Space
340
1E
 70
     0
280
     1
281
     0
  0
BLOCK_RECORD
  5
23
330
1
100
AcDbSymbolTableRecord
100
AcDbBlockTableRecord
  2
*Paper_Space0
340
26
 70
     0
280
     1
281
     0
  0
BLOCK_RECORD
  5
41
330
1
100
AcDbSymbolTableRecord
100
AcDbBlockTableRecord
  2
block 2
340
0
102
{BLKREFS
331
42
102
}
 70
     0
280
     1
281
     0
  0
BLOCK_RECORD
  5
5C
330
1
100
AcDbSymbolTableRecord
100
AcDbBlockTableRecord
  2
block 3
340
0
102
{BLKREFS
331
5D
102
}
 70
     0
280
     1
281
     0
  0
BLOCK_RECORD
  5
62
330
1
100
AcDbSymbolTableRecord
100
AcDbBlockTableRecord
  2
block 4
340
0
102
{BLKREFS
331
63
102
}
 70
     0
280
     1
281
     0
  0
BLOCK_RECORD
  5
68
330
1
100
AcDbSymbolTableRecord
100
AcDbBlockTableRecord
  2
block 5
340
0
102
{BLKREFS
331
69
102
}
 70
     0
280
     1
281
     0
  0
BLOCK_RECORD
  5
6E
330
1
100
AcDbSymbolTableRecord
100
AcDbBlockTableRecord
  2
block 6
340
0
102
{BLKREFS
331
6F
102
}
 70
     0
280
     1
281
     0
  0
ENDTAB
  0
ENDSEC
  0
SECTION
  2
BLOCKS
  0
BLOCK
  5
20
330
1F
100
AcDbEntity
  8
0
100
AcDbBlockBegin
  2
*Model_Space
 70
     0
 10
0.0
 20
0.0
 30
0.0
  3
*Model_Space
  1

  0
ENDBLK
  5
21
330
1F
100
AcDbEntity
  8
0
100
AcDbBlockEnd
  0
BLOCK
  5
1C
330
1B
100
AcDbEntity
 67
     1
  8
0
100
AcDbBlockBegin
  2
*Paper_Space
 70
     0
 10
0.0
 20
0.0
 30
0.0
  3
*Paper_Space
  1

  0
ENDBLK
  5
1D
330
1B
100
AcDbEntity
 67
     1
  8
0
100
AcDbBlockEnd
  0
BLOCK
  5
24
330
23
100
AcDbEntity
  8
0
100
AcDbBlockBegin
  2
*Paper_Space0
 70
     0
 10
0.0
 20
0.0
 30
0.0
  3
*Paper_Space0
  1

  0
ENDBLK
  5
25
330
23
100
AcDbEntity
  8
0
100
AcDbBlockEnd
  0
BLOCK
  5
43
330
41
100
AcDbEntity
  8
0
100
AcDbBlockBegin
  2
block 2
 70
     0
 10
0.0
 20
0.0
 30
0.0
  3
block 2
  1

  0
SPLINE
  5
45
330
41
100
AcDbEntity
  8
_U+30EC_U+30A4_U+30E4_U+30FC 1
370
     0
100
AcDbSpline
210
0.0
220
0.0
230
1.0
 70
    11
 71
     3
 72
    44
 73
    40
 74
     0
 42
0.0000000001
 43
0.0000000001
 12
1.0
 22
0.0
 32
0.0
 13
1.0
 23
0.0
 33
0.0
 40
0.0
 40
0.0
 40
0.0
 40
0.0
 40
1.0
 40
1.0
 40
1.0
 40
2.0
 40
2.0
 40
2.0
 40
3.0
 40
3.0
 40
3.0
 40
4.0
 40
4.0
 40
4.0
 40
5.0
 40
5.0
 40
5.0
 40
6.0
 40
6.0
 40
6.0
 40
7.0
 40
7.0
 40
7.0
 40
8.0
 40
8.0
 40
8.0
 40
9.0
 40
9.0
 40
9.0
 40
10.0
 40
10.0
 40
10.0
 40
11.0
 40
11.0
 40
11.0
 40
12.0
 40
12.0
 40
12.0
 40
13.0
 40
13.0
 40
13.0
 40
13.0
 10
104.1466145572967
 20
-137.7505926847464
 30
0.0
 10
103.9288845226289
 20
-137.9094115866164
 30
0.0
 10
103.8358669445272
 20
-137.9834811395493
 30
0.0
 10
103.7869465886366
 20
-138.1271416212842
 30
0.0
 10
103.7869465886366
 20
-138.1271416212842
 30
0.0
 10
104.5655381683031
 20
-138.1271416212842
 30
0.0
 10
104.5655381683031
 20
-138.1271416212842
 30
0.0
 10
104.5655381683031
 20
-138.1271416212842
 30
0.0
 10
104.5655381683031
 20
-138.3324693122051
 30
0.0
 10
104.5655381683031
 20
-138.3324693122051
 30
0.0
 10
104.5655381683031
 20
-138.3324693122051
 30
0.0
 10
103.5375216755045
 20
-138.3324693122051
 30
0.0
 10
103.5375216755045
 20
-138.3324693122051
 30
0.0
 10
103.5692165539688
 20
-137.9748684008362
 30
0.0
 10
103.6346733681886
 20
-137.896664733321
 30
0.0
 10
104.0198350434395
 20
-137.5983194642984
 30
0.0
 10
104.2758056379936
 20
-137.3995374547994
 30
0.0
 10
104.3412624522133
 20
-137.33166907374
 30
0.0
 10
104.3412624522133
 20
-137.1942097638785
 30
0.0
 10
104.3412624522133
 20
-137.0756984791859
 30
0.0
 10
104.2692599565716
 20
-136.9447848507465
 30
0.0
 10
104.0725450043638
 20
-136.9447848507465
 30
0.0
 10
103.8124402952274
 20
-136.9447848507465
 30
0.0
 10
103.8038275565143
 20
-137.1752617387097
 30
0.0
 10
103.799693441932
 20
-137.2917059661111
 30
0.0
 10
103.799693441932
 20
-137.2917059661111
 30
0.0
 10
103.5754177258423
 20
-137.2917059661111
 30
0.0
 10
103.5754177258423
 20
-137.2917059661111
 30
0.0
 10
103.5840304645554
 20
-137.1645819427054
 30
0.0
 10
103.5947102605597
 20
-137.0526163394348
 30
0.0
 10
103.674980985366
 20
-136.9341050547422
 30
0.0
 10
103.7848795313455
 20
-136.773219095581
 30
0.0
 10
103.9712591970975
 20
-136.7394571598255
 30
0.0
 10
104.0873589149504
 20
-136.7394571598255
 30
0.0
 10
104.364689101513
 20
-136.7394571598255
 30
0.0
 10
104.572083849725
 20
-136.9234252587379
 30
0.0
 10
104.572083849725
 20
-137.1962768211697
 30
0.0
 10
104.572083849725
 20
-137.4250311613903
 30
0.0
 10
104.4556396223236
 20
-137.5242499113655
 30
0.0
 10
104.1466145572967
 20
-137.7505926847464
 30
0.0
  0
HATCH
  5
46
330
41
100
AcDbEntity
  8
_U+30EC_U+30A4_U+30E4_U+30FC 1
 62
   179
420
  2234388
100
AcDbHatch
 10
0.0
 20
0.0
 30
0.0
210
0.0
220
0.0
230
1.0
  2
SOLID
 70
     1
 71
     0
 91
        1
 92
        1
 93
        1
 72
     4
 94
        3
 73
     0
 74
     1
 95
       44
 96
       40
 40
0.0
 40
0.0
 40
0.0
 40
0.0
 40
1.0
 40
1.0
 40
1.0
 40
2.0
 40
2.0
 40
2.0
 40
3.0
 40
3.0
 40
3.0
 40
4.0
 40
4.0
 40
4.0
 40
5.0
 40
5.0
 40
5.0
 40
6.0
 40
6.0
 40
6.0
 40
7.0
 40
7.0
 40
7.0
 40
8.0
 40
8.0
 40
8.0
 40
9.0
 40
9.0
 40
9.0
 40
10.0
 40
10.0
 40
10.0
 40
11.0
 40
11.0
 40
11.0
 40
12.0
 40
12.0
 40
12.0
 40
13.0
 40
13.0
 40
13.0
 40
13.0
 10
104.1466145572967
 20
-137.7505926847464
 10
103.9288845226289
 20
-137.9094115866164
 10
103.8358669445272
 20
-137.9834811395493
 10
103.7869465886366
 20
-138.1271416212842
 10
103.7869465886366
 20
-138.1271416212842
 10
104.5655381683031
 20
-138.1271416212842
 10
104.5655381683031
 20
-138.1271416212842
 10
104.5655381683031
 20
-138.1271416212842
 10
104.5655381683031
 20
-138.3324693122051
 10
104.5655381683031
 20
-138.3324693122051
 10
104.5655381683031
 20
-138.3324693122051
 10
103.5375216755045
 20
-138.3324693122051
 10
103.5375216755045
 20
-138.3324693122051
 10
103.5692165539688
 20
-137.9748684008362
 10
103.6346733681886
 20
-137.896664733321
 10
104.0198350434395
 20
-137.5983194642984
 10
104.2758056379936
 20
-137.3995374547994
 10
104.3412624522133
 20
-137.33166907374
 10
104.3412624522133
 20
-137.1942097638785
 10
104.3412624522133
 20
-137.0756984791859
 10
104.2692599565716
 20
-136.9447848507465
 10
104.0725450043638
 20
-136.9447848507465
 10
103.8124402952274
 20
-136.9447848507465
 10
103.8038275565143
 20
-137.1752617387097
 10
103.799693441932
 20
-137.2917059661111
 10
103.799693441932
 20
-137.2917059661111
 10
103.5754177258423
 20
-137.2917059661111
 10
103.5754177258423
 20
-137.2917059661111
 10
103.5840304645554
 20
-137.1645819427054
 10
103.5947102605597
 20
-137.0526163394348
 10
103.674980985366
 20
-136.9341050547422
 10
103.7848795313455
 20
-136.773219095581
 10
103.9712591970975
 20
-136.7394571598255
 10
104.0873589149504
 20
-136.7394571598255
 10
104.364689101513
 20
-136.7394571598255
 10
104.572083849725
 20
-136.9234252587379
 10
104.572083849725
 20
-137.1962768211697
 10
104.572083849725
 20
-137.4250311613903
 10
104.4556396223236
 20
-137.5242499113655
 10
104.1466145572967
 20
-137.7505926847464
 97
        0
 97
        0
 75
     2
 76
     1
 98
        0
  0
POLYLINE
  5
47
330
41
100
AcDbEntity
  8
_U+30EC_U+30A4_U+30E4_U+30FC 1
370
     0
100
AcDb2dPolyline
 66
     1
 10
0.0
 20
0.0
 30
0.0
  0
VERTEX
  5
48
330
47
100
AcDbEntity
  8
_U+30EC_U+30A4_U+30E4_U+30FC 1
370
     0
100
AcDbVertex
100
AcDb2dVertex
 10
105.5625488017344
 20
-137.9855481968404
 30
0.0
  0
VERTEX
  5
49
330
47
100
AcDbEntity
  8
_U+30EC_U+30A4_U+30E4_U+30FC 1
370
     0
100
AcDbVertex
100
AcDb2dVertex
 10
105.5625488017344
 20
-138.3324693122051
 30
0.0
  0
VERTEX
  5
4A
330
47
100
AcDbEntity
  8
_U+30EC_U+30A4_U+30E4_U+30FC 1
370
     0
100
AcDbVertex
100
AcDb2dVertex
 10
105.3448187670666
 20
-138.3324693122051
 30
0.0
  0
VERTEX
  5
4B
330
47
100
AcDbEntity
  8
_U+30EC_U+30A4_U+30E4_U+30FC 1
370
     0
100
AcDbVertex
100
AcDb2dVertex
 10
105.3448187670666
 20
-137.9855481968404
 30
0.0
  0
VERTEX
  5
4C
330
47
100
AcDbEntity
  8
_U+30EC_U+30A4_U+30E4_U+30FC 1
370
     0
100
AcDbVertex
100
AcDb2dVertex
 10
104.688872586675
 20
-137.9855481968404
 30
0.0
  0
VERTEX
  5
4D
330
47
100
AcDbEntity
  8
_U+30EC_U+30A4_U+30E4_U+30FC 1
370
     0
100
AcDbVertex
100
AcDb2dVertex
 10
104.688872586675
 20
-137.7612724807506
 30
0.0
  0
VERTEX
  5
4E
330
47
100
AcDbEntity
  8
_U+30EC_U+30A4_U+30E4_U+30FC 1
370
     0
100
AcDbVertex
100
AcDb2dVertex
 10
105.3679009068178
 20
-136.7880330061676
 30
0.0
  0
VERTEX
  5
4F
330
47
100
AcDbEntity
  8
_U+30EC_U+30A4_U+30E4_U+30FC 1
370
     0
100
AcDbVertex
100
AcDb2dVertex
 10
105.5625488017344
 20
-136.7880330061676
 30
0.0
  0
VERTEX
  5
50
330
47
100
AcDbEntity
  8
_U+30EC_U+30A4_U+30E4_U+30FC 1
370
     0
100
AcDbVertex
100
AcDb2dVertex
 10
105.5625488017344
 20
-137.7867661873415
 30
0.0
  0
VERTEX
  5
51
330
47
100
AcDbEntity
  8
_U+30EC_U+30A4_U+30E4_U+30FC 1
370
     0
100
AcDbVertex
100
AcDb2dVertex
 10
105.7699435499464
 20
-137.7867661873415
 30
0.0
  0
VERTEX
  5
52
330
47
100
AcDbEntity
  8
_U+30EC_U+30A4_U+30E4_U+30FC 1
370
     0
100
AcDbVertex
100
AcDb2dVertex
 10
105.7699435499464
 20
-137.9855481968404
 30
0.0
  0
VERTEX
  5
53
330
47
100
AcDbEntity
  8
_U+30EC_U+30A4_U+30E4_U+30FC 1
370
     0
100
AcDbVertex
100
AcDb2dVertex
 10
105.5625488017344
 20
-137.9855481968404
 30
0.0
  0
SEQEND
  5
54
330
47
100
AcDbEntity
  8
_U+30EC_U+30A4_U+30E4_U+30FC 1
370
     0
  0
POLYLINE
  5
55
330
41
100
AcDbEntity
  8
_U+30EC_U+30A4_U+30E4_U+30FC 1
370
     0
100
AcDb2dPolyline
 66
     1
 10
0.0
 20
0.0
 30
0.0
  0
VERTEX
  5
56
330
55
100
AcDbEntity
  8
_U+30EC_U+30A4_U+30E4_U+30FC 1
370
     0
100
AcDbVertex
100
AcDb2dVertex
 10
105.3448187670666
 20
-137.1308200069499
 30
0.0
  0
VERTEX
  5
57
330
55
100
AcDbEntity
  8
_U+30EC_U+30A4_U+30E4_U+30FC 1
370
     0
100
AcDbVertex
100
AcDb2dVertex
 10
104.8876545961739
 20
-137.7867661873415
 30
0.0
  0
VERTEX
  5
58
330
55
100
AcDbEntity
  8
_U+30EC_U+30A4_U+30E4_U+30FC 1
370
     0
100
AcDbVertex
100
AcDb2dVertex
 10
105.3448187670666
 20
-137.7867661873415
 30
0.0
  0
VERTEX
  5
59
330
55
100
AcDbEntity
  8
_U+30EC_U+30A4_U+30E4_U+30FC 1
370
     0
100
AcDbVertex
100
AcDb2dVertex
 10
105.3448187670666
 20
-137.1308200069499
 30
0.0
  0
SEQEND
  5
5A
330
55
100
AcDbEntity
  8
_U+30EC_U+30A4_U+30E4_U+30FC 1
370
     0
  0
HATCH
  5
5B
330
41
100
AcDbEntity
  8
_U+30EC_U+30A4_U+30E4_U+30FC 1
 62
   179
420
  2234388
100
AcDbHatch
 10
0.0
 20
0.0
 30
0.0
210
0.0
220
0.0
230
1.0
  2
SOLID
 70
     1
 71
     0
 91
        2
 92
        1
 93
       11
 72
     1
 10
105.5625488017344
 20
-137.9855481968404
 11
105.5625488017344
 21
-138.3324693122051
 72
     1
 10
105.5625488017344
 20
-138.3324693122051
 11
105.3448187670666
 21
-138.3324693122051
 72
     1
 10
105.3448187670666
 20
-138.3324693122051
 11
105.3448187670666
 21
-137.9855481968404
 72
     1
 10
105.3448187670666
 20
-137.9855481968404
 11
104.688872586675
 21
-137.9855481968404
 72
     1
 10
104.688872586675
 20
-137.9855481968404
 11
104.688872586675
 21
-137.7612724807506
 72
     1
 10
104.688872586675
 20
-137.7612724807506
 11
105.3679009068178
 21
-136.7880330061676
 72
     1
 10
105.3679009068178
 20
-136.7880330061676
 11
105.5625488017344
 21
-136.7880330061676
 72
     1
 10
105.5625488017344
 20
-136.7880330061676
 11
105.5625488017344
 21
-137.7867661873415
 72
     1
 10
105.5625488017344
 20
-137.7867661873415
 11
105.7699435499464
 21
-137.7867661873415
 72
     1
 10
105.7699435499464
 20
-137.7867661873415
 11
105.7699435499464
 21
-137.9855481968404
 72
     1
 10
105.7699435499464
 20
-137.9855481968404
 11
105.5625488017344
 21
-137.9855481968404
 97
        0
 92
        1
 93
        3
 72
     1
 10
105.3448187670666
 20
-137.1308200069499
 11
104.8876545961739
 21
-137.7867661873415
 72
     1
 10
104.8876545961739
 20
-137.7867661873415
 11
105.3448187670666
 21
-137.7867661873415
 72
     1
 10
105.3448187670666
 20
-137.7867661873415
 11
105.3448187670666
 21
-137.1308200069499
 97
        0
 75
     2
 76
     1
 98
        0
  0
ENDBLK
  5
44
330
41
100
AcDbEntity
  8
0
100
AcDbBlockEnd
  0
BLOCK
  5
5E
330
5C
100
AcDbEntity
  8
0
100
AcDbBlockBegin
  2
block 3
 70
     0
 10
0.0
 20
0.0
 30
0.0
  3
block 3
  1

  0
SPLINE
  5
60
330
5C
100
AcDbEntity
  8
_U+30EC_U+30A4_U+30E4_U+30FC 1
370
     0
100
AcDbSpline
210
0.0
220
0.0
230
1.0
 70
    11
 71
     3
 72
    53
 73
    49
 74
     0
 42
0.0000000001
 43
0.0000000001
 12
1.0
 22
0.0
 32
0.0
 13
1.0
 23
0.0
 33
0.0
 40
0.0
 40
0.0
 40
0.0
 40
0.0
 40
1.0
 40
1.0
 40
1.0
 40
2.0
 40
2.0
 40
2.0
 40
3.0
 40
3.0
 40
3.0
 40
4.0
 40
4.0
 40
4.0
 40
5.0
 40
5.0
 40
5.0
 40
6.0
 40
6.0
 40
6.0
 40
7.0
 40
7.0
 40
7.0
 40
8.0
 40
8.0
 40
8.0
 40
9.0
 40
9.0
 40
9.0
 40
10.0
 40
10.0
 40
10.0
 40
11.0
 40
11.0
 40
11.0
 40
12.0
 40
12.0
 40
12.0
 40
13.0
 40
13.0
 40
13.0
 40
14.0
 40
14.0
 40
14.0
 40
15.0
 40
15.0
 40
15.0
 40
16.0
 40
16.0
 40
16.0
 40
16.0
 10
87.60653887783795
 20
-151.7171820367235
 30
0.0
 10
87.60653887783795
 20
-151.7953857042387
 30
0.0
 10
87.58965790996022
 20
-151.8970160210535
 30
0.0
 10
87.52626815303164
 20
-151.9986463378684
 30
0.0
 10
87.41636960705216
 20
-152.1719346407765
 30
0.0
 10
87.28511146906415
 20
-152.193294232785
 30
0.0
 10
87.17727998037583
 20
-152.2122422579539
 30
0.0
 10
87.17727998037583
 20
-152.2122422579539
 30
0.0
 10
87.17727998037583
 20
-151.9900335991553
 30
0.0
 10
87.17727998037583
 20
-151.9900335991553
 30
0.0
 10
87.37606198987474
 20
-151.9352565809398
 30
0.0
 10
87.40568981104789
 20
-151.8081325575341
 30
0.0
 10
87.40568981104789
 20
-151.7151149794323
 30
0.0
 10
87.40568981104789
 20
-151.5755886122797
 30
0.0
 10
87.30612655152417
 20
-151.4233153918317
 30
0.0
 10
87.07358260626981
 20
-151.4233153918317
 30
0.0
 10
86.81761201171574
 20
-151.4233153918317
 30
0.0
 10
86.74767657336517
 20
-151.6031493761617
 30
0.0
 10
86.74767657336517
 20
-151.7237277181455
 30
0.0
 10
86.74767657336517
 20
-151.7554225966098
 30
0.0
 10
86.74767657336517
 20
-151.8970160210535
 30
0.0
 10
86.87686765406204
 20
-151.985899484573
 30
0.0
 10
86.87686765406204
 20
-151.985899484573
 30
0.0
 10
86.85791962889316
 20
-152.1615993543207
 30
0.0
 10
86.85791962889316
 20
-152.1615993543207
 30
0.0
 10
86.85791962889316
 20
-152.1615993543207
 30
0.0
 10
86.01145966816728
 20
-152.041021012337
 30
0.0
 10
86.01145966816728
 20
-152.041021012337
 30
0.0
 10
86.01145966816728
 20
-152.041021012337
 30
0.0
 10
86.01145966816728
 20
-151.2624294326705
 30
0.0
 10
86.01145966816728
 20
-151.2624294326705
 30
0.0
 10
86.01145966816728
 20
-151.2624294326705
 30
0.0
 10
86.20610756308389
 20
-151.2624294326705
 30
0.0
 10
86.20610756308389
 20
-151.2624294326705
 30
0.0
 10
86.20610756308389
 20
-151.2624294326705
 30
0.0
 10
86.20610756308389
 20
-151.8780679958847
 30
0.0
 10
86.20610756308389
 20
-151.8780679958847
 30
0.0
 10
86.20610756308389
 20
-151.8780679958847
 30
0.0
 10
86.62916528867257
 20
-151.9435248101044
 30
0.0
 10
86.62916528867257
 20
-151.9435248101044
 30
0.0
 10
86.59540335291713
 20
-151.8822021104669
 30
0.0
 10
86.5550957357397
 20
-151.7998643283695
 30
0.0
 10
86.5550957357397
 20
-151.6813530436769
 30
0.0
 10
86.5550957357397
 20
-151.427449506414
 30
0.0
 10
86.74147540149171
 20
-151.1904269370288
 30
0.0
 10
87.05463458110093
 20
-151.1904269370288
 30
0.0
 10
87.37192787529244
 20
-151.1904269370288
 30
0.0
 10
87.60653887783795
 20
-151.4147026531186
 30
0.0
 10
87.60653887783795
 20
-151.7171820367235
 30
0.0
  0
HATCH
  5
61
330
5C
100
AcDbEntity
  8
_U+30EC_U+30A4_U+30E4_U+30FC 1
 62
   179
420
  2234388
100
AcDbHatch
 10
0.0
 20
0.0
 30
0.0
210
0.0
220
0.0
230
1.0
  2
SOLID
 70
     1
 71
     0
 91
        1
 92
        1
 93
        1
 72
     4
 94
        3
 73
     0
 74
     1
 95
       53
 96
       49
 40
0.0
 40
0.0
 40
0.0
 40
0.0
 40
1.0
 40
1.0
 40
1.0
 40
2.0
 40
2.0
 40
2.0
 40
3.0
 40
3.0
 40
3.0
 40
4.0
 40
4.0
 40
4.0
 40
5.0
 40
5.0
 40
5.0
 40
6.0
 40
6.0
 40
6.0
 40
7.0
 40
7.0
 40
7.0
 40
8.0
 40
8.0
 40
8.0
 40
9.0
 40
9.0
 40
9.0
 40
10.0
 40
10.0
 40
10.0
 40
11.0
 40
11.0
 40
11.0
 40
12.0
 40
12.0
 40
12.0
 40
13.0
 40
13.0
 40
13.0
 40
14.0
 40
14.0
 40
14.0
 40
15.0
 40
15.0
 40
15.0
 40
16.0
 40
16.0
 40
16.0
 40
16.0
 10
87.60653887783795
 20
-151.7171820367235
 10
87.60653887783795
 20
-151.7953857042387
 10
87.58965790996022
 20
-151.8970160210535
 10
87.52626815303164
 20
-151.9986463378684
 10
87.41636960705216
 20
-152.1719346407765
 10
87.28511146906415
 20
-152.193294232785
 10
87.17727998037583
 20
-152.2122422579539
 10
87.17727998037583
 20
-152.2122422579539
 10
87.17727998037583
 20
-151.9900335991553
 10
87.17727998037583
 20
-151.9900335991553
 10
87.37606198987474
 20
-151.9352565809398
 10
87.40568981104789
 20
-151.8081325575341
 10
87.40568981104789
 20
-151.7151149794323
 10
87.40568981104789
 20
-151.5755886122797
 10
87.30612655152417
 20
-151.4233153918317
 10
87.07358260626981
 20
-151.4233153918317
 10
86.81761201171574
 20
-151.4233153918317
 10
86.74767657336517
 20
-151.6031493761617
 10
86.74767657336517
 20
-151.7237277181455
 10
86.74767657336517
 20
-151.7554225966098
 10
86.74767657336517
 20
-151.8970160210535
 10
86.87686765406204
 20
-151.985899484573
 10
86.87686765406204
 20
-151.985899484573
 10
86.85791962889316
 20
-152.1615993543207
 10
86.85791962889316
 20
-152.1615993543207
 10
86.85791962889316
 20
-152.1615993543207
 10
86.01145966816728
 20
-152.041021012337
 10
86.01145966816728
 20
-152.041021012337
 10
86.01145966816728
 20
-152.041021012337
 10
86.01145966816728
 20
-151.2624294326705
 10
86.01145966816728
 20
-151.2624294326705
 10
86.01145966816728
 20
-151.2624294326705
 10
86.20610756308389
 20
-151.2624294326705
 10
86.20610756308389
 20
-151.2624294326705
 10
86.20610756308389
 20
-151.2624294326705
 10
86.20610756308389
 20
-151.8780679958847
 10
86.20610756308389
 20
-151.8780679958847
 10
86.20610756308389
 20
-151.8780679958847
 10
86.62916528867257
 20
-151.9435248101044
 10
86.62916528867257
 20
-151.9435248101044
 10
86.59540335291713
 20
-151.8822021104669
 10
86.5550957357397
 20
-151.7998643283695
 10
86.5550957357397
 20
-151.6813530436769
 10
86.5550957357397
 20
-151.427449506414
 10
86.74147540149171
 20
-151.1904269370288
 10
87.05463458110093
 20
-151.1904269370288
 10
87.37192787529244
 20
-151.1904269370288
 10
87.60653887783795
 20
-151.4147026531186
 10
87.60653887783795
 20
-151.7171820367235
 97
        0
 97
        0
 75
     2
 76
     1
 98
        0
  0
ENDBLK
  5
5F
330
5C
100
AcDbEntity
  8
0
100
AcDbBlockEnd
  0
BLOCK
  5
64
330
62
100
AcDbEntity
  8
0
100
AcDbBlockBegin
  2
block 4
 70
     0
 10
0.0
 20
0.0
 30
0.0
  3
block 4
  1

  0
SPLINE
  5
66
330
62
100
AcDbEntity
  8
_U+30EC_U+30A4_U+30E4_U+30FC 1
370
     0
100
AcDbSpline
210
0.0
220
0.0
230
1.0
 70
    11
 71
     3
 72
    44
 73
    40
 74
     0
 42
0.0000000001
 43
0.0000000001
 12
1.0
 22
0.0
 32
0.0
 13
1.0
 23
0.0
 33
0.0
 40
0.0
 40
0.0
 40
0.0
 40
0.0
 40
1.0
 40
1.0
 40
1.0
 40
2.0
 40
2.0
 40
2.0
 40
3.0
 40
3.0
 40
3.0
 40
4.0
 40
4.0
 40
4.0
 40
5.0
 40
5.0
 40
5.0
 40
6.0
 40
6.0
 40
6.0
 40
7.0
 40
7.0
 40
7.0
 40
8.0
 40
8.0
 40
8.0
 40
9.0
 40
9.0
 40
9.0
 40
10.0
 40
10.0
 40
10.0
 40
11.0
 40
11.0
 40
11.0
 40
12.0
 40
12.0
 40
12.0
 40
13.0
 40
13.0
 40
13.0
 40
13.0
 10
91.35583629443535
 20
-159.3880316441808
 30
0.0
 10
91.13810625976757
 20
-159.5465060365023
 30
0.0
 10
91.04508868166582
 20
-159.6209200989837
 30
0.0
 10
90.99616832577527
 20
-159.76423607117
 30
0.0
 10
90.99616832577527
 20
-159.76423607117
 30
0.0
 10
91.77475990544173
 20
-159.76423607117
 30
0.0
 10
91.77475990544173
 20
-159.76423607117
 30
0.0
 10
91.77475990544173
 20
-159.76423607117
 30
0.0
 10
91.77475990544173
 20
-159.969563762091
 30
0.0
 10
91.77475990544173
 20
-159.969563762091
 30
0.0
 10
91.77475990544173
 20
-159.969563762091
 30
0.0
 10
90.74674341264318
 20
-159.969563762091
 30
0.0
 10
90.74674341264318
 20
-159.969563762091
 30
0.0
 10
90.77843829110748
 20
-159.611962850722
 30
0.0
 10
90.84389510532722
 20
-159.5341036927554
 30
0.0
 10
91.22905678057816
 20
-159.2357584237327
 30
0.0
 10
91.48502737513222
 20
-159.0366319046853
 30
0.0
 10
91.55048418935196
 20
-158.9691080331744
 30
0.0
 10
91.55048418935196
 20
-158.8313042137644
 30
0.0
 10
91.55048418935196
 20
-158.7127929290718
 30
0.0
 10
91.47848169371025
 20
-158.5818793006323
 30
0.0
 10
91.28176674150248
 20
-158.5818793006323
 30
0.0
 10
91.02166203236612
 20
-158.5818793006323
 30
0.0
 10
91.013049293653
 20
-158.8127006981441
 30
0.0
 10
91.0089151790707
 20
-158.9291449255455
 30
0.0
 10
91.0089151790707
 20
-158.9291449255455
 30
0.0
 10
90.78463946298093
 20
-158.9291449255455
 30
0.0
 10
90.78463946298093
 20
-158.9291449255455
 30
0.0
 10
90.79325220169405
 20
-158.8016763925912
 30
0.0
 10
90.80393199769833
 20
-158.6900552988692
 30
0.0
 10
90.88420272250465
 20
-158.5715440141766
 30
0.0
 10
90.99410126848412
 20
-158.4103135454669
 30
0.0
 10
91.18048093423613
 20
-158.3765516097114
 30
0.0
 10
91.29658065208905
 20
-158.3765516097114
 30
0.0
 10
91.57391083865167
 20
-158.3765516097114
 30
0.0
 10
91.78130558686371
 20
-158.5605197086238
 30
0.0
 10
91.78130558686371
 20
-158.8333712710555
 30
0.0
 10
91.78130558686371
 20
-159.0621256112761
 30
0.0
 10
91.66486135946226
 20
-159.1613443612513
 30
0.0
 10
91.35583629443535
 20
-159.3880316441808
 30
0.0
  0
HATCH
  5
67
330
62
100
AcDbEntity
  8
_U+30EC_U+30A4_U+30E4_U+30FC 1
 62
   179
420
  2234388
100
AcDbHatch
 10
0.0
 20
0.0
 30
0.0
210
0.0
220
0.0
230
1.0
  2
SOLID
 70
     1
 71
     0
 91
        1
 92
        1
 93
        1
 72
     4
 94
        3
 73
     0
 74
     1
 95
       44
 96
       40
 40
0.0
 40
0.0
 40
0.0
 40
0.0
 40
1.0
 40
1.0
 40
1.0
 40
2.0
 40
2.0
 40
2.0
 40
3.0
 40
3.0
 40
3.0
 40
4.0
 40
4.0
 40
4.0
 40
5.0
 40
5.0
 40
5.0
 40
6.0
 40
6.0
 40
6.0
 40
7.0
 40
7.0
 40
7.0
 40
8.0
 40
8.0
 40
8.0
 40
9.0
 40
9.0
 40
9.0
 40
10.0
 40
10.0
 40
10.0
 40
11.0
 40
11.0
 40
11.0
 40
12.0
 40
12.0
 40
12.0
 40
13.0
 40
13.0
 40
13.0
 40
13.0
 10
91.35583629443535
 20
-159.3880316441808
 10
91.13810625976757
 20
-159.5465060365023
 10
91.04508868166582
 20
-159.6209200989837
 10
90.99616832577527
 20
-159.76423607117
 10
90.99616832577527
 20
-159.76423607117
 10
91.77475990544173
 20
-159.76423607117
 10
91.77475990544173
 20
-159.76423607117
 10
91.77475990544173
 20
-159.76423607117
 10
91.77475990544173
 20
-159.969563762091
 10
91.77475990544173
 20
-159.969563762091
 10
91.77475990544173
 20
-159.969563762091
 10
90.74674341264318
 20
-159.969563762091
 10
90.74674341264318
 20
-159.969563762091
 10
90.77843829110748
 20
-159.611962850722
 10
90.84389510532722
 20
-159.5341036927554
 10
91.22905678057816
 20
-159.2357584237327
 10
91.48502737513222
 20
-159.0366319046853
 10
91.55048418935196
 20
-158.9691080331744
 10
91.55048418935196
 20
-158.8313042137644
 10
91.55048418935196
 20
-158.7127929290718
 10
91.47848169371025
 20
-158.5818793006323
 10
91.28176674150248
 20
-158.5818793006323
 10
91.02166203236612
 20
-158.5818793006323
 10
91.013049293653
 20
-158.8127006981441
 10
91.0089151790707
 20
-158.9291449255455
 10
91.0089151790707
 20
-158.9291449255455
 10
90.78463946298093
 20
-158.9291449255455
 10
90.78463946298093
 20
-158.9291449255455
 10
90.79325220169405
 20
-158.8016763925912
 10
90.80393199769833
 20
-158.6900552988692
 10
90.88420272250465
 20
-158.5715440141766
 10
90.99410126848412
 20
-158.4103135454669
 10
91.18048093423613
 20
-158.3765516097114
 10
91.29658065208905
 20
-158.3765516097114
 10
91.57391083865167
 20
-158.3765516097114
 10
91.78130558686371
 20
-158.5605197086238
 10
91.78130558686371
 20
-158.8333712710555
 10
91.78130558686371
 20
-159.0621256112761
 10
91.66486135946226
 20
-159.1613443612513
 10
91.35583629443535
 20
-159.3880316441808
 97
        0
 97
        0
 75
     2
 76
     1
 98
        0
  0
ENDBLK
  5
65
330
62
100
AcDbEntity
  8
0
100
AcDbBlockEnd
  0
BLOCK
  5
6A
330
68
100
AcDbEntity
  8
0
100
AcDbBlockBegin
  2
block 5
 70
     0
 10
0.0
 20
0.0
 30
0.0
  3
block 5
  1

  0
SPLINE
  5
6C
330
68
100
AcDbEntity
  8
_U+30EC_U+30A4_U+30E4_U+30FC 1
370
     0
100
AcDbSpline
210
0.0
220
0.0
230
1.0
 70
    11
 71
     3
 72
    26
 73
    22
 74
     0
 42
0.0000000001
 43
0.0000000001
 12
1.0
 22
0.0
 32
0.0
 13
1.0
 23
0.0
 33
0.0
 40
0.0
 40
0.0
 40
0.0
 40
0.0
 40
1.0
 40
1.0
 40
1.0
 40
2.0
 40
2.0
 40
2.0
 40
3.0
 40
3.0
 40
3.0
 40
4.0
 40
4.0
 40
4.0
 40
5.0
 40
5.0
 40
5.0
 40
6.0
 40
6.0
 40
6.0
 40
7.0
 40
7.0
 40
7.0
 40
7.0
 10
123.4095214535226
 20
-143.6391221429097
 30
0.0
 10
123.4095214535226
 20
-143.6391221429097
 30
0.0
 10
122.3053683505
 20
-143.6391221429097
 30
0.0
 10
122.3053683505
 20
-143.6391221429097
 30
0.0
 10
122.3053683505
 20
-143.6391221429097
 30
0.0
 10
122.3053683505
 20
-143.9691622903966
 30
0.0
 10
122.3053683505
 20
-143.9691622903966
 30
0.0
 10
122.3053683505
 20
-143.9691622903966
 30
0.0
 10
122.1572292446343
 20
-143.9691622903966
 30
0.0
 10
122.1572292446343
 20
-143.9691622903966
 30
0.0
 10
122.1424153340477
 20
-143.6370550856185
 30
0.0
 10
121.9794623175954
 20
-143.5905462965677
 30
0.0
 10
121.8650851474851
 20
-143.5609184753945
 30
0.0
 10
121.8650851474851
 20
-143.5609184753945
 30
0.0
 10
121.8650851474851
 20
-143.4148464268199
 30
0.0
 10
121.8650851474851
 20
-143.4148464268199
 30
0.0
 10
121.8650851474851
 20
-143.4148464268199
 30
0.0
 10
123.4095214535226
 20
-143.4148464268199
 30
0.0
 10
123.4095214535226
 20
-143.4148464268199
 30
0.0
 10
123.4095214535226
 20
-143.4148464268199
 30
0.0
 10
123.4095214535226
 20
-143.6391221429097
 30
0.0
 10
123.4095214535226
 20
-143.6391221429097
 30
0.0
  0
HATCH
  5
6D
330
68
100
AcDbEntity
  8
_U+30EC_U+30A4_U+30E4_U+30FC 1
 62
   179
420
  2234388
100
AcDbHatch
 10
0.0
 20
0.0
 30
0.0
210
0.0
220
0.0
230
1.0
  2
SOLID
 70
     1
 71
     0
 91
        1
 92
        1
 93
        1
 72
     4
 94
        3
 73
     0
 74
     1
 95
       26
 96
       22
 40
0.0
 40
0.0
 40
0.0
 40
0.0
 40
1.0
 40
1.0
 40
1.0
 40
2.0
 40
2.0
 40
2.0
 40
3.0
 40
3.0
 40
3.0
 40
4.0
 40
4.0
 40
4.0
 40
5.0
 40
5.0
 40
5.0
 40
6.0
 40
6.0
 40
6.0
 40
7.0
 40
7.0
 40
7.0
 40
7.0
 10
123.4095214535226
 20
-143.6391221429097
 10
123.4095214535226
 20
-143.6391221429097
 10
122.3053683505
 20
-143.6391221429097
 10
122.3053683505
 20
-143.6391221429097
 10
122.3053683505
 20
-143.6391221429097
 10
122.3053683505
 20
-143.9691622903966
 10
122.3053683505
 20
-143.9691622903966
 10
122.3053683505
 20
-143.9691622903966
 10
122.1572292446343
 20
-143.9691622903966
 10
122.1572292446343
 20
-143.9691622903966
 10
122.1424153340477
 20
-143.6370550856185
 10
121.9794623175954
 20
-143.5905462965677
 10
121.8650851474851
 20
-143.5609184753945
 10
121.8650851474851
 20
-143.5609184753945
 10
121.8650851474851
 20
-143.4148464268199
 10
121.8650851474851
 20
-143.4148464268199
 10
121.8650851474851
 20
-143.4148464268199
 10
123.4095214535226
 20
-143.4148464268199
 10
123.4095214535226
 20
-143.4148464268199
 10
123.4095214535226
 20
-143.4148464268199
 10
123.4095214535226
 20
-143.6391221429097
 10
123.4095214535226
 20
-143.6391221429097
 97
        0
 97
        0
 75
     2
 76
     1
 98
        0
  0
ENDBLK
  5
6B
330
68
100
AcDbEntity
  8
0
100
AcDbBlockEnd
  0
BLOCK
  5
70
330
6E
100
AcDbEntity
  8
0
100
AcDbBlockBegin
  2
block 6
 70
     0
 10
0.0
 20
0.0
 30
0.0
  3
block 6
  1

  0
SPLINE
  5
72
330
6E
100
AcDbEntity
  8
_U+30EC_U+30A4_U+30E4_U+30FC 1
370
     0
100
AcDbSpline
210
0.0
220
0.0
230
1.0
 70
    11
 71
     3
 72
    32
 73
    28
 74
     0
 42
0.0000000001
 43
0.0000000001
 12
1.0
 22
0.0
 32
0.0
 13
1.0
 23
0.0
 33
0.0
 40
0.0
 40
0.0
 40
0.0
 40
0.0
 40
1.0
 40
1.0
 40
1.0
 40
2.0
 40
2.0
 40
2.0
 40
3.0
 40
3.0
 40
3.0
 40
4.0
 40
4.0
 40
4.0
 40
5.0
 40
5.0
 40
5.0
 40
6.0
 40
6.0
 40
6.0
 40
7.0
 40
7.0
 40
7.0
 40
8.0
 40
8.0
 40
8.0
 40
9.0
 40
9.0
 40
9.0
 40
9.0
 10
123.5852213232704
 20
-150.5472276099326
 30
0.0
 10
123.5852213232704
 20
-150.7205159128407
 30
0.0
 10
123.5156303944683
 20
-150.966151220939
 30
0.0
 10
123.1835231896902
 20
-151.0040472712768
 30
0.0
 10
123.1835231896902
 20
-151.0040472712768
 30
0.0
 10
123.1835231896902
 20
-150.7904513511913
 30
0.0
 10
123.1835231896902
 20
-150.7904513511913
 30
0.0
 10
123.2427788320365
 20
-150.779771555187
 30
0.0
 10
123.3902289188052
 20
-150.7480766767227
 30
0.0
 10
123.3902289188052
 20
-150.5451605526415
 30
0.0
 10
123.3902289188052
 20
-150.2530164554923
 30
0.0
 10
123.0608777904153
 20
-150.2151204051546
 30
0.0
 10
122.8555500994945
 20
-150.2023735518591
 30
0.0
 10
122.9354763147523
 20
-150.2933240726697
 30
0.0
 10
122.9926648998074
 20
-150.3608479441806
 30
0.0
 10
122.9926648998074
 20
-150.5427489858018
 30
0.0
 10
122.9926648998074
 20
-150.7225829701319
 30
0.0
 10
122.8872449779587
 20
-151.0254068632853
 30
0.0
 10
122.4807237106993
 20
-151.0254068632853
 30
0.0
 10
122.1617078687651
 20
-151.0254068632853
 30
0.0
 10
121.9412217577091
 20
-150.8262803442379
 30
0.0
 10
121.9412217577091
 20
-150.5089870500464
 30
0.0
 10
121.9412217577091
 20
-149.9949788036471
 30
0.0
 10
122.4958821308344
 20
-149.9842990076428
 30
0.0
 10
122.7094780509199
 20
-149.9842990076428
 30
0.0
 10
122.9396104293346
 20
-149.9842990076428
 30
0.0
 10
123.5852213232704
 20
-150.0035915423602
 30
0.0
 10
123.5852213232704
 20
-150.5472276099326
 30
0.0
  0
SPLINE
  5
73
330
6E
100
AcDbEntity
  8
_U+30EC_U+30A4_U+30E4_U+30FC 1
370
     0
100
AcDbSpline
210
0.0
220
0.0
230
1.0
 70
    11
 71
     3
 72
    17
 73
    13
 74
     0
 42
0.0000000001
 43
0.0000000001
 12
1.0
 22
0.0
 32
0.0
 13
1.0
 23
0.0
 33
0.0
 40
0.0
 40
0.0
 40
0.0
 40
0.0
 40
1.0
 40
1.0
 40
1.0
 40
2.0
 40
2.0
 40
2.0
 40
3.0
 40
3.0
 40
3.0
 40
4.0
 40
4.0
 40
4.0
 40
4.0
 10
122.1341471048831
 20
-150.5069199927552
 30
0.0
 10
122.1341471048831
 20
-150.6254312774478
 30
0.0
 10
122.1913356899383
 20
-150.8011311471955
 30
0.0
 10
122.476589596117
 20
-150.8011311471955
 30
0.0
 10
122.7032768790464
 20
-150.8011311471955
 30
0.0
 10
122.7983615144393
 20
-150.6612602704944
 30
0.0
 10
122.7983615144393
 20
-150.5258680179241
 30
0.0
 10
122.7983615144393
 20
-150.2636962514966
 30
0.0
 10
122.5888997089361
 20
-150.2254556916103
 30
0.0
 10
122.4724554815347
 20
-150.2254556916103
 30
0.0
 10
122.2967556117869
 20
-150.2254556916103
 30
0.0
 10
122.1341471048831
 20
-150.3208848365517
 30
0.0
 10
122.1341471048831
 20
-150.5069199927552
 30
0.0
  0
HATCH
  5
74
330
6E
100
AcDbEntity
  8
_U+30EC_U+30A4_U+30E4_U+30FC 1
 62
   179
420
  2234388
100
AcDbHatch
 10
0.0
 20
0.0
 30
0.0
210
0.0
220
0.0
230
1.0
  2
SOLID
 70
     1
 71
     0
 91
        2
 92
        1
 93
        1
 72
     4
 94
        3
 73
     0
 74
     1
 95
       32
 96
       28
 40
0.0
 40
0.0
 40
0.0
 40
0.0
 40
1.0
 40
1.0
 40
1.0
 40
2.0
 40
2.0
 40
2.0
 40
3.0
 40
3.0
 40
3.0
 40
4.0
 40
4.0
 40
4.0
 40
5.0
 40
5.0
 40
5.0
 40
6.0
 40
6.0
 40
6.0
 40
7.0
 40
7.0
 40
7.0
 40
8.0
 40
8.0
 40
8.0
 40
9.0
 40
9.0
 40
9.0
 40
9.0
 10
123.5852213232704
 20
-150.5472276099326
 10
123.5852213232704
 20
-150.7205159128407
 10
123.5156303944683
 20
-150.966151220939
 10
123.1835231896902
 20
-151.0040472712768
 10
123.1835231896902
 20
-151.0040472712768
 10
123.1835231896902
 20
-150.7904513511913
 10
123.1835231896902
 20
-150.7904513511913
 10
123.2427788320365
 20
-150.779771555187
 10
123.3902289188052
 20
-150.7480766767227
 10
123.3902289188052
 20
-150.5451605526415
 10
123.3902289188052
 20
-150.2530164554923
 10
123.0608777904153
 20
-150.2151204051546
 10
122.8555500994945
 20
-150.2023735518591
 10
122.9354763147523
 20
-150.2933240726697
 10
122.9926648998074
 20
-150.3608479441806
 10
122.9926648998074
 20
-150.5427489858018
 10
122.9926648998074
 20
-150.7225829701319
 10
122.8872449779587
 20
-151.0254068632853
 10
122.4807237106993
 20
-151.0254068632853
 10
122.1617078687651
 20
-151.0254068632853
 10
121.9412217577091
 20
-150.8262803442379
 10
121.9412217577091
 20
-150.5089870500464
 10
121.9412217577091
 20
-149.9949788036471
 10
122.4958821308344
 20
-149.9842990076428
 10
122.7094780509199
 20
-149.9842990076428
 10
122.9396104293346
 20
-149.9842990076428
 10
123.5852213232704
 20
-150.0035915423602
 10
123.5852213232704
 20
-150.5472276099326
 97
        0
 97
        0
 92
        1
 93
        1
 72
     4
 94
        3
 73
     0
 74
     1
 95
       17
 96
       13
 40
0.0
 40
0.0
 40
0.0
 40
0.0
 40
1.0
 40
1.0
 40
1.0
 40
2.0
 40
2.0
 40
2.0
 40
3.0
 40
3.0
 40
3.0
 40
4.0
 40
4.0
 40
4.0
 40
4.0
 10
122.1341471048831
 20
-150.5069199927552
 10
122.1341471048831
 20
-150.6254312774478
 10
122.1913356899383
 20
-150.8011311471955
 10
122.476589596117
 20
-150.8011311471955
 10
122.7032768790464
 20
-150.8011311471955
 10
122.7983615144393
 20
-150.6612602704944
 10
122.7983615144393
 20
-150.5258680179241
 10
122.7983615144393
 20
-150.2636962514966
 10
122.5888997089361
 20
-150.2254556916103
 10
122.4724554815347
 20
-150.2254556916103
 10
122.2967556117869
 20
-150.2254556916103
 10
122.1341471048831
 20
-150.3208848365517
 10
122.1341471048831
 20
-150.5069199927552
 97
        0
 97
        0
 75
     2
 76
     1
 98
        0
  0
POLYLINE
  5
75
330
6E
100
AcDbEntity
  8
_U+30EC_U+30A4_U+30E4_U+30FC 1
370
     0
100
AcDb2dPolyline
 66
     1
 10
0.0
 20
0.0
 30
0.0
  0
VERTEX
  5
76
330
75
100
AcDbEntity
  8
_U+30EC_U+30A4_U+30E4_U+30FC 1
370
     0
100
AcDbVertex
100
AcDb2dVertex
 10
123.5342339100887
 20
-149.7679470111691
 30
0.0
  0
VERTEX
  5
77
330
75
100
AcDbEntity
  8
_U+30EC_U+30A4_U+30E4_U+30FC 1
370
     0
100
AcDbVertex
100
AcDb2dVertex
 10
123.2827419396654
 20
-149.7679470111691
 30
0.0
  0
VERTEX
  5
78
330
75
100
AcDbEntity
  8
_U+30EC_U+30A4_U+30E4_U+30FC 1
370
     0
100
AcDbVertex
100
AcDb2dVertex
 10
123.2827419396654
 20
-149.5161105311974
 30
0.0
  0
VERTEX
  5
79
330
75
100
AcDbEntity
  8
_U+30EC_U+30A4_U+30E4_U+30FC 1
370
     0
100
AcDbVertex
100
AcDb2dVertex
 10
123.5342339100887
 20
-149.5161105311974
 30
0.0
  0
VERTEX
  5
7A
330
75
100
AcDbEntity
  8
_U+30EC_U+30A4_U+30E4_U+30FC 1
370
     0
100
AcDbVertex
100
AcDb2dVertex
 10
123.5342339100887
 20
-149.7679470111691
 30
0.0
  0
SEQEND
  5
7B
330
75
100
AcDbEntity
  8
_U+30EC_U+30A4_U+30E4_U+30FC 1
370
     0
  0
HATCH
  5
7C
330
6E
100
AcDbEntity
  8
_U+30EC_U+30A4_U+30E4_U+30FC 1
 62
   179
420
  2234388
100
AcDbHatch
 10
0.0
 20
0.0
 30
0.0
210
0.0
220
0.0
230
1.0
  2
SOLID
 70
     1
 71
     0
 91
        1
 92
        1
 93
        4
 72
     1
 10
123.5342339100887
 20
-149.7679470111691
 11
123.2827419396654
 21
-149.7679470111691
 72
     1
 10
123.2827419396654
 20
-149.7679470111691
 11
123.2827419396654
 21
-149.5161105311974
 72
     1
 10
123.2827419396654
 20
-149.5161105311974
 11
123.5342339100887
 21
-149.5161105311974
 72
     1
 10
123.5342339100887
 20
-149.5161105311974
 11
123.5342339100887
 21
-149.7679470111691
 97
        0
 75
     2
 76
     1
 98
        0
  0
SPLINE
  5
7D
330
6E
100
AcDbEntity
  8
_U+30EC_U+30A4_U+30E4_U+30FC 1
370
     0
100
AcDbSpline
210
0.0
220
0.0
230
1.0
 70
    11
 71
     3
 72
    53
 73
    49
 74
     0
 42
0.0000000001
 43
0.0000000001
 12
1.0
 22
0.0
 32
0.0
 13
1.0
 23
0.0
 33
0.0
 40
0.0
 40
0.0
 40
0.0
 40
0.0
 40
1.0
 40
1.0
 40
1.0
 40
2.0
 40
2.0
 40
2.0
 40
3.0
 40
3.0
 40
3.0
 40
4.0
 40
4.0
 40
4.0
 40
5.0
 40
5.0
 40
5.0
 40
6.0
 40
6.0
 40
6.0
 40
7.0
 40
7.0
 40
7.0
 40
8.0
 40
8.0
 40
8.0
 40
9.0
 40
9.0
 40
9.0
 40
10.0
 40
10.0
 40
10.0
 40
11.0
 40
11.0
 40
11.0
 40
12.0
 40
12.0
 40
12.0
 40
13.0
 40
13.0
 40
13.0
 40
14.0
 40
14.0
 40
14.0
 40
15.0
 40
15.0
 40
15.0
 40
16.0
 40
16.0
 40
16.0
 40
16.0
 10
123.5852213232704
 20
-148.7988416511683
 30
0.0
 10
123.5852213232704
 20
-148.8770453186835
 30
0.0
 10
123.5679958458441
 20
-148.9786756354984
 30
0.0
 10
123.5046060889155
 20
-149.0803059523133
 30
0.0
 10
123.3950520524846
 20
-149.2535942552213
 30
0.0
 10
123.263449404948
 20
-149.2749538472299
 30
0.0
 10
123.1559624258082
 20
-149.2939018723987
 30
0.0
 10
123.1559624258082
 20
-149.2939018723987
 30
0.0
 10
123.1559624258082
 20
-149.0716932136001
 30
0.0
 10
123.1559624258082
 20
-149.0716932136001
 30
0.0
 10
123.3543999257586
 20
-149.0169161953847
 30
0.0
 10
123.3840277469318
 20
-148.8897921719789
 30
0.0
 10
123.3840277469318
 20
-148.7967745938772
 30
0.0
 10
123.3840277469318
 20
-148.6572482267246
 30
0.0
 10
123.2848089969566
 20
-148.5049750062765
 30
0.0
 10
123.0519205421537
 20
-148.5049750062765
 30
0.0
 10
122.7962944571482
 20
-148.5049750062765
 30
0.0
 10
122.7260145092491
 20
-148.6848089906066
 30
0.0
 10
122.7260145092491
 20
-148.8053873325903
 30
0.0
 10
122.7260145092491
 20
-148.8370822110546
 30
0.0
 10
122.7260145092491
 20
-148.9786756354984
 30
0.0
 10
122.8555500994945
 20
-149.0675590990178
 30
0.0
 10
122.8555500994945
 20
-149.0675590990178
 30
0.0
 10
122.8362575647771
 20
-149.2432589687656
 30
0.0
 10
122.8362575647771
 20
-149.2432589687656
 30
0.0
 10
122.8362575647771
 20
-149.2432589687656
 30
0.0
 10
121.9901421135997
 20
-149.1226806267818
 30
0.0
 10
121.9901421135997
 20
-149.1226806267818
 30
0.0
 10
121.9901421135997
 20
-149.1226806267818
 30
0.0
 10
121.9901421135997
 20
-148.3440890471154
 30
0.0
 10
121.9901421135997
 20
-148.3440890471154
 30
0.0
 10
121.9901421135997
 20
-148.3440890471154
 30
0.0
 10
122.1844454989678
 20
-148.3440890471154
 30
0.0
 10
122.1844454989678
 20
-148.3440890471154
 30
0.0
 10
122.1844454989678
 20
-148.3440890471154
 30
0.0
 10
122.1844454989678
 20
-148.9597276103295
 30
0.0
 10
122.1844454989678
 20
-148.9597276103295
 30
0.0
 10
122.1844454989678
 20
-148.9597276103295
 30
0.0
 10
122.6075032245565
 20
-149.0251844245493
 30
0.0
 10
122.6075032245565
 20
-149.0251844245493
 30
0.0
 10
122.573741288801
 20
-148.9638617249118
 30
0.0
 10
122.5337781811721
 20
-148.8815239428143
 30
0.0
 10
122.5337781811721
 20
-148.7630126581218
 30
0.0
 10
122.5337781811721
 20
-148.5091091208589
 30
0.0
 10
122.7198133373756
 20
-148.2720865514736
 30
0.0
 10
123.0333170265333
 20
-148.2720865514736
 30
0.0
 10
123.3502658111763
 20
-148.2720865514736
 30
0.0
 10
123.5852213232704
 20
-148.4963622675634
 30
0.0
 10
123.5852213232704
 20
-148.7988416511683
 30
0.0
  0
HATCH
  5
7E
330
6E
100
AcDbEntity
  8
_U+30EC_U+30A4_U+30E4_U+30FC 1
 62
   179
420
  2234388
100
AcDbHatch
 10
0.0
 20
0.0
 30
0.0
210
0.0
220
0.0
230
1.0
  2
SOLID
 70
     1
 71
     0
 91
        1
 92
        1
 93
        1
 72
     4
 94
        3
 73
     0
 74
     1
 95
       53
 96
       49
 40
0.0
 40
0.0
 40
0.0
 40
0.0
 40
1.0
 40
1.0
 40
1.0
 40
2.0
 40
2.0
 40
2.0
 40
3.0
 40
3.0
 40
3.0
 40
4.0
 40
4.0
 40
4.0
 40
5.0
 40
5.0
 40
5.0
 40
6.0
 40
6.0
 40
6.0
 40
7.0
 40
7.0
 40
7.0
 40
8.0
 40
8.0
 40
8.0
 40
9.0
 40
9.0
 40
9.0
 40
10.0
 40
10.0
 40
10.0
 40
11.0
 40
11.0
 40
11.0
 40
12.0
 40
12.0
 40
12.0
 40
13.0
 40
13.0
 40
13.0
 40
14.0
 40
14.0
 40
14.0
 40
15.0
 40
15.0
 40
15.0
 40
16.0
 40
16.0
 40
16.0
 40
16.0
 10
123.5852213232704
 20
-148.7988416511683
 10
123.5852213232704
 20
-148.8770453186835
 10
123.5679958458441
 20
-148.9786756354984
 10
123.5046060889155
 20
-149.0803059523133
 10
123.3950520524846
 20
-149.2535942552213
 10
123.263449404948
 20
-149.2749538472299
 10
123.1559624258082
 20
-149.2939018723987
 10
123.1559624258082
 20
-149.2939018723987
 10
123.1559624258082
 20
-149.0716932136001
 10
123.1559624258082
 20
-149.0716932136001
 10
123.3543999257586
 20
-149.0169161953847
 10
123.3840277469318
 20
-148.8897921719789
 10
123.3840277469318
 20
-148.7967745938772
 10
123.3840277469318
 20
-148.6572482267246
 10
123.2848089969566
 20
-148.5049750062765
 10
123.0519205421537
 20
-148.5049750062765
 10
122.7962944571482
 20
-148.5049750062765
 10
122.7260145092491
 20
-148.6848089906066
 10
122.7260145092491
 20
-148.8053873325903
 10
122.7260145092491
 20
-148.8370822110546
 10
122.7260145092491
 20
-148.9786756354984
 10
122.8555500994945
 20
-149.0675590990178
 10
122.8555500994945
 20
-149.0675590990178
 10
122.8362575647771
 20
-149.2432589687656
 10
122.8362575647771
 20
-149.2432589687656
 10
122.8362575647771
 20
-149.2432589687656
 10
121.9901421135997
 20
-149.1226806267818
 10
121.9901421135997
 20
-149.1226806267818
 10
121.9901421135997
 20
-149.1226806267818
 10
121.9901421135997
 20
-148.3440890471154
 10
121.9901421135997
 20
-148.3440890471154
 10
121.9901421135997
 20
-148.3440890471154
 10
122.1844454989678
 20
-148.3440890471154
 10
122.1844454989678
 20
-148.3440890471154
 10
122.1844454989678
 20
-148.3440890471154
 10
122.1844454989678
 20
-148.9597276103295
 10
122.1844454989678
 20
-148.9597276103295
 10
122.1844454989678
 20
-148.9597276103295
 10
122.6075032245565
 20
-149.0251844245493
 10
122.6075032245565
 20
-149.0251844245493
 10
122.573741288801
 20
-148.9638617249118
 10
122.5337781811721
 20
-148.8815239428143
 10
122.5337781811721
 20
-148.7630126581218
 10
122.5337781811721
 20
-148.5091091208589
 10
122.7198133373756
 20
-148.2720865514736
 10
123.0333170265333
 20
-148.2720865514736
 10
123.3502658111763
 20
-148.2720865514736
 10
123.5852213232704
 20
-148.4963622675634
 10
123.5852213232704
 20
-148.7988416511683
 97
        0
 97
        0
 75
     2
 76
     1
 98
        0
  0
ENDBLK
  5
71
330
6E
100
AcDbEntity
  8
0
100
AcDbBlockEnd
  0
ENDSEC
  0
SECTION
  2
ENTITIES
  0
INSERT
  5
42
330
1F
100
AcDbEntity
  8
_U+30EC_U+30A4_U+30E4_U+30FC 1
100
AcDbBlockReference
  2
block 2
 10
0.0
 20
0.0
 30
0.0
  0
INSERT
  5
5D
330
1F
100
AcDbEntity
  8
_U+30EC_U+30A4_U+30E4_U+30FC 1
100
AcDbBlockReference
  2
block 3
 10
0.0
 20
0.0
 30
0.0
  0
INSERT
  5
63
330
1F
100
AcDbEntity
  8
_U+30EC_U+30A4_U+30E4_U+30FC 1
100
AcDbBlockReference
  2
block 4
 10
0.0
 20
0.0
 30
0.0
  0
INSERT
  5
69
330
1F
100
AcDbEntity
  8
_U+30EC_U+30A4_U+30E4_U+30FC 1
100
AcDbBlockReference
  2
block 5
 10
0.0
 20
0.0
 30
0.0
  0
INSERT
  5
6F
330
1F
100
AcDbEntity
  8
_U+30EC_U+30A4_U+30E4_U+30FC 1
100
AcDbBlockReference
  2
block 6
 10
0.0
 20
0.0
 30
0.0
  0
POLYLINE
  5
7F
330
1F
100
AcDbEntity
  8
_U+30EC_U+30A4_U+30E4_U+30FC 1
 62
   179
420
  2234388
370
    25
100
AcDb2dPolyline
 66
     1
 10
0.0
 20
0.0
 30
0.0
  0
VERTEX
  5
80
330
7F
100
AcDbEntity
  8
_U+30EC_U+30A4_U+30E4_U+30FC 1
 62
   179
420
  2234388
370
    25
100
AcDbVertex
100
AcDb2dVertex
 10
116.5276123049107
 20
-143.4158788530349
 30
0.0
  0
VERTEX
  5
81
330
7F
100
AcDbEntity
  8
_U+30EC_U+30A4_U+30E4_U+30FC 1
 62
   179
420
  2234388
370
    25
100
AcDbVertex
100
AcDb2dVertex
 10
92.52750569498222
 20
-143.4158788530349
 30
0.0
  0
SEQEND
  5
82
330
7F
100
AcDbEntity
  8
_U+30EC_U+30A4_U+30E4_U+30FC 1
 62
   179
420
  2234388
370
    25
  0
POLYLINE
  5
83
330
1F
100
AcDbEntity
  8
_U+30EC_U+30A4_U+30E4_U+30FC 1
 62
   179
420
  2234388
370
    25
100
AcDb2dPolyline
 66
     1
 10
0.0
 20
0.0
 30
0.0
  0
VERTEX
  5
84
330
83
100
AcDbEntity
  8
_U+30EC_U+30A4_U+30E4_U+30FC 1
 62
   179
420
  2234388
370
    25
100
AcDbVertex
100
AcDb2dVertex
 10
116.6426531353091
 20
-144.3570899639109
 30
0.0
  0
VERTEX
  5
85
330
83
100
AcDbEntity
  8
_U+30EC_U+30A4_U+30E4_U+30FC 1
 62
   179
420
  2234388
370
    25
100
AcDbVertex
100
AcDb2dVertex
 10
116.6426531353091
 20
-143.4158788530349
 30
0.0
  0
SEQEND
  5
86
330
83
100
AcDbEntity
  8
_U+30EC_U+30A4_U+30E4_U+30FC 1
 62
   179
420
  2234388
370
    25
  0
POLYLINE
  5
87
330
1F
100
AcDbEntity
  8
_U+30EC_U+30A4_U+30E4_U+30FC 1
 62
   179
420
  2234388
370
    25
100
AcDb2dPolyline
 66
     1
 10
0.0
 20
0.0
 30
0.0
  0
VERTEX
  5
88
330
87
100
AcDbEntity
  8
_U+30EC_U+30A4_U+30E4_U+30FC 1
 62
   179
420
  2234388
370
    25
100
AcDbVertex
100
AcDb2dVertex
 10
93.58583900131522
 20
-144.3570899639109
 30
0.0
  0
VERTEX
  5
89
330
87
100
AcDbEntity
  8
_U+30EC_U+30A4_U+30E4_U+30FC 1
 62
   179
420
  2234388
370
    25
100
AcDbVertex
100
AcDb2dVertex
 10
116.5895953588849
 20
-144.3570899639109
 30
0.0
  0
SEQEND
  5
8A
330
87
100
AcDbEntity
  8
_U+30EC_U+30A4_U+30E4_U+30FC 1
 62
   179
420
  2234388
370
    25
  0
POLYLINE
  5
8B
330
1F
100
AcDbEntity
  8
_U+30EC_U+30A4_U+30E4_U+30FC 1
 62
   179
420
  2234388
370
    25
100
AcDb2dPolyline
 66
     1
 10
0.0
 20
0.0
 30
0.0
  0
VERTEX
  5
8C
330
8B
100
AcDbEntity
  8
_U+30EC_U+30A4_U+30E4_U+30FC 1
 62
   179
420
  2234388
370
    25
100
AcDbVertex
100
AcDb2dVertex
 10
93.58583900131522
 20
-153.8565841282024
 30
0.0
  0
VERTEX
  5
8D
330
8B
100
AcDbEntity
  8
_U+30EC_U+30A4_U+30E4_U+30FC 1
 62
   179
420
  2234388
370
    25
100
AcDbVertex
100
AcDb2dVertex
 10
93.58583900131522
 20
-144.3570899639109
 30
0.0
  0
SEQEND
  5
8E
330
8B
100
AcDbEntity
  8
_U+30EC_U+30A4_U+30E4_U+30FC 1
 62
   179
420
  2234388
370
    25
  0
POLYLINE
  5
8F
330
1F
100
AcDbEntity
  8
_U+30EC_U+30A4_U+30E4_U+30FC 1
 62
   179
420
  2234388
370
    25
100
AcDb2dPolyline
 66
     1
 10
0.0
 20
0.0
 30
0.0
  0
VERTEX
  5
90
330
8F
100
AcDbEntity
  8
_U+30EC_U+30A4_U+30E4_U+30FC 1
 62
   179
420
  2234388
370
    25
100
AcDbVertex
100
AcDb2dVertex
 10
92.58589041571493
 20
-153.925481628185
 30
0.0
  0
VERTEX
  5
91
330
8F
100
AcDbEntity
  8
_U+30EC_U+30A4_U+30E4_U+30FC 1
 62
   179
420
  2234388
370
    25
100
AcDbVertex
100
AcDb2dVertex
 10
93.58583900131522
 20
-153.925481628185
 30
0.0
  0
SEQEND
  5
92
330
8F
100
AcDbEntity
  8
_U+30EC_U+30A4_U+30E4_U+30FC 1
 62
   179
420
  2234388
370
    25
  0
POLYLINE
  5
93
330
1F
100
AcDbEntity
  8
_U+30EC_U+30A4_U+30E4_U+30FC 1
 62
   179
420
  2234388
370
    25
100
AcDb2dPolyline
 66
     1
 10
0.0
 20
0.0
 30
0.0
  0
VERTEX
  5
94
330
93
100
AcDbEntity
  8
_U+30EC_U+30A4_U+30E4_U+30FC 1
 62
   179
420
  2234388
370
    25
100
AcDbVertex
100
AcDb2dVertex
 10
92.52750569498222
 20
-148.8501735738986
 30
0.0
  0
VERTEX
  5
95
330
93
100
AcDbEntity
  8
_U+30EC_U+30A4_U+30E4_U+30FC 1
 62
   179
420
  2234388
370
    25
100
AcDbVertex
100
AcDb2dVertex
 10
92.52750569498222
 20
-153.8503752393154
 30
0.0
  0
SEQEND
  5
96
330
93
100
AcDbEntity
  8
_U+30EC_U+30A4_U+30E4_U+30FC 1
 62
   179
420
  2234388
370
    25
  0
POLYLINE
  5
97
330
1F
100
AcDbEntity
  8
_U+30EC_U+30A4_U+30E4_U+30FC 1
 62
   179
420
  2234388
370
    25
100
AcDb2dPolyline
 66
     1
 10
0.0
 20
0.0
 30
0.0
  0
VERTEX
  5
98
330
97
100
AcDbEntity
  8
_U+30EC_U+30A4_U+30E4_U+30FC 1
 62
   179
420
  2234388
370
    25
100
AcDbVertex
100
AcDb2dVertex
 10
90.52746741267411
 20
-148.7847332961373
 30
0.0
  0
VERTEX
  5
99
330
97
100
AcDbEntity
  8
_U+30EC_U+30A4_U+30E4_U+30FC 1
 62
   179
420
  2234388
370
    25
100
AcDbVertex
100
AcDb2dVertex
 10
92.52750569498222
 20
-148.7847332961373
 30
0.0
  0
SEQEND
  5
9A
330
97
100
AcDbEntity
  8
_U+30EC_U+30A4_U+30E4_U+30FC 1
 62
   179
420
  2234388
370
    25
  0
POLYLINE
  5
9B
330
1F
100
AcDbEntity
  8
_U+30EC_U+30A4_U+30E4_U+30FC 1
 62
   179
420
  2234388
370
    25
100
AcDb2dPolyline
 66
     1
 10
0.0
 20
0.0
 30
0.0
  0
VERTEX
  5
9C
330
9B
100
AcDbEntity
  8
_U+30EC_U+30A4_U+30E4_U+30FC 1
 62
   179
420
  2234388
370
    25
100
AcDbVertex
100
AcDb2dVertex
 10
90.3930943605467
 20
-147.60857218532
 30
0.0
  0
VERTEX
  5
9D
330
9B
100
AcDbEntity
  8
_U+30EC_U+30A4_U+30E4_U+30FC 1
 62
   179
420
  2234388
370
    25
100
AcDbVertex
100
AcDb2dVertex
 10
90.3930943605467
 20
-148.7847332961373
 30
0.0
  0
SEQEND
  5
9E
330
9B
100
AcDbEntity
  8
_U+30EC_U+30A4_U+30E4_U+30FC 1
 62
   179
420
  2234388
370
    25
  0
POLYLINE
  5
9F
330
1F
100
AcDbEntity
  8
_U+30EC_U+30A4_U+30E4_U+30FC 1
 62
   179
420
  2234388
370
    25
100
AcDb2dPolyline
 66
     1
 10
0.0
 20
0.0
 30
0.0
  0
VERTEX
  5
A0
330
9F
100
AcDbEntity
  8
_U+30EC_U+30A4_U+30E4_U+30FC 1
 62
   179
420
  2234388
370
    25
100
AcDbVertex
100
AcDb2dVertex
 10
92.52750569498222
 20
-147.60857218532
 30
0.0
  0
VERTEX
  5
A1
330
9F
100
AcDbEntity
  8
_U+30EC_U+30A4_U+30E4_U+30FC 1
 62
   179
420
  2234388
370
    25
100
AcDbVertex
100
AcDb2dVertex
 10
90.52746741267411
 20
-147.60857218532
 30
0.0
  0
SEQEND
  5
A2
330
9F
100
AcDbEntity
  8
_U+30EC_U+30A4_U+30E4_U+30FC 1
 62
   179
420
  2234388
370
    25
  0
POLYLINE
  5
A3
330
1F
100
AcDbEntity
  8
_U+30EC_U+30A4_U+30E4_U+30FC 1
 62
   179
420
  2234388
370
    25
100
AcDb2dPolyline
 66
     1
 10
0.0
 20
0.0
 30
0.0
  0
VERTEX
  5
A4
330
A3
100
AcDbEntity
  8
_U+30EC_U+30A4_U+30E4_U+30FC 1
 62
   179
420
  2234388
370
    25
100
AcDbVertex
100
AcDb2dVertex
 10
92.52750569498222
 20
-143.4158788530349
 30
0.0
  0
VERTEX
  5
A5
330
A3
100
AcDbEntity
  8
_U+30EC_U+30A4_U+30E4_U+30FC 1
 62
   179
420
  2234388
370
    25
100
AcDbVertex
100
AcDb2dVertex
 10
92.52750569498222
 20
-147.5748113519951
 30
0.0
  0
SEQEND
  5
A6
330
A3
100
AcDbEntity
  8
_U+30EC_U+30A4_U+30E4_U+30FC 1
 62
   179
420
  2234388
370
    25
  0
POLYLINE
  5
A7
330
1F
100
AcDbEntity
  8
_U+30EC_U+30A4_U+30E4_U+30FC 1
 62
   179
420
  2234388
370
     9
100
AcDb2dPolyline
 66
     1
 10
0.0
 20
0.0
 30
0.0
  0
VERTEX
  5
A8
330
A7
100
AcDbEntity
  8
_U+30EC_U+30A4_U+30E4_U+30FC 1
 62
   179
420
  2234388
370
     9
100
AcDbVertex
100
AcDb2dVertex
 10
87.49181471234229
 20
-154.2307402392202
 30
0.0
  0
VERTEX
  5
A9
330
A7
100
AcDbEntity
  8
_U+30EC_U+30A4_U+30E4_U+30FC 1
 62
   179
420
  2234388
370
     9
100
AcDbVertex
100
AcDb2dVertex
 10
89.19678966884476
 20
-154.2307402392202
 30
0.0
  0
SEQEND
  5
AA
330
A7
100
AcDbEntity
  8
_U+30EC_U+30A4_U+30E4_U+30FC 1
 62
   179
420
  2234388
370
     9
  0
POLYLINE
  5
AB
330
1F
100
AcDbEntity
  8
_U+30EC_U+30A4_U+30E4_U+30FC 1
 62
   179
420
  2234388
370
     9
100
AcDb2dPolyline
 66
     1
 10
0.0
 20
0.0
 30
0.0
  0
VERTEX
  5
AC
330
AB
100
AcDbEntity
  8
_U+30EC_U+30A4_U+30E4_U+30FC 1
 62
   179
420
  2234388
370
     9
100
AcDbVertex
100
AcDb2dVertex
 10
87.49181471234229
 20
-149.0989171849472
 30
0.0
  0
VERTEX
  5
AD
330
AB
100
AcDbEntity
  8
_U+30EC_U+30A4_U+30E4_U+30FC 1
 62
   179
420
  2234388
370
     9
100
AcDbVertex
100
AcDb2dVertex
 10
89.19678966884476
 20
-149.0989171849472
 30
0.0
  0
SEQEND
  5
AE
330
AB
100
AcDbEntity
  8
_U+30EC_U+30A4_U+30E4_U+30FC 1
 62
   179
420
  2234388
370
     9
  0
POLYLINE
  5
AF
330
1F
100
AcDbEntity
  8
_U+30EC_U+30A4_U+30E4_U+30FC 1
 62
   179
420
  2234388
370
     9
100
AcDb2dPolyline
 66
     1
 10
0.0
 20
0.0
 30
0.0
  0
VERTEX
  5
B0
330
AF
100
AcDbEntity
  8
_U+30EC_U+30A4_U+30E4_U+30FC 1
 62
   179
420
  2234388
370
     9
100
AcDbVertex
100
AcDb2dVertex
 10
88.37375913428646
 20
-149.0989171849472
 30
0.0
  0
VERTEX
  5
B1
330
AF
100
AcDbEntity
  8
_U+30EC_U+30A4_U+30E4_U+30FC 1
 62
   179
420
  2234388
370
     9
100
AcDbVertex
100
AcDb2dVertex
 10
88.37375913428646
 20
-154.099118850364
 30
0.0
  0
SEQEND
  5
B2
330
AF
100
AcDbEntity
  8
_U+30EC_U+30A4_U+30E4_U+30FC 1
 62
   179
420
  2234388
370
     9
  0
POLYLINE
  5
B3
330
1F
100
AcDbEntity
  8
_U+30EC_U+30A4_U+30E4_U+30FC 1
 62
   179
420
  2234388
370
     9
100
AcDb2dPolyline
 66
     1
 10
0.0
 20
0.0
 30
0.0
  0
VERTEX
  5
B4
330
B3
100
AcDbEntity
  8
_U+30EC_U+30A4_U+30E4_U+30FC 1
 62
   179
420
  2234388
370
     9
100
AcDbVertex
100
AcDb2dVertex
 10
90.23688436453196
 20
-155.9835871832263
 30
0.0
  0
VERTEX
  5
B5
330
B3
100
AcDbEntity
  8
_U+30EC_U+30A4_U+30E4_U+30FC 1
 62
   179
420
  2234388
370
     9
100
AcDbVertex
100
AcDb2dVertex
 10
90.23688436453196
 20
-157.8653038494228
 30
0.0
  0
SEQEND
  5
B6
330
B3
100
AcDbEntity
  8
_U+30EC_U+30A4_U+30E4_U+30FC 1
 62
   179
420
  2234388
370
     9
  0
POLYLINE
  5
B7
330
1F
100
AcDbEntity
  8
_U+30EC_U+30A4_U+30E4_U+30FC 1
 62
   179
420
  2234388
370
     9
100
AcDb2dPolyline
 66
     1
 10
0.0
 20
0.0
 30
0.0
  0
VERTEX
  5
B8
330
B7
100
AcDbEntity
  8
_U+30EC_U+30A4_U+30E4_U+30FC 1
 62
   179
420
  2234388
370
     9
100
AcDbVertex
100
AcDb2dVertex
 10
92.40985430909487
 20
-155.9835871832263
 30
0.0
  0
VERTEX
  5
B9
330
B7
100
AcDbEntity
  8
_U+30EC_U+30A4_U+30E4_U+30FC 1
 62
   179
420
  2234388
370
     9
100
AcDbVertex
100
AcDb2dVertex
 10
92.40985430909487
 20
-157.8653038494228
 30
0.0
  0
SEQEND
  5
BA
330
B7
100
AcDbEntity
  8
_U+30EC_U+30A4_U+30E4_U+30FC 1
 62
   179
420
  2234388
370
     9
  0
POLYLINE
  5
BB
330
1F
100
AcDbEntity
  8
_U+30EC_U+30A4_U+30E4_U+30FC 1
 62
   179
420
  2234388
370
     9
100
AcDb2dPolyline
 66
     1
 10
0.0
 20
0.0
 30
0.0
  0
VERTEX
  5
BC
330
BB
100
AcDbEntity
  8
_U+30EC_U+30A4_U+30E4_U+30FC 1
 62
   179
420
  2234388
370
     9
100
AcDbVertex
100
AcDb2dVertex
 10
90.3509021394009
 20
-156.8655316274503
 30
0.0
  0
VERTEX
  5
BD
330
BB
100
AcDbEntity
  8
_U+30EC_U+30A4_U+30E4_U+30FC 1
 62
   179
420
  2234388
370
     9
100
AcDbVertex
100
AcDb2dVertex
 10
92.350940421709
 20
-156.8655316274503
 30
0.0
  0
SEQEND
  5
BE
330
BB
100
AcDbEntity
  8
_U+30EC_U+30A4_U+30E4_U+30FC 1
 62
   179
420
  2234388
370
     9
  0
POLYLINE
  5
BF
330
1F
100
AcDbEntity
  8
_U+30EC_U+30A4_U+30E4_U+30FC 1
 62
   179
420
  2234388
370
     9
100
AcDb2dPolyline
 66
     1
 10
0.0
 20
0.0
 30
0.0
  0
VERTEX
  5
C0
330
BF
100
AcDbEntity
  8
_U+30EC_U+30A4_U+30E4_U+30FC 1
 62
   179
420
  2234388
370
     9
100
AcDbVertex
100
AcDb2dVertex
 10
92.350940421709
 20
-138.1242121876911
 30
0.0
  0
VERTEX
  5
C1
330
BF
100
AcDbEntity
  8
_U+30EC_U+30A4_U+30E4_U+30FC 1
 62
   179
420
  2234388
370
     9
100
AcDbVertex
100
AcDb2dVertex
 10
92.350940421709
 20
-140.4172677426734
 30
0.0
  0
SEQEND
  5
C2
330
BF
100
AcDbEntity
  8
_U+30EC_U+30A4_U+30E4_U+30FC 1
 62
   179
420
  2234388
370
     9
  0
POLYLINE
  5
C3
330
1F
100
AcDbEntity
  8
_U+30EC_U+30A4_U+30E4_U+30FC 1
 62
   179
420
  2234388
370
     9
100
AcDb2dPolyline
 66
     1
 10
0.0
 20
0.0
 30
0.0
  0
VERTEX
  5
C4
330
C3
100
AcDbEntity
  8
_U+30EC_U+30A4_U+30E4_U+30FC 1
 62
   179
420
  2234388
370
     9
100
AcDbVertex
100
AcDb2dVertex
 10
116.4979789723334
 20
-138.1242121876911
 30
0.0
  0
VERTEX
  5
C5
330
C3
100
AcDbEntity
  8
_U+30EC_U+30A4_U+30E4_U+30FC 1
 62
   179
420
  2234388
370
     9
100
AcDbVertex
100
AcDb2dVertex
 10
116.4979789723334
 20
-140.4172677426734
 30
0.0
  0
SEQEND
  5
C6
330
C3
100
AcDbEntity
  8
_U+30EC_U+30A4_U+30E4_U+30FC 1
 62
   179
420
  2234388
370
     9
  0
POLYLINE
  5
C7
330
1F
100
AcDbEntity
  8
_U+30EC_U+30A4_U+30E4_U+30FC 1
 62
   179
420
  2234388
370
     9
100
AcDb2dPolyline
 66
     1
 10
0.0
 20
0.0
 30
0.0
  0
VERTEX
  5
C8
330
C7
100
AcDbEntity
  8
_U+30EC_U+30A4_U+30E4_U+30FC 1
 62
   179
420
  2234388
370
     9
100
AcDbVertex
100
AcDb2dVertex
 10
92.350940421709
 20
-139.3589344096047
 30
0.0
  0
VERTEX
  5
C9
330
C7
100
AcDbEntity
  8
_U+30EC_U+30A4_U+30E4_U+30FC 1
 62
   179
420
  2234388
370
     9
100
AcDbVertex
100
AcDb2dVertex
 10
116.3512234205219
 20
-139.3589344096047
 30
0.0
  0
SEQEND
  5
CA
330
C7
100
AcDbEntity
  8
_U+30EC_U+30A4_U+30E4_U+30FC 1
 62
   179
420
  2234388
370
     9
  0
POLYLINE
  5
CB
330
1F
100
AcDbEntity
  8
_U+30EC_U+30A4_U+30E4_U+30FC 1
 62
   179
420
  2234388
370
     9
100
AcDb2dPolyline
 66
     1
 10
0.0
 20
0.0
 30
0.0
  0
VERTEX
  5
CC
330
CB
100
AcDbEntity
  8
_U+30EC_U+30A4_U+30E4_U+30FC 1
 62
   179
420
  2234388
370
     9
100
AcDbVertex
100
AcDb2dVertex
 10
119.2299252915245
 20
-143.4751455196869
 30
0.0
  0
VERTEX
  5
CD
330
CB
100
AcDbEntity
  8
_U+30EC_U+30A4_U+30E4_U+30FC 1
 62
   179
420
  2234388
370
     9
100
AcDbVertex
100
AcDb2dVertex
 10
121.1702030198017
 20
-143.4751455196869
 30
0.0
  0
SEQEND
  5
CE
330
CB
100
AcDbEntity
  8
_U+30EC_U+30A4_U+30E4_U+30FC 1
 62
   179
420
  2234388
370
     9
  0
POLYLINE
  5
CF
330
1F
100
AcDbEntity
  8
_U+30EC_U+30A4_U+30E4_U+30FC 1
 62
   179
420
  2234388
370
     9
100
AcDb2dPolyline
 66
     1
 10
0.0
 20
0.0
 30
0.0
  0
VERTEX
  5
D0
330
CF
100
AcDbEntity
  8
_U+30EC_U+30A4_U+30E4_U+30FC 1
 62
   179
420
  2234388
370
     9
100
AcDbVertex
100
AcDb2dVertex
 10
119.2299252915245
 20
-144.4742121861036
 30
0.0
  0
VERTEX
  5
D1
330
CF
100
AcDbEntity
  8
_U+30EC_U+30A4_U+30E4_U+30FC 1
 62
   179
420
  2234388
370
     9
100
AcDbVertex
100
AcDb2dVertex
 10
121.1702030198017
 20
-144.4742121861036
 30
0.0
  0
SEQEND
  5
D2
330
CF
100
AcDbEntity
  8
_U+30EC_U+30A4_U+30E4_U+30FC 1
 62
   179
420
  2234388
370
     9
  0
POLYLINE
  5
D3
330
1F
100
AcDbEntity
  8
_U+30EC_U+30A4_U+30E4_U+30FC 1
 62
   179
420
  2234388
370
     9
100
AcDb2dPolyline
 66
     1
 10
0.0
 20
0.0
 30
0.0
  0
VERTEX
  5
D4
330
D3
100
AcDbEntity
  8
_U+30EC_U+30A4_U+30E4_U+30FC 1
 62
   179
420
  2234388
370
     9
100
AcDbVertex
100
AcDb2dVertex
 10
119.2299252915245
 20
-154.1156641281381
 30
0.0
  0
VERTEX
  5
D5
330
D3
100
AcDbEntity
  8
_U+30EC_U+30A4_U+30E4_U+30FC 1
 62
   179
420
  2234388
370
     9
100
AcDbVertex
100
AcDb2dVertex
 10
121.1702030198017
 20
-154.1156641281381
 30
0.0
  0
SEQEND
  5
D6
330
D3
100
AcDbEntity
  8
_U+30EC_U+30A4_U+30E4_U+30FC 1
 62
   179
420
  2234388
370
     9
  0
POLYLINE
  5
D7
330
1F
100
AcDbEntity
  8
_U+30EC_U+30A4_U+30E4_U+30FC 1
 62
   179
420
  2234388
370
     9
100
AcDb2dPolyline
 66
     1
 10
0.0
 20
0.0
 30
0.0
  0
VERTEX
  5
D8
330
D7
100
AcDbEntity
  8
_U+30EC_U+30A4_U+30E4_U+30FC 1
 62
   179
420
  2234388
370
     9
100
AcDbVertex
100
AcDb2dVertex
 10
120.4053808170917
 20
-143.4751455196869
 30
0.0
  0
VERTEX
  5
D9
330
D7
100
AcDbEntity
  8
_U+30EC_U+30A4_U+30E4_U+30FC 1
 62
   179
420
  2234388
370
     9
100
AcDbVertex
100
AcDb2dVertex
 10
120.4053808170917
 20
-153.9750821837284
 30
0.0
  0
SEQEND
  5
DA
330
D7
100
AcDbEntity
  8
_U+30EC_U+30A4_U+30E4_U+30FC 1
 62
   179
420
  2234388
370
     9
  0
SPLINE
  5
DB
330
1F
100
AcDbEntity
  8
_U+30EC_U+30A4_U+30E4_U+30FC 1
 62
   179
420
  2234388
370
     9
100
AcDbSpline
210
0.0
220
0.0
230
1.0
 70
    11
 71
     3
 72
    17
 73
    13
 74
     0
 42
0.0000000001
 43
0.0000000001
 12
1.0
 22
0.0
 32
0.0
 13
1.0
 23
0.0
 33
0.0
 40
0.0
 40
0.0
 40
0.0
 40
0.0
 40
1.0
 40
1.0
 40
1.0
 40
2.0
 40
2.0
 40
2.0
 40
3.0
 40
3.0
 40
3.0
 40
4.0
 40
4.0
 40
4.0
 40
4.0
 10
92.49427402916336
 20
-156.845564405233
 30
0.0
 10
92.49427402916336
 20
-156.7897549608026
 30
0.0
 10
92.44982403029738
 20
-156.7449521830359
 30
0.0
 10
92.39436736504554
 20
-156.7449521830359
 30
0.0
 10
92.33923053247068
 20
-156.7449521830359
 30
0.0
 10
92.2944607009277
 20
-156.7897549608026
 30
0.0
 10
92.2944607009277
 20
-156.845564405233
 30
0.0
 10
92.2944607009277
 20
-156.900668294108
 30
0.0
 10
92.33923053247068
 20
-156.9454710718747
 30
0.0
 10
92.39436736504554
 20
-156.9454710718747
 30
0.0
 10
92.44982403029738
 20
-156.9454710718747
 30
0.0
 10
92.49427402916336
 20
-156.900668294108
 30
0.0
 10
92.49427402916336
 20
-156.845564405233
 30
0.0
  0
SPLINE
  5
DC
330
1F
100
AcDbEntity
  8
_U+30EC_U+30A4_U+30E4_U+30FC 1
 62
   179
420
  2234388
370
     9
100
AcDbSpline
210
0.0
220
0.0
230
1.0
 70
    11
 71
     3
 72
    17
 73
    13
 74
     0
 42
0.0000000001
 43
0.0000000001
 12
1.0
 22
0.0
 32
0.0
 13
1.0
 23
0.0
 33
0.0
 40
0.0
 40
0.0
 40
0.0
 40
0.0
 40
1.0
 40
1.0
 40
1.0
 40
2.0
 40
2.0
 40
2.0
 40
3.0
 40
3.0
 40
3.0
 40
4.0
 40
4.0
 40
4.0
 40
4.0
 10
90.3509021394009
 20
-156.845564405233
 30
0.0
 10
90.3509021394009
 20
-156.7897549608026
 30
0.0
 10
90.30645214053492
 20
-156.7449521830359
 30
0.0
 10
90.25099547528306
 20
-156.7449521830359
 30
0.0
 10
90.19585631002312
 20
-156.7449521830359
 30
0.0
 10
90.15108881116522
 20
-156.7897549608026
 30
0.0
 10
90.15108881116522
 20
-156.845564405233
 30
0.0
 10
90.15108881116522
 20
-156.900668294108
 30
0.0
 10
90.19585631002312
 20
-156.9454710718747
 30
0.0
 10
90.25099547528306
 20
-156.9454710718747
 30
0.0
 10
90.30645214053492
 20
-156.9454710718747
 30
0.0
 10
90.3509021394009
 20
-156.900668294108
 30
0.0
 10
90.3509021394009
 20
-156.845564405233
 30
0.0
  0
SPLINE
  5
DD
330
1F
100
AcDbEntity
  8
_U+30EC_U+30A4_U+30E4_U+30FC 1
 62
   179
420
  2234388
370
     9
100
AcDbSpline
210
0.0
220
0.0
230
1.0
 70
    11
 71
     3
 72
    17
 73
    13
 74
     0
 42
0.0000000001
 43
0.0000000001
 12
1.0
 22
0.0
 32
0.0
 13
1.0
 23
0.0
 33
0.0
 40
0.0
 40
0.0
 40
0.0
 40
0.0
 40
1.0
 40
1.0
 40
1.0
 40
2.0
 40
2.0
 40
2.0
 40
3.0
 40
3.0
 40
3.0
 40
4.0
 40
4.0
 40
4.0
 40
4.0
 10
88.46696302079752
 20
-154.2314105169976
 30
0.0
 10
88.46696302079752
 20
-154.1763066281227
 30
0.0
 10
88.42251302193154
 20
-154.131503850356
 30
0.0
 10
88.36705635667968
 20
-154.131503850356
 30
0.0
 10
88.31191942236634
 20
-154.131503850356
 30
0.0
 10
88.26714969256184
 20
-154.1763066281227
 30
0.0
 10
88.26714969256184
 20
-154.2314105169976
 30
0.0
 10
88.26714969256184
 20
-154.287219961428
 30
0.0
 10
88.31191942236634
 20
-154.3313171836392
 30
0.0
 10
88.36705635667968
 20
-154.3313171836392
 30
0.0
 10
88.42251302193154
 20
-154.3313171836392
 30
0.0
 10
88.46696302079752
 20
-154.287219961428
 30
0.0
 10
88.46696302079752
 20
-154.2314105169976
 30
0.0
  0
SPLINE
  5
DE
330
1F
100
AcDbEntity
  8
_U+30EC_U+30A4_U+30E4_U+30FC 1
 62
   179
420
  2234388
370
     9
100
AcDbSpline
210
0.0
220
0.0
230
1.0
 70
    11
 71
     3
 72
    17
 73
    13
 74
     0
 42
0.0000000001
 43
0.0000000001
 12
1.0
 22
0.0
 32
0.0
 13
1.0
 23
0.0
 33
0.0
 40
0.0
 40
0.0
 40
0.0
 40
0.0
 40
1.0
 40
1.0
 40
1.0
 40
2.0
 40
2.0
 40
2.0
 40
3.0
 40
3.0
 40
3.0
 40
4.0
 40
4.0
 40
4.0
 40
4.0
 10
88.46696302079752
 20
-149.1051260738349
 30
0.0
 10
88.46696302079752
 20
-149.0499869071818
 30
0.0
 10
88.42251302193154
 20
-149.0052194071933
 30
0.0
 10
88.36705635667968
 20
-149.0052194071933
 30
0.0
 10
88.31191942236634
 20
-149.0052194071933
 30
0.0
 10
88.26714969256184
 20
-149.0499869071818
 30
0.0
 10
88.26714969256184
 20
-149.1051260738349
 30
0.0
 10
88.26714969256184
 20
-149.1609355182654
 30
0.0
 10
88.31191942236634
 20
-149.2050327404766
 30
0.0
 10
88.36705635667968
 20
-149.2050327404766
 30
0.0
 10
88.42251302193154
 20
-149.2050327404766
 30
0.0
 10
88.46696302079752
 20
-149.1609355182654
 30
0.0
 10
88.46696302079752
 20
-149.1051260738349
 30
0.0
  0
SPLINE
  5
DF
330
1F
100
AcDbEntity
  8
_U+30EC_U+30A4_U+30E4_U+30FC 1
 62
   179
420
  2234388
370
     9
100
AcDbSpline
210
0.0
220
0.0
230
1.0
 70
    11
 71
     3
 72
    17
 73
    13
 74
     0
 42
0.0000000001
 43
0.0000000001
 12
1.0
 22
0.0
 32
0.0
 13
1.0
 23
0.0
 33
0.0
 40
0.0
 40
0.0
 40
0.0
 40
0.0
 40
1.0
 40
1.0
 40
1.0
 40
2.0
 40
2.0
 40
2.0
 40
3.0
 40
3.0
 40
3.0
 40
4.0
 40
4.0
 40
4.0
 40
4.0
 10
92.46517219910585
 20
-139.3548069096057
 30
0.0
 10
92.46517219910585
 20
-139.2989974651753
 30
0.0
 10
92.4207221991169
 20
-139.2541946874088
 30
0.0
 10
92.36526319912137
 20
-139.2541946874088
 30
0.0
 10
92.31012403386143
 20
-139.2541946874088
 30
0.0
 10
92.26535653500353
 20
-139.2989974651753
 30
0.0
 10
92.26535653500353
 20
-139.3548069096057
 30
0.0
 10
92.26535653500353
 20
-139.4099107984809
 30
0.0
 10
92.31012403386143
 20
-139.4547135762473
 30
0.0
 10
92.36526319912137
 20
-139.4547135762473
 30
0.0
 10
92.4207221991169
 20
-139.4547135762473
 30
0.0
 10
92.46517219910585
 20
-139.4099107984809
 30
0.0
 10
92.46517219910585
 20
-139.3548069096057
 30
0.0
  0
SPLINE
  5
E0
330
1F
100
AcDbEntity
  8
_U+30EC_U+30A4_U+30E4_U+30FC 1
 62
   179
420
  2234388
370
     9
100
AcDbSpline
210
0.0
220
0.0
230
1.0
 70
    11
 71
     3
 72
    17
 73
    13
 74
     0
 42
0.0000000001
 43
0.0000000001
 12
1.0
 22
0.0
 32
0.0
 13
1.0
 23
0.0
 33
0.0
 40
0.0
 40
0.0
 40
0.0
 40
0.0
 40
1.0
 40
1.0
 40
1.0
 40
2.0
 40
2.0
 40
2.0
 40
3.0
 40
3.0
 40
3.0
 40
4.0
 40
4.0
 40
4.0
 40
4.0
 10
116.5895953588849
 20
-139.3548069096057
 30
0.0
 10
116.5895953588849
 20
-139.2989974651753
 30
0.0
 10
116.5448278600271
 20
-139.2541946874088
 30
0.0
 10
116.4896916375444
 20
-139.2541946874088
 30
0.0
 10
116.434584807284
 20
-139.2541946874088
 30
0.0
 10
116.3897820306493
 20
-139.2989974651753
 30
0.0
 10
116.3897820306493
 20
-139.3548069096057
 30
0.0
 10
116.3897820306493
 20
-139.4099107984809
 30
0.0
 10
116.434584807284
 20
-139.4547135762473
 30
0.0
 10
116.4896916375444
 20
-139.4547135762473
 30
0.0
 10
116.5448278600271
 20
-139.4547135762473
 30
0.0
 10
116.5895953588849
 20
-139.4099107984809
 30
0.0
 10
116.5895953588849
 20
-139.3548069096057
 30
0.0
  0
SPLINE
  5
E1
330
1F
100
AcDbEntity
  8
_U+30EC_U+30A4_U+30E4_U+30FC 1
 62
   179
420
  2234388
370
     9
100
AcDbSpline
210
0.0
220
0.0
230
1.0
 70
    11
 71
     3
 72
    17
 73
    13
 74
     0
 42
0.0000000001
 43
0.0000000001
 12
1.0
 22
0.0
 32
0.0
 13
1.0
 23
0.0
 33
0.0
 40
0.0
 40
0.0
 40
0.0
 40
0.0
 40
1.0
 40
1.0
 40
1.0
 40
2.0
 40
2.0
 40
2.0
 40
3.0
 40
3.0
 40
3.0
 40
4.0
 40
4.0
 40
4.0
 40
4.0
 10
120.5266658139975
 20
-143.4806488530188
 30
0.0
 10
120.5266658139975
 20
-143.4255096863657
 30
0.0
 10
120.4818630373627
 20
-143.3807421863771
 30
0.0
 10
120.4267591498796
 20
-143.3807421863771
 30
0.0
 10
120.3716199846197
 20
-143.3807421863771
 30
0.0
 10
120.3268555254741
 20
-143.4255096863657
 30
0.0
 10
120.3268555254741
 20
-143.4806488530188
 30
0.0
 10
120.3268555254741
 20
-143.5364582974492
 30
0.0
 10
120.3716199846197
 20
-143.5805555196604
 30
0.0
 10
120.4267591498796
 20
-143.5805555196604
 30
0.0
 10
120.4818630373627
 20
-143.5805555196604
 30
0.0
 10
120.5266658139975
 20
-143.5364582974492
 30
0.0
 10
120.5266658139975
 20
-143.4806488530188
 30
0.0
  0
SPLINE
  5
E2
330
1F
100
AcDbEntity
  8
_U+30EC_U+30A4_U+30E4_U+30FC 1
 62
   179
420
  2234388
370
     9
100
AcDbSpline
210
0.0
220
0.0
230
1.0
 70
    11
 71
     3
 72
    17
 73
    13
 74
     0
 42
0.0000000001
 43
0.0000000001
 12
1.0
 22
0.0
 32
0.0
 13
1.0
 23
0.0
 33
0.0
 40
0.0
 40
0.0
 40
0.0
 40
0.0
 40
1.0
 40
1.0
 40
1.0
 40
2.0
 40
2.0
 40
2.0
 40
3.0
 40
3.0
 40
3.0
 40
4.0
 40
4.0
 40
4.0
 40
4.0
 10
120.5266658139975
 20
-144.4597482972183
 30
0.0
 10
120.5266658139975
 20
-144.4046091305655
 30
0.0
 10
120.4818630373627
 20
-144.3598416305767
 30
0.0
 10
120.4267591498796
 20
-144.3598416305767
 30
0.0
 10
120.3716199846197
 20
-144.3598416305767
 30
0.0
 10
120.3268555254741
 20
-144.4046091305655
 30
0.0
 10
120.3268555254741
 20
-144.4597482972183
 30
0.0
 10
120.3268555254741
 20
-144.515557741649
 30
0.0
 10
120.3716199846197
 20
-144.5596549638603
 30
0.0
 10
120.4267591498796
 20
-144.5596549638603
 30
0.0
 10
120.4818630373627
 20
-144.5596549638603
 30
0.0
 10
120.5266658139975
 20
-144.515557741649
 30
0.0
 10
120.5266658139975
 20
-144.4597482972183
 30
0.0
  0
SPLINE
  5
E3
330
1F
100
AcDbEntity
  8
_U+30EC_U+30A4_U+30E4_U+30FC 1
 62
   179
420
  2234388
370
     9
100
AcDbSpline
210
0.0
220
0.0
230
1.0
 70
    11
 71
     3
 72
    17
 73
    13
 74
     0
 42
0.0000000001
 43
0.0000000001
 12
1.0
 22
0.0
 32
0.0
 13
1.0
 23
0.0
 33
0.0
 40
0.0
 40
0.0
 40
0.0
 40
0.0
 40
1.0
 40
1.0
 40
1.0
 40
2.0
 40
2.0
 40
2.0
 40
3.0
 40
3.0
 40
3.0
 40
4.0
 40
4.0
 40
4.0
 40
4.0
 10
120.5266658139975
 20
-154.0894880170332
 30
0.0
 10
120.5266658139975
 20
-154.0343488503801
 30
0.0
 10
120.4818630373627
 20
-153.9895813503915
 30
0.0
 10
120.4267591498796
 20
-153.9895813503915
 30
0.0
 10
120.3716199846197
 20
-153.9895813503915
 30
0.0
 10
120.3268555254741
 20
-154.0343488503801
 30
0.0
 10
120.3268555254741
 20
-154.0894880170332
 30
0.0
 10
120.3268555254741
 20
-154.1452974614636
 30
0.0
 10
120.3716199846197
 20
-154.1893946836748
 30
0.0
 10
120.4267591498796
 20
-154.1893946836748
 30
0.0
 10
120.4818630373627
 20
-154.1893946836748
 30
0.0
 10
120.5266658139975
 20
-154.1452974614636
 30
0.0
 10
120.5266658139975
 20
-154.0894880170332
 30
0.0
  0
ENDSEC
  0
SECTION
  2
OBJECTS
  0
DICTIONARY
  5
C
330
0
100
AcDbDictionary
281
     1
  3
ACAD_GROUP
350
D
  3
ACAD_LAYOUT
350
1A
  3
ACAD_MATERIAL
350
3B
  3
ACAD_MLEADERSTYLE
350
E5
  3
ACAD_MLINESTYLE
350
17
  3
ACAD_PLOTSETTINGS
350
19
  3
ACAD_PLOTSTYLENAME
350
E
  3
ACAD_TABLESTYLE
350
E4
  3
ACAD_VISUALSTYLE
350
2A
  0
SUN
  5
3F
330
29
100
AcDbSun
 90
        1
290
     0
 63
     7
421
 16777215
 40
1.0
291
     1
 91
  2455826
 92
 54000000
292
     0
 70
     2
 71
   256
280
     1
  0
DICTIONARY
  5
D
102
{ACAD_REACTORS
330
C
102
}
330
C
100
AcDbDictionary
281
     1
  0
DICTIONARY
  5
1A
102
{ACAD_REACTORS
330
C
102
}
330
C
100
AcDbDictionary
281
     1
  3
Layout1
350
1E
  3
Layout2
350
26
  3
Model
350
22
  0
DICTIONARY
  5
3B
102
{ACAD_REACTORS
330
C
102
}
330
C
100
AcDbDictionary
281
     1
  3
ByBlock
350
3D
  3
ByLayer
350
3C
  3
Global
350
3E
  0
DICTIONARY
  5
E5
102
{ACAD_REACTORS
330
C
102
}
330
C
100
AcDbDictionary
281
     1
  0
DICTIONARY
  5
17
102
{ACAD_REACTORS
330
C
102
}
330
C
100
AcDbDictionary
281
     1
  3
Standard
350
18
  0
DICTIONARY
  5
19
102
{ACAD_REACTORS
330
C
102
}
330
C
100
AcDbDictionary
281
     1
  0
ACDBDICTIONARYWDFLT
  5
E
102
{ACAD_REACTORS
330
C
102
}
330
C
100
AcDbDictionary
281
     1
  3
Normal
350
F
100
AcDbDictionaryWithDefault
340
F
  0
DICTIONARY
  5
E4
102
{ACAD_REACTORS
330
C
102
}
330
C
100
AcDbDictionary
281
     1
  0
DICTIONARY
  5
2A
102
{ACAD_REACTORS
330
C
102
}
330
C
100
AcDbDictionary
281
     1
  3
2dWireframe
350
2F
  3
3D Hidden
350
31
  3
3dWireframe
350
30
  3
Basic
350
32
  3
Brighten
350
36
  3
ColorChange
350
3A
  3
Conceptual
350
34
  3
Dim
350
35
  3
Facepattern
350
39
  3
Flat
350
2B
  3
FlatWithEdges
350
2C
  3
Gouraud
350
2D
  3
GouraudWithEdges
350
2E
  3
Linepattern
350
38
  3
Realistic
350
33
  3
Thicken
350
37
  0
LAYOUT
  5
1E
102
{ACAD_REACTORS
330
1A
102
}
330
1A
100
AcDbPlotSettings
  1

  2
none_device
  4

  6

 40
0.0
 41
0.0
 42
0.0
 43
0.0
 44
0.0
 45
0.0
 46
0.0
 47
0.0
 48
0.0
 49
0.0
140
0.0
141
0.0
142
1.0
143
1.0
 70
   688
 72
     0
 73
     0
 74
     5
  7

 75
    16
 76
     0
 77
     2
 78
   300
147
1.0
148
0.0
149
0.0
100
AcDbLayout
  1
Layout1
 70
     1
 71
     1
 10
0.0
 20
0.0
 11
12.0
 21
9.0
 12
0.0
 22
0.0
 32
0.0
 14
1.000000000000000E+20
 24
1.000000000000000E+20
 34
1.000000000000000E+20
 15
-1.000000000000000E+20
 25
-1.000000000000000E+20
 35
-1.000000000000000E+20
146
0.0
 13
0.0
 23
0.0
 33
0.0
 16
1.0
 26
0.0
 36
0.0
 17
0.0
 27
1.0
 37
0.0
 76
     0
330
1B
  0
LAYOUT
  5
26
102
{ACAD_REACTORS
330
1A
102
}
330
1A
100
AcDbPlotSettings
  1

  2
none_device
  4

  6

 40
0.0
 41
0.0
 42
0.0
 43
0.0
 44
0.0
 45
0.0
 46
0.0
 47
0.0
 48
0.0
 49
0.0
140
0.0
141
0.0
142
1.0
143
1.0
 70
   688
 72
     0
 73
     0
 74
     5
  7

 75
    16
 76
     0
 77
     2
 78
   300
147
1.0
148
0.0
149
0.0
100
AcDbLayout
  1
Layout2
 70
     1
 71
     2
 10
0.0
 20
0.0
 11
0.0
 21
0.0
 12
0.0
 22
0.0
 32
0.0
 14
0.0
 24
0.0
 34
0.0
 15
0.0
 25
0.0
 35
0.0
146
0.0
 13
0.0
 23
0.0
 33
0.0
 16
1.0
 26
0.0
 36
0.0
 17
0.0
 27
1.0
 37
0.0
 76
     0
330
23
  0
LAYOUT
  5
22
102
{ACAD_REACTORS
330
1A
102
}
330
1A
100
AcDbPlotSettings
  1

  2
none_device
  4

  6

 40
0.0
 41
0.0
 42
0.0
 43
0.0
 44
0.0
 45
0.0
 46
0.0
 47
0.0
 48
0.0
 49
0.0
140
0.0
141
0.0
142
1.0
143
1.0
 70
  1712
 72
     0
 73
     0
 74
     0
  7

 75
     0
 76
     0
 77
     2
 78
   300
147
1.0
148
0.0
149
0.0
100
AcDbLayout
  1
Model
 70
     1
 71
     0
 10
0.0
 20
0.0
 11
12.0
 21
9.0
 12
0.0
 22
0.0
 32
0.0
 14
1.000000000000000E+20
 24
1.000000000000000E+20
 34
1.000000000000000E+20
 15
-1.000000000000000E+20
 25
-1.000000000000000E+20
 35
-1.000000000000000E+20
146
0.0
 13
0.0
 23
0.0
 33
0.0
 16
1.0
 26
0.0
 36
0.0
 17
0.0
 27
1.0
 37
0.0
 76
     0
330
1F
331
29
  0
MATERIAL
  5
3D
102
{ACAD_REACTORS
330
3B
102
}
330
3B
100
AcDbMaterial
  1
ByBlock
 72
     1
 94
      127
  0
MATERIAL
  5
3C
102
{ACAD_REACTORS
330
3B
102
}
330
3B
100
AcDbMaterial
  1
ByLayer
 72
     1
 94
      127
  0
MATERIAL
  5
3E
102
{ACAD_REACTORS
330
3B
102
}
330
3B
100
AcDbMaterial
  1
Global
 72
     1
 94
      127
  0
MLINESTYLE
  5
18
102
{ACAD_REACTORS
330
17
102
}
330
17
100
AcDbMlineStyle
  2
Standard
 70
     0
  3

 62
   256
 51
90.0
 52
90.0
 71
     2
 49
0.5
 62
   256
  6
BYLAYER
 49
-0.5
 62
   256
  6
BYLAYER
  0
ACDBPLACEHOLDER
  5
F
102
{ACAD_REACTORS
330
E
102
}
330
E
  0
VISUALSTYLE
  5
2F
102
{ACAD_REACTORS
330
2A
102
}
330
2A
100
AcDbVisualStyle
  2
2dWireframe
 70
     4
177
     2
291
     0
 71
     0
176
     1
 72
     2
176
     1
 73
     0
176
     1
 90
        0
176
     1
 40
-0.6
176
     1
 41
-30.0
176
     1
 62
     5
 63
     7
421
 16777215
176
     1
 74
     1
176
     1
 91
        4
176
     1
 64
     7
176
     1
 65
   257
176
     1
 75
     1
176
     1
175
     1
176
     1
 42
1.0
176
     1
 92
        0
176
     1
 66
   257
176
     1
 43
1.0
176
     1
 76
     1
176
     1
 77
     6
176
     1
 78
     2
176
     1
 67
     7
176
     1
 79
     5
176
     1
170
     0
176
     1
171
     0
176
     1
290
     0
176
     1
 93
        1
176
     1
 44
0.0
176
     1
173
     0
176
     1
  0
VISUALSTYLE
  5
31
102
{ACAD_REACTORS
330
2A
102
}
330
2A
100
AcDbVisualStyle
  2
3D Hidden
 70
     6
177
     2
291
     0
 71
     1
176
     1
 72
     2
176
     1
 73
     2
176
     1
 90
        0
176
     1
 40
-0.6
176
     1
 41
-30.0
176
     1
 62
     5
 63
     7
421
 16777215
176
     1
 74
     2
176
     1
 91
        2
176
     1
 64
     7
176
     1
 65
   257
176
     1
 75
     2
176
     1
175
     1
176
     1
 42
40.0
176
     1
 92
        0
176
     1
 66
   257
176
     1
 43
1.0
176
     1
 76
     1
176
     1
 77
     6
176
     1
 78
     2
176
     1
 67
     7
176
     1
 79
     3
176
     1
170
     0
176
     1
171
     0
176
     1
290
     0
176
     1
 93
        1
176
     1
 44
0.0
176
     1
173
     0
176
     1
  0
VISUALSTYLE
  5
30
102
{ACAD_REACTORS
330
2A
102
}
330
2A
100
AcDbVisualStyle
  2
3dWireframe
 70
     5
177
     2
291
     0
 71
     0
176
     1
 72
     2
176
     1
 73
     0
176
     1
 90
        0
176
     1
 40
-0.6
176
     1
 41
-30.0
176
     1
 62
     5
 63
     7
421
 16777215
176
     1
 74
     1
176
     1
 91
        4
176
     1
 64
     7
176
     1
 65
   257
176
     1
 75
     1
176
     1
175
     1
176
     1
 42
1.0
176
     1
 92
        0
176
     1
 66
   257
176
     1
 43
1.0
176
     1
 76
     1
176
     1
 77
     6
176
     1
 78
     2
176
     1
 67
     7
176
     1
 79
     5
176
     1
170
     0
176
     1
171
     0
176
     1
290
     0
176
     1
 93
        1
176
     1
 44
0.0
176
     1
173
     0
176
     1
  0
VISUALSTYLE
  5
32
102
{ACAD_REACTORS
330
2A
102
}
330
2A
100
AcDbVisualStyle
  2
Basic
 70
     7
177
     2
291
     1
 71
     1
176
     1
 72
     0
176
     1
 73
     1
176
     1
 90
        0
176
     1
 40
-0.6
176
     1
 41
-30.0
176
     1
 62
     5
 63
     7
421
 16777215
176
     1
 74
     0
176
     1
 91
        4
176
     1
 64
     7
176
     1
 65
   257
176
     1
 75
     1
176
     1
175
     1
176
     1
 42
1.0
176
     1
 92
        8
176
     1
 66
     7
176
     1
 43
1.0
176
     1
 76
     1
176
     1
 77
     6
176
     1
 78
     2
176
     1
 67
     7
176
     1
 79
     5
176
     1
170
     0
176
     1
171
     0
176
     1
290
     0
176
     1
 93
        1
176
     1
 44
0.0
176
     1
173
     0
176
     1
  0
VISUALSTYLE
  5
36
102
{ACAD_REACTORS
330
2A
102
}
330
2A
100
AcDbVisualStyle
  2
Brighten
 70
    12
177
     2
291
     1
 71
     2
176
     1
 72
     2
176
     1
 73
     0
176
     1
 90
        0
176
     1
 40
-0.6
176
     1
 41
-30.0
176
     1
 62
     5
 63
     7
421
 16777215
176
     1
 74
     1
176
     1
 91
        4
176
     1
 64
     7
176
     1
 65
   257
176
     1
 75
     1
176
     1
175
     1
176
     1
 42
1.0
176
     1
 92
        8
176
     1
 66
     7
176
     1
 43
1.0
176
     1
 76
     1
176
     1
 77
     6
176
     1
 78
     2
176
     1
 67
     7
176
     1
 79
     5
176
     1
170
     0
176
     1
171
     0
176
     1
290
     0
176
     1
 93
        1
176
     1
 44
50.0
176
     1
173
     0
176
     1
  0
VISUALSTYLE
  5
3A
102
{ACAD_REACTORS
330
2A
102
}
330
2A
100
AcDbVisualStyle
  2
ColorChange
 70
    16
177
     2
291
     1
 71
     2
176
     1
 72
     2
176
     1
 73
     3
176
     1
 90
        0
176
     1
 40
-0.6
176
     1
 41
-30.0
176
     1
 62
     5
 63
     8
421
  8421504
176
     1
 74
     1
176
     1
 91
        4
176
     1
 64
     7
176
     1
 65
   257
176
     1
 75
     1
176
     1
175
     1
176
     1
 42
1.0
176
     1
 92
        8
176
     1
 66
     8
424
  8421504
176
     1
 43
1.0
176
     1
 76
     1
176
     1
 77
     6
176
     1
 78
     2
176
     1
 67
     7
176
     1
 79
     5
176
     1
170
     0
176
     1
171
     0
176
     1
290
     0
176
     1
 93
        1
176
     1
 44
0.0
176
     1
173
     0
176
     1
  0
VISUALSTYLE
  5
34
102
{ACAD_REACTORS
330
2A
102
}
330
2A
100
AcDbVisualStyle
  2
Conceptual
 70
     9
177
     2
291
     0
 71
     3
176
     1
 72
     2
176
     1
 73
     0
176
     1
 90
        0
176
     1
 40
-0.6
176
     1
 41
-30.0
176
     1
 62
     5
 63
     7
421
 16777215
176
     1
 74
     2
176
     1
 91
        2
176
     1
 64
     7
176
     1
 65
   257
176
     1
 75
     1
176
     1
175
     1
176
     1
 42
40.0
176
     1
 92
        8
176
     1
 66
     7
176
     1
 43
1.0
176
     1
 76
     1
176
     1
 77
     6
176
     1
 78
     2
176
     1
 67
     7
176
     1
 79
     3
176
     1
170
     0
176
     1
171
     0
176
     1
290
     0
176
     1
 93
        1
176
     1
 44
0.0
176
     1
173
     0
176
     1
  0
VISUALSTYLE
  5
35
102
{ACAD_REACTORS
330
2A
102
}
330
2A
100
AcDbVisualStyle
  2
Dim
 70
    11
177
     2
291
     1
 71
     2
176
     1
 72
     2
176
     1
 73
     0
176
     1
 90
        0
176
     1
 40
-0.6
176
     1
 41
-30.0
176
     1
 62
     5
 63
     7
421
 16777215
176
     1
 74
     1
176
     1
 91
        4
176
     1
 64
     7
176
     1
 65
   257
176
     1
 75
     1
176
     1
175
     1
176
     1
 42
1.0
176
     1
 92
        8
176
     1
 66
     7
176
     1
 43
1.0
176
     1
 76
     1
176
     1
 77
     6
176
     1
 78
     2
176
     1
 67
     7
176
     1
 79
     5
176
     1
170
     0
176
     1
171
     0
176
     1
290
     0
176
     1
 93
        1
176
     1
 44
-50.0
176
     1
173
     0
176
     1
  0
VISUALSTYLE
  5
39
102
{ACAD_REACTORS
330
2A
102
}
330
2A
100
AcDbVisualStyle
  2
Facepattern
 70
    15
177
     2
291
     1
 71
     2
176
     1
 72
     2
176
     1
 73
     0
176
     1
 90
        0
176
     1
 40
-0.6
176
     1
 41
-30.0
176
     1
 62
     5
 63
     7
421
 16777215
176
     1
 74
     1
176
     1
 91
        4
176
     1
 64
     7
176
     1
 65
   257
176
     1
 75
     1
176
     1
175
     1
176
     1
 42
1.0
176
     1
 92
        8
176
     1
 66
     7
176
     1
 43
1.0
176
     1
 76
     1
176
     1
 77
     6
176
     1
 78
     2
176
     1
 67
     7
176
     1
 79
     5
176
     1
170
     0
176
     1
171
     0
176
     1
290
     0
176
     1
 93
        1
176
     1
 44
0.0
176
     1
173
     0
176
     1
  0
VISUALSTYLE
  5
2B
102
{ACAD_REACTORS
330
2A
102
}
330
2A
100
AcDbVisualStyle
  2
Flat
 70
     0
177
     2
291
     1
 71
     2
176
     1
 72
     1
176
     1
 73
     1
176
     1
 90
        2
176
     1
 40
-0.6
176
     1
 41
30.0
176
     1
 62
     5
 63
     7
421
 16777215
176
     1
 74
     0
176
     1
 91
        4
176
     1
 64
     7
176
     1
 65
   257
176
     1
 75
     1
176
     1
175
     1
176
     1
 42
1.0
176
     1
 92
        8
176
     1
 66
     7
176
     1
 43
1.0
176
     1
 76
     1
176
     1
 77
     6
176
     1
 78
     2
176
     1
 67
     7
176
     1
 79
     5
176
     1
170
     0
176
     1
171
     0
176
     1
290
     0
176
     1
 93
       13
176
     1
 44
0.0
176
     1
173
     0
176
     1
  0
VISUALSTYLE
  5
2C
102
{ACAD_REACTORS
330
2A
102
}
330
2A
100
AcDbVisualStyle
  2
FlatWithEdges
 70
     1
177
     2
291
     1
 71
     2
176
     1
 72
     1
176
     1
 73
     1
176
     1
 90
        2
176
     1
 40
-0.6
176
     1
 41
30.0
176
     1
 62
     5
 63
     7
421
 16777215
176
     1
 74
     1
176
     1
 91
        4
176
     1
 64
     7
176
     1
 65
   257
176
     1
 75
     1
176
     1
175
     1
176
     1
 42
1.0
176
     1
 92
        0
176
     1
 66
   257
176
     1
 43
1.0
176
     1
 76
     1
176
     1
 77
     6
176
     1
 78
     2
176
     1
 67
     7
176
     1
 79
     5
176
     1
170
     0
176
     1
171
     0
176
     1
290
     0
176
     1
 93
       13
176
     1
 44
0.0
176
     1
173
     0
176
     1
  0
VISUALSTYLE
  5
2D
102
{ACAD_REACTORS
330
2A
102
}
330
2A
100
AcDbVisualStyle
  2
Gouraud
 70
     2
177
     2
291
     1
 71
     2
176
     1
 72
     2
176
     1
 73
     1
176
     1
 90
        2
176
     1
 40
-0.6
176
     1
 41
30.0
176
     1
 62
     5
 63
     7
421
 16777215
176
     1
 74
     0
176
     1
 91
        4
176
     1
 64
     7
176
     1
 65
   257
176
     1
 75
     1
176
     1
175
     1
176
     1
 42
1.0
176
     1
 92
        0
176
     1
 66
     7
176
     1
 43
1.0
176
     1
 76
     1
176
     1
 77
     6
176
     1
 78
     2
176
     1
 67
     7
176
     1
 79
     5
176
     1
170
     0
176
     1
171
     0
176
     1
290
     0
176
     1
 93
       13
176
     1
 44
0.0
176
     1
173
     0
176
     1
  0
VISUALSTYLE
  5
2E
102
{ACAD_REACTORS
330
2A
102
}
330
2A
100
AcDbVisualStyle
  2
GouraudWithEdges
 70
     3
177
     2
291
     1
 71
     2
176
     1
 72
     2
176
     1
 73
     1
176
     1
 90
        2
176
     1
 40
-0.6
176
     1
 41
30.0
176
     1
 62
     5
 63
     7
421
 16777215
176
     1
 74
     1
176
     1
 91
        4
176
     1
 64
     7
176
     1
 65
   257
176
     1
 75
     1
176
     1
175
     1
176
     1
 42
1.0
176
     1
 92
        0
176
     1
 66
   257
176
     1
 43
1.0
176
     1
 76
     1
176
     1
 77
     6
176
     1
 78
     2
176
     1
 67
     7
176
     1
 79
     5
176
     1
170
     0
176
     1
171
     0
176
     1
290
     0
176
     1
 93
       13
176
     1
 44
0.0
176
     1
173
     0
176
     1
  0
VISUALSTYLE
  5
38
102
{ACAD_REACTORS
330
2A
102
}
330
2A
100
AcDbVisualStyle
  2
Linepattern
 70
    14
177
     2
291
     1
 71
     2
176
     1
 72
     2
176
     1
 73
     0
176
     1
 90
        0
176
     1
 40
-0.6
176
     1
 41
-30.0
176
     1
 62
     5
 63
     7
421
 16777215
176
     1
 74
     1
176
     1
 91
        4
176
     1
 64
     7
176
     1
 65
   257
176
     1
 75
     7
176
     1
175
     7
176
     1
 42
1.0
176
     1
 92
        8
176
     1
 66
     7
176
     1
 43
1.0
176
     1
 76
     1
176
     1
 77
     6
176
     1
 78
     2
176
     1
 67
     7
176
     1
 79
     5
176
     1
170
     0
176
     1
171
     0
176
     1
290
     0
176
     1
 93
        1
176
     1
 44
0.0
176
     1
173
     0
176
     1
  0
VISUALSTYLE
  5
33
102
{ACAD_REACTORS
330
2A
102
}
330
2A
100
AcDbVisualStyle
  2
Realistic
 70
     8
177
     2
291
     0
 71
     2
176
     1
 72
     2
176
     1
 73
     0
176
     1
 90
        0
176
     1
 40
-0.6
176
     1
 41
-30.0
176
     1
 62
     5
 63
     7
421
 16777215
176
     1
 74
     1
176
     1
 91
        0
176
     1
 64
     7
176
     1
 65
   257
176
     1
 75
     1
176
     1
175
     1
176
     1
 42
1.0
176
     1
 92
        8
176
     1
 66
     8
424
  7895160
176
     1
 43
1.0
176
     1
 76
     1
176
     1
 77
     6
176
     1
 78
     2
176
     1
 67
     7
176
     1
 79
     5
176
     1
170
     0
176
     1
171
     0
176
     1
290
     0
176
     1
 93
       13
176
     1
 44
0.0
176
     1
173
     0
176
     1
  0
VISUALSTYLE
  5
37
102
{ACAD_REACTORS
330
2A
102
}
330
2A
100
AcDbVisualStyle
  2
Thicken
 70
    13
177
     2
291
     1
 71
     2
176
     1
 72
     2
176
     1
 73
     0
176
     1
 90
        0
176
     1
 40
-0.6
176
     1
 41
-30.0
176
     1
 62
     5
 63
     7
421
 16777215
176
     1
 74
     1
176
     1
 91
        4
176
     1
 64
     7
176
     1
 65
   257
176
     1
 75
     1
176
     1
175
     1
176
     1
 42
1.0
176
     1
 92
       12
176
     1
 66
     7
176
     1
 43
1.0
176
     1
 76
     1
176
     1
 77
     6
176
     1
 78
     2
176
     1
 67
     7
176
     1
 79
     5
176
     1
170
     0
176
     1
171
     0
176
     1
290
     0
176
     1
 93
        1
176
     1
 44
0.0
176
     1
173
     0
176
     1
  0
ENDSEC
  0
EOF
