  0
SECTION
  2
HEADER
  9
$ACADVER
  1
AC1024
  9
$ACADMAINTVER
 70
     6
  9
$DWGCODEPAGE
  3
UNDEFINED
  9
$INSBASE
 10
0.0
 20
0.0
 30
0.0
  9
$EXTMIN
 10
1.000000000000000E+20
 20
1.000000000000000E+20
 30
1.000000000000000E+20
  9
$EXTMAX
 10
-1.000000000000000E+20
 20
-1.000000000000000E+20
 30
-1.000000000000000E+20
  9
$LIMMIN
 10
0.0
 20
0.0
  9
$LIMMAX
 10
12.0
 20
9.0
  9
$ORTHOMODE
 70
     0
  9
$REGENMODE
 70
     1
  9
$FILLMODE
 70
     1
  9
$QTEXTMODE
 70
     0
  9
$MIRRTEXT
 70
     1
  9
$LTSCALE
 40
1.0
  9
$ATTMODE
 70
     1
  9
$TEXTSIZE
 40
0.2
  9
$TRACEWID
 40
0.05
  9
$TEXTSTYLE
  7
Standard
  9
$CLAYER
  8
0
  9
$CELTYPE
  6
ByLayer
  9
$CECOLOR
 62
   256
  9
$CELTSCALE
 40
1.0
  9
$DISPSILH
 70
     0
  9
$DIMSCALE
 40
1.0
  9
$DIMASZ
 40
0.18
  9
$DIMEXO
 40
0.0625
  9
$DIMDLI
 40
0.38
  9
$DIMRND
 40
0.0
  9
$DIMDLE
 40
0.0
  9
$DIMEXE
 40
0.18
  9
$DIMTP
 40
0.0
  9
$DIMTM
 40
0.0
  9
$DIMTXT
 40
0.18
  9
$DIMCEN
 40
0.09
  9
$DIMTSZ
 40
0.0
  9
$DIMTOL
 70
     0
  9
$DIMLIM
 70
     0
  9
$DIMTIH
 70
     1
  9
$DIMTOH
 70
     1
  9
$DIMSE1
 70
     0
  9
$DIMSE2
 70
     0
  9
$DIMTAD
 70
     0
  9
$DIMZIN
 70
     0
  9
$DIMBLK
  1

  9
$DIMASO
 70
     1
  9
$DIMSHO
 70
     1
  9
$DIMPOST
  1

  9
$DIMAPOST
  1

  9
$DIMALT
 70
     0
  9
$DIMALTD
 70
     2
  9
$DIMALTF
 40
25.4
  9
$DIMLFAC
 40
1.0
  9
$DIMTOFL
 70
     0
  9
$DIMTVP
 40
0.0
  9
$DIMTIX
 70
     0
  9
$DIMSOXD
 70
     0
  9
$DIMSAH
 70
     0
  9
$DIMBLK1
  1

  9
$DIMBLK2
  1

  9
$DIMSTYLE
  2
Standard
  9
$DIMCLRD
 70
     0
  9
$DIMCLRE
 70
     0
  9
$DIMCLRT
 70
     0
  9
$DIMTFAC
 40
1.0
  9
$DIMGAP
 40
0.09
  9
$DIMJUST
 70
     0
  9
$DIMSD1
 70
     0
  9
$DIMSD2
 70
     0
  9
$DIMTOLJ
 70
     1
  9
$DIMTZIN
 70
     0
  9
$DIMALTZ
 70
     0
  9
$DIMALTTZ
 70
     0
  9
$DIMUPT
 70
     0
  9
$DIMDEC
 70
     4
  9
$DIMTDEC
 70
     4
  9
$DIMALTU
 70
     2
  9
$DIMALTTD
 70
     2
  9
$DIMTXSTY
  7
Standard
  9
$DIMAUNIT
 70
     0
  9
$DIMADEC
 70
     0
  9
$DIMALTRND
 40
0.0
  9
$DIMAZIN
 70
     0
  9
$DIMDSEP
 70
    46
  9
$DIMATFIT
 70
     3
  9
$DIMFRAC
 70
     0
  9
$DIMLDRBLK
  1

  9
$DIMLUNIT
 70
     2
  9
$DIMLWD
 70
    -2
  9
$DIMLWE
 70
    -2
  9
$DIMTMOVE
 70
     0
  9
$DIMFXL
 40
1.0
  9
$DIMFXLON
 70
     0
  9
$DIMJOGANG
 40
0.7853981633974483
  9
$DIMTFILL
 70
     0
  9
$DIMTFILLCLR
 70
     0
  9
$DIMARCSYM
 70
     0
  9
$DIMLTYPE
  6

  9
$DIMLTEX1
  6

  9
$DIMLTEX2
  6

  9
$DIMTXTDIRECTION
 70
     0
  9
$LUNITS
 70
     2
  9
$LUPREC
 70
     4
  9
$SKETCHINC
 40
0.1
  9
$FILLETRAD
 40
0.5
  9
$AUNITS
 70
     0
  9
$AUPREC
 70
     0
  9
$MENU
  1
.
  9
$ELEVATION
 40
0.0
  9
$PELEVATION
 40
0.0
  9
$THICKNESS
 40
0.0
  9
$LIMCHECK
 70
     0
  9
$CHAMFERA
 40
0.5
  9
$CHAMFERB
 40
0.5
  9
$CHAMFERC
 40
1.0
  9
$CHAMFERD
 40
0.0
  9
$SKPOLY
 70
     0
  9
$TDCREATE
 40
2457917.58741897
  9
$TDUCREATE
 40
2457917.212418981
  9
$TDUPDATE
 40
2457917.58741897
  9
$TDUUPDATE
 40
2457917.212418981
  9
$TDINDWG
 40
0.0000000116
  9
$TDUSRTIMER
 40
0.0000000116
  9
$USRTIMER
 70
     1
  9
$ANGBASE
 50
0.0
  9
$ANGDIR
 70
     0
  9
$PDMODE
 70
     0
  9
$PDSIZE
 40
0.0
  9
$PLINEWID
 40
0.0
  9
$SPLFRAME
 70
     0
  9
$SPLINETYPE
 70
     6
  9
$SPLINESEGS
 70
     8
  9
$HANDSEED
  5
109
  9
$SURFTAB1
 70
     6
  9
$SURFTAB2
 70
     6
  9
$SURFTYPE
 70
     6
  9
$SURFU
 70
     6
  9
$SURFV
 70
     6
  9
$UCSBASE
  2

  9
$UCSNAME
  2

  9
$UCSORG
 10
0.0
 20
0.0
 30
0.0
  9
$UCSXDIR
 10
1.0
 20
0.0
 30
0.0
  9
$UCSYDIR
 10
0.0
 20
1.0
 30
0.0
  9
$UCSORTHOREF
  2

  9
$UCSORTHOVIEW
 70
     0
  9
$UCSORGTOP
 10
0.0
 20
0.0
 30
0.0
  9
$UCSORGBOTTOM
 10
0.0
 20
0.0
 30
0.0
  9
$UCSORGLEFT
 10
0.0
 20
0.0
 30
0.0
  9
$UCSORGRIGHT
 10
0.0
 20
0.0
 30
0.0
  9
$UCSORGFRONT
 10
0.0
 20
0.0
 30
0.0
  9
$UCSORGBACK
 10
0.0
 20
0.0
 30
0.0
  9
$PUCSBASE
  2

  9
$PUCSNAME
  2

  9
$PUCSORG
 10
0.0
 20
0.0
 30
0.0
  9
$PUCSXDIR
 10
1.0
 20
0.0
 30
0.0
  9
$PUCSYDIR
 10
0.0
 20
1.0
 30
0.0
  9
$PUCSORTHOREF
  2

  9
$PUCSORTHOVIEW
 70
     0
  9
$PUCSORGTOP
 10
0.0
 20
0.0
 30
0.0
  9
$PUCSORGBOTTOM
 10
0.0
 20
0.0
 30
0.0
  9
$PUCSORGLEFT
 10
0.0
 20
0.0
 30
0.0
  9
$PUCSORGRIGHT
 10
0.0
 20
0.0
 30
0.0
  9
$PUCSORGFRONT
 10
0.0
 20
0.0
 30
0.0
  9
$PUCSORGBACK
 10
0.0
 20
0.0
 30
0.0
  9
$USERI1
 70
     0
  9
$USERI2
 70
     0
  9
$USERI3
 70
     0
  9
$USERI4
 70
     0
  9
$USERI5
 70
     0
  9
$USERR1
 40
0.0
  9
$USERR2
 40
0.0
  9
$USERR3
 40
0.0
  9
$USERR4
 40
0.0
  9
$USERR5
 40
0.0
  9
$WORLDVIEW
 70
     1
  9
$SHADEDGE
 70
     3
  9
$SHADEDIF
 70
    70
  9
$TILEMODE
 70
     1
  9
$MAXACTVP
 70
    64
  9
$PINSBASE
 10
0.0
 20
0.0
 30
0.0
  9
$PLIMCHECK
 70
     0
  9
$PEXTMIN
 10
1.000000000000000E+20
 20
1.000000000000000E+20
 30
1.000000000000000E+20
  9
$PEXTMAX
 10
-1.000000000000000E+20
 20
-1.000000000000000E+20
 30
-1.000000000000000E+20
  9
$PLIMMIN
 10
0.0
 20
0.0
  9
$PLIMMAX
 10
12.0
 20
9.0
  9
$UNITMODE
 70
     0
  9
$VISRETAIN
 70
     1
  9
$PLINEGEN
 70
     0
  9
$PSLTSCALE
 70
     1
  9
$TREEDEPTH
 70
  3020
  9
$CMLSTYLE
  2
Standard
  9
$CMLJUST
 70
     0
  9
$CMLSCALE
 40
1.0
  9
$PROXYGRAPHICS
 70
     1
  9
$MEASUREMENT
 70
     0
  9
$CELWEIGHT
370
    -1
  9
$ENDCAPS
280
     0
  9
$JOINSTYLE
280
     0
  9
$LWDISPLAY
290
     1
  9
$INSUNITS
 70
     1
  9
$HYPERLINKBASE
  1

  9
$STYLESHEET
  1

  9
$XEDIT
290
     1
  9
$CEPSNTYPE
380
     0
  9
$PSTYLEMODE
290
     1
  9
$FINGERPRINTGUID
  2
{97EE18DA-161E-F353-EA1B-23792DA63CE5}
  9
$VERSIONGUID
  2
{FAEB1C32-E019-11D5-929B-00C0DF256EC4}
  9
$EXTNAMES
290
     1
  9
$PSVPSCALE
 40
0.0
  9
$OLESTARTUP
290
     0
  9
$SORTENTS
280
   127
  9
$INDEXCTL
280
     0
  9
$HIDETEXT
280
     1
  9
$XCLIPFRAME
280
     2
  9
$HALOGAP
280
     0
  9
$OBSCOLOR
 70
   257
  9
$OBSLTYPE
280
     0
  9
$INTERSECTIONDISPLAY
280
     0
  9
$INTERSECTIONCOLOR
 70
   257
  9
$DIMASSOC
280
     2
  9
$PROJECTNAME
  1

  9
$CAMERADISPLAY
290
     0
  9
$LENSLENGTH
 40
50.0
  9
$CAMERAHEIGHT
 40
0.0
  9
$STEPSPERSEC
 40
2.0
  9
$STEPSIZE
 40
6.0
  9
$3DDWFPREC
 40
2.0
  9
$PSOLWIDTH
 40
0.25
  9
$PSOLHEIGHT
 40
4.0
  9
$LOFTANG1
 40
1.570796326794897
  9
$LOFTANG2
 40
1.570796326794897
  9
$LOFTMAG1
 40
0.0
  9
$LOFTMAG2
 40
0.0
  9
$LOFTPARAM
 70
     7
  9
$LOFTNORMALS
280
     1
  9
$LATITUDE
 40
37.795
  9
$LONGITUDE
 40
-122.394
  9
$NORTHDIRECTION
 40
0.0
  9
$TIMEZONE
 70
 -8000
  9
$LIGHTGLYPHDISPLAY
280
     1
  9
$TILEMODELIGHTSYNCH
280
     1
  9
$CMATERIAL
347
3C
  9
$SOLIDHIST
280
     1
  9
$SHOWHIST
280
     1
  9
$DWFFRAME
280
     2
  9
$DGNFRAME
280
     2
  9
$REALWORLDSCALE
290
     1
  9
$INTERFERECOLOR
 62
   256
  9
$CSHADOW
280
     0
  9
$SHADOWPLANELOCATION
 40
0.0
  0
ENDSEC
  0
SECTION
  2
CLASSES
  0
CLASS
  1
ACDBDICTIONARYWDFLT
  2
AcDbDictionaryWithDefault
  3
ObjectDBX Classes
 90
        0
 91
        4
280
     0
281
     0
  0
CLASS
  1
VISUALSTYLE
  2
AcDbVisualStyle
  3
ObjectDBX Classes
 90
     4095
 91
        4
280
     0
281
     0
  0
CLASS
  1
MATERIAL
  2
AcDbMaterial
  3
ObjectDBX Classes
 90
     1153
 91
        4
280
     0
281
     0
  0
CLASS
  1
SUN
  2
AcDbSun
  3
SCENEOE
 90
     1024
 91
        4
280
     0
281
     0
  0
ENDSEC
  0
SECTION
  2
TABLES
  0
TABLE
  2
VPORT
  5
8
330
0
100
AcDbSymbolTable
 70
     1
  0
VPORT
  5
29
330
8
100
AcDbSymbolTableRecord
100
AcDbViewportTableRecord
  2
*Active
 70
     0
 10
0.0
 20
0.0
 11
1.0
 21
1.0
 12
0.0
 22
0.0
 13
0.0
 23
0.0
 14
0.5
 24
0.5
 15
0.5
 25
0.5
 16
0.0
 26
0.0
 36
1.0
 17
63.499999984125
 27
-89.00059456108309
 37
0.0
 40
178.0011891221662
 41
0.7134783795241226
 42
50.0
 43
0.0
 44
0.0
 50
0.0
 51
0.0
 71
     0
 72
   100
 73
     1
 74
     3
 75
     0
 76
     0
 77
     0
 78
     0
281
     0
 65
     1
110
0.0
120
0.0
130
0.0
111
1.0
121
0.0
131
0.0
112
0.0
122
1.0
132
0.0
 79
     0
146
0.0
 60
     3
 61
     5
292
     1
282
     1
141
0.0
142
0.0
 63
   250
361
3F
  0
ENDTAB
  0
TABLE
  2
LTYPE
  5
5
330
0
100
AcDbSymbolTable
 70
     1
  0
LTYPE
  5
14
330
5
100
AcDbSymbolTableRecord
100
AcDbLinetypeTableRecord
  2
ByBlock
 70
     0
  3

 72
    65
 73
     0
 40
0.0
  0
LTYPE
  5
15
330
5
100
AcDbSymbolTableRecord
100
AcDbLinetypeTableRecord
  2
ByLayer
 70
     0
  3

 72
    65
 73
     0
 40
0.0
  0
LTYPE
  5
16
330
5
100
AcDbSymbolTableRecord
100
AcDbLinetypeTableRecord
  2
Continuous
 70
     0
  3
Solid line
 72
    65
 73
     0
 40
0.0
  0
ENDTAB
  0
TABLE
  2
LAYER
  5
2
330
0
100
AcDbSymbolTable
 70
     2
  0
LAYER
  5
10
330
2
100
AcDbSymbolTableRecord
100
AcDbLayerTableRecord
  2
0
 70
     0
 62
     7
  6
Continuous
370
    -3
390
F
347
3E
  0
LAYER
  5
40
330
2
100
AcDbSymbolTableRecord
100
AcDbLayerTableRecord
  2
_U+30EC_U+30A4_U+30E4_U+30FC 1
 70
     0
 62
     7
  6
Continuous
370
    -3
390
F
347
3E
  0
ENDTAB
  0
TABLE
  2
STYLE
  5
3
330
0
100
AcDbSymbolTable
 70
     1
  0
STYLE
  5
11
330
3
100
AcDbSymbolTableRecord
100
AcDbTextStyleTableRecord
  2
Standard
 70
     0
 40
0.0
 41
1.0
 50
0.0
 71
     0
 42
0.2
  3
txt
  4

  0
ENDTAB
  0
TABLE
  2
VIEW
  5
6
330
0
100
AcDbSymbolTable
 70
     0
  0
ENDTAB
  0
TABLE
  2
UCS
  5
7
330
0
100
AcDbSymbolTable
 70
     0
  0
ENDTAB
  0
TABLE
  2
APPID
  5
9
330
0
100
AcDbSymbolTable
 70
     1
  0
APPID
  5
12
330
9
100
AcDbSymbolTableRecord
100
AcDbRegAppTableRecord
  2
ACAD
 70
     0
  0
ENDTAB
  0
TABLE
  2
DIMSTYLE
  5
A
330
0
100
AcDbSymbolTable
 70
     1
100
AcDbDimStyleTable
  0
DIMSTYLE
105
27
330
A
100
AcDbSymbolTableRecord
100
AcDbDimStyleTableRecord
  2
Standard
 70
     0
178
     0
340
11
  0
ENDTAB
  0
TABLE
  2
BLOCK_RECORD
  5
1
330
0
100
AcDbSymbolTable
 70
     8
  0
BLOCK_RECORD
  5
1F
330
1
100
AcDbSymbolTableRecord
100
AcDbBlockTableRecord
  2
*Model_Space
340
22
 70
     0
280
     1
281
     0
  0
BLOCK_RECORD
  5
1B
330
1
100
AcDbSymbolTableRecord
100
AcDbBlockTableRecord
  2
*Paper_Space
340
1E
 70
     0
280
     1
281
     0
  0
BLOCK_RECORD
  5
23
330
1
100
AcDbSymbolTableRecord
100
AcDbBlockTableRecord
  2
*Paper_Space0
340
26
 70
     0
280
     1
281
     0
  0
BLOCK_RECORD
  5
41
330
1
100
AcDbSymbolTableRecord
100
AcDbBlockTableRecord
  2
block 2
340
0
102
{BLKREFS
331
42
102
}
 70
     0
280
     1
281
     0
  0
BLOCK_RECORD
  5
97
330
1
100
AcDbSymbolTableRecord
100
AcDbBlockTableRecord
  2
block 3
340
0
102
{BLKREFS
331
98
102
}
 70
     0
280
     1
281
     0
  0
BLOCK_RECORD
  5
A9
330
1
100
AcDbSymbolTableRecord
100
AcDbBlockTableRecord
  2
block 4
340
0
102
{BLKREFS
331
AA
102
}
 70
     0
280
     1
281
     0
  0
BLOCK_RECORD
  5
BA
330
1
100
AcDbSymbolTableRecord
100
AcDbBlockTableRecord
  2
block 5
340
0
102
{BLKREFS
331
BB
102
}
 70
     0
280
     1
281
     0
  0
BLOCK_RECORD
  5
CE
330
1
100
AcDbSymbolTableRecord
100
AcDbBlockTableRecord
  2
block 6
340
0
102
{BLKREFS
331
CF
102
}
 70
     0
280
     1
281
     0
  0
BLOCK_RECORD
  5
E6
330
1
100
AcDbSymbolTableRecord
100
AcDbBlockTableRecord
  2
block 7
340
0
102
{BLKREFS
331
E7
102
}
 70
     0
280
     1
281
     0
  0
BLOCK_RECORD
  5
FF
330
1
100
AcDbSymbolTableRecord
100
AcDbBlockTableRecord
  2
block 8
340
0
102
{BLKREFS
331
100
102
}
 70
     0
280
     1
281
     0
  0
ENDTAB
  0
ENDSEC
  0
SECTION
  2
BLOCKS
  0
BLOCK
  5
20
330
1F
100
AcDbEntity
  8
0
100
AcDbBlockBegin
  2
*Model_Space
 70
     0
 10
0.0
 20
0.0
 30
0.0
  3
*Model_Space
  1

  0
ENDBLK
  5
21
330
1F
100
AcDbEntity
  8
0
100
AcDbBlockEnd
  0
BLOCK
  5
1C
330
1B
100
AcDbEntity
 67
     1
  8
0
100
AcDbBlockBegin
  2
*Paper_Space
 70
     0
 10
0.0
 20
0.0
 30
0.0
  3
*Paper_Space
  1

  0
ENDBLK
  5
1D
330
1B
100
AcDbEntity
 67
     1
  8
0
100
AcDbBlockEnd
  0
BLOCK
  5
24
330
23
100
AcDbEntity
  8
0
100
AcDbBlockBegin
  2
*Paper_Space0
 70
     0
 10
0.0
 20
0.0
 30
0.0
  3
*Paper_Space0
  1

  0
ENDBLK
  5
25
330
23
100
AcDbEntity
  8
0
100
AcDbBlockEnd
  0
BLOCK
  5
43
330
41
100
AcDbEntity
  8
0
100
AcDbBlockBegin
  2
block 2
 70
     0
 10
0.0
 20
0.0
 30
0.0
  3
block 2
  1

  0
POLYLINE
  5
45
330
41
100
AcDbEntity
  8
_U+30EC_U+30A4_U+30E4_U+30FC 1
 62
   179
420
  2234388
370
    25
100
AcDb2dPolyline
 66
     1
 10
0.0
 20
0.0
 30
0.0
  0
VERTEX
  5
46
330
45
100
AcDbEntity
  8
_U+30EC_U+30A4_U+30E4_U+30FC 1
 62
   179
420
  2234388
370
    25
100
AcDbVertex
100
AcDb2dVertex
 10
41.06999978555034
 20
-82.39858775717828
 30
0.0
  0
VERTEX
  5
47
330
45
100
AcDbEntity
  8
_U+30EC_U+30A4_U+30E4_U+30FC 1
 62
   179
420
  2234388
370
    25
100
AcDbVertex
100
AcDb2dVertex
 10
57.07005909957705
 20
-82.39858775717828
 30
0.0
  0
SEQEND
  5
48
330
45
100
AcDbEntity
  8
_U+30EC_U+30A4_U+30E4_U+30FC 1
 62
   179
420
  2234388
370
    25
  0
POLYLINE
  5
49
330
41
100
AcDbEntity
  8
_U+30EC_U+30A4_U+30E4_U+30FC 1
 62
   179
420
  2234388
370
    25
100
AcDb2dPolyline
 66
     1
 10
0.0
 20
0.0
 30
0.0
  0
VERTEX
  5
4A
330
49
100
AcDbEntity
  8
_U+30EC_U+30A4_U+30E4_U+30FC 1
 62
   179
420
  2234388
370
    25
100
AcDbVertex
100
AcDb2dVertex
 10
78.11614578486886
 20
-82.39858775717828
 30
0.0
  0
VERTEX
  5
4B
330
49
100
AcDbEntity
  8
_U+30EC_U+30A4_U+30E4_U+30FC 1
 62
   179
420
  2234388
370
    25
100
AcDbVertex
100
AcDb2dVertex
 10
78.11614578486886
 20
-83.39871275692826
 30
0.0
  0
SEQEND
  5
4C
330
49
100
AcDbEntity
  8
_U+30EC_U+30A4_U+30E4_U+30FC 1
 62
   179
420
  2234388
370
    25
  0
POLYLINE
  5
4D
330
41
100
AcDbEntity
  8
_U+30EC_U+30A4_U+30E4_U+30FC 1
 62
   179
420
  2234388
370
    25
100
AcDb2dPolyline
 66
     1
 10
0.0
 20
0.0
 30
0.0
  0
VERTEX
  5
4E
330
4D
100
AcDbEntity
  8
_U+30EC_U+30A4_U+30E4_U+30FC 1
 62
   179
420
  2234388
370
    25
100
AcDbVertex
100
AcDb2dVertex
 10
59.07030904854642
 20
-83.39871275692826
 30
0.0
  0
VERTEX
  5
4F
330
4D
100
AcDbEntity
  8
_U+30EC_U+30A4_U+30E4_U+30FC 1
 62
   179
420
  2234388
370
    25
100
AcDbVertex
100
AcDb2dVertex
 10
78.07067273047343
 20
-83.39871275692826
 30
0.0
  0
SEQEND
  5
50
330
4D
100
AcDbEntity
  8
_U+30EC_U+30A4_U+30E4_U+30FC 1
 62
   179
420
  2234388
370
    25
  0
POLYLINE
  5
51
330
41
100
AcDbEntity
  8
_U+30EC_U+30A4_U+30E4_U+30FC 1
 62
   179
420
  2234388
370
    25
100
AcDb2dPolyline
 66
     1
 10
0.0
 20
0.0
 30
0.0
  0
VERTEX
  5
52
330
51
100
AcDbEntity
  8
_U+30EC_U+30A4_U+30E4_U+30FC 1
 62
   179
420
  2234388
370
    25
100
AcDbVertex
100
AcDb2dVertex
 10
56.07032218063802
 20
-83.39871275692826
 30
0.0
  0
VERTEX
  5
53
330
51
100
AcDbEntity
  8
_U+30EC_U+30A4_U+30E4_U+30FC 1
 62
   179
420
  2234388
370
    25
100
AcDbVertex
100
AcDb2dVertex
 10
56.07032218063802
 20
-97.39905164231696
 30
0.0
  0
SEQEND
  5
54
330
51
100
AcDbEntity
  8
_U+30EC_U+30A4_U+30E4_U+30FC 1
 62
   179
420
  2234388
370
    25
  0
POLYLINE
  5
55
330
41
100
AcDbEntity
  8
_U+30EC_U+30A4_U+30E4_U+30FC 1
 62
   179
420
  2234388
370
    25
100
AcDb2dPolyline
 66
     1
 10
0.0
 20
0.0
 30
0.0
  0
VERTEX
  5
56
330
55
100
AcDbEntity
  8
_U+30EC_U+30A4_U+30E4_U+30FC 1
 62
   179
420
  2234388
370
    25
100
AcDbVertex
100
AcDb2dVertex
 10
66.07037248107103
 20
-96.39927942034441
 30
0.0
  0
VERTEX
  5
57
330
55
100
AcDbEntity
  8
_U+30EC_U+30A4_U+30E4_U+30FC 1
 62
   179
420
  2234388
370
    25
100
AcDbVertex
100
AcDb2dVertex
 10
66.07037248107103
 20
-96.89951830910877
 30
0.0
  0
SEQEND
  5
58
330
55
100
AcDbEntity
  8
_U+30EC_U+30A4_U+30E4_U+30FC 1
 62
   179
420
  2234388
370
    25
  0
POLYLINE
  5
59
330
41
100
AcDbEntity
  8
_U+30EC_U+30A4_U+30E4_U+30FC 1
 62
   179
420
  2234388
370
    25
100
AcDb2dPolyline
 66
     1
 10
0.0
 20
0.0
 30
0.0
  0
VERTEX
  5
5A
330
59
100
AcDbEntity
  8
_U+30EC_U+30A4_U+30E4_U+30FC 1
 62
   179
420
  2234388
370
    25
100
AcDbVertex
100
AcDb2dVertex
 10
59.07030904854642
 20
-96.39927942034441
 30
0.0
  0
VERTEX
  5
5B
330
59
100
AcDbEntity
  8
_U+30EC_U+30A4_U+30E4_U+30FC 1
 62
   179
420
  2234388
370
    25
100
AcDbVertex
100
AcDb2dVertex
 10
66.07037248107103
 20
-96.39927942034441
 30
0.0
  0
SEQEND
  5
5C
330
59
100
AcDbEntity
  8
_U+30EC_U+30A4_U+30E4_U+30FC 1
 62
   179
420
  2234388
370
    25
  0
POLYLINE
  5
5D
330
41
100
AcDbEntity
  8
_U+30EC_U+30A4_U+30E4_U+30FC 1
 62
   179
420
  2234388
370
    25
100
AcDb2dPolyline
 66
     1
 10
0.0
 20
0.0
 30
0.0
  0
VERTEX
  5
5E
330
5D
100
AcDbEntity
  8
_U+30EC_U+30A4_U+30E4_U+30FC 1
 62
   179
420
  2234388
370
    25
100
AcDbVertex
100
AcDb2dVertex
 10
58.07053685183051
 20
-82.39858775717828
 30
0.0
  0
VERTEX
  5
5F
330
5D
100
AcDbEntity
  8
_U+30EC_U+30A4_U+30E4_U+30FC 1
 62
   179
420
  2234388
370
    25
100
AcDbVertex
100
AcDb2dVertex
 10
78.07067273047343
 20
-82.39858775717828
 30
0.0
  0
SEQEND
  5
60
330
5D
100
AcDbEntity
  8
_U+30EC_U+30A4_U+30E4_U+30FC 1
 62
   179
420
  2234388
370
    25
  0
POLYLINE
  5
61
330
41
100
AcDbEntity
  8
_U+30EC_U+30A4_U+30E4_U+30FC 1
 62
   179
420
  2234388
370
    25
100
AcDb2dPolyline
 66
     1
 10
0.0
 20
0.0
 30
0.0
  0
VERTEX
  5
62
330
61
100
AcDbEntity
  8
_U+30EC_U+30A4_U+30E4_U+30FC 1
 62
   179
420
  2234388
370
    25
100
AcDbVertex
100
AcDb2dVertex
 10
57.07005909957705
 20
-82.39858775717828
 30
0.0
  0
VERTEX
  5
63
330
61
100
AcDbEntity
  8
_U+30EC_U+30A4_U+30E4_U+30FC 1
 62
   179
420
  2234388
370
    25
100
AcDbVertex
100
AcDb2dVertex
 10
57.07005909957705
 20
-96.39927942034441
 30
0.0
  0
SEQEND
  5
64
330
61
100
AcDbEntity
  8
_U+30EC_U+30A4_U+30E4_U+30FC 1
 62
   179
420
  2234388
370
    25
  0
POLYLINE
  5
65
330
41
100
AcDbEntity
  8
_U+30EC_U+30A4_U+30E4_U+30FC 1
 62
   179
420
  2234388
370
    25
100
AcDb2dPolyline
 66
     1
 10
0.0
 20
0.0
 30
0.0
  0
VERTEX
  5
66
330
65
100
AcDbEntity
  8
_U+30EC_U+30A4_U+30E4_U+30FC 1
 62
   179
420
  2234388
370
    25
100
AcDbVertex
100
AcDb2dVertex
 10
58.07053685183051
 20
-82.39858775717828
 30
0.0
  0
VERTEX
  5
67
330
65
100
AcDbEntity
  8
_U+30EC_U+30A4_U+30E4_U+30FC 1
 62
   179
420
  2234388
370
    25
100
AcDbVertex
100
AcDb2dVertex
 10
58.07053685183051
 20
-96.39927942034441
 30
0.0
  0
SEQEND
  5
68
330
65
100
AcDbEntity
  8
_U+30EC_U+30A4_U+30E4_U+30FC 1
 62
   179
420
  2234388
370
    25
  0
POLYLINE
  5
69
330
41
100
AcDbEntity
  8
_U+30EC_U+30A4_U+30E4_U+30FC 1
 62
   179
420
  2234388
370
    25
100
AcDb2dPolyline
 66
     1
 10
0.0
 20
0.0
 30
0.0
  0
VERTEX
  5
6A
330
69
100
AcDbEntity
  8
_U+30EC_U+30A4_U+30E4_U+30FC 1
 62
   179
420
  2234388
370
    25
100
AcDbVertex
100
AcDb2dVertex
 10
59.07030904854642
 20
-83.39871275692826
 30
0.0
  0
VERTEX
  5
6B
330
69
100
AcDbEntity
  8
_U+30EC_U+30A4_U+30E4_U+30FC 1
 62
   179
420
  2234388
370
    25
100
AcDbVertex
100
AcDb2dVertex
 10
59.07030904854642
 20
-96.39927942034441
 30
0.0
  0
SEQEND
  5
6C
330
69
100
AcDbEntity
  8
_U+30EC_U+30A4_U+30E4_U+30FC 1
 62
   179
420
  2234388
370
    25
  0
POLYLINE
  5
6D
330
41
100
AcDbEntity
  8
_U+30EC_U+30A4_U+30E4_U+30FC 1
 62
   179
420
  2234388
370
    25
100
AcDb2dPolyline
 66
     1
 10
0.0
 20
0.0
 30
0.0
  0
VERTEX
  5
6E
330
6D
100
AcDbEntity
  8
_U+30EC_U+30A4_U+30E4_U+30FC 1
 62
   179
420
  2234388
370
    25
100
AcDbVertex
100
AcDb2dVertex
 10
57.07005909957705
 20
-96.39927942034441
 30
0.0
  0
VERTEX
  5
6F
330
6D
100
AcDbEntity
  8
_U+30EC_U+30A4_U+30E4_U+30FC 1
 62
   179
420
  2234388
370
    25
100
AcDbVertex
100
AcDb2dVertex
 10
58.07053685183051
 20
-96.39927942034441
 30
0.0
  0
SEQEND
  5
70
330
6D
100
AcDbEntity
  8
_U+30EC_U+30A4_U+30E4_U+30FC 1
 62
   179
420
  2234388
370
    25
  0
POLYLINE
  5
71
330
41
100
AcDbEntity
  8
_U+30EC_U+30A4_U+30E4_U+30FC 1
 62
   179
420
  2234388
370
    25
100
AcDb2dPolyline
 66
     1
 10
0.0
 20
0.0
 30
0.0
  0
VERTEX
  5
72
330
71
100
AcDbEntity
  8
_U+30EC_U+30A4_U+30E4_U+30FC 1
 62
   179
420
  2234388
370
    25
100
AcDbVertex
100
AcDb2dVertex
 10
41.06569589677126
 20
-82.39858775717828
 30
0.0
  0
VERTEX
  5
73
330
71
100
AcDbEntity
  8
_U+30EC_U+30A4_U+30E4_U+30FC 1
 62
   179
420
  2234388
370
    25
100
AcDbVertex
100
AcDb2dVertex
 10
41.06569589677126
 20
-83.39871275692826
 30
0.0
  0
SEQEND
  5
74
330
71
100
AcDbEntity
  8
_U+30EC_U+30A4_U+30E4_U+30FC 1
 62
   179
420
  2234388
370
    25
  0
POLYLINE
  5
75
330
41
100
AcDbEntity
  8
_U+30EC_U+30A4_U+30E4_U+30FC 1
 62
   179
420
  2234388
370
    25
100
AcDb2dPolyline
 66
     1
 10
0.0
 20
0.0
 30
0.0
  0
VERTEX
  5
76
330
75
100
AcDbEntity
  8
_U+30EC_U+30A4_U+30E4_U+30FC 1
 62
   179
420
  2234388
370
    25
100
AcDbVertex
100
AcDb2dVertex
 10
41.07035256331913
 20
-83.39871275692826
 30
0.0
  0
VERTEX
  5
77
330
75
100
AcDbEntity
  8
_U+30EC_U+30A4_U+30E4_U+30FC 1
 62
   179
420
  2234388
370
    25
100
AcDbVertex
100
AcDb2dVertex
 10
56.07032218063802
 20
-83.39871275692826
 30
0.0
  0
SEQEND
  5
78
330
75
100
AcDbEntity
  8
_U+30EC_U+30A4_U+30E4_U+30FC 1
 62
   179
420
  2234388
370
    25
  0
POLYLINE
  5
79
330
41
100
AcDbEntity
  8
_U+30EC_U+30A4_U+30E4_U+30FC 1
 62
   179
420
  2234388
370
    25
100
AcDb2dPolyline
 66
     1
 10
0.0
 20
0.0
 30
0.0
  0
VERTEX
  5
7A
330
79
100
AcDbEntity
  8
_U+30EC_U+30A4_U+30E4_U+30FC 1
 62
   179
420
  2234388
370
    25
100
AcDbVertex
100
AcDb2dVertex
 10
56.07032218063802
 20
-97.39905164231696
 30
0.0
  0
VERTEX
  5
7B
330
79
100
AcDbEntity
  8
_U+30EC_U+30A4_U+30E4_U+30FC 1
 62
   179
420
  2234388
370
    25
100
AcDbVertex
100
AcDb2dVertex
 10
66.07037248107103
 20
-96.89951830910877
 30
0.0
  0
SEQEND
  5
7C
330
79
100
AcDbEntity
  8
_U+30EC_U+30A4_U+30E4_U+30FC 1
 62
   179
420
  2234388
370
    25
  0
SPLINE
  5
7D
330
41
100
AcDbEntity
  8
_U+30EC_U+30A4_U+30E4_U+30FC 1
 62
   179
420
  2234388
370
     9
100
AcDbSpline
210
0.0
220
0.0
230
1.0
 70
    11
 71
     3
 72
    17
 73
    13
 74
     0
 42
0.0000000001
 43
0.0000000001
 12
1.0
 22
0.0
 32
0.0
 13
1.0
 23
0.0
 33
0.0
 40
0.0
 40
0.0
 40
0.0
 40
0.0
 40
1.0
 40
1.0
 40
1.0
 40
2.0
 40
2.0
 40
2.0
 40
3.0
 40
3.0
 40
3.0
 40
4.0
 40
4.0
 40
4.0
 40
4.0
 10
78.17057939459126
 20
-78.3988285915114
 30
0.0
 10
78.17057939459126
 20
-78.34301914708095
 30
0.0
 10
78.1258138693577
 20
-78.29825164709207
 30
0.0
 10
78.07067273047343
 20
-78.29825164709207
 30
0.0
 10
78.01556884299036
 20
-78.29825164709207
 30
0.0
 10
77.9707660663556
 20
-78.34301914708095
 30
0.0
 10
77.9707660663556
 20
-78.3988285915114
 30
0.0
 10
77.9707660663556
 20
-78.45396775816415
 30
0.0
 10
78.01556884299036
 20
-78.49873525815303
 30
0.0
 10
78.07067273047343
 20
-78.49873525815303
 30
0.0
 10
78.1258138693577
 20
-78.49873525815303
 30
0.0
 10
78.17057939459126
 20
-78.45396775816415
 30
0.0
 10
78.17057939459126
 20
-78.3988285915114
 30
0.0
  0
SPLINE
  5
7E
330
41
100
AcDbEntity
  8
_U+30EC_U+30A4_U+30E4_U+30FC 1
 62
   179
420
  2234388
370
     9
100
AcDbSpline
210
0.0
220
0.0
230
1.0
 70
    11
 71
     3
 72
    17
 73
    13
 74
     0
 42
0.0000000001
 43
0.0000000001
 12
1.0
 22
0.0
 32
0.0
 13
1.0
 23
0.0
 33
0.0
 40
0.0
 40
0.0
 40
0.0
 40
0.0
 40
1.0
 40
1.0
 40
1.0
 40
2.0
 40
2.0
 40
2.0
 40
3.0
 40
3.0
 40
3.0
 40
4.0
 40
4.0
 40
4.0
 40
4.0
 10
85.17032532712398
 20
-82.39858775717828
 30
0.0
 10
85.17032532712398
 20
-82.34348386830304
 30
0.0
 10
85.1255578282661
 20
-82.29868109053632
 30
0.0
 10
85.07041866300614
 20
-82.29868109053632
 30
0.0
 10
85.01531477552307
 20
-82.29868109053632
 30
0.0
 10
84.97051199888831
 20
-82.34348386830304
 30
0.0
 10
84.97051199888831
 20
-82.39858775717828
 30
0.0
 10
84.97051199888831
 20
-82.45372692383104
 30
0.0
 10
85.01531477552307
 20
-82.49849442381992
 30
0.0
 10
85.07041866300614
 20
-82.49849442381992
 30
0.0
 10
85.1255578282661
 20
-82.49849442381992
 30
0.0
 10
85.17032532712398
 20
-82.45372692383104
 30
0.0
 10
85.17032532712398
 20
-82.39858775717828
 30
0.0
  0
SPLINE
  5
7F
330
41
100
AcDbEntity
  8
_U+30EC_U+30A4_U+30E4_U+30FC 1
 62
   179
420
  2234388
370
     9
100
AcDbSpline
210
0.0
220
0.0
230
1.0
 70
    11
 71
     3
 72
    17
 73
    13
 74
     0
 42
0.0000000001
 43
0.0000000001
 12
1.0
 22
0.0
 32
0.0
 13
1.0
 23
0.0
 33
0.0
 40
0.0
 40
0.0
 40
0.0
 40
0.0
 40
1.0
 40
1.0
 40
1.0
 40
2.0
 40
2.0
 40
2.0
 40
3.0
 40
3.0
 40
3.0
 40
4.0
 40
4.0
 40
4.0
 40
4.0
 10
85.17032532712398
 20
-83.39871275692826
 30
0.0
 10
85.17032532712398
 20
-83.34357359027518
 30
0.0
 10
85.1255578282661
 20
-83.2988060902863
 30
0.0
 10
85.07041866300614
 20
-83.2988060902863
 30
0.0
 10
85.01531477552307
 20
-83.2988060902863
 30
0.0
 10
84.97051199888831
 20
-83.34357359027518
 30
0.0
 10
84.97051199888831
 20
-83.39871275692826
 30
0.0
 10
84.97051199888831
 20
-83.45381664580319
 30
0.0
 10
85.01531477552307
 20
-83.4986194235699
 30
0.0
 10
85.07041866300614
 20
-83.4986194235699
 30
0.0
 10
85.1255578282661
 20
-83.4986194235699
 30
0.0
 10
85.17032532712398
 20
-83.45381664580319
 30
0.0
 10
85.17032532712398
 20
-83.39871275692826
 30
0.0
  0
SPLINE
  5
80
330
41
100
AcDbEntity
  8
_U+30EC_U+30A4_U+30E4_U+30FC 1
 62
   179
420
  2234388
370
     9
100
AcDbSpline
210
0.0
220
0.0
230
1.0
 70
    11
 71
     3
 72
    17
 73
    13
 74
     0
 42
0.0000000001
 43
0.0000000001
 12
1.0
 22
0.0
 32
0.0
 13
1.0
 23
0.0
 33
0.0
 40
0.0
 40
0.0
 40
0.0
 40
0.0
 40
1.0
 40
1.0
 40
1.0
 40
2.0
 40
2.0
 40
2.0
 40
3.0
 40
3.0
 40
3.0
 40
4.0
 40
4.0
 40
4.0
 40
4.0
 10
66.17027914518887
 20
-101.3994810857612
 30
0.0
 10
66.17027914518887
 20
-101.3443771968863
 30
0.0
 10
66.12551164633099
 20
-101.2995744191196
 30
0.0
 10
66.07037248107103
 20
-101.2995744191196
 30
0.0
 10
66.01526859358796
 20
-101.2995744191196
 30
0.0
 10
65.97046581695321
 20
-101.3443771968863
 30
0.0
 10
65.97046581695321
 20
-101.3994810857612
 30
0.0
 10
65.97046581695321
 20
-101.4546202524143
 30
0.0
 10
66.01526859358796
 20
-101.4993877524028
 30
0.0
 10
66.07037248107103
 20
-101.4993877524028
 30
0.0
 10
66.12551164633099
 20
-101.4993877524028
 30
0.0
 10
66.17027914518887
 20
-101.4546202524143
 30
0.0
 10
66.17027914518887
 20
-101.3994810857612
 30
0.0
  0
SPLINE
  5
81
330
41
100
AcDbEntity
  8
_U+30EC_U+30A4_U+30E4_U+30FC 1
 62
   179
420
  2234388
370
     9
100
AcDbSpline
210
0.0
220
0.0
230
1.0
 70
    11
 71
     3
 72
    17
 73
    13
 74
     0
 42
0.0000000001
 43
0.0000000001
 12
1.0
 22
0.0
 32
0.0
 13
1.0
 23
0.0
 33
0.0
 40
0.0
 40
0.0
 40
0.0
 40
0.0
 40
1.0
 40
1.0
 40
1.0
 40
2.0
 40
2.0
 40
2.0
 40
3.0
 40
3.0
 40
3.0
 40
4.0
 40
4.0
 40
4.0
 40
4.0
 10
56.17022884475585
 20
-101.3994810857612
 30
0.0
 10
56.17022884475585
 20
-101.3443771968863
 30
0.0
 10
56.12542606812109
 20
-101.2995744191196
 30
0.0
 10
56.07032218063802
 20
-101.2995744191196
 30
0.0
 10
56.01518301537807
 20
-101.2995744191196
 30
0.0
 10
55.97041551652018
 20
-101.3443771968863
 30
0.0
 10
55.97041551652018
 20
-101.3994810857612
 30
0.0
 10
55.97041551652018
 20
-101.4546202524143
 30
0.0
 10
56.01518301537807
 20
-101.4993877524028
 30
0.0
 10
56.07032218063802
 20
-101.4993877524028
 30
0.0
 10
56.12542606812109
 20
-101.4993877524028
 30
0.0
 10
56.17022884475585
 20
-101.4546202524143
 30
0.0
 10
56.17022884475585
 20
-101.3994810857612
 30
0.0
  0
SPLINE
  5
82
330
41
100
AcDbEntity
  8
_U+30EC_U+30A4_U+30E4_U+30FC 1
 62
   179
420
  2234388
370
     9
100
AcDbSpline
210
0.0
220
0.0
230
1.0
 70
    11
 71
     3
 72
    17
 73
    13
 74
     0
 42
0.0000000001
 43
0.0000000001
 12
1.0
 22
0.0
 32
0.0
 13
1.0
 23
0.0
 33
0.0
 40
0.0
 40
0.0
 40
0.0
 40
0.0
 40
1.0
 40
1.0
 40
1.0
 40
2.0
 40
2.0
 40
2.0
 40
3.0
 40
3.0
 40
3.0
 40
4.0
 40
4.0
 40
4.0
 40
4.0
 10
70.17039098758197
 20
-96.39927942034441
 30
0.0
 10
70.17039098758197
 20
-96.3441755314695
 30
0.0
 10
70.12562348872407
 20
-96.29937275370278
 30
0.0
 10
70.07048609359349
 20
-96.29937275370278
 30
0.0
 10
70.01538043598106
 20
-96.29937275370278
 30
0.0
 10
69.97057765934629
 20
-96.3441755314695
 30
0.0
 10
69.97057765934629
 20
-96.39927942034441
 30
0.0
 10
69.97057765934629
 20
-96.45441858699749
 30
0.0
 10
70.01538043598106
 20
-96.49918608698606
 30
0.0
 10
70.07048609359349
 20
-96.49918608698606
 30
0.0
 10
70.12562348872407
 20
-96.49918608698606
 30
0.0
 10
70.17039098758197
 20
-96.45441858699749
 30
0.0
 10
70.17039098758197
 20
-96.39927942034441
 30
0.0
  0
SPLINE
  5
83
330
41
100
AcDbEntity
  8
_U+30EC_U+30A4_U+30E4_U+30FC 1
 62
   179
420
  2234388
370
     9
100
AcDbSpline
210
0.0
220
0.0
230
1.0
 70
    11
 71
     3
 72
    17
 73
    13
 74
     0
 42
0.0000000001
 43
0.0000000001
 12
1.0
 22
0.0
 32
0.0
 13
1.0
 23
0.0
 33
0.0
 40
0.0
 40
0.0
 40
0.0
 40
0.0
 40
1.0
 40
1.0
 40
1.0
 40
2.0
 40
2.0
 40
2.0
 40
3.0
 40
3.0
 40
3.0
 40
4.0
 40
4.0
 40
4.0
 40
4.0
 10
85.17032532712398
 20
-96.39927942034441
 30
0.0
 10
85.17032532712398
 20
-96.3441755314695
 30
0.0
 10
85.1255578282661
 20
-96.29937275370278
 30
0.0
 10
85.07041866300614
 20
-96.29937275370278
 30
0.0
 10
85.01531477552307
 20
-96.29937275370278
 30
0.0
 10
84.97051199888831
 20
-96.3441755314695
 30
0.0
 10
84.97051199888831
 20
-96.39927942034441
 30
0.0
 10
84.97051199888831
 20
-96.45441858699749
 30
0.0
 10
85.01531477552307
 20
-96.49918608698606
 30
0.0
 10
85.07041866300614
 20
-96.49918608698606
 30
0.0
 10
85.1255578282661
 20
-96.49918608698606
 30
0.0
 10
85.17032532712398
 20
-96.45441858699749
 30
0.0
 10
85.17032532712398
 20
-96.39927942034441
 30
0.0
  0
SPLINE
  5
84
330
41
100
AcDbEntity
  8
_U+30EC_U+30A4_U+30E4_U+30FC 1
 62
   179
420
  2234388
370
     9
100
AcDbSpline
210
0.0
220
0.0
230
1.0
 70
    11
 71
     3
 72
    17
 73
    13
 74
     0
 42
0.0000000001
 43
0.0000000001
 12
1.0
 22
0.0
 32
0.0
 13
1.0
 23
0.0
 33
0.0
 40
0.0
 40
0.0
 40
0.0
 40
0.0
 40
1.0
 40
1.0
 40
1.0
 40
2.0
 40
2.0
 40
2.0
 40
3.0
 40
3.0
 40
3.0
 40
4.0
 40
4.0
 40
4.0
 40
4.0
 10
70.17039098758197
 20
-96.89951830910877
 30
0.0
 10
70.17039098758197
 20
-96.8437088646777
 30
0.0
 10
70.12562348872407
 20
-96.79961164246649
 30
0.0
 10
70.07048609359349
 20
-96.79961164246649
 30
0.0
 10
70.01538043598106
 20
-96.79961164246649
 30
0.0
 10
69.97057765934629
 20
-96.8437088646777
 30
0.0
 10
69.97057765934629
 20
-96.89951830910877
 30
0.0
 10
69.97057765934629
 20
-96.9546221979837
 30
0.0
 10
70.01538043598106
 20
-96.99942497575042
 30
0.0
 10
70.07048609359349
 20
-96.99942497575042
 30
0.0
 10
70.12562348872407
 20
-96.99942497575042
 30
0.0
 10
70.17039098758197
 20
-96.9546221979837
 30
0.0
 10
70.17039098758197
 20
-96.89951830910877
 30
0.0
  0
SPLINE
  5
85
330
41
100
AcDbEntity
  8
_U+30EC_U+30A4_U+30E4_U+30FC 1
 62
   179
420
  2234388
370
     9
100
AcDbSpline
210
0.0
220
0.0
230
1.0
 70
    11
 71
     3
 72
    17
 73
    13
 74
     0
 42
0.0000000001
 43
0.0000000001
 12
1.0
 22
0.0
 32
0.0
 13
1.0
 23
0.0
 33
0.0
 40
0.0
 40
0.0
 40
0.0
 40
0.0
 40
1.0
 40
1.0
 40
1.0
 40
2.0
 40
2.0
 40
2.0
 40
3.0
 40
3.0
 40
3.0
 40
4.0
 40
4.0
 40
4.0
 40
4.0
 10
41.17837311611885
 20
-78.3988285915114
 30
0.0
 10
41.17837311611885
 20
-78.34301914708095
 30
0.0
 10
41.13357033948408
 20
-78.29825164709207
 30
0.0
 10
41.07846645200101
 20
-78.29825164709207
 30
0.0
 10
41.02332728674106
 20
-78.29825164709207
 30
0.0
 10
40.97855978788318
 20
-78.34301914708095
 30
0.0
 10
40.97855978788318
 20
-78.3988285915114
 30
0.0
 10
40.97855978788318
 20
-78.45396775816415
 30
0.0
 10
41.02332728674106
 20
-78.49873525815303
 30
0.0
 10
41.07846645200101
 20
-78.49873525815303
 30
0.0
 10
41.13357033948408
 20
-78.49873525815303
 30
0.0
 10
41.17837311611885
 20
-78.45396775816415
 30
0.0
 10
41.17837311611885
 20
-78.3988285915114
 30
0.0
  0
SPLINE
  5
86
330
41
100
AcDbEntity
  8
_U+30EC_U+30A4_U+30E4_U+30FC 1
 62
   179
420
  2234388
370
     9
100
AcDbSpline
210
0.0
220
0.0
230
1.0
 70
    11
 71
     3
 72
    17
 73
    13
 74
     0
 42
0.0000000001
 43
0.0000000001
 12
1.0
 22
0.0
 32
0.0
 13
1.0
 23
0.0
 33
0.0
 40
0.0
 40
0.0
 40
0.0
 40
0.0
 40
1.0
 40
1.0
 40
1.0
 40
2.0
 40
2.0
 40
2.0
 40
3.0
 40
3.0
 40
3.0
 40
4.0
 40
4.0
 40
4.0
 40
4.0
 10
41.23502922578454
 20
-101.3994810857612
 30
0.0
 10
41.23502922578454
 20
-101.3443771968863
 30
0.0
 10
41.19026172692666
 20
-101.2995744191196
 30
0.0
 10
41.13512256166671
 20
-101.2995744191196
 30
0.0
 10
41.08001867418363
 20
-101.2995744191196
 30
0.0
 10
41.03521589754887
 20
-101.3443771968863
 30
0.0
 10
41.03521589754887
 20
-101.3994810857612
 30
0.0
 10
41.03521589754887
 20
-101.4546202524143
 30
0.0
 10
41.08001867418363
 20
-101.4993877524028
 30
0.0
 10
41.13512256166671
 20
-101.4993877524028
 30
0.0
 10
41.19026172692666
 20
-101.4993877524028
 30
0.0
 10
41.23502922578454
 20
-101.4546202524143
 30
0.0
 10
41.23502922578454
 20
-101.3994810857612
 30
0.0
  0
POLYLINE
  5
87
330
41
100
AcDbEntity
  8
_U+30EC_U+30A4_U+30E4_U+30FC 1
 62
   179
420
  2234388
370
     9
100
AcDb2dPolyline
 66
     1
 10
0.0
 20
0.0
 30
0.0
  0
VERTEX
  5
88
330
87
100
AcDbEntity
  8
_U+30EC_U+30A4_U+30E4_U+30FC 1
 62
   179
420
  2234388
370
     9
100
AcDbVertex
100
AcDb2dVertex
 10
85.07041866300614
 20
-82.39858775717828
 30
0.0
  0
VERTEX
  5
89
330
87
100
AcDbEntity
  8
_U+30EC_U+30A4_U+30E4_U+30FC 1
 62
   179
420
  2234388
370
     9
100
AcDbVertex
100
AcDb2dVertex
 10
85.07041866300614
 20
-78.62827525812087
 30
0.0
  0
SEQEND
  5
8A
330
87
100
AcDbEntity
  8
_U+30EC_U+30A4_U+30E4_U+30FC 1
 62
   179
420
  2234388
370
     9
  0
POLYLINE
  5
8B
330
41
100
AcDbEntity
  8
_U+30EC_U+30A4_U+30E4_U+30FC 1
 62
   179
420
  2234388
370
     9
100
AcDb2dPolyline
 66
     1
 10
0.0
 20
0.0
 30
0.0
  0
VERTEX
  5
8C
330
8B
100
AcDbEntity
  8
_U+30EC_U+30A4_U+30E4_U+30FC 1
 62
   179
420
  2234388
370
     9
100
AcDbVertex
100
AcDb2dVertex
 10
85.07041866300614
 20
-82.39858775717828
 30
0.0
  0
VERTEX
  5
8D
330
8B
100
AcDbEntity
  8
_U+30EC_U+30A4_U+30E4_U+30FC 1
 62
   179
420
  2234388
370
     9
100
AcDbVertex
100
AcDb2dVertex
 10
85.07041866300614
 20
-83.39871275692826
 30
0.0
  0
SEQEND
  5
8E
330
8B
100
AcDbEntity
  8
_U+30EC_U+30A4_U+30E4_U+30FC 1
 62
   179
420
  2234388
370
     9
  0
POLYLINE
  5
8F
330
41
100
AcDbEntity
  8
_U+30EC_U+30A4_U+30E4_U+30FC 1
 62
   179
420
  2234388
370
     9
100
AcDb2dPolyline
 66
     1
 10
0.0
 20
0.0
 30
0.0
  0
VERTEX
  5
90
330
8F
100
AcDbEntity
  8
_U+30EC_U+30A4_U+30E4_U+30FC 1
 62
   179
420
  2234388
370
     9
100
AcDbVertex
100
AcDb2dVertex
 10
83.61041258914288
 20
-82.39858775717828
 30
0.0
  0
VERTEX
  5
91
330
8F
100
AcDbEntity
  8
_U+30EC_U+30A4_U+30E4_U+30FC 1
 62
   179
420
  2234388
370
     9
100
AcDbVertex
100
AcDb2dVertex
 10
86.07019085972205
 20
-82.39858775717828
 30
0.0
  0
SEQEND
  5
92
330
8F
100
AcDbEntity
  8
_U+30EC_U+30A4_U+30E4_U+30FC 1
 62
   179
420
  2234388
370
     9
  0
POLYLINE
  5
93
330
41
100
AcDbEntity
  8
_U+30EC_U+30A4_U+30E4_U+30FC 1
 62
   179
420
  2234388
370
     9
100
AcDb2dPolyline
 66
     1
 10
0.0
 20
0.0
 30
0.0
  0
VERTEX
  5
94
330
93
100
AcDbEntity
  8
_U+30EC_U+30A4_U+30E4_U+30FC 1
 62
   179
420
  2234388
370
     9
100
AcDbVertex
100
AcDb2dVertex
 10
83.61041258914288
 20
-83.39871275692826
 30
0.0
  0
VERTEX
  5
95
330
93
100
AcDbEntity
  8
_U+30EC_U+30A4_U+30E4_U+30FC 1
 62
   179
420
  2234388
370
     9
100
AcDbVertex
100
AcDb2dVertex
 10
86.07019085972205
 20
-83.39871275692826
 30
0.0
  0
SEQEND
  5
96
330
93
100
AcDbEntity
  8
_U+30EC_U+30A4_U+30E4_U+30FC 1
 62
   179
420
  2234388
370
     9
  0
INSERT
  5
98
330
41
100
AcDbEntity
  8
_U+30EC_U+30A4_U+30E4_U+30FC 1
100
AcDbBlockReference
  2
block 3
 10
0.0
 20
0.0
 30
0.0
  0
POLYLINE
  5
9D
330
41
100
AcDbEntity
  8
_U+30EC_U+30A4_U+30E4_U+30FC 1
 62
   179
420
  2234388
370
     9
100
AcDb2dPolyline
 66
     1
 10
0.0
 20
0.0
 30
0.0
  0
VERTEX
  5
9E
330
9D
100
AcDbEntity
  8
_U+30EC_U+30A4_U+30E4_U+30FC 1
 62
   179
420
  2234388
370
     9
100
AcDbVertex
100
AcDb2dVertex
 10
56.07032218063802
 20
-101.3994810857612
 30
0.0
  0
VERTEX
  5
9F
330
9D
100
AcDbEntity
  8
_U+30EC_U+30A4_U+30E4_U+30FC 1
 62
   179
420
  2234388
370
     9
100
AcDbVertex
100
AcDb2dVertex
 10
66.07037248107103
 20
-101.3994810857612
 30
0.0
  0
SEQEND
  5
A0
330
9D
100
AcDbEntity
  8
_U+30EC_U+30A4_U+30E4_U+30FC 1
 62
   179
420
  2234388
370
     9
  0
POLYLINE
  5
A1
330
41
100
AcDbEntity
  8
_U+30EC_U+30A4_U+30E4_U+30FC 1
 62
   179
420
  2234388
370
     9
100
AcDb2dPolyline
 66
     1
 10
0.0
 20
0.0
 30
0.0
  0
VERTEX
  5
A2
330
A1
100
AcDbEntity
  8
_U+30EC_U+30A4_U+30E4_U+30FC 1
 62
   179
420
  2234388
370
     9
100
AcDbVertex
100
AcDb2dVertex
 10
56.07032218063802
 20
-99.93947497501502
 30
0.0
  0
VERTEX
  5
A3
330
A1
100
AcDbEntity
  8
_U+30EC_U+30A4_U+30E4_U+30FC 1
 62
   179
420
  2234388
370
     9
100
AcDbVertex
100
AcDb2dVertex
 10
56.07032218063802
 20
-102.3992533077337
 30
0.0
  0
SEQEND
  5
A4
330
A1
100
AcDbEntity
  8
_U+30EC_U+30A4_U+30E4_U+30FC 1
 62
   179
420
  2234388
370
     9
  0
POLYLINE
  5
A5
330
41
100
AcDbEntity
  8
_U+30EC_U+30A4_U+30E4_U+30FC 1
 62
   179
420
  2234388
370
     9
100
AcDb2dPolyline
 66
     1
 10
0.0
 20
0.0
 30
0.0
  0
VERTEX
  5
A6
330
A5
100
AcDbEntity
  8
_U+30EC_U+30A4_U+30E4_U+30FC 1
 62
   179
420
  2234388
370
     9
100
AcDbVertex
100
AcDb2dVertex
 10
66.07037248107103
 20
-99.23942275296803
 30
0.0
  0
VERTEX
  5
A7
330
A5
100
AcDbEntity
  8
_U+30EC_U+30A4_U+30E4_U+30FC 1
 62
   179
420
  2234388
370
     9
100
AcDbVertex
100
AcDb2dVertex
 10
66.07037248107103
 20
-102.3992533077337
 30
0.0
  0
SEQEND
  5
A8
330
A5
100
AcDbEntity
  8
_U+30EC_U+30A4_U+30E4_U+30FC 1
 62
   179
420
  2234388
370
     9
  0
INSERT
  5
AA
330
41
100
AcDbEntity
  8
_U+30EC_U+30A4_U+30E4_U+30FC 1
100
AcDbBlockReference
  2
block 4
 10
0.0
 20
0.0
 30
0.0
  0
POLYLINE
  5
B2
330
41
100
AcDbEntity
  8
_U+30EC_U+30A4_U+30E4_U+30FC 1
 62
   179
420
  2234388
370
     9
100
AcDb2dPolyline
 66
     1
 10
0.0
 20
0.0
 30
0.0
  0
VERTEX
  5
B3
330
B2
100
AcDbEntity
  8
_U+30EC_U+30A4_U+30E4_U+30FC 1
 62
   179
420
  2234388
370
     9
100
AcDbVertex
100
AcDb2dVertex
 10
41.07035256331913
 20
-101.3994810857612
 30
0.0
  0
VERTEX
  5
B4
330
B2
100
AcDbEntity
  8
_U+30EC_U+30A4_U+30E4_U+30FC 1
 62
   179
420
  2234388
370
     9
100
AcDbVertex
100
AcDb2dVertex
 10
56.07032218063802
 20
-101.3994810857612
 30
0.0
  0
SEQEND
  5
B5
330
B2
100
AcDbEntity
  8
_U+30EC_U+30A4_U+30E4_U+30FC 1
 62
   179
420
  2234388
370
     9
  0
POLYLINE
  5
B6
330
41
100
AcDbEntity
  8
_U+30EC_U+30A4_U+30E4_U+30FC 1
 62
   179
420
  2234388
370
     9
100
AcDb2dPolyline
 66
     1
 10
0.0
 20
0.0
 30
0.0
  0
VERTEX
  5
B7
330
B6
100
AcDbEntity
  8
_U+30EC_U+30A4_U+30E4_U+30FC 1
 62
   179
420
  2234388
370
     9
100
AcDbVertex
100
AcDb2dVertex
 10
41.13512256166671
 20
-85.93910081184848
 30
0.0
  0
VERTEX
  5
B8
330
B6
100
AcDbEntity
  8
_U+30EC_U+30A4_U+30E4_U+30FC 1
 62
   179
420
  2234388
370
     9
100
AcDbVertex
100
AcDb2dVertex
 10
41.13512256166671
 20
-102.3992533077337
 30
0.0
  0
SEQEND
  5
B9
330
B6
100
AcDbEntity
  8
_U+30EC_U+30A4_U+30E4_U+30FC 1
 62
   179
420
  2234388
370
     9
  0
INSERT
  5
BB
330
41
100
AcDbEntity
  8
_U+30EC_U+30A4_U+30E4_U+30FC 1
100
AcDbBlockReference
  2
block 5
 10
0.0
 20
0.0
 30
0.0
  0
POLYLINE
  5
C2
330
41
100
AcDbEntity
  8
_U+30EC_U+30A4_U+30E4_U+30FC 1
 62
   179
420
  2234388
370
     9
100
AcDb2dPolyline
 66
     1
 10
0.0
 20
0.0
 30
0.0
  0
VERTEX
  5
C3
330
C2
100
AcDbEntity
  8
_U+30EC_U+30A4_U+30E4_U+30FC 1
 62
   179
420
  2234388
370
     9
100
AcDbVertex
100
AcDb2dVertex
 10
78.06587495281805
 20
-78.3988285915114
 30
0.0
  0
VERTEX
  5
C4
330
C2
100
AcDbEntity
  8
_U+30EC_U+30A4_U+30E4_U+30FC 1
 62
   179
420
  2234388
370
     9
100
AcDbVertex
100
AcDb2dVertex
 10
41.06569589677126
 20
-78.3988285915114
 30
0.0
  0
SEQEND
  5
C5
330
C2
100
AcDbEntity
  8
_U+30EC_U+30A4_U+30E4_U+30FC 1
 62
   179
420
  2234388
370
     9
  0
POLYLINE
  5
C6
330
41
100
AcDbEntity
  8
_U+30EC_U+30A4_U+30E4_U+30FC 1
 62
   179
420
  2234388
370
     9
100
AcDb2dPolyline
 66
     1
 10
0.0
 20
0.0
 30
0.0
  0
VERTEX
  5
C7
330
C6
100
AcDbEntity
  8
_U+30EC_U+30A4_U+30E4_U+30FC 1
 62
   179
420
  2234388
370
     9
100
AcDbVertex
100
AcDb2dVertex
 10
78.07067273047343
 20
-79.85816442447991
 30
0.0
  0
VERTEX
  5
C8
330
C6
100
AcDbEntity
  8
_U+30EC_U+30A4_U+30E4_U+30FC 1
 62
   179
420
  2234388
370
     9
100
AcDbVertex
100
AcDb2dVertex
 10
78.07067273047343
 20
-77.3983860917615
 30
0.0
  0
SEQEND
  5
C9
330
C6
100
AcDbEntity
  8
_U+30EC_U+30A4_U+30E4_U+30FC 1
 62
   179
420
  2234388
370
     9
  0
POLYLINE
  5
CA
330
41
100
AcDbEntity
  8
_U+30EC_U+30A4_U+30E4_U+30FC 1
 62
   179
420
  2234388
370
     9
100
AcDb2dPolyline
 66
     1
 10
0.0
 20
0.0
 30
0.0
  0
VERTEX
  5
CB
330
CA
100
AcDbEntity
  8
_U+30EC_U+30A4_U+30E4_U+30FC 1
 62
   179
420
  2234388
370
     9
100
AcDbVertex
100
AcDb2dVertex
 10
41.07846645200101
 20
-79.85816442447991
 30
0.0
  0
VERTEX
  5
CC
330
CA
100
AcDbEntity
  8
_U+30EC_U+30A4_U+30E4_U+30FC 1
 62
   179
420
  2234388
370
     9
100
AcDbVertex
100
AcDb2dVertex
 10
41.07846645200101
 20
-77.3983860917615
 30
0.0
  0
SEQEND
  5
CD
330
CA
100
AcDbEntity
  8
_U+30EC_U+30A4_U+30E4_U+30FC 1
 62
   179
420
  2234388
370
     9
  0
INSERT
  5
CF
330
41
100
AcDbEntity
  8
_U+30EC_U+30A4_U+30E4_U+30FC 1
100
AcDbBlockReference
  2
block 6
 10
0.0
 20
0.0
 30
0.0
  0
POLYLINE
  5
D6
330
41
100
AcDbEntity
  8
_U+30EC_U+30A4_U+30E4_U+30FC 1
 62
   179
420
  2234388
370
     9
100
AcDb2dPolyline
 66
     1
 10
0.0
 20
0.0
 30
0.0
  0
VERTEX
  5
D7
330
D6
100
AcDbEntity
  8
_U+30EC_U+30A4_U+30E4_U+30FC 1
 62
   179
420
  2234388
370
     9
100
AcDbVertex
100
AcDb2dVertex
 10
70.07048609359349
 20
-96.39927942034441
 30
0.0
  0
VERTEX
  5
D8
330
D6
100
AcDbEntity
  8
_U+30EC_U+30A4_U+30E4_U+30FC 1
 62
   179
420
  2234388
370
     9
100
AcDbVertex
100
AcDb2dVertex
 10
70.07048609359349
 20
-91.14137358832551
 30
0.0
  0
SEQEND
  5
D9
330
D6
100
AcDbEntity
  8
_U+30EC_U+30A4_U+30E4_U+30FC 1
 62
   179
420
  2234388
370
     9
  0
POLYLINE
  5
DA
330
41
100
AcDbEntity
  8
_U+30EC_U+30A4_U+30E4_U+30FC 1
 62
   179
420
  2234388
370
     9
100
AcDb2dPolyline
 66
     1
 10
0.0
 20
0.0
 30
0.0
  0
VERTEX
  5
DB
330
DA
100
AcDbEntity
  8
_U+30EC_U+30A4_U+30E4_U+30FC 1
 62
   179
420
  2234388
370
     9
100
AcDbVertex
100
AcDb2dVertex
 10
70.07048609359349
 20
-96.39927942034441
 30
0.0
  0
VERTEX
  5
DC
330
DA
100
AcDbEntity
  8
_U+30EC_U+30A4_U+30E4_U+30FC 1
 62
   179
420
  2234388
370
     9
100
AcDbVertex
100
AcDb2dVertex
 10
70.07048609359349
 20
-97.89929053108067
 30
0.0
  0
SEQEND
  5
DD
330
DA
100
AcDbEntity
  8
_U+30EC_U+30A4_U+30E4_U+30FC 1
 62
   179
420
  2234388
370
     9
  0
POLYLINE
  5
DE
330
41
100
AcDbEntity
  8
_U+30EC_U+30A4_U+30E4_U+30FC 1
 62
   179
420
  2234388
370
     9
100
AcDb2dPolyline
 66
     1
 10
0.0
 20
0.0
 30
0.0
  0
VERTEX
  5
DF
330
DE
100
AcDbEntity
  8
_U+30EC_U+30A4_U+30E4_U+30FC 1
 62
   179
420
  2234388
370
     9
100
AcDbVertex
100
AcDb2dVertex
 10
68.61012547183209
 20
-96.39927942034441
 30
0.0
  0
VERTEX
  5
E0
330
DE
100
AcDbEntity
  8
_U+30EC_U+30A4_U+30E4_U+30FC 1
 62
   179
420
  2234388
370
     9
100
AcDbVertex
100
AcDb2dVertex
 10
71.07025831556604
 20
-96.39927942034441
 30
0.0
  0
SEQEND
  5
E1
330
DE
100
AcDbEntity
  8
_U+30EC_U+30A4_U+30E4_U+30FC 1
 62
   179
420
  2234388
370
     9
  0
POLYLINE
  5
E2
330
41
100
AcDbEntity
  8
_U+30EC_U+30A4_U+30E4_U+30FC 1
 62
   179
420
  2234388
370
     9
100
AcDb2dPolyline
 66
     1
 10
0.0
 20
0.0
 30
0.0
  0
VERTEX
  5
E3
330
E2
100
AcDbEntity
  8
_U+30EC_U+30A4_U+30E4_U+30FC 1
 62
   179
420
  2234388
370
     9
100
AcDbVertex
100
AcDb2dVertex
 10
68.61012547183209
 20
-96.89951830910877
 30
0.0
  0
VERTEX
  5
E4
330
E2
100
AcDbEntity
  8
_U+30EC_U+30A4_U+30E4_U+30FC 1
 62
   179
420
  2234388
370
     9
100
AcDbVertex
100
AcDb2dVertex
 10
71.07025831556604
 20
-96.89951830910877
 30
0.0
  0
SEQEND
  5
E5
330
E2
100
AcDbEntity
  8
_U+30EC_U+30A4_U+30E4_U+30FC 1
 62
   179
420
  2234388
370
     9
  0
INSERT
  5
E7
330
41
100
AcDbEntity
  8
_U+30EC_U+30A4_U+30E4_U+30FC 1
100
AcDbBlockReference
  2
block 7
 10
0.0
 20
0.0
 30
0.0
  0
POLYLINE
  5
F7
330
41
100
AcDbEntity
  8
_U+30EC_U+30A4_U+30E4_U+30FC 1
 62
   179
420
  2234388
370
     9
100
AcDb2dPolyline
 66
     1
 10
0.0
 20
0.0
 30
0.0
  0
VERTEX
  5
F8
330
F7
100
AcDbEntity
  8
_U+30EC_U+30A4_U+30E4_U+30FC 1
 62
   179
420
  2234388
370
     9
100
AcDbVertex
100
AcDb2dVertex
 10
85.07041866300614
 20
-83.39871275692826
 30
0.0
  0
VERTEX
  5
F9
330
F7
100
AcDbEntity
  8
_U+30EC_U+30A4_U+30E4_U+30FC 1
 62
   179
420
  2234388
370
     9
100
AcDbVertex
100
AcDb2dVertex
 10
85.07041866300614
 20
-96.39927942034441
 30
0.0
  0
SEQEND
  5
FA
330
F7
100
AcDbEntity
  8
_U+30EC_U+30A4_U+30E4_U+30FC 1
 62
   179
420
  2234388
370
     9
  0
POLYLINE
  5
FB
330
41
100
AcDbEntity
  8
_U+30EC_U+30A4_U+30E4_U+30FC 1
 62
   179
420
  2234388
370
     9
100
AcDb2dPolyline
 66
     1
 10
0.0
 20
0.0
 30
0.0
  0
VERTEX
  5
FC
330
FB
100
AcDbEntity
  8
_U+30EC_U+30A4_U+30E4_U+30FC 1
 62
   179
420
  2234388
370
     9
100
AcDbVertex
100
AcDb2dVertex
 10
68.61012547183209
 20
-96.39927942034441
 30
0.0
  0
VERTEX
  5
FD
330
FB
100
AcDbEntity
  8
_U+30EC_U+30A4_U+30E4_U+30FC 1
 62
   179
420
  2234388
370
     9
100
AcDbVertex
100
AcDb2dVertex
 10
86.07019085972205
 20
-96.39927942034441
 30
0.0
  0
SEQEND
  5
FE
330
FB
100
AcDbEntity
  8
_U+30EC_U+30A4_U+30E4_U+30FC 1
 62
   179
420
  2234388
370
     9
  0
INSERT
  5
100
330
41
100
AcDbEntity
  8
_U+30EC_U+30A4_U+30E4_U+30FC 1
100
AcDbBlockReference
  2
block 8
 10
0.0
 20
0.0
 30
0.0
  0
ENDBLK
  5
44
330
41
100
AcDbEntity
  8
0
100
AcDbBlockEnd
  0
BLOCK
  5
99
330
97
100
AcDbEntity
  8
0
100
AcDbBlockBegin
  2
block 3
 70
     0
 10
0.0
 20
0.0
 30
0.0
  3
block 3
  1

  0
SPLINE
  5
9B
330
97
100
AcDbEntity
  8
_U+30EC_U+30A4_U+30E4_U+30FC 1
370
     0
100
AcDbSpline
210
0.0
220
0.0
230
1.0
 70
    11
 71
     3
 72
    26
 73
    22
 74
     0
 42
0.0000000001
 43
0.0000000001
 12
1.0
 22
0.0
 32
0.0
 13
1.0
 23
0.0
 33
0.0
 40
0.0
 40
0.0
 40
0.0
 40
0.0
 40
1.0
 40
1.0
 40
1.0
 40
2.0
 40
2.0
 40
2.0
 40
3.0
 40
3.0
 40
3.0
 40
4.0
 40
4.0
 40
4.0
 40
5.0
 40
5.0
 40
5.0
 40
6.0
 40
6.0
 40
6.0
 40
7.0
 40
7.0
 40
7.0
 40
7.0
 10
83.7688747620439
 20
-79.40772838726613
 30
0.0
 10
83.7688747620439
 20
-79.40772838726613
 30
0.0
 10
82.66472165902132
 20
-79.40772838726613
 30
0.0
 10
82.66472165902132
 20
-79.40772838726613
 30
0.0
 10
82.66472165902132
 20
-79.40772838726613
 30
0.0
 10
82.66472165902132
 20
-79.76050616495571
 30
0.0
 10
82.66472165902132
 20
-79.76050616495571
 30
0.0
 10
82.66472165902132
 20
-79.76050616495571
 30
0.0
 10
82.51658255315559
 20
-79.76050616495571
 30
0.0
 10
82.51658255315559
 20
-79.76050616495571
 30
0.0
 10
82.501768642569
 20
-79.40548907520072
 30
0.0
 10
82.33881562611668
 20
-79.35570744543885
 30
0.0
 10
82.2244384560064
 20
-79.32401256697456
 30
0.0
 10
82.2244384560064
 20
-79.32401256697456
 30
0.0
 10
82.2244384560064
 20
-79.168121996267
 30
0.0
 10
82.2244384560064
 20
-79.168121996267
 30
0.0
 10
82.2244384560064
 20
-79.168121996267
 30
0.0
 10
83.7688747620439
 20
-79.168121996267
 30
0.0
 10
83.7688747620439
 20
-79.168121996267
 30
0.0
 10
83.7688747620439
 20
-79.168121996267
 30
0.0
 10
83.7688747620439
 20
-79.40772838726613
 30
0.0
 10
83.7688747620439
 20
-79.40772838726613
 30
0.0
  0
HATCH
  5
9C
330
97
100
AcDbEntity
  8
_U+30EC_U+30A4_U+30E4_U+30FC 1
 62
   179
420
  2234388
100
AcDbHatch
 10
0.0
 20
0.0
 30
0.0
210
0.0
220
0.0
230
1.0
  2
SOLID
 70
     1
 71
     0
 91
        1
 92
        1
 93
        1
 72
     4
 94
        3
 73
     0
 74
     1
 95
       26
 96
       22
 40
0.0
 40
0.0
 40
0.0
 40
0.0
 40
1.0
 40
1.0
 40
1.0
 40
2.0
 40
2.0
 40
2.0
 40
3.0
 40
3.0
 40
3.0
 40
4.0
 40
4.0
 40
4.0
 40
5.0
 40
5.0
 40
5.0
 40
6.0
 40
6.0
 40
6.0
 40
7.0
 40
7.0
 40
7.0
 40
7.0
 10
83.7688747620439
 20
-79.40772838726613
 10
83.7688747620439
 20
-79.40772838726613
 10
82.66472165902132
 20
-79.40772838726613
 10
82.66472165902132
 20
-79.40772838726613
 10
82.66472165902132
 20
-79.40772838726613
 10
82.66472165902132
 20
-79.76050616495571
 10
82.66472165902132
 20
-79.76050616495571
 10
82.66472165902132
 20
-79.76050616495571
 10
82.51658255315559
 20
-79.76050616495571
 10
82.51658255315559
 20
-79.76050616495571
 10
82.501768642569
 20
-79.40548907520072
 10
82.33881562611668
 20
-79.35570744543885
 10
82.2244384560064
 20
-79.32401256697456
 10
82.2244384560064
 20
-79.32401256697456
 10
82.2244384560064
 20
-79.168121996267
 10
82.2244384560064
 20
-79.168121996267
 10
82.2244384560064
 20
-79.168121996267
 10
83.7688747620439
 20
-79.168121996267
 10
83.7688747620439
 20
-79.168121996267
 10
83.7688747620439
 20
-79.168121996267
 10
83.7688747620439
 20
-79.40772838726613
 10
83.7688747620439
 20
-79.40772838726613
 97
        0
 97
        0
 75
     2
 76
     1
 98
        0
  0
ENDBLK
  5
9A
330
97
100
AcDbEntity
  8
0
100
AcDbBlockEnd
  0
BLOCK
  5
AB
330
A9
100
AcDbEntity
  8
0
100
AcDbBlockBegin
  2
block 4
 70
     0
 10
0.0
 20
0.0
 30
0.0
  3
block 4
  1

  0
SPLINE
  5
AD
330
A9
100
AcDbEntity
  8
_U+30EC_U+30A4_U+30E4_U+30FC 1
370
     0
100
AcDbSpline
210
0.0
220
0.0
230
1.0
 70
    11
 71
     3
 72
    26
 73
    22
 74
     0
 42
0.0000000001
 43
0.0000000001
 12
1.0
 22
0.0
 32
0.0
 13
1.0
 23
0.0
 33
0.0
 40
0.0
 40
0.0
 40
0.0
 40
0.0
 40
1.0
 40
1.0
 40
1.0
 40
2.0
 40
2.0
 40
2.0
 40
3.0
 40
3.0
 40
3.0
 40
4.0
 40
4.0
 40
4.0
 40
5.0
 40
5.0
 40
5.0
 40
6.0
 40
6.0
 40
6.0
 40
7.0
 40
7.0
 40
7.0
 40
7.0
 10
60.39390189462375
 20
-100.096560304837
 30
0.0
 10
60.39390189462375
 20
-100.096560304837
 30
0.0
 10
60.39390189462375
 20
-98.9924072018144
 30
0.0
 10
60.39390189462375
 20
-98.9924072018144
 30
0.0
 10
60.39390189462375
 20
-98.9924072018144
 30
0.0
 10
60.04146862648269
 20
-98.9924072018144
 30
0.0
 10
60.04146862648269
 20
-98.9924072018144
 30
0.0
 10
60.04146862648269
 20
-98.9924072018144
 30
0.0
 10
60.04146862648269
 20
-98.84426809594866
 30
0.0
 10
60.04146862648269
 20
-98.84426809594866
 30
0.0
 10
60.39631346146342
 20
-98.82945418536208
 30
0.0
 10
60.44592283645103
 20
-98.66650116890976
 30
0.0
 10
60.47761771491532
 20
-98.55212399879947
 30
0.0
 10
60.47761771491532
 20
-98.55212399879947
 30
0.0
 10
60.63368054039714
 20
-98.55212399879947
 30
0.0
 10
60.63368054039714
 20
-98.55212399879947
 30
0.0
 10
60.63368054039714
 20
-98.55212399879947
 30
0.0
 10
60.63368054039714
 20
-100.096560304837
 30
0.0
 10
60.63368054039714
 20
-100.096560304837
 30
0.0
 10
60.63368054039714
 20
-100.096560304837
 30
0.0
 10
60.39390189462375
 20
-100.096560304837
 30
0.0
 10
60.39390189462375
 20
-100.096560304837
 30
0.0
  0
HATCH
  5
AE
330
A9
100
AcDbEntity
  8
_U+30EC_U+30A4_U+30E4_U+30FC 1
 62
   179
420
  2234388
100
AcDbHatch
 10
0.0
 20
0.0
 30
0.0
210
0.0
220
0.0
230
1.0
  2
SOLID
 70
     1
 71
     0
 91
        1
 92
        1
 93
        1
 72
     4
 94
        3
 73
     0
 74
     1
 95
       26
 96
       22
 40
0.0
 40
0.0
 40
0.0
 40
0.0
 40
1.0
 40
1.0
 40
1.0
 40
2.0
 40
2.0
 40
2.0
 40
3.0
 40
3.0
 40
3.0
 40
4.0
 40
4.0
 40
4.0
 40
5.0
 40
5.0
 40
5.0
 40
6.0
 40
6.0
 40
6.0
 40
7.0
 40
7.0
 40
7.0
 40
7.0
 10
60.39390189462375
 20
-100.096560304837
 10
60.39390189462375
 20
-100.096560304837
 10
60.39390189462375
 20
-98.9924072018144
 10
60.39390189462375
 20
-98.9924072018144
 10
60.39390189462375
 20
-98.9924072018144
 10
60.04146862648269
 20
-98.9924072018144
 10
60.04146862648269
 20
-98.9924072018144
 10
60.04146862648269
 20
-98.9924072018144
 10
60.04146862648269
 20
-98.84426809594866
 10
60.04146862648269
 20
-98.84426809594866
 10
60.39631346146342
 20
-98.82945418536208
 10
60.44592283645103
 20
-98.66650116890976
 10
60.47761771491532
 20
-98.55212399879947
 10
60.47761771491532
 20
-98.55212399879947
 10
60.63368054039714
 20
-98.55212399879947
 10
60.63368054039714
 20
-98.55212399879947
 10
60.63368054039714
 20
-98.55212399879947
 10
60.63368054039714
 20
-100.096560304837
 10
60.63368054039714
 20
-100.096560304837
 10
60.63368054039714
 20
-100.096560304837
 10
60.39390189462375
 20
-100.096560304837
 10
60.39390189462375
 20
-100.096560304837
 97
        0
 97
        0
 75
     2
 76
     1
 98
        0
  0
SPLINE
  5
AF
330
A9
100
AcDbEntity
  8
_U+30EC_U+30A4_U+30E4_U+30FC 1
370
     0
100
AcDbSpline
210
0.0
220
0.0
230
1.0
 70
    11
 71
     3
 72
    29
 73
    25
 74
     0
 42
0.0000000001
 43
0.0000000001
 12
1.0
 22
0.0
 32
0.0
 13
1.0
 23
0.0
 33
0.0
 40
0.0
 40
0.0
 40
0.0
 40
0.0
 40
1.0
 40
1.0
 40
1.0
 40
2.0
 40
2.0
 40
2.0
 40
3.0
 40
3.0
 40
3.0
 40
4.0
 40
4.0
 40
4.0
 40
5.0
 40
5.0
 40
5.0
 40
6.0
 40
6.0
 40
6.0
 40
7.0
 40
7.0
 40
7.0
 40
8.0
 40
8.0
 40
8.0
 40
8.0
 10
62.12885198099557
 20
-99.91879337779808
 30
0.0
 10
62.0134412822397
 20
-100.1282551833013
 30
0.0
 10
61.82809514513325
 20
-100.1472032084701
 30
0.0
 10
61.70372719811574
 20
-100.1472032084701
 30
0.0
 10
61.5321614429503
 20
-100.1472032084701
 30
0.0
 10
61.3805772415993
 20
-100.1006944194193
 30
0.0
 10
61.27894692478444
 20
-99.91879337779808
 30
0.0
 10
61.16801485015939
 20
-99.72414548288147
 30
0.0
 10
61.14768878679642
 20
-99.4874674230448
 30
0.0
 10
61.14768878679642
 20
-99.32451440659248
 30
0.0
 10
61.14768878679642
 20
-99.18050941530905
 30
0.0
 10
61.16594779286824
 20
-98.92867293533727
 30
0.0
 10
61.27894692478444
 20
-98.72989092583836
 30
0.0
 10
61.39401311399178
 20
-98.52697480175715
 30
0.0
 10
61.56592337870575
 20
-98.50354815245745
 30
0.0
 10
61.70372719811574
 20
-98.50354815245745
 30
0.0
 10
61.87357040553855
 20
-98.50354815245745
 30
0.0
 10
62.0272216641807
 20
-98.54798988421717
 30
0.0
 10
62.12885198099557
 20
-98.72989092583836
 30
0.0
 10
62.23530543148978
 20
-98.92247176346383
 30
0.0
 10
62.26011011898358
 20
-99.1508815941359
 30
0.0
 10
62.26011011898358
 20
-99.32451440659248
 30
0.0
 10
62.26011011898358
 20
-99.4957356522094
 30
0.0
 10
62.23737248878093
 20
-99.72621254017263
 30
0.0
 10
62.12885198099557
 20
-99.91879337779808
 30
0.0
  0
SPLINE
  5
B0
330
A9
100
AcDbEntity
  8
_U+30EC_U+30A4_U+30E4_U+30FC 1
370
     0
100
AcDbSpline
210
0.0
220
0.0
230
1.0
 70
    11
 71
     3
 72
    17
 73
    13
 74
     0
 42
0.0000000001
 43
0.0000000001
 12
1.0
 22
0.0
 32
0.0
 13
1.0
 23
0.0
 33
0.0
 40
0.0
 40
0.0
 40
0.0
 40
0.0
 40
1.0
 40
1.0
 40
1.0
 40
2.0
 40
2.0
 40
2.0
 40
3.0
 40
3.0
 40
3.0
 40
4.0
 40
4.0
 40
4.0
 40
4.0
 10
61.70372719811574
 20
-98.69612899008291
 30
0.0
 10
61.4370768075574
 20
-98.69612899008291
 30
0.0
 10
61.3874674325698
 20
-98.97966034851898
 30
0.0
 10
61.3874674325698
 20
-99.32451440659248
 30
0.0
 10
61.3874674325698
 20
-99.64387475807514
 30
0.0
 10
61.42570799245608
 20
-99.95255531355353
 30
0.0
 10
61.70372719811574
 20
-99.95255531355353
 30
0.0
 10
61.96831053138293
 20
-99.95255531355353
 30
0.0
 10
62.0203314732102
 20
-99.67143552195715
 30
0.0
 10
62.0203314732102
 20
-99.32451440659248
 30
0.0
 10
62.0203314732102
 20
-99.0048095455613
 30
0.0
 10
61.97967934648425
 20
-98.69612899008291
 30
0.0
 10
61.70372719811574
 20
-98.69612899008291
 30
0.0
  0
HATCH
  5
B1
330
A9
100
AcDbEntity
  8
_U+30EC_U+30A4_U+30E4_U+30FC 1
 62
   179
420
  2234388
100
AcDbHatch
 10
0.0
 20
0.0
 30
0.0
210
0.0
220
0.0
230
1.0
  2
SOLID
 70
     1
 71
     0
 91
        2
 92
        1
 93
        1
 72
     4
 94
        3
 73
     0
 74
     1
 95
       29
 96
       25
 40
0.0
 40
0.0
 40
0.0
 40
0.0
 40
1.0
 40
1.0
 40
1.0
 40
2.0
 40
2.0
 40
2.0
 40
3.0
 40
3.0
 40
3.0
 40
4.0
 40
4.0
 40
4.0
 40
5.0
 40
5.0
 40
5.0
 40
6.0
 40
6.0
 40
6.0
 40
7.0
 40
7.0
 40
7.0
 40
8.0
 40
8.0
 40
8.0
 40
8.0
 10
62.12885198099557
 20
-99.91879337779808
 10
62.0134412822397
 20
-100.1282551833013
 10
61.82809514513325
 20
-100.1472032084701
 10
61.70372719811574
 20
-100.1472032084701
 10
61.5321614429503
 20
-100.1472032084701
 10
61.3805772415993
 20
-100.1006944194193
 10
61.27894692478444
 20
-99.91879337779808
 10
61.16801485015939
 20
-99.72414548288147
 10
61.14768878679642
 20
-99.4874674230448
 10
61.14768878679642
 20
-99.32451440659248
 10
61.14768878679642
 20
-99.18050941530905
 10
61.16594779286824
 20
-98.92867293533727
 10
61.27894692478444
 20
-98.72989092583836
 10
61.39401311399178
 20
-98.52697480175715
 10
61.56592337870575
 20
-98.50354815245745
 10
61.70372719811574
 20
-98.50354815245745
 10
61.87357040553855
 20
-98.50354815245745
 10
62.0272216641807
 20
-98.54798988421717
 10
62.12885198099557
 20
-98.72989092583836
 10
62.23530543148978
 20
-98.92247176346383
 10
62.26011011898358
 20
-99.1508815941359
 10
62.26011011898358
 20
-99.32451440659248
 10
62.26011011898358
 20
-99.4957356522094
 10
62.23737248878093
 20
-99.72621254017263
 10
62.12885198099557
 20
-99.91879337779808
 97
        0
 97
        0
 92
        1
 93
        1
 72
     4
 94
        3
 73
     0
 74
     1
 95
       17
 96
       13
 40
0.0
 40
0.0
 40
0.0
 40
0.0
 40
1.0
 40
1.0
 40
1.0
 40
2.0
 40
2.0
 40
2.0
 40
3.0
 40
3.0
 40
3.0
 40
4.0
 40
4.0
 40
4.0
 40
4.0
 10
61.70372719811574
 20
-98.69612899008291
 10
61.4370768075574
 20
-98.69612899008291
 10
61.3874674325698
 20
-98.97966034851898
 10
61.3874674325698
 20
-99.32451440659248
 10
61.3874674325698
 20
-99.64387475807514
 10
61.42570799245608
 20
-99.95255531355353
 10
61.70372719811574
 20
-99.95255531355353
 10
61.96831053138293
 20
-99.95255531355353
 10
62.0203314732102
 20
-99.67143552195715
 10
62.0203314732102
 20
-99.32451440659248
 10
62.0203314732102
 20
-99.0048095455613
 10
61.97967934648425
 20
-98.69612899008291
 10
61.70372719811574
 20
-98.69612899008291
 97
        0
 97
        0
 75
     2
 76
     1
 98
        0
  0
ENDBLK
  5
AC
330
A9
100
AcDbEntity
  8
0
100
AcDbBlockEnd
  0
BLOCK
  5
BC
330
BA
100
AcDbEntity
  8
0
100
AcDbBlockBegin
  2
block 5
 70
     0
 10
0.0
 20
0.0
 30
0.0
  3
block 5
  1

  0
SPLINE
  5
BE
330
BA
100
AcDbEntity
  8
_U+30EC_U+30A4_U+30E4_U+30FC 1
370
     0
100
AcDbSpline
210
0.0
220
0.0
230
1.0
 70
    11
 71
     3
 72
    26
 73
    22
 74
     0
 42
0.0000000001
 43
0.0000000001
 12
1.0
 22
0.0
 32
0.0
 13
1.0
 23
0.0
 33
0.0
 40
0.0
 40
0.0
 40
0.0
 40
0.0
 40
1.0
 40
1.0
 40
1.0
 40
2.0
 40
2.0
 40
2.0
 40
3.0
 40
3.0
 40
3.0
 40
4.0
 40
4.0
 40
4.0
 40
5.0
 40
5.0
 40
5.0
 40
6.0
 40
6.0
 40
6.0
 40
7.0
 40
7.0
 40
7.0
 40
7.0
 10
47.63654105796934
 20
-100.097249323934
 30
0.0
 10
47.63654105796934
 20
-100.097249323934
 30
0.0
 10
47.63654105796934
 20
-98.99309622091145
 30
0.0
 10
47.63654105796934
 20
-98.99309622091145
 30
0.0
 10
47.63654105796934
 20
-98.99309622091145
 30
0.0
 10
47.28376328027976
 20
-98.99309622091145
 30
0.0
 10
47.28376328027976
 20
-98.99309622091145
 30
0.0
 10
47.28376328027976
 20
-98.99309622091145
 30
0.0
 10
47.28376328027976
 20
-98.84495711504572
 30
0.0
 10
47.28376328027976
 20
-98.84495711504572
 30
0.0
 10
47.63878037003475
 20
-98.83014320445913
 30
0.0
 10
47.68856199979661
 20
-98.66719018800681
 30
0.0
 10
47.72008462348665
 20
-98.55281301789653
 30
0.0
 10
47.72008462348665
 20
-98.55281301789653
 30
0.0
 10
47.87614744896847
 20
-98.55281301789653
 30
0.0
 10
47.87614744896847
 20
-98.55281301789653
 30
0.0
 10
47.87614744896847
 20
-98.55281301789653
 30
0.0
 10
47.87614744896847
 20
-100.097249323934
 30
0.0
 10
47.87614744896847
 20
-100.097249323934
 30
0.0
 10
47.87614744896847
 20
-100.097249323934
 30
0.0
 10
47.63654105796934
 20
-100.097249323934
 30
0.0
 10
47.63654105796934
 20
-100.097249323934
 30
0.0
  0
HATCH
  5
BF
330
BA
100
AcDbEntity
  8
_U+30EC_U+30A4_U+30E4_U+30FC 1
 62
   179
420
  2234388
100
AcDbHatch
 10
0.0
 20
0.0
 30
0.0
210
0.0
220
0.0
230
1.0
  2
SOLID
 70
     1
 71
     0
 91
        1
 92
        1
 93
        1
 72
     4
 94
        3
 73
     0
 74
     1
 95
       26
 96
       22
 40
0.0
 40
0.0
 40
0.0
 40
0.0
 40
1.0
 40
1.0
 40
1.0
 40
2.0
 40
2.0
 40
2.0
 40
3.0
 40
3.0
 40
3.0
 40
4.0
 40
4.0
 40
4.0
 40
5.0
 40
5.0
 40
5.0
 40
6.0
 40
6.0
 40
6.0
 40
7.0
 40
7.0
 40
7.0
 40
7.0
 10
47.63654105796934
 20
-100.097249323934
 10
47.63654105796934
 20
-100.097249323934
 10
47.63654105796934
 20
-98.99309622091145
 10
47.63654105796934
 20
-98.99309622091145
 10
47.63654105796934
 20
-98.99309622091145
 10
47.28376328027976
 20
-98.99309622091145
 10
47.28376328027976
 20
-98.99309622091145
 10
47.28376328027976
 20
-98.99309622091145
 10
47.28376328027976
 20
-98.84495711504572
 10
47.28376328027976
 20
-98.84495711504572
 10
47.63878037003475
 20
-98.83014320445913
 10
47.68856199979661
 20
-98.66719018800681
 10
47.72008462348665
 20
-98.55281301789653
 10
47.72008462348665
 20
-98.55281301789653
 10
47.87614744896847
 20
-98.55281301789653
 10
47.87614744896847
 20
-98.55281301789653
 10
47.87614744896847
 20
-98.55281301789653
 10
47.87614744896847
 20
-100.097249323934
 10
47.87614744896847
 20
-100.097249323934
 10
47.87614744896847
 20
-100.097249323934
 10
47.63654105796934
 20
-100.097249323934
 10
47.63654105796934
 20
-100.097249323934
 97
        0
 97
        0
 75
     2
 76
     1
 98
        0
  0
SPLINE
  5
C0
330
BA
100
AcDbEntity
  8
_U+30EC_U+30A4_U+30E4_U+30FC 1
370
     0
100
AcDbSpline
210
0.0
220
0.0
230
1.0
 70
    11
 71
     3
 72
    53
 73
    49
 74
     0
 42
0.0000000001
 43
0.0000000001
 12
1.0
 22
0.0
 32
0.0
 13
1.0
 23
0.0
 33
0.0
 40
0.0
 40
0.0
 40
0.0
 40
0.0
 40
1.0
 40
1.0
 40
1.0
 40
2.0
 40
2.0
 40
2.0
 40
3.0
 40
3.0
 40
3.0
 40
4.0
 40
4.0
 40
4.0
 40
5.0
 40
5.0
 40
5.0
 40
6.0
 40
6.0
 40
6.0
 40
7.0
 40
7.0
 40
7.0
 40
8.0
 40
8.0
 40
8.0
 40
9.0
 40
9.0
 40
9.0
 40
10.0
 40
10.0
 40
10.0
 40
11.0
 40
11.0
 40
11.0
 40
12.0
 40
12.0
 40
12.0
 40
13.0
 40
13.0
 40
13.0
 40
14.0
 40
14.0
 40
14.0
 40
15.0
 40
15.0
 40
15.0
 40
16.0
 40
16.0
 40
16.0
 40
16.0
 10
48.92604029809835
 20
-100.1478922275672
 30
0.0
 10
48.84232447780678
 20
-100.1478922275672
 30
0.0
 10
48.73380397002141
 20
-100.1310112596895
 30
0.0
 10
48.62528346223604
 20
-100.0676215027609
 30
0.0
 10
48.4399373251296
 20
-99.95772295678141
 30
0.0
 10
48.41737194970121
 20
-99.82646481879338
 30
0.0
 10
48.39704588633824
 20
-99.71863333010506
 30
0.0
 10
48.39704588633824
 20
-99.71863333010506
 30
0.0
 10
48.63441296527196
 20
-99.71863333010506
 30
0.0
 10
48.63441296527196
 20
-99.71863333010506
 30
0.0
 10
48.69315184329547
 20
-99.91741533960398
 30
0.0
 10
48.82871635064004
 20
-99.94704316077713
 30
0.0
 10
48.92827961016376
 20
-99.94704316077713
 30
0.0
 10
49.07745224467509
 20
-99.94704316077713
 30
0.0
 10
49.24023300635314
 20
-99.84747990125341
 30
0.0
 10
49.24023300635314
 20
-99.61493595599904
 30
0.0
 10
49.24023300635314
 20
-99.35896536144499
 30
0.0
 10
49.04816893305046
 20
-99.28902992309442
 30
0.0
 10
48.91915010712786
 20
-99.28902992309442
 30
0.0
 10
48.8853881713724
 20
-99.28902992309442
 30
0.0
 10
48.73380397002141
 20
-99.28902992309442
 30
0.0
 10
48.63889158940278
 20
-99.41822100379129
 30
0.0
 10
48.63889158940278
 20
-99.41822100379129
 30
0.0
 10
48.45130614023093
 20
-99.3992729786224
 30
0.0
 10
48.45130614023093
 20
-99.3992729786224
 30
0.0
 10
48.45130614023093
 20
-99.3992729786224
 30
0.0
 10
48.58015271137927
 20
-98.55281301789653
 30
0.0
 10
48.58015271137927
 20
-98.55281301789653
 30
0.0
 10
48.58015271137927
 20
-98.55281301789653
 30
0.0
 10
49.41214327106711
 20
-98.55281301789653
 30
0.0
 10
49.41214327106711
 20
-98.55281301789653
 30
0.0
 10
49.41214327106711
 20
-98.55281301789653
 30
0.0
 10
49.41214327106711
 20
-98.74746091281314
 30
0.0
 10
49.41214327106711
 20
-98.74746091281314
 30
0.0
 10
49.41214327106711
 20
-98.74746091281314
 30
0.0
 10
48.75413003338439
 20
-98.74746091281314
 30
0.0
 10
48.75413003338439
 20
-98.74746091281314
 30
0.0
 10
48.75413003338439
 20
-98.74746091281314
 30
0.0
 10
48.68402234025955
 20
-99.17051863840182
 30
0.0
 10
48.68402234025955
 20
-99.17051863840182
 30
0.0
 10
48.74965140925356
 20
-99.13675670264637
 30
0.0
 10
48.83784585367596
 20
-99.09644908546895
 30
0.0
 10
48.96445311275889
 20
-99.09644908546895
 30
0.0
 10
49.23575438222231
 20
-99.09644908546895
 30
0.0
 10
49.48896890038818
 20
-99.28282875122096
 30
0.0
 10
49.48896890038818
 20
-99.59598793083018
 30
0.0
 10
49.48896890038818
 20
-99.91328122502168
 30
0.0
 10
49.24936250938905
 20
-100.1478922275672
 30
0.0
 10
48.92604029809835
 20
-100.1478922275672
 30
0.0
  0
HATCH
  5
C1
330
BA
100
AcDbEntity
  8
_U+30EC_U+30A4_U+30E4_U+30FC 1
 62
   179
420
  2234388
100
AcDbHatch
 10
0.0
 20
0.0
 30
0.0
210
0.0
220
0.0
230
1.0
  2
SOLID
 70
     1
 71
     0
 91
        1
 92
        1
 93
        1
 72
     4
 94
        3
 73
     0
 74
     1
 95
       53
 96
       49
 40
0.0
 40
0.0
 40
0.0
 40
0.0
 40
1.0
 40
1.0
 40
1.0
 40
2.0
 40
2.0
 40
2.0
 40
3.0
 40
3.0
 40
3.0
 40
4.0
 40
4.0
 40
4.0
 40
5.0
 40
5.0
 40
5.0
 40
6.0
 40
6.0
 40
6.0
 40
7.0
 40
7.0
 40
7.0
 40
8.0
 40
8.0
 40
8.0
 40
9.0
 40
9.0
 40
9.0
 40
10.0
 40
10.0
 40
10.0
 40
11.0
 40
11.0
 40
11.0
 40
12.0
 40
12.0
 40
12.0
 40
13.0
 40
13.0
 40
13.0
 40
14.0
 40
14.0
 40
14.0
 40
15.0
 40
15.0
 40
15.0
 40
16.0
 40
16.0
 40
16.0
 40
16.0
 10
48.92604029809835
 20
-100.1478922275672
 10
48.84232447780678
 20
-100.1478922275672
 10
48.73380397002141
 20
-100.1310112596895
 10
48.62528346223604
 20
-100.0676215027609
 10
48.4399373251296
 20
-99.95772295678141
 10
48.41737194970121
 20
-99.82646481879338
 10
48.39704588633824
 20
-99.71863333010506
 10
48.39704588633824
 20
-99.71863333010506
 10
48.63441296527196
 20
-99.71863333010506
 10
48.63441296527196
 20
-99.71863333010506
 10
48.69315184329547
 20
-99.91741533960398
 10
48.82871635064004
 20
-99.94704316077713
 10
48.92827961016376
 20
-99.94704316077713
 10
49.07745224467509
 20
-99.94704316077713
 10
49.24023300635314
 20
-99.84747990125341
 10
49.24023300635314
 20
-99.61493595599904
 10
49.24023300635314
 20
-99.35896536144499
 10
49.04816893305046
 20
-99.28902992309442
 10
48.91915010712786
 20
-99.28902992309442
 10
48.8853881713724
 20
-99.28902992309442
 10
48.73380397002141
 20
-99.28902992309442
 10
48.63889158940278
 20
-99.41822100379129
 10
48.63889158940278
 20
-99.41822100379129
 10
48.45130614023093
 20
-99.3992729786224
 10
48.45130614023093
 20
-99.3992729786224
 10
48.45130614023093
 20
-99.3992729786224
 10
48.58015271137927
 20
-98.55281301789653
 10
48.58015271137927
 20
-98.55281301789653
 10
48.58015271137927
 20
-98.55281301789653
 10
49.41214327106711
 20
-98.55281301789653
 10
49.41214327106711
 20
-98.55281301789653
 10
49.41214327106711
 20
-98.55281301789653
 10
49.41214327106711
 20
-98.74746091281314
 10
49.41214327106711
 20
-98.74746091281314
 10
49.41214327106711
 20
-98.74746091281314
 10
48.75413003338439
 20
-98.74746091281314
 10
48.75413003338439
 20
-98.74746091281314
 10
48.75413003338439
 20
-98.74746091281314
 10
48.68402234025955
 20
-99.17051863840182
 10
48.68402234025955
 20
-99.17051863840182
 10
48.74965140925356
 20
-99.13675670264637
 10
48.83784585367596
 20
-99.09644908546895
 10
48.96445311275889
 20
-99.09644908546895
 10
49.23575438222231
 20
-99.09644908546895
 10
49.48896890038818
 20
-99.28282875122096
 10
49.48896890038818
 20
-99.59598793083018
 10
49.48896890038818
 20
-99.91328122502168
 10
49.24936250938905
 20
-100.1478922275672
 10
48.92604029809835
 20
-100.1478922275672
 97
        0
 97
        0
 75
     2
 76
     1
 98
        0
  0
ENDBLK
  5
BD
330
BA
100
AcDbEntity
  8
0
100
AcDbBlockEnd
  0
BLOCK
  5
D0
330
CE
100
AcDbEntity
  8
0
100
AcDbBlockBegin
  2
block 6
 70
     0
 10
0.0
 20
0.0
 30
0.0
  3
block 6
  1

  0
SPLINE
  5
D2
330
CE
100
AcDbEntity
  8
_U+30EC_U+30A4_U+30E4_U+30FC 1
370
     0
100
AcDbSpline
210
0.0
220
0.0
230
1.0
 70
    11
 71
     3
 72
    62
 73
    58
 74
     0
 42
0.0000000001
 43
0.0000000001
 12
1.0
 22
0.0
 32
0.0
 13
1.0
 23
0.0
 33
0.0
 40
0.0
 40
0.0
 40
0.0
 40
0.0
 40
1.0
 40
1.0
 40
1.0
 40
2.0
 40
2.0
 40
2.0
 40
3.0
 40
3.0
 40
3.0
 40
4.0
 40
4.0
 40
4.0
 40
5.0
 40
5.0
 40
5.0
 40
6.0
 40
6.0
 40
6.0
 40
7.0
 40
7.0
 40
7.0
 40
8.0
 40
8.0
 40
8.0
 40
9.0
 40
9.0
 40
9.0
 40
10.0
 40
10.0
 40
10.0
 40
11.0
 40
11.0
 40
11.0
 40
12.0
 40
12.0
 40
12.0
 40
13.0
 40
13.0
 40
13.0
 40
14.0
 40
14.0
 40
14.0
 40
15.0
 40
15.0
 40
15.0
 40
16.0
 40
16.0
 40
16.0
 40
17.0
 40
17.0
 40
17.0
 40
18.0
 40
18.0
 40
18.0
 40
19.0
 40
19.0
 40
19.0
 40
19.0
 10
58.79882268495307
 20
-77.1479180037165
 30
0.0
 10
58.6971923681382
 20
-77.1479180037165
 30
0.0
 10
58.46430391333531
 20
-77.1267306664822
 30
0.0
 10
58.33097871805614
 20
-76.94052325550446
 30
0.0
 10
58.2517415218954
 20
-76.82838539745957
 30
0.0
 10
58.24726289776458
 20
-76.72899439271012
 30
0.0
 10
58.24278427363375
 20
-76.64441729854724
 30
0.0
 10
58.24278427363375
 20
-76.64441729854724
 30
0.0
 10
58.47773978572779
 20
-76.64441729854724
 30
0.0
 10
58.47773978572779
 20
-76.64441729854724
 30
0.0
 10
58.48015135256747
 20
-76.71848685148011
 30
0.0
 10
58.49152016766879
 20
-76.95327010879988
 30
0.0
 10
58.79434406082225
 20
-76.95327010879988
 30
0.0
 10
58.94144963804242
 20
-76.95327010879988
 30
0.0
 10
59.10405814494621
 20
-76.88350692522357
 30
0.0
 10
59.10405814494621
 20
-76.65492483977725
 30
0.0
 10
59.10405814494621
 20
-76.53865286715006
 30
0.0
 10
59.06340601822026
 20
-76.48990476603377
 30
0.0
 10
59.02964408246481
 20
-76.45820988756948
 30
0.0
 10
58.95040688630407
 20
-76.38414033463661
 30
0.0
 10
58.82603893928655
 20
-76.37156573611544
 30
0.0
 10
58.76712780648877
 20
-76.37156573611544
 30
0.0
 10
58.7468017431258
 20
-76.37156573611544
 30
0.0
 10
58.70856118323953
 20
-76.3736327934066
 30
0.0
 10
58.67893336206638
 20
-76.3777669079889
 30
0.0
 10
58.67893336206638
 20
-76.3777669079889
 30
0.0
 10
58.67893336206638
 20
-76.18311901307229
 30
0.0
 10
58.67893336206638
 20
-76.18311901307229
 30
0.0
 10
58.71958548879233
 20
-76.18949243971998
 30
0.0
 10
58.76506074919762
 20
-76.1917317517854
 30
0.0
 10
58.7716064306196
 20
-76.1917317517854
 30
0.0
 10
58.84188637851869
 20
-76.1917317517854
 30
0.0
 10
59.05444876995861
 20
-76.17054441455112
 30
0.0
 10
59.05444876995861
 20
-75.93352184516593
 30
0.0
 10
59.05444876995861
 20
-75.7559271729013
 30
0.0
 10
58.91423338370895
 20
-75.70080564513731
 30
0.0
 10
58.79675562766192
 20
-75.70080564513731
 30
0.0
 10
58.51391328832291
 20
-75.70080564513731
 30
0.0
 10
58.50495604006127
 20
-75.93352184516593
 30
0.0
 10
58.50047741593044
 20
-76.00552434080765
 30
0.0
 10
58.50047741593044
 20
-76.00552434080765
 30
0.0
 10
58.2834364003597
 20
-76.00552434080765
 30
0.0
 10
58.2834364003597
 20
-76.00552434080765
 30
0.0
 10
58.29239364862135
 20
-75.88063962946734
 30
0.0
 10
58.32167696024597
 20
-75.50409069292954
 30
0.0
 10
58.8101915000544
 20
-75.50409069292954
 30
0.0
 10
59.04997014582779
 20
-75.50409069292954
 30
0.0
 10
59.30766328812447
 20
-75.631042461561
 30
0.0
 10
59.30766328812447
 20
-75.92714841851821
 30
0.0
 10
59.30766328812447
 20
-76.11335582949597
 30
0.0
 10
59.20568846176108
 20
-76.1958658663677
 30
0.0
 10
59.09957952081538
 20
-76.25718856600515
 30
0.0
 10
59.16503633503513
 20
-76.28474932988715
 30
0.0
 10
59.35968422995175
 20
-76.36519230946773
 30
0.0
 10
59.35968422995175
 20
-76.64235024125608
 30
0.0
 10
59.35968422995175
 20
-76.98083087268188
 30
0.0
 10
59.09510089668456
 20
-77.1479180037165
 30
0.0
 10
58.79882268495307
 20
-77.1479180037165
 30
0.0
  0
HATCH
  5
D3
330
CE
100
AcDbEntity
  8
_U+30EC_U+30A4_U+30E4_U+30FC 1
 62
   179
420
  2234388
100
AcDbHatch
 10
0.0
 20
0.0
 30
0.0
210
0.0
220
0.0
230
1.0
  2
SOLID
 70
     1
 71
     0
 91
        1
 92
        1
 93
        1
 72
     4
 94
        3
 73
     0
 74
     1
 95
       62
 96
       58
 40
0.0
 40
0.0
 40
0.0
 40
0.0
 40
1.0
 40
1.0
 40
1.0
 40
2.0
 40
2.0
 40
2.0
 40
3.0
 40
3.0
 40
3.0
 40
4.0
 40
4.0
 40
4.0
 40
5.0
 40
5.0
 40
5.0
 40
6.0
 40
6.0
 40
6.0
 40
7.0
 40
7.0
 40
7.0
 40
8.0
 40
8.0
 40
8.0
 40
9.0
 40
9.0
 40
9.0
 40
10.0
 40
10.0
 40
10.0
 40
11.0
 40
11.0
 40
11.0
 40
12.0
 40
12.0
 40
12.0
 40
13.0
 40
13.0
 40
13.0
 40
14.0
 40
14.0
 40
14.0
 40
15.0
 40
15.0
 40
15.0
 40
16.0
 40
16.0
 40
16.0
 40
17.0
 40
17.0
 40
17.0
 40
18.0
 40
18.0
 40
18.0
 40
19.0
 40
19.0
 40
19.0
 40
19.0
 10
58.79882268495307
 20
-77.1479180037165
 10
58.6971923681382
 20
-77.1479180037165
 10
58.46430391333531
 20
-77.1267306664822
 10
58.33097871805614
 20
-76.94052325550446
 10
58.2517415218954
 20
-76.82838539745957
 10
58.24726289776458
 20
-76.72899439271012
 10
58.24278427363375
 20
-76.64441729854724
 10
58.24278427363375
 20
-76.64441729854724
 10
58.47773978572779
 20
-76.64441729854724
 10
58.47773978572779
 20
-76.64441729854724
 10
58.48015135256747
 20
-76.71848685148011
 10
58.49152016766879
 20
-76.95327010879988
 10
58.79434406082225
 20
-76.95327010879988
 10
58.94144963804242
 20
-76.95327010879988
 10
59.10405814494621
 20
-76.88350692522357
 10
59.10405814494621
 20
-76.65492483977725
 10
59.10405814494621
 20
-76.53865286715006
 10
59.06340601822026
 20
-76.48990476603377
 10
59.02964408246481
 20
-76.45820988756948
 10
58.95040688630407
 20
-76.38414033463661
 10
58.82603893928655
 20
-76.37156573611544
 10
58.76712780648877
 20
-76.37156573611544
 10
58.7468017431258
 20
-76.37156573611544
 10
58.70856118323953
 20
-76.3736327934066
 10
58.67893336206638
 20
-76.3777669079889
 10
58.67893336206638
 20
-76.3777669079889
 10
58.67893336206638
 20
-76.18311901307229
 10
58.67893336206638
 20
-76.18311901307229
 10
58.71958548879233
 20
-76.18949243971998
 10
58.76506074919762
 20
-76.1917317517854
 10
58.7716064306196
 20
-76.1917317517854
 10
58.84188637851869
 20
-76.1917317517854
 10
59.05444876995861
 20
-76.17054441455112
 10
59.05444876995861
 20
-75.93352184516593
 10
59.05444876995861
 20
-75.7559271729013
 10
58.91423338370895
 20
-75.70080564513731
 10
58.79675562766192
 20
-75.70080564513731
 10
58.51391328832291
 20
-75.70080564513731
 10
58.50495604006127
 20
-75.93352184516593
 10
58.50047741593044
 20
-76.00552434080765
 10
58.50047741593044
 20
-76.00552434080765
 10
58.2834364003597
 20
-76.00552434080765
 10
58.2834364003597
 20
-76.00552434080765
 10
58.29239364862135
 20
-75.88063962946734
 10
58.32167696024597
 20
-75.50409069292954
 10
58.8101915000544
 20
-75.50409069292954
 10
59.04997014582779
 20
-75.50409069292954
 10
59.30766328812447
 20
-75.631042461561
 10
59.30766328812447
 20
-75.92714841851821
 10
59.30766328812447
 20
-76.11335582949597
 10
59.20568846176108
 20
-76.1958658663677
 10
59.09957952081538
 20
-76.25718856600515
 10
59.16503633503513
 20
-76.28474932988715
 10
59.35968422995175
 20
-76.36519230946773
 10
59.35968422995175
 20
-76.64235024125608
 10
59.35968422995175
 20
-76.98083087268188
 10
59.09510089668456
 20
-77.1479180037165
 10
58.79882268495307
 20
-77.1479180037165
 97
        0
 97
        0
 75
     2
 76
     1
 98
        0
  0
SPLINE
  5
D4
330
CE
100
AcDbEntity
  8
_U+30EC_U+30A4_U+30E4_U+30FC 1
370
     0
100
AcDbSpline
210
0.0
220
0.0
230
1.0
 70
    11
 71
     3
 72
    26
 73
    22
 74
     0
 42
0.0000000001
 43
0.0000000001
 12
1.0
 22
0.0
 32
0.0
 13
1.0
 23
0.0
 33
0.0
 40
0.0
 40
0.0
 40
0.0
 40
0.0
 40
1.0
 40
1.0
 40
1.0
 40
2.0
 40
2.0
 40
2.0
 40
3.0
 40
3.0
 40
3.0
 40
4.0
 40
4.0
 40
4.0
 40
5.0
 40
5.0
 40
5.0
 40
6.0
 40
6.0
 40
6.0
 40
7.0
 40
7.0
 40
7.0
 40
7.0
 10
59.97084416903507
 20
-77.09710284530907
 30
0.0
 10
59.97084416903507
 20
-77.09710284530907
 30
0.0
 10
59.71762965086921
 20
-77.09710284530907
 30
0.0
 10
59.71762965086921
 20
-77.09710284530907
 30
0.0
 10
59.74484590520268
 20
-76.78825003505641
 30
0.0
 10
59.9505181056721
 20
-76.26993541930058
 30
0.0
 10
60.38460013681357
 20
-75.76436765684016
 30
0.0
 10
60.38460013681357
 20
-75.76436765684016
 30
0.0
 10
59.48921982019714
 20
-75.76436765684016
 30
0.0
 10
59.48921982019714
 20
-75.76436765684016
 30
0.0
 10
59.48921982019714
 20
-75.76436765684016
 30
0.0
 10
59.48921982019714
 20
-75.55283879404583
 30
0.0
 10
59.48921982019714
 20
-75.55283879404583
 30
0.0
 10
59.48921982019714
 20
-75.55283879404583
 30
0.0
 10
60.63781465497944
 20
-75.55283879404583
 30
0.0
 10
60.63781465497944
 20
-75.55283879404583
 30
0.0
 10
60.63781465497944
 20
-75.55283879404583
 30
0.0
 10
60.63781465497944
 20
-75.76436765684016
 30
0.0
 10
60.63781465497944
 20
-75.76436765684016
 30
0.0
 10
60.29192706826036
 20
-76.05410018714967
 30
0.0
 10
60.00701767163019
 20
-76.64648435583838
 30
0.0
 10
59.97084416903507
 20
-77.09710284530907
 30
0.0
  0
HATCH
  5
D5
330
CE
100
AcDbEntity
  8
_U+30EC_U+30A4_U+30E4_U+30FC 1
 62
   179
420
  2234388
100
AcDbHatch
 10
0.0
 20
0.0
 30
0.0
210
0.0
220
0.0
230
1.0
  2
SOLID
 70
     1
 71
     0
 91
        1
 92
        1
 93
        1
 72
     4
 94
        3
 73
     0
 74
     1
 95
       26
 96
       22
 40
0.0
 40
0.0
 40
0.0
 40
0.0
 40
1.0
 40
1.0
 40
1.0
 40
2.0
 40
2.0
 40
2.0
 40
3.0
 40
3.0
 40
3.0
 40
4.0
 40
4.0
 40
4.0
 40
5.0
 40
5.0
 40
5.0
 40
6.0
 40
6.0
 40
6.0
 40
7.0
 40
7.0
 40
7.0
 40
7.0
 10
59.97084416903507
 20
-77.09710284530907
 10
59.97084416903507
 20
-77.09710284530907
 10
59.71762965086921
 20
-77.09710284530907
 10
59.71762965086921
 20
-77.09710284530907
 10
59.74484590520268
 20
-76.78825003505641
 10
59.9505181056721
 20
-76.26993541930058
 10
60.38460013681357
 20
-75.76436765684016
 10
60.38460013681357
 20
-75.76436765684016
 10
59.48921982019714
 20
-75.76436765684016
 10
59.48921982019714
 20
-75.76436765684016
 10
59.48921982019714
 20
-75.76436765684016
 10
59.48921982019714
 20
-75.55283879404583
 10
59.48921982019714
 20
-75.55283879404583
 10
59.48921982019714
 20
-75.55283879404583
 10
60.63781465497944
 20
-75.55283879404583
 10
60.63781465497944
 20
-75.55283879404583
 10
60.63781465497944
 20
-75.55283879404583
 10
60.63781465497944
 20
-75.76436765684016
 10
60.63781465497944
 20
-75.76436765684016
 10
60.29192706826036
 20
-76.05410018714967
 10
60.00701767163019
 20
-76.64648435583838
 10
59.97084416903507
 20
-77.09710284530907
 97
        0
 97
        0
 75
     2
 76
     1
 98
        0
  0
ENDBLK
  5
D1
330
CE
100
AcDbEntity
  8
0
100
AcDbBlockEnd
  0
BLOCK
  5
E8
330
E6
100
AcDbEntity
  8
0
100
AcDbBlockBegin
  2
block 7
 70
     0
 10
0.0
 20
0.0
 30
0.0
  3
block 7
  1

  0
SPLINE
  5
EA
330
E6
100
AcDbEntity
  8
_U+30EC_U+30A4_U+30E4_U+30FC 1
370
     0
100
AcDbSpline
210
0.0
220
0.0
230
1.0
 70
    11
 71
     3
 72
    29
 73
    25
 74
     0
 42
0.0000000001
 43
0.0000000001
 12
1.0
 22
0.0
 32
0.0
 13
1.0
 23
0.0
 33
0.0
 40
0.0
 40
0.0
 40
0.0
 40
0.0
 40
1.0
 40
1.0
 40
1.0
 40
2.0
 40
2.0
 40
2.0
 40
3.0
 40
3.0
 40
3.0
 40
4.0
 40
4.0
 40
4.0
 40
5.0
 40
5.0
 40
5.0
 40
6.0
 40
6.0
 40
6.0
 40
7.0
 40
7.0
 40
7.0
 40
8.0
 40
8.0
 40
8.0
 40
8.0
 10
68.59012856358164
 20
-93.74793834461858
 30
0.0
 10
68.79959036908483
 20
-93.86334904337444
 30
0.0
 10
68.81853839425371
 20
-94.04869518048089
 30
0.0
 10
68.81853839425371
 20
-94.17306312749841
 30
0.0
 10
68.81853839425371
 20
-94.34462888266384
 30
0.0
 10
68.77202960520283
 20
-94.49621308401484
 30
0.0
 10
68.59012856358164
 20
-94.59784340082972
 30
0.0
 10
68.39548066866502
 20
-94.70877547545476
 30
0.0
 10
68.15880260882835
 20
-94.72910153881773
 30
0.0
 10
67.99584959237605
 20
-94.72910153881773
 30
0.0
 10
67.8518446010926
 20
-94.72910153881773
 30
0.0
 10
67.60000812112084
 20
-94.71118704229443
 30
0.0
 10
67.40122611162192
 20
-94.59784340082972
 30
0.0
 10
67.1983099875407
 20
-94.48277721162236
 30
0.0
 10
67.174883338241
 20
-94.3108669469084
 30
0.0
 10
67.174883338241
 20
-94.17306312749841
 30
0.0
 10
67.174883338241
 20
-94.0032199200756
 30
0.0
 10
67.21932507000072
 20
-93.84956866143345
 30
0.0
 10
67.40122611162192
 20
-93.74793834461858
 30
0.0
 10
67.59380694924738
 20
-93.64148489412436
 30
0.0
 10
67.82221677991944
 20
-93.61668020663056
 30
0.0
 10
67.99584959237605
 20
-93.61668020663056
 30
0.0
 10
68.16707083799295
 20
-93.61668020663056
 30
0.0
 10
68.39754772595617
 20
-93.6394178368332
 30
0.0
 10
68.59012856358164
 20
-93.74793834461858
 30
0.0
  0
SPLINE
  5
EB
330
E6
100
AcDbEntity
  8
_U+30EC_U+30A4_U+30E4_U+30FC 1
370
     0
100
AcDbSpline
210
0.0
220
0.0
230
1.0
 70
    11
 71
     3
 72
    17
 73
    13
 74
     0
 42
0.0000000001
 43
0.0000000001
 12
1.0
 22
0.0
 32
0.0
 13
1.0
 23
0.0
 33
0.0
 40
0.0
 40
0.0
 40
0.0
 40
0.0
 40
1.0
 40
1.0
 40
1.0
 40
2.0
 40
2.0
 40
2.0
 40
3.0
 40
3.0
 40
3.0
 40
4.0
 40
4.0
 40
4.0
 40
4.0
 10
67.36746417586647
 20
-94.17306312749841
 30
0.0
 10
67.36746417586647
 20
-94.43971351805675
 30
0.0
 10
67.65099553430254
 20
-94.48932289304435
 30
0.0
 10
67.99584959237605
 20
-94.48932289304435
 30
0.0
 10
68.3152099438587
 20
-94.48932289304435
 30
0.0
 10
68.62389049933708
 20
-94.45108233315807
 30
0.0
 10
68.62389049933708
 20
-94.17306312749841
 30
0.0
 10
68.62389049933708
 20
-93.90847979423121
 30
0.0
 10
68.3427707077407
 20
-93.85645885240395
 30
0.0
 10
67.99584959237605
 20
-93.85645885240395
 30
0.0
 10
67.67614473134486
 20
-93.85645885240395
 30
0.0
 10
67.36746417586647
 20
-93.89711097912989
 30
0.0
 10
67.36746417586647
 20
-94.17306312749841
 30
0.0
  0
HATCH
  5
EC
330
E6
100
AcDbEntity
  8
_U+30EC_U+30A4_U+30E4_U+30FC 1
 62
   179
420
  2234388
100
AcDbHatch
 10
0.0
 20
0.0
 30
0.0
210
0.0
220
0.0
230
1.0
  2
SOLID
 70
     1
 71
     0
 91
        2
 92
        1
 93
        1
 72
     4
 94
        3
 73
     0
 74
     1
 95
       29
 96
       25
 40
0.0
 40
0.0
 40
0.0
 40
0.0
 40
1.0
 40
1.0
 40
1.0
 40
2.0
 40
2.0
 40
2.0
 40
3.0
 40
3.0
 40
3.0
 40
4.0
 40
4.0
 40
4.0
 40
5.0
 40
5.0
 40
5.0
 40
6.0
 40
6.0
 40
6.0
 40
7.0
 40
7.0
 40
7.0
 40
8.0
 40
8.0
 40
8.0
 40
8.0
 10
68.59012856358164
 20
-93.74793834461858
 10
68.79959036908483
 20
-93.86334904337444
 10
68.81853839425371
 20
-94.04869518048089
 10
68.81853839425371
 20
-94.17306312749841
 10
68.81853839425371
 20
-94.34462888266384
 10
68.77202960520283
 20
-94.49621308401484
 10
68.59012856358164
 20
-94.59784340082972
 10
68.39548066866502
 20
-94.70877547545476
 10
68.15880260882835
 20
-94.72910153881773
 10
67.99584959237605
 20
-94.72910153881773
 10
67.8518446010926
 20
-94.72910153881773
 10
67.60000812112084
 20
-94.71118704229443
 10
67.40122611162192
 20
-94.59784340082972
 10
67.1983099875407
 20
-94.48277721162236
 10
67.174883338241
 20
-94.3108669469084
 10
67.174883338241
 20
-94.17306312749841
 10
67.174883338241
 20
-94.0032199200756
 10
67.21932507000072
 20
-93.84956866143345
 10
67.40122611162192
 20
-93.74793834461858
 10
67.59380694924738
 20
-93.64148489412436
 10
67.82221677991944
 20
-93.61668020663056
 10
67.99584959237605
 20
-93.61668020663056
 10
68.16707083799295
 20
-93.61668020663056
 10
68.39754772595617
 20
-93.6394178368332
 10
68.59012856358164
 20
-93.74793834461858
 97
        0
 97
        0
 92
        1
 93
        1
 72
     4
 94
        3
 73
     0
 74
     1
 95
       17
 96
       13
 40
0.0
 40
0.0
 40
0.0
 40
0.0
 40
1.0
 40
1.0
 40
1.0
 40
2.0
 40
2.0
 40
2.0
 40
3.0
 40
3.0
 40
3.0
 40
4.0
 40
4.0
 40
4.0
 40
4.0
 10
67.36746417586647
 20
-94.17306312749841
 10
67.36746417586647
 20
-94.43971351805675
 10
67.65099553430254
 20
-94.48932289304435
 10
67.99584959237605
 20
-94.48932289304435
 10
68.3152099438587
 20
-94.48932289304435
 10
68.62389049933708
 20
-94.45108233315807
 10
68.62389049933708
 20
-94.17306312749841
 10
68.62389049933708
 20
-93.90847979423121
 10
68.3427707077407
 20
-93.85645885240395
 10
67.99584959237605
 20
-93.85645885240395
 10
67.67614473134486
 20
-93.85645885240395
 10
67.36746417586647
 20
-93.89711097912989
 10
67.36746417586647
 20
-94.17306312749841
 97
        0
 97
        0
 75
     2
 76
     1
 98
        0
  0
POLYLINE
  5
ED
330
E6
100
AcDbEntity
  8
_U+30EC_U+30A4_U+30E4_U+30FC 1
370
     0
100
AcDb2dPolyline
 66
     1
 10
0.0
 20
0.0
 30
0.0
  0
VERTEX
  5
EE
330
ED
100
AcDbEntity
  8
_U+30EC_U+30A4_U+30E4_U+30FC 1
370
     0
100
AcDbVertex
100
AcDb2dVertex
 10
68.76789549062053
 20
-93.38551429957029
 30
0.0
  0
VERTEX
  5
EF
330
ED
100
AcDbEntity
  8
_U+30EC_U+30A4_U+30E4_U+30FC 1
370
     0
100
AcDbVertex
100
AcDb2dVertex
 10
68.51605901064876
 20
-93.38551429957029
 30
0.0
  0
VERTEX
  5
F0
330
ED
100
AcDbEntity
  8
_U+30EC_U+30A4_U+30E4_U+30FC 1
370
     0
100
AcDbVertex
100
AcDb2dVertex
 10
68.51605901064876
 20
-93.11645234217228
 30
0.0
  0
VERTEX
  5
F1
330
ED
100
AcDbEntity
  8
_U+30EC_U+30A4_U+30E4_U+30FC 1
370
     0
100
AcDbVertex
100
AcDb2dVertex
 10
68.76789549062053
 20
-93.11645234217228
 30
0.0
  0
VERTEX
  5
F2
330
ED
100
AcDbEntity
  8
_U+30EC_U+30A4_U+30E4_U+30FC 1
370
     0
100
AcDbVertex
100
AcDb2dVertex
 10
68.76789549062053
 20
-93.38551429957029
 30
0.0
  0
SEQEND
  5
F3
330
ED
100
AcDbEntity
  8
_U+30EC_U+30A4_U+30E4_U+30FC 1
370
     0
  0
HATCH
  5
F4
330
E6
100
AcDbEntity
  8
_U+30EC_U+30A4_U+30E4_U+30FC 1
 62
   179
420
  2234388
100
AcDbHatch
 10
0.0
 20
0.0
 30
0.0
210
0.0
220
0.0
230
1.0
  2
SOLID
 70
     1
 71
     0
 91
        1
 92
        1
 93
        4
 72
     1
 10
68.76789549062053
 20
-93.38551429957029
 11
68.51605901064876
 21
-93.38551429957029
 72
     1
 10
68.51605901064876
 20
-93.38551429957029
 11
68.51605901064876
 21
-93.11645234217228
 72
     1
 10
68.51605901064876
 20
-93.11645234217228
 11
68.76789549062053
 21
-93.11645234217228
 72
     1
 10
68.76789549062053
 20
-93.11645234217228
 11
68.76789549062053
 21
-93.38551429957029
 97
        0
 75
     2
 76
     1
 98
        0
  0
SPLINE
  5
F5
330
E6
100
AcDbEntity
  8
_U+30EC_U+30A4_U+30E4_U+30FC 1
370
     0
100
AcDbSpline
210
0.0
220
0.0
230
1.0
 70
    11
 71
     3
 72
    53
 73
    49
 74
     0
 42
0.0000000001
 43
0.0000000001
 12
1.0
 22
0.0
 32
0.0
 13
1.0
 23
0.0
 33
0.0
 40
0.0
 40
0.0
 40
0.0
 40
0.0
 40
1.0
 40
1.0
 40
1.0
 40
2.0
 40
2.0
 40
2.0
 40
3.0
 40
3.0
 40
3.0
 40
4.0
 40
4.0
 40
4.0
 40
5.0
 40
5.0
 40
5.0
 40
6.0
 40
6.0
 40
6.0
 40
7.0
 40
7.0
 40
7.0
 40
8.0
 40
8.0
 40
8.0
 40
9.0
 40
9.0
 40
9.0
 40
10.0
 40
10.0
 40
10.0
 40
11.0
 40
11.0
 40
11.0
 40
12.0
 40
12.0
 40
12.0
 40
13.0
 40
13.0
 40
13.0
 40
14.0
 40
14.0
 40
14.0
 40
15.0
 40
15.0
 40
15.0
 40
16.0
 40
16.0
 40
16.0
 40
16.0
 10
68.81853839425371
 20
-92.34957408715566
 30
0.0
 10
68.81853839425371
 20
-92.43328990744723
 30
0.0
 10
68.80165742637598
 20
-92.54146590568408
 30
0.0
 10
68.73826766944738
 20
-92.65033092301798
 30
0.0
 10
68.6283691234679
 20
-92.83567706012442
 30
0.0
 10
68.49711098547989
 20
-92.85807018077854
 30
0.0
 10
68.38927949679157
 20
-92.87839624414151
 30
0.0
 10
68.38927949679157
 20
-92.87839624414151
 30
0.0
 10
68.38927949679157
 20
-92.6410291652078
 30
0.0
 10
68.38927949679157
 20
-92.6410291652078
 30
0.0
 10
68.58806150629049
 20
-92.58246254195855
 30
0.0
 10
68.61768932746364
 20
-92.44672577983971
 30
0.0
 10
68.61768932746364
 20
-92.34716252031599
 30
0.0
 10
68.61768932746364
 20
-92.19798988580467
 30
0.0
 10
68.51812606793992
 20
-92.03503686935235
 30
0.0
 10
68.28558212268555
 20
-92.03503686935235
 30
0.0
 10
68.02961152813148
 20
-92.03503686935235
 30
0.0
 10
67.95967608978091
 20
-92.2272731974293
 30
0.0
 10
67.95967608978091
 20
-92.35611976857764
 30
0.0
 10
67.95967608978091
 20
-92.39022621388162
 30
0.0
 10
67.95967608978091
 20
-92.54146590568408
 30
0.0
 10
68.08886717047778
 20
-92.63655054107697
 30
0.0
 10
68.08886717047778
 20
-92.63655054107697
 30
0.0
 10
68.06991914530892
 20
-92.82430824502309
 30
0.0
 10
68.06991914530892
 20
-92.82430824502309
 30
0.0
 10
68.06991914530892
 20
-92.82430824502309
 30
0.0
 10
67.22345918458302
 20
-92.69546167387475
 30
0.0
 10
67.22345918458302
 20
-92.69546167387475
 30
0.0
 10
67.22345918458302
 20
-92.69546167387475
 30
0.0
 10
67.22345918458302
 20
-91.86347111418691
 30
0.0
 10
67.22345918458302
 20
-91.86347111418691
 30
0.0
 10
67.22345918458302
 20
-91.86347111418691
 30
0.0
 10
67.41810707949965
 20
-91.86347111418691
 30
0.0
 10
67.41810707949965
 20
-91.86347111418691
 30
0.0
 10
67.41810707949965
 20
-91.86347111418691
 30
0.0
 10
67.41810707949965
 20
-92.5211398423211
 30
0.0
 10
67.41810707949965
 20
-92.5211398423211
 30
0.0
 10
67.41810707949965
 20
-92.5211398423211
 30
0.0
 10
67.84116480508833
 20
-92.5914197902202
 30
0.0
 10
67.84116480508833
 20
-92.5914197902202
 30
0.0
 10
67.80740286933288
 20
-92.52596297600046
 30
0.0
 10
67.76709525215546
 20
-92.43776853157806
 30
0.0
 10
67.76709525215546
 20
-92.31098901772087
 30
0.0
 10
67.76709525215546
 20
-92.0398600030317
 30
0.0
 10
67.95347491790747
 20
-91.78664548486584
 30
0.0
 10
68.26663409751667
 20
-91.78664548486584
 30
0.0
 10
68.58392739170819
 20
-91.78664548486584
 30
0.0
 10
68.81853839425371
 20
-92.0260796210907
 30
0.0
 10
68.81853839425371
 20
-92.34957408715566
 30
0.0
  0
HATCH
  5
F6
330
E6
100
AcDbEntity
  8
_U+30EC_U+30A4_U+30E4_U+30FC 1
 62
   179
420
  2234388
100
AcDbHatch
 10
0.0
 20
0.0
 30
0.0
210
0.0
220
0.0
230
1.0
  2
SOLID
 70
     1
 71
     0
 91
        1
 92
        1
 93
        1
 72
     4
 94
        3
 73
     0
 74
     1
 95
       53
 96
       49
 40
0.0
 40
0.0
 40
0.0
 40
0.0
 40
1.0
 40
1.0
 40
1.0
 40
2.0
 40
2.0
 40
2.0
 40
3.0
 40
3.0
 40
3.0
 40
4.0
 40
4.0
 40
4.0
 40
5.0
 40
5.0
 40
5.0
 40
6.0
 40
6.0
 40
6.0
 40
7.0
 40
7.0
 40
7.0
 40
8.0
 40
8.0
 40
8.0
 40
9.0
 40
9.0
 40
9.0
 40
10.0
 40
10.0
 40
10.0
 40
11.0
 40
11.0
 40
11.0
 40
12.0
 40
12.0
 40
12.0
 40
13.0
 40
13.0
 40
13.0
 40
14.0
 40
14.0
 40
14.0
 40
15.0
 40
15.0
 40
15.0
 40
16.0
 40
16.0
 40
16.0
 40
16.0
 10
68.81853839425371
 20
-92.34957408715566
 10
68.81853839425371
 20
-92.43328990744723
 10
68.80165742637598
 20
-92.54146590568408
 10
68.73826766944738
 20
-92.65033092301798
 10
68.6283691234679
 20
-92.83567706012442
 10
68.49711098547989
 20
-92.85807018077854
 10
68.38927949679157
 20
-92.87839624414151
 10
68.38927949679157
 20
-92.87839624414151
 10
68.38927949679157
 20
-92.6410291652078
 10
68.38927949679157
 20
-92.6410291652078
 10
68.58806150629049
 20
-92.58246254195855
 10
68.61768932746364
 20
-92.44672577983971
 10
68.61768932746364
 20
-92.34716252031599
 10
68.61768932746364
 20
-92.19798988580467
 10
68.51812606793992
 20
-92.03503686935235
 10
68.28558212268555
 20
-92.03503686935235
 10
68.02961152813148
 20
-92.03503686935235
 10
67.95967608978091
 20
-92.2272731974293
 10
67.95967608978091
 20
-92.35611976857764
 10
67.95967608978091
 20
-92.39022621388162
 10
67.95967608978091
 20
-92.54146590568408
 10
68.08886717047778
 20
-92.63655054107697
 10
68.08886717047778
 20
-92.63655054107697
 10
68.06991914530892
 20
-92.82430824502309
 10
68.06991914530892
 20
-92.82430824502309
 10
68.06991914530892
 20
-92.82430824502309
 10
67.22345918458302
 20
-92.69546167387475
 10
67.22345918458302
 20
-92.69546167387475
 10
67.22345918458302
 20
-92.69546167387475
 10
67.22345918458302
 20
-91.86347111418691
 10
67.22345918458302
 20
-91.86347111418691
 10
67.22345918458302
 20
-91.86347111418691
 10
67.41810707949965
 20
-91.86347111418691
 10
67.41810707949965
 20
-91.86347111418691
 10
67.41810707949965
 20
-91.86347111418691
 10
67.41810707949965
 20
-92.5211398423211
 10
67.41810707949965
 20
-92.5211398423211
 10
67.41810707949965
 20
-92.5211398423211
 10
67.84116480508833
 20
-92.5914197902202
 10
67.84116480508833
 20
-92.5914197902202
 10
67.80740286933288
 20
-92.52596297600046
 10
67.76709525215546
 20
-92.43776853157806
 10
67.76709525215546
 20
-92.31098901772087
 10
67.76709525215546
 20
-92.0398600030317
 10
67.95347491790747
 20
-91.78664548486584
 10
68.26663409751667
 20
-91.78664548486584
 10
68.58392739170819
 20
-91.78664548486584
 10
68.81853839425371
 20
-92.0260796210907
 10
68.81853839425371
 20
-92.34957408715566
 97
        0
 97
        0
 75
     2
 76
     1
 98
        0
  0
ENDBLK
  5
E9
330
E6
100
AcDbEntity
  8
0
100
AcDbBlockEnd
  0
BLOCK
  5
101
330
FF
100
AcDbEntity
  8
0
100
AcDbBlockBegin
  2
block 8
 70
     0
 10
0.0
 20
0.0
 30
0.0
  3
block 8
  1

  0
SPLINE
  5
103
330
FF
100
AcDbEntity
  8
_U+30EC_U+30A4_U+30E4_U+30FC 1
370
     0
100
AcDbSpline
210
0.0
220
0.0
230
1.0
 70
    11
 71
     3
 72
    26
 73
    22
 74
     0
 42
0.0000000001
 43
0.0000000001
 12
1.0
 22
0.0
 32
0.0
 13
1.0
 23
0.0
 33
0.0
 40
0.0
 40
0.0
 40
0.0
 40
0.0
 40
1.0
 40
1.0
 40
1.0
 40
2.0
 40
2.0
 40
2.0
 40
3.0
 40
3.0
 40
3.0
 40
4.0
 40
4.0
 40
4.0
 40
5.0
 40
5.0
 40
5.0
 40
6.0
 40
6.0
 40
6.0
 40
7.0
 40
7.0
 40
7.0
 40
7.0
 10
83.76818574294684
 20
-90.57466089315496
 30
0.0
 10
83.76818574294684
 20
-90.57466089315496
 30
0.0
 10
82.66403263992427
 20
-90.57466089315496
 30
0.0
 10
82.66403263992427
 20
-90.57466089315496
 30
0.0
 10
82.66403263992427
 20
-90.57466089315496
 30
0.0
 10
82.66403263992427
 20
-90.92709416129601
 30
0.0
 10
82.66403263992427
 20
-90.92709416129601
 30
0.0
 10
82.66403263992427
 20
-90.92709416129601
 30
0.0
 10
82.51589353405853
 20
-90.92709416129601
 30
0.0
 10
82.51589353405853
 20
-90.92709416129601
 30
0.0
 10
82.50107962347195
 20
-90.57224932631527
 30
0.0
 10
82.33812660701963
 20
-90.52263995132768
 30
0.0
 10
82.22374943690934
 20
-90.49094507286338
 30
0.0
 10
82.22374943690934
 20
-90.49094507286338
 30
0.0
 10
82.22374943690934
 20
-90.33488224738156
 30
0.0
 10
82.22374943690934
 20
-90.33488224738156
 30
0.0
 10
82.22374943690934
 20
-90.33488224738156
 30
0.0
 10
83.76818574294684
 20
-90.33488224738156
 30
0.0
 10
83.76818574294684
 20
-90.33488224738156
 30
0.0
 10
83.76818574294684
 20
-90.33488224738156
 30
0.0
 10
83.76818574294684
 20
-90.57466089315496
 30
0.0
 10
83.76818574294684
 20
-90.57466089315496
 30
0.0
  0
HATCH
  5
104
330
FF
100
AcDbEntity
  8
_U+30EC_U+30A4_U+30E4_U+30FC 1
 62
   179
420
  2234388
100
AcDbHatch
 10
0.0
 20
0.0
 30
0.0
210
0.0
220
0.0
230
1.0
  2
SOLID
 70
     1
 71
     0
 91
        1
 92
        1
 93
        1
 72
     4
 94
        3
 73
     0
 74
     1
 95
       26
 96
       22
 40
0.0
 40
0.0
 40
0.0
 40
0.0
 40
1.0
 40
1.0
 40
1.0
 40
2.0
 40
2.0
 40
2.0
 40
3.0
 40
3.0
 40
3.0
 40
4.0
 40
4.0
 40
4.0
 40
5.0
 40
5.0
 40
5.0
 40
6.0
 40
6.0
 40
6.0
 40
7.0
 40
7.0
 40
7.0
 40
7.0
 10
83.76818574294684
 20
-90.57466089315496
 10
83.76818574294684
 20
-90.57466089315496
 10
82.66403263992427
 20
-90.57466089315496
 10
82.66403263992427
 20
-90.57466089315496
 10
82.66403263992427
 20
-90.57466089315496
 10
82.66403263992427
 20
-90.92709416129601
 10
82.66403263992427
 20
-90.92709416129601
 10
82.66403263992427
 20
-90.92709416129601
 10
82.51589353405853
 20
-90.92709416129601
 10
82.51589353405853
 20
-90.92709416129601
 10
82.50107962347195
 20
-90.57224932631527
 10
82.33812660701963
 20
-90.52263995132768
 10
82.22374943690934
 20
-90.49094507286338
 10
82.22374943690934
 20
-90.49094507286338
 10
82.22374943690934
 20
-90.33488224738156
 10
82.22374943690934
 20
-90.33488224738156
 10
82.22374943690934
 20
-90.33488224738156
 10
83.76818574294684
 20
-90.33488224738156
 10
83.76818574294684
 20
-90.33488224738156
 10
83.76818574294684
 20
-90.33488224738156
 10
83.76818574294684
 20
-90.57466089315496
 10
83.76818574294684
 20
-90.57466089315496
 97
        0
 97
        0
 75
     2
 76
     1
 98
        0
  0
SPLINE
  5
105
330
FF
100
AcDbEntity
  8
_U+30EC_U+30A4_U+30E4_U+30FC 1
370
     0
100
AcDbSpline
210
0.0
220
0.0
230
1.0
 70
    11
 71
     3
 72
    62
 73
    58
 74
     0
 42
0.0000000001
 43
0.0000000001
 12
1.0
 22
0.0
 32
0.0
 13
1.0
 23
0.0
 33
0.0
 40
0.0
 40
0.0
 40
0.0
 40
0.0
 40
1.0
 40
1.0
 40
1.0
 40
2.0
 40
2.0
 40
2.0
 40
3.0
 40
3.0
 40
3.0
 40
4.0
 40
4.0
 40
4.0
 40
5.0
 40
5.0
 40
5.0
 40
6.0
 40
6.0
 40
6.0
 40
7.0
 40
7.0
 40
7.0
 40
8.0
 40
8.0
 40
8.0
 40
9.0
 40
9.0
 40
9.0
 40
10.0
 40
10.0
 40
10.0
 40
11.0
 40
11.0
 40
11.0
 40
12.0
 40
12.0
 40
12.0
 40
13.0
 40
13.0
 40
13.0
 40
14.0
 40
14.0
 40
14.0
 40
15.0
 40
15.0
 40
15.0
 40
16.0
 40
16.0
 40
16.0
 40
17.0
 40
17.0
 40
17.0
 40
18.0
 40
18.0
 40
18.0
 40
19.0
 40
19.0
 40
19.0
 40
19.0
 10
83.81882864658002
 20
-89.27379283792462
 30
0.0
 10
83.81882864658002
 20
-89.37542315473948
 30
0.0
 10
83.79781356411999
 20
-89.60831160954237
 30
0.0
 10
83.6117784079165
 20
-89.74163680482154
 30
0.0
 10
83.49946829509736
 20
-89.82087400098229
 30
0.0
 10
83.40024954512216
 20
-89.82535262511311
 30
0.0
 10
83.31550019618501
 20
-89.82983124924394
 30
0.0
 10
83.31550019618501
 20
-89.82983124924394
 30
0.0
 10
83.31550019618501
 20
-89.59487573714989
 30
0.0
 10
83.31550019618501
 20
-89.59487573714989
 30
0.0
 10
83.38956974911788
 20
-89.59246417031022
 30
0.0
 10
83.6241807516634
 20
-89.5810953552089
 30
0.0
 10
83.6241807516634
 20
-89.27827146205544
 30
0.0
 10
83.6241807516634
 20
-89.13116588483527
 30
0.0
 10
83.55458982286136
 20
-88.96855737793148
 30
0.0
 10
83.3261799921893
 20
-88.96855737793148
 30
0.0
 10
83.20973576478785
 20
-88.96855737793148
 30
0.0
 10
83.16115991844582
 20
-89.00920950465742
 30
0.0
 10
83.12946503998153
 20
-89.0433159499614
 30
0.0
 10
83.05539548704866
 20
-89.12220863657362
 30
0.0
 10
83.04264863375323
 20
-89.24657658359114
 30
0.0
 10
83.04264863375323
 20
-89.30548771638891
 30
0.0
 10
83.04264863375323
 20
-89.32581377975188
 30
0.0
 10
83.04471569104437
 20
-89.36405433963816
 30
0.0
 10
83.04884980562667
 20
-89.39368216081131
 30
0.0
 10
83.04884980562667
 20
-89.39368216081131
 30
0.0
 10
82.85420191071006
 20
-89.39368216081131
 30
0.0
 10
82.85420191071006
 20
-89.39368216081131
 30
0.0
 10
82.86074759213204
 20
-89.35303003408536
 30
0.0
 10
82.86281464942319
 20
-89.30755477368005
 30
0.0
 10
82.86281464942319
 20
-89.30100909225808
 30
0.0
 10
82.86281464942319
 20
-89.23072914435899
 30
0.0
 10
82.84145505741463
 20
-89.01816675291907
 30
0.0
 10
82.60477699757797
 20
-89.01816675291907
 30
0.0
 10
82.42701007053908
 20
-89.01816675291907
 30
0.0
 10
82.37188854277508
 20
-89.15838213916874
 30
0.0
 10
82.37188854277508
 20
-89.27585989521576
 30
0.0
 10
82.37188854277508
 20
-89.55870223455477
 30
0.0
 10
82.60477699757797
 20
-89.56765948281642
 30
0.0
 10
82.67643498367117
 20
-89.57213810694725
 30
0.0
 10
82.67643498367117
 20
-89.57213810694725
 30
0.0
 10
82.67643498367117
 20
-89.789179122518
 30
0.0
 10
82.67643498367117
 20
-89.789179122518
 30
0.0
 10
82.55172252710513
 20
-89.78022187425634
 30
0.0
 10
82.17517359056733
 20
-89.75093856263172
 30
0.0
 10
82.17517359056733
 20
-89.26242402282328
 30
0.0
 10
82.17517359056733
 20
-89.0226453770499
 30
0.0
 10
82.30229761397304
 20
-88.76495223475321
 30
0.0
 10
82.598231316156
 20
-88.76495223475321
 30
0.0
 10
82.78461098190802
 20
-88.76495223475321
 30
0.0
 10
82.86694876400549
 20
-88.86692706111661
 30
0.0
 10
82.92827146364293
 20
-88.9730360020623
 30
0.0
 10
82.95583222752494
 20
-88.90757918784256
 30
0.0
 10
83.03610295233126
 20
-88.71293129292594
 30
0.0
 10
83.31343313889387
 20
-88.71293129292594
 30
0.0
 10
83.6517415155454
 20
-88.71293129292594
 30
0.0
 10
83.81882864658002
 20
-88.97751462619313
 30
0.0
 10
83.81882864658002
 20
-89.27379283792462
 30
0.0
  0
HATCH
  5
106
330
FF
100
AcDbEntity
  8
_U+30EC_U+30A4_U+30E4_U+30FC 1
 62
   179
420
  2234388
100
AcDbHatch
 10
0.0
 20
0.0
 30
0.0
210
0.0
220
0.0
230
1.0
  2
SOLID
 70
     1
 71
     0
 91
        1
 92
        1
 93
        1
 72
     4
 94
        3
 73
     0
 74
     1
 95
       62
 96
       58
 40
0.0
 40
0.0
 40
0.0
 40
0.0
 40
1.0
 40
1.0
 40
1.0
 40
2.0
 40
2.0
 40
2.0
 40
3.0
 40
3.0
 40
3.0
 40
4.0
 40
4.0
 40
4.0
 40
5.0
 40
5.0
 40
5.0
 40
6.0
 40
6.0
 40
6.0
 40
7.0
 40
7.0
 40
7.0
 40
8.0
 40
8.0
 40
8.0
 40
9.0
 40
9.0
 40
9.0
 40
10.0
 40
10.0
 40
10.0
 40
11.0
 40
11.0
 40
11.0
 40
12.0
 40
12.0
 40
12.0
 40
13.0
 40
13.0
 40
13.0
 40
14.0
 40
14.0
 40
14.0
 40
15.0
 40
15.0
 40
15.0
 40
16.0
 40
16.0
 40
16.0
 40
17.0
 40
17.0
 40
17.0
 40
18.0
 40
18.0
 40
18.0
 40
19.0
 40
19.0
 40
19.0
 40
19.0
 10
83.81882864658002
 20
-89.27379283792462
 10
83.81882864658002
 20
-89.37542315473948
 10
83.79781356411999
 20
-89.60831160954237
 10
83.6117784079165
 20
-89.74163680482154
 10
83.49946829509736
 20
-89.82087400098229
 10
83.40024954512216
 20
-89.82535262511311
 10
83.31550019618501
 20
-89.82983124924394
 10
83.31550019618501
 20
-89.82983124924394
 10
83.31550019618501
 20
-89.59487573714989
 10
83.31550019618501
 20
-89.59487573714989
 10
83.38956974911788
 20
-89.59246417031022
 10
83.6241807516634
 20
-89.5810953552089
 10
83.6241807516634
 20
-89.27827146205544
 10
83.6241807516634
 20
-89.13116588483527
 10
83.55458982286136
 20
-88.96855737793148
 10
83.3261799921893
 20
-88.96855737793148
 10
83.20973576478785
 20
-88.96855737793148
 10
83.16115991844582
 20
-89.00920950465742
 10
83.12946503998153
 20
-89.0433159499614
 10
83.05539548704866
 20
-89.12220863657362
 10
83.04264863375323
 20
-89.24657658359114
 10
83.04264863375323
 20
-89.30548771638891
 10
83.04264863375323
 20
-89.32581377975188
 10
83.04471569104437
 20
-89.36405433963816
 10
83.04884980562667
 20
-89.39368216081131
 10
83.04884980562667
 20
-89.39368216081131
 10
82.85420191071006
 20
-89.39368216081131
 10
82.85420191071006
 20
-89.39368216081131
 10
82.86074759213204
 20
-89.35303003408536
 10
82.86281464942319
 20
-89.30755477368005
 10
82.86281464942319
 20
-89.30100909225808
 10
82.86281464942319
 20
-89.23072914435899
 10
82.84145505741463
 20
-89.01816675291907
 10
82.60477699757797
 20
-89.01816675291907
 10
82.42701007053908
 20
-89.01816675291907
 10
82.37188854277508
 20
-89.15838213916874
 10
82.37188854277508
 20
-89.27585989521576
 10
82.37188854277508
 20
-89.55870223455477
 10
82.60477699757797
 20
-89.56765948281642
 10
82.67643498367117
 20
-89.57213810694725
 10
82.67643498367117
 20
-89.57213810694725
 10
82.67643498367117
 20
-89.789179122518
 10
82.67643498367117
 20
-89.789179122518
 10
82.55172252710513
 20
-89.78022187425634
 10
82.17517359056733
 20
-89.75093856263172
 10
82.17517359056733
 20
-89.26242402282328
 10
82.17517359056733
 20
-89.0226453770499
 10
82.30229761397304
 20
-88.76495223475321
 10
82.598231316156
 20
-88.76495223475321
 10
82.78461098190802
 20
-88.76495223475321
 10
82.86694876400549
 20
-88.86692706111661
 10
82.92827146364293
 20
-88.9730360020623
 10
82.95583222752494
 20
-88.90757918784256
 10
83.03610295233126
 20
-88.71293129292594
 10
83.31343313889387
 20
-88.71293129292594
 10
83.6517415155454
 20
-88.71293129292594
 10
83.81882864658002
 20
-88.97751462619313
 10
83.81882864658002
 20
-89.27379283792462
 97
        0
 97
        0
 75
     2
 76
     1
 98
        0
  0
ENDBLK
  5
102
330
FF
100
AcDbEntity
  8
0
100
AcDbBlockEnd
  0
ENDSEC
  0
SECTION
  2
ENTITIES
  0
INSERT
  5
42
330
1F
100
AcDbEntity
  8
_U+30EC_U+30A4_U+30E4_U+30FC 1
100
AcDbBlockReference
  2
block 2
 10
0.0
 20
0.0
 30
0.0
  0
ENDSEC
  0
SECTION
  2
OBJECTS
  0
DICTIONARY
  5
C
330
0
100
AcDbDictionary
281
     1
  3
ACAD_GROUP
350
D
  3
ACAD_LAYOUT
350
1A
  3
ACAD_MATERIAL
350
3B
  3
ACAD_MLEADERSTYLE
350
108
  3
ACAD_MLINESTYLE
350
17
  3
ACAD_PLOTSETTINGS
350
19
  3
ACAD_PLOTSTYLENAME
350
E
  3
ACAD_TABLESTYLE
350
107
  3
ACAD_VISUALSTYLE
350
2A
  0
SUN
  5
3F
330
29
100
AcDbSun
 90
        1
290
     0
 63
     7
421
 16777215
 40
1.0
291
     1
 91
  2455826
 92
 54000000
292
     0
 70
     2
 71
   256
280
     1
  0
DICTIONARY
  5
D
102
{ACAD_REACTORS
330
C
102
}
330
C
100
AcDbDictionary
281
     1
  0
DICTIONARY
  5
1A
102
{ACAD_REACTORS
330
C
102
}
330
C
100
AcDbDictionary
281
     1
  3
Layout1
350
1E
  3
Layout2
350
26
  3
Model
350
22
  0
DICTIONARY
  5
3B
102
{ACAD_REACTORS
330
C
102
}
330
C
100
AcDbDictionary
281
     1
  3
ByBlock
350
3D
  3
ByLayer
350
3C
  3
Global
350
3E
  0
DICTIONARY
  5
108
102
{ACAD_REACTORS
330
C
102
}
330
C
100
AcDbDictionary
281
     1
  0
DICTIONARY
  5
17
102
{ACAD_REACTORS
330
C
102
}
330
C
100
AcDbDictionary
281
     1
  3
Standard
350
18
  0
DICTIONARY
  5
19
102
{ACAD_REACTORS
330
C
102
}
330
C
100
AcDbDictionary
281
     1
  0
ACDBDICTIONARYWDFLT
  5
E
102
{ACAD_REACTORS
330
C
102
}
330
C
100
AcDbDictionary
281
     1
  3
Normal
350
F
100
AcDbDictionaryWithDefault
340
F
  0
DICTIONARY
  5
107
102
{ACAD_REACTORS
330
C
102
}
330
C
100
AcDbDictionary
281
     1
  0
DICTIONARY
  5
2A
102
{ACAD_REACTORS
330
C
102
}
330
C
100
AcDbDictionary
281
     1
  3
2dWireframe
350
2F
  3
3D Hidden
350
31
  3
3dWireframe
350
30
  3
Basic
350
32
  3
Brighten
350
36
  3
ColorChange
350
3A
  3
Conceptual
350
34
  3
Dim
350
35
  3
Facepattern
350
39
  3
Flat
350
2B
  3
FlatWithEdges
350
2C
  3
Gouraud
350
2D
  3
GouraudWithEdges
350
2E
  3
Linepattern
350
38
  3
Realistic
350
33
  3
Thicken
350
37
  0
LAYOUT
  5
1E
102
{ACAD_REACTORS
330
1A
102
}
330
1A
100
AcDbPlotSettings
  1

  2
none_device
  4

  6

 40
0.0
 41
0.0
 42
0.0
 43
0.0
 44
0.0
 45
0.0
 46
0.0
 47
0.0
 48
0.0
 49
0.0
140
0.0
141
0.0
142
1.0
143
1.0
 70
   688
 72
     0
 73
     0
 74
     5
  7

 75
    16
 76
     0
 77
     2
 78
   300
147
1.0
148
0.0
149
0.0
100
AcDbLayout
  1
Layout1
 70
     1
 71
     1
 10
0.0
 20
0.0
 11
12.0
 21
9.0
 12
0.0
 22
0.0
 32
0.0
 14
1.000000000000000E+20
 24
1.000000000000000E+20
 34
1.000000000000000E+20
 15
-1.000000000000000E+20
 25
-1.000000000000000E+20
 35
-1.000000000000000E+20
146
0.0
 13
0.0
 23
0.0
 33
0.0
 16
1.0
 26
0.0
 36
0.0
 17
0.0
 27
1.0
 37
0.0
 76
     0
330
1B
  0
LAYOUT
  5
26
102
{ACAD_REACTORS
330
1A
102
}
330
1A
100
AcDbPlotSettings
  1

  2
none_device
  4

  6

 40
0.0
 41
0.0
 42
0.0
 43
0.0
 44
0.0
 45
0.0
 46
0.0
 47
0.0
 48
0.0
 49
0.0
140
0.0
141
0.0
142
1.0
143
1.0
 70
   688
 72
     0
 73
     0
 74
     5
  7

 75
    16
 76
     0
 77
     2
 78
   300
147
1.0
148
0.0
149
0.0
100
AcDbLayout
  1
Layout2
 70
     1
 71
     2
 10
0.0
 20
0.0
 11
0.0
 21
0.0
 12
0.0
 22
0.0
 32
0.0
 14
0.0
 24
0.0
 34
0.0
 15
0.0
 25
0.0
 35
0.0
146
0.0
 13
0.0
 23
0.0
 33
0.0
 16
1.0
 26
0.0
 36
0.0
 17
0.0
 27
1.0
 37
0.0
 76
     0
330
23
  0
LAYOUT
  5
22
102
{ACAD_REACTORS
330
1A
102
}
330
1A
100
AcDbPlotSettings
  1

  2
none_device
  4

  6

 40
0.0
 41
0.0
 42
0.0
 43
0.0
 44
0.0
 45
0.0
 46
0.0
 47
0.0
 48
0.0
 49
0.0
140
0.0
141
0.0
142
1.0
143
1.0
 70
  1712
 72
     0
 73
     0
 74
     0
  7

 75
     0
 76
     0
 77
     2
 78
   300
147
1.0
148
0.0
149
0.0
100
AcDbLayout
  1
Model
 70
     1
 71
     0
 10
0.0
 20
0.0
 11
12.0
 21
9.0
 12
0.0
 22
0.0
 32
0.0
 14
1.000000000000000E+20
 24
1.000000000000000E+20
 34
1.000000000000000E+20
 15
-1.000000000000000E+20
 25
-1.000000000000000E+20
 35
-1.000000000000000E+20
146
0.0
 13
0.0
 23
0.0
 33
0.0
 16
1.0
 26
0.0
 36
0.0
 17
0.0
 27
1.0
 37
0.0
 76
     0
330
1F
331
29
  0
MATERIAL
  5
3D
102
{ACAD_REACTORS
330
3B
102
}
330
3B
100
AcDbMaterial
  1
ByBlock
 72
     1
 94
      127
  0
MATERIAL
  5
3C
102
{ACAD_REACTORS
330
3B
102
}
330
3B
100
AcDbMaterial
  1
ByLayer
 72
     1
 94
      127
  0
MATERIAL
  5
3E
102
{ACAD_REACTORS
330
3B
102
}
330
3B
100
AcDbMaterial
  1
Global
 72
     1
 94
      127
  0
MLINESTYLE
  5
18
102
{ACAD_REACTORS
330
17
102
}
330
17
100
AcDbMlineStyle
  2
Standard
 70
     0
  3

 62
   256
 51
90.0
 52
90.0
 71
     2
 49
0.5
 62
   256
  6
BYLAYER
 49
-0.5
 62
   256
  6
BYLAYER
  0
ACDBPLACEHOLDER
  5
F
102
{ACAD_REACTORS
330
E
102
}
330
E
  0
VISUALSTYLE
  5
2F
102
{ACAD_REACTORS
330
2A
102
}
330
2A
100
AcDbVisualStyle
  2
2dWireframe
 70
     4
177
     2
291
     0
 71
     0
176
     1
 72
     2
176
     1
 73
     0
176
     1
 90
        0
176
     1
 40
-0.6
176
     1
 41
-30.0
176
     1
 62
     5
 63
     7
421
 16777215
176
     1
 74
     1
176
     1
 91
        4
176
     1
 64
     7
176
     1
 65
   257
176
     1
 75
     1
176
     1
175
     1
176
     1
 42
1.0
176
     1
 92
        0
176
     1
 66
   257
176
     1
 43
1.0
176
     1
 76
     1
176
     1
 77
     6
176
     1
 78
     2
176
     1
 67
     7
176
     1
 79
     5
176
     1
170
     0
176
     1
171
     0
176
     1
290
     0
176
     1
 93
        1
176
     1
 44
0.0
176
     1
173
     0
176
     1
  0
VISUALSTYLE
  5
31
102
{ACAD_REACTORS
330
2A
102
}
330
2A
100
AcDbVisualStyle
  2
3D Hidden
 70
     6
177
     2
291
     0
 71
     1
176
     1
 72
     2
176
     1
 73
     2
176
     1
 90
        0
176
     1
 40
-0.6
176
     1
 41
-30.0
176
     1
 62
     5
 63
     7
421
 16777215
176
     1
 74
     2
176
     1
 91
        2
176
     1
 64
     7
176
     1
 65
   257
176
     1
 75
     2
176
     1
175
     1
176
     1
 42
40.0
176
     1
 92
        0
176
     1
 66
   257
176
     1
 43
1.0
176
     1
 76
     1
176
     1
 77
     6
176
     1
 78
     2
176
     1
 67
     7
176
     1
 79
     3
176
     1
170
     0
176
     1
171
     0
176
     1
290
     0
176
     1
 93
        1
176
     1
 44
0.0
176
     1
173
     0
176
     1
  0
VISUALSTYLE
  5
30
102
{ACAD_REACTORS
330
2A
102
}
330
2A
100
AcDbVisualStyle
  2
3dWireframe
 70
     5
177
     2
291
     0
 71
     0
176
     1
 72
     2
176
     1
 73
     0
176
     1
 90
        0
176
     1
 40
-0.6
176
     1
 41
-30.0
176
     1
 62
     5
 63
     7
421
 16777215
176
     1
 74
     1
176
     1
 91
        4
176
     1
 64
     7
176
     1
 65
   257
176
     1
 75
     1
176
     1
175
     1
176
     1
 42
1.0
176
     1
 92
        0
176
     1
 66
   257
176
     1
 43
1.0
176
     1
 76
     1
176
     1
 77
     6
176
     1
 78
     2
176
     1
 67
     7
176
     1
 79
     5
176
     1
170
     0
176
     1
171
     0
176
     1
290
     0
176
     1
 93
        1
176
     1
 44
0.0
176
     1
173
     0
176
     1
  0
VISUALSTYLE
  5
32
102
{ACAD_REACTORS
330
2A
102
}
330
2A
100
AcDbVisualStyle
  2
Basic
 70
     7
177
     2
291
     1
 71
     1
176
     1
 72
     0
176
     1
 73
     1
176
     1
 90
        0
176
     1
 40
-0.6
176
     1
 41
-30.0
176
     1
 62
     5
 63
     7
421
 16777215
176
     1
 74
     0
176
     1
 91
        4
176
     1
 64
     7
176
     1
 65
   257
176
     1
 75
     1
176
     1
175
     1
176
     1
 42
1.0
176
     1
 92
        8
176
     1
 66
     7
176
     1
 43
1.0
176
     1
 76
     1
176
     1
 77
     6
176
     1
 78
     2
176
     1
 67
     7
176
     1
 79
     5
176
     1
170
     0
176
     1
171
     0
176
     1
290
     0
176
     1
 93
        1
176
     1
 44
0.0
176
     1
173
     0
176
     1
  0
VISUALSTYLE
  5
36
102
{ACAD_REACTORS
330
2A
102
}
330
2A
100
AcDbVisualStyle
  2
Brighten
 70
    12
177
     2
291
     1
 71
     2
176
     1
 72
     2
176
     1
 73
     0
176
     1
 90
        0
176
     1
 40
-0.6
176
     1
 41
-30.0
176
     1
 62
     5
 63
     7
421
 16777215
176
     1
 74
     1
176
     1
 91
        4
176
     1
 64
     7
176
     1
 65
   257
176
     1
 75
     1
176
     1
175
     1
176
     1
 42
1.0
176
     1
 92
        8
176
     1
 66
     7
176
     1
 43
1.0
176
     1
 76
     1
176
     1
 77
     6
176
     1
 78
     2
176
     1
 67
     7
176
     1
 79
     5
176
     1
170
     0
176
     1
171
     0
176
     1
290
     0
176
     1
 93
        1
176
     1
 44
50.0
176
     1
173
     0
176
     1
  0
VISUALSTYLE
  5
3A
102
{ACAD_REACTORS
330
2A
102
}
330
2A
100
AcDbVisualStyle
  2
ColorChange
 70
    16
177
     2
291
     1
 71
     2
176
     1
 72
     2
176
     1
 73
     3
176
     1
 90
        0
176
     1
 40
-0.6
176
     1
 41
-30.0
176
     1
 62
     5
 63
     8
421
  8421504
176
     1
 74
     1
176
     1
 91
        4
176
     1
 64
     7
176
     1
 65
   257
176
     1
 75
     1
176
     1
175
     1
176
     1
 42
1.0
176
     1
 92
        8
176
     1
 66
     8
424
  8421504
176
     1
 43
1.0
176
     1
 76
     1
176
     1
 77
     6
176
     1
 78
     2
176
     1
 67
     7
176
     1
 79
     5
176
     1
170
     0
176
     1
171
     0
176
     1
290
     0
176
     1
 93
        1
176
     1
 44
0.0
176
     1
173
     0
176
     1
  0
VISUALSTYLE
  5
34
102
{ACAD_REACTORS
330
2A
102
}
330
2A
100
AcDbVisualStyle
  2
Conceptual
 70
     9
177
     2
291
     0
 71
     3
176
     1
 72
     2
176
     1
 73
     0
176
     1
 90
        0
176
     1
 40
-0.6
176
     1
 41
-30.0
176
     1
 62
     5
 63
     7
421
 16777215
176
     1
 74
     2
176
     1
 91
        2
176
     1
 64
     7
176
     1
 65
   257
176
     1
 75
     1
176
     1
175
     1
176
     1
 42
40.0
176
     1
 92
        8
176
     1
 66
     7
176
     1
 43
1.0
176
     1
 76
     1
176
     1
 77
     6
176
     1
 78
     2
176
     1
 67
     7
176
     1
 79
     3
176
     1
170
     0
176
     1
171
     0
176
     1
290
     0
176
     1
 93
        1
176
     1
 44
0.0
176
     1
173
     0
176
     1
  0
VISUALSTYLE
  5
35
102
{ACAD_REACTORS
330
2A
102
}
330
2A
100
AcDbVisualStyle
  2
Dim
 70
    11
177
     2
291
     1
 71
     2
176
     1
 72
     2
176
     1
 73
     0
176
     1
 90
        0
176
     1
 40
-0.6
176
     1
 41
-30.0
176
     1
 62
     5
 63
     7
421
 16777215
176
     1
 74
     1
176
     1
 91
        4
176
     1
 64
     7
176
     1
 65
   257
176
     1
 75
     1
176
     1
175
     1
176
     1
 42
1.0
176
     1
 92
        8
176
     1
 66
     7
176
     1
 43
1.0
176
     1
 76
     1
176
     1
 77
     6
176
     1
 78
     2
176
     1
 67
     7
176
     1
 79
     5
176
     1
170
     0
176
     1
171
     0
176
     1
290
     0
176
     1
 93
        1
176
     1
 44
-50.0
176
     1
173
     0
176
     1
  0
VISUALSTYLE
  5
39
102
{ACAD_REACTORS
330
2A
102
}
330
2A
100
AcDbVisualStyle
  2
Facepattern
 70
    15
177
     2
291
     1
 71
     2
176
     1
 72
     2
176
     1
 73
     0
176
     1
 90
        0
176
     1
 40
-0.6
176
     1
 41
-30.0
176
     1
 62
     5
 63
     7
421
 16777215
176
     1
 74
     1
176
     1
 91
        4
176
     1
 64
     7
176
     1
 65
   257
176
     1
 75
     1
176
     1
175
     1
176
     1
 42
1.0
176
     1
 92
        8
176
     1
 66
     7
176
     1
 43
1.0
176
     1
 76
     1
176
     1
 77
     6
176
     1
 78
     2
176
     1
 67
     7
176
     1
 79
     5
176
     1
170
     0
176
     1
171
     0
176
     1
290
     0
176
     1
 93
        1
176
     1
 44
0.0
176
     1
173
     0
176
     1
  0
VISUALSTYLE
  5
2B
102
{ACAD_REACTORS
330
2A
102
}
330
2A
100
AcDbVisualStyle
  2
Flat
 70
     0
177
     2
291
     1
 71
     2
176
     1
 72
     1
176
     1
 73
     1
176
     1
 90
        2
176
     1
 40
-0.6
176
     1
 41
30.0
176
     1
 62
     5
 63
     7
421
 16777215
176
     1
 74
     0
176
     1
 91
        4
176
     1
 64
     7
176
     1
 65
   257
176
     1
 75
     1
176
     1
175
     1
176
     1
 42
1.0
176
     1
 92
        8
176
     1
 66
     7
176
     1
 43
1.0
176
     1
 76
     1
176
     1
 77
     6
176
     1
 78
     2
176
     1
 67
     7
176
     1
 79
     5
176
     1
170
     0
176
     1
171
     0
176
     1
290
     0
176
     1
 93
       13
176
     1
 44
0.0
176
     1
173
     0
176
     1
  0
VISUALSTYLE
  5
2C
102
{ACAD_REACTORS
330
2A
102
}
330
2A
100
AcDbVisualStyle
  2
FlatWithEdges
 70
     1
177
     2
291
     1
 71
     2
176
     1
 72
     1
176
     1
 73
     1
176
     1
 90
        2
176
     1
 40
-0.6
176
     1
 41
30.0
176
     1
 62
     5
 63
     7
421
 16777215
176
     1
 74
     1
176
     1
 91
        4
176
     1
 64
     7
176
     1
 65
   257
176
     1
 75
     1
176
     1
175
     1
176
     1
 42
1.0
176
     1
 92
        0
176
     1
 66
   257
176
     1
 43
1.0
176
     1
 76
     1
176
     1
 77
     6
176
     1
 78
     2
176
     1
 67
     7
176
     1
 79
     5
176
     1
170
     0
176
     1
171
     0
176
     1
290
     0
176
     1
 93
       13
176
     1
 44
0.0
176
     1
173
     0
176
     1
  0
VISUALSTYLE
  5
2D
102
{ACAD_REACTORS
330
2A
102
}
330
2A
100
AcDbVisualStyle
  2
Gouraud
 70
     2
177
     2
291
     1
 71
     2
176
     1
 72
     2
176
     1
 73
     1
176
     1
 90
        2
176
     1
 40
-0.6
176
     1
 41
30.0
176
     1
 62
     5
 63
     7
421
 16777215
176
     1
 74
     0
176
     1
 91
        4
176
     1
 64
     7
176
     1
 65
   257
176
     1
 75
     1
176
     1
175
     1
176
     1
 42
1.0
176
     1
 92
        0
176
     1
 66
     7
176
     1
 43
1.0
176
     1
 76
     1
176
     1
 77
     6
176
     1
 78
     2
176
     1
 67
     7
176
     1
 79
     5
176
     1
170
     0
176
     1
171
     0
176
     1
290
     0
176
     1
 93
       13
176
     1
 44
0.0
176
     1
173
     0
176
     1
  0
VISUALSTYLE
  5
2E
102
{ACAD_REACTORS
330
2A
102
}
330
2A
100
AcDbVisualStyle
  2
GouraudWithEdges
 70
     3
177
     2
291
     1
 71
     2
176
     1
 72
     2
176
     1
 73
     1
176
     1
 90
        2
176
     1
 40
-0.6
176
     1
 41
30.0
176
     1
 62
     5
 63
     7
421
 16777215
176
     1
 74
     1
176
     1
 91
        4
176
     1
 64
     7
176
     1
 65
   257
176
     1
 75
     1
176
     1
175
     1
176
     1
 42
1.0
176
     1
 92
        0
176
     1
 66
   257
176
     1
 43
1.0
176
     1
 76
     1
176
     1
 77
     6
176
     1
 78
     2
176
     1
 67
     7
176
     1
 79
     5
176
     1
170
     0
176
     1
171
     0
176
     1
290
     0
176
     1
 93
       13
176
     1
 44
0.0
176
     1
173
     0
176
     1
  0
VISUALSTYLE
  5
38
102
{ACAD_REACTORS
330
2A
102
}
330
2A
100
AcDbVisualStyle
  2
Linepattern
 70
    14
177
     2
291
     1
 71
     2
176
     1
 72
     2
176
     1
 73
     0
176
     1
 90
        0
176
     1
 40
-0.6
176
     1
 41
-30.0
176
     1
 62
     5
 63
     7
421
 16777215
176
     1
 74
     1
176
     1
 91
        4
176
     1
 64
     7
176
     1
 65
   257
176
     1
 75
     7
176
     1
175
     7
176
     1
 42
1.0
176
     1
 92
        8
176
     1
 66
     7
176
     1
 43
1.0
176
     1
 76
     1
176
     1
 77
     6
176
     1
 78
     2
176
     1
 67
     7
176
     1
 79
     5
176
     1
170
     0
176
     1
171
     0
176
     1
290
     0
176
     1
 93
        1
176
     1
 44
0.0
176
     1
173
     0
176
     1
  0
VISUALSTYLE
  5
33
102
{ACAD_REACTORS
330
2A
102
}
330
2A
100
AcDbVisualStyle
  2
Realistic
 70
     8
177
     2
291
     0
 71
     2
176
     1
 72
     2
176
     1
 73
     0
176
     1
 90
        0
176
     1
 40
-0.6
176
     1
 41
-30.0
176
     1
 62
     5
 63
     7
421
 16777215
176
     1
 74
     1
176
     1
 91
        0
176
     1
 64
     7
176
     1
 65
   257
176
     1
 75
     1
176
     1
175
     1
176
     1
 42
1.0
176
     1
 92
        8
176
     1
 66
     8
424
  7895160
176
     1
 43
1.0
176
     1
 76
     1
176
     1
 77
     6
176
     1
 78
     2
176
     1
 67
     7
176
     1
 79
     5
176
     1
170
     0
176
     1
171
     0
176
     1
290
     0
176
     1
 93
       13
176
     1
 44
0.0
176
     1
173
     0
176
     1
  0
VISUALSTYLE
  5
37
102
{ACAD_REACTORS
330
2A
102
}
330
2A
100
AcDbVisualStyle
  2
Thicken
 70
    13
177
     2
291
     1
 71
     2
176
     1
 72
     2
176
     1
 73
     0
176
     1
 90
        0
176
     1
 40
-0.6
176
     1
 41
-30.0
176
     1
 62
     5
 63
     7
421
 16777215
176
     1
 74
     1
176
     1
 91
        4
176
     1
 64
     7
176
     1
 65
   257
176
     1
 75
     1
176
     1
175
     1
176
     1
 42
1.0
176
     1
 92
       12
176
     1
 66
     7
176
     1
 43
1.0
176
     1
 76
     1
176
     1
 77
     6
176
     1
 78
     2
176
     1
 67
     7
176
     1
 79
     5
176
     1
170
     0
176
     1
171
     0
176
     1
290
     0
176
     1
 93
        1
176
     1
 44
0.0
176
     1
173
     0
176
     1
  0
ENDSEC
  0
EOF
