  0
SECTION
  2
HEADER
  9
$ACADVER
  1
AC1024
  9
$ACADMAINTVER
 70
     6
  9
$DWGCODEPAGE
  3
UNDEFINED
  9
$INSBASE
 10
0.0
 20
0.0
 30
0.0
  9
$EXTMIN
 10
1.000000000000000E+20
 20
1.000000000000000E+20
 30
1.000000000000000E+20
  9
$EXTMAX
 10
-1.000000000000000E+20
 20
-1.000000000000000E+20
 30
-1.000000000000000E+20
  9
$LIMMIN
 10
0.0
 20
0.0
  9
$LIMMAX
 10
12.0
 20
9.0
  9
$ORTHOMODE
 70
     0
  9
$REGENMODE
 70
     1
  9
$FILLMODE
 70
     1
  9
$QTEXTMODE
 70
     0
  9
$MIRRTEXT
 70
     1
  9
$LTSCALE
 40
1.0
  9
$ATTMODE
 70
     1
  9
$TEXTSIZE
 40
0.2
  9
$TRACEWID
 40
0.05
  9
$TEXTSTYLE
  7
Standard
  9
$CLAYER
  8
0
  9
$CELTYPE
  6
ByLayer
  9
$CECOLOR
 62
   256
  9
$CELTSCALE
 40
1.0
  9
$DISPSILH
 70
     0
  9
$DIMSCALE
 40
1.0
  9
$DIMASZ
 40
0.18
  9
$DIMEXO
 40
0.0625
  9
$DIMDLI
 40
0.38
  9
$DIMRND
 40
0.0
  9
$DIMDLE
 40
0.0
  9
$DIMEXE
 40
0.18
  9
$DIMTP
 40
0.0
  9
$DIMTM
 40
0.0
  9
$DIMTXT
 40
0.18
  9
$DIMCEN
 40
0.09
  9
$DIMTSZ
 40
0.0
  9
$DIMTOL
 70
     0
  9
$DIMLIM
 70
     0
  9
$DIMTIH
 70
     1
  9
$DIMTOH
 70
     1
  9
$DIMSE1
 70
     0
  9
$DIMSE2
 70
     0
  9
$DIMTAD
 70
     0
  9
$DIMZIN
 70
     0
  9
$DIMBLK
  1

  9
$DIMASO
 70
     1
  9
$DIMSHO
 70
     1
  9
$DIMPOST
  1

  9
$DIMAPOST
  1

  9
$DIMALT
 70
     0
  9
$DIMALTD
 70
     2
  9
$DIMALTF
 40
25.4
  9
$DIMLFAC
 40
1.0
  9
$DIMTOFL
 70
     0
  9
$DIMTVP
 40
0.0
  9
$DIMTIX
 70
     0
  9
$DIMSOXD
 70
     0
  9
$DIMSAH
 70
     0
  9
$DIMBLK1
  1

  9
$DIMBLK2
  1

  9
$DIMSTYLE
  2
Standard
  9
$DIMCLRD
 70
     0
  9
$DIMCLRE
 70
     0
  9
$DIMCLRT
 70
     0
  9
$DIMTFAC
 40
1.0
  9
$DIMGAP
 40
0.09
  9
$DIMJUST
 70
     0
  9
$DIMSD1
 70
     0
  9
$DIMSD2
 70
     0
  9
$DIMTOLJ
 70
     1
  9
$DIMTZIN
 70
     0
  9
$DIMALTZ
 70
     0
  9
$DIMALTTZ
 70
     0
  9
$DIMUPT
 70
     0
  9
$DIMDEC
 70
     4
  9
$DIMTDEC
 70
     4
  9
$DIMALTU
 70
     2
  9
$DIMALTTD
 70
     2
  9
$DIMTXSTY
  7
Standard
  9
$DIMAUNIT
 70
     0
  9
$DIMADEC
 70
     0
  9
$DIMALTRND
 40
0.0
  9
$DIMAZIN
 70
     0
  9
$DIMDSEP
 70
    46
  9
$DIMATFIT
 70
     3
  9
$DIMFRAC
 70
     0
  9
$DIMLDRBLK
  1

  9
$DIMLUNIT
 70
     2
  9
$DIMLWD
 70
    -2
  9
$DIMLWE
 70
    -2
  9
$DIMTMOVE
 70
     0
  9
$DIMFXL
 40
1.0
  9
$DIMFXLON
 70
     0
  9
$DIMJOGANG
 40
0.7853981633974483
  9
$DIMTFILL
 70
     0
  9
$DIMTFILLCLR
 70
     0
  9
$DIMARCSYM
 70
     0
  9
$DIMLTYPE
  6

  9
$DIMLTEX1
  6

  9
$DIMLTEX2
  6

  9
$DIMTXTDIRECTION
 70
     0
  9
$LUNITS
 70
     2
  9
$LUPREC
 70
     4
  9
$SKETCHINC
 40
0.1
  9
$FILLETRAD
 40
0.5
  9
$AUNITS
 70
     0
  9
$AUPREC
 70
     0
  9
$MENU
  1
.
  9
$ELEVATION
 40
0.0
  9
$PELEVATION
 40
0.0
  9
$THICKNESS
 40
0.0
  9
$LIMCHECK
 70
     0
  9
$CHAMFERA
 40
0.5
  9
$CHAMFERB
 40
0.5
  9
$CHAMFERC
 40
1.0
  9
$CHAMFERD
 40
0.0
  9
$SKPOLY
 70
     0
  9
$TDCREATE
 40
2457917.587384259
  9
$TDUCREATE
 40
2457917.212384259
  9
$TDUPDATE
 40
2457917.587384259
  9
$TDUUPDATE
 40
2457917.212384259
  9
$TDINDWG
 40
0.0000000116
  9
$TDUSRTIMER
 40
0.0000000116
  9
$USRTIMER
 70
     1
  9
$ANGBASE
 50
0.0
  9
$ANGDIR
 70
     0
  9
$PDMODE
 70
     0
  9
$PDSIZE
 40
0.0
  9
$PLINEWID
 40
0.0
  9
$SPLFRAME
 70
     0
  9
$SPLINETYPE
 70
     6
  9
$SPLINESEGS
 70
     8
  9
$HANDSEED
  5
114
  9
$SURFTAB1
 70
     6
  9
$SURFTAB2
 70
     6
  9
$SURFTYPE
 70
     6
  9
$SURFU
 70
     6
  9
$SURFV
 70
     6
  9
$UCSBASE
  2

  9
$UCSNAME
  2

  9
$UCSORG
 10
0.0
 20
0.0
 30
0.0
  9
$UCSXDIR
 10
1.0
 20
0.0
 30
0.0
  9
$UCSYDIR
 10
0.0
 20
1.0
 30
0.0
  9
$UCSORTHOREF
  2

  9
$UCSORTHOVIEW
 70
     0
  9
$UCSORGTOP
 10
0.0
 20
0.0
 30
0.0
  9
$UCSORGBOTTOM
 10
0.0
 20
0.0
 30
0.0
  9
$UCSORGLEFT
 10
0.0
 20
0.0
 30
0.0
  9
$UCSORGRIGHT
 10
0.0
 20
0.0
 30
0.0
  9
$UCSORGFRONT
 10
0.0
 20
0.0
 30
0.0
  9
$UCSORGBACK
 10
0.0
 20
0.0
 30
0.0
  9
$PUCSBASE
  2

  9
$PUCSNAME
  2

  9
$PUCSORG
 10
0.0
 20
0.0
 30
0.0
  9
$PUCSXDIR
 10
1.0
 20
0.0
 30
0.0
  9
$PUCSYDIR
 10
0.0
 20
1.0
 30
0.0
  9
$PUCSORTHOREF
  2

  9
$PUCSORTHOVIEW
 70
     0
  9
$PUCSORGTOP
 10
0.0
 20
0.0
 30
0.0
  9
$PUCSORGBOTTOM
 10
0.0
 20
0.0
 30
0.0
  9
$PUCSORGLEFT
 10
0.0
 20
0.0
 30
0.0
  9
$PUCSORGRIGHT
 10
0.0
 20
0.0
 30
0.0
  9
$PUCSORGFRONT
 10
0.0
 20
0.0
 30
0.0
  9
$PUCSORGBACK
 10
0.0
 20
0.0
 30
0.0
  9
$USERI1
 70
     0
  9
$USERI2
 70
     0
  9
$USERI3
 70
     0
  9
$USERI4
 70
     0
  9
$USERI5
 70
     0
  9
$USERR1
 40
0.0
  9
$USERR2
 40
0.0
  9
$USERR3
 40
0.0
  9
$USERR4
 40
0.0
  9
$USERR5
 40
0.0
  9
$WORLDVIEW
 70
     1
  9
$SHADEDGE
 70
     3
  9
$SHADEDIF
 70
    70
  9
$TILEMODE
 70
     1
  9
$MAXACTVP
 70
    64
  9
$PINSBASE
 10
0.0
 20
0.0
 30
0.0
  9
$PLIMCHECK
 70
     0
  9
$PEXTMIN
 10
1.000000000000000E+20
 20
1.000000000000000E+20
 30
1.000000000000000E+20
  9
$PEXTMAX
 10
-1.000000000000000E+20
 20
-1.000000000000000E+20
 30
-1.000000000000000E+20
  9
$PLIMMIN
 10
0.0
 20
0.0
  9
$PLIMMAX
 10
12.0
 20
9.0
  9
$UNITMODE
 70
     0
  9
$VISRETAIN
 70
     1
  9
$PLINEGEN
 70
     0
  9
$PSLTSCALE
 70
     1
  9
$TREEDEPTH
 70
  3020
  9
$CMLSTYLE
  2
Standard
  9
$CMLJUST
 70
     0
  9
$CMLSCALE
 40
1.0
  9
$PROXYGRAPHICS
 70
     1
  9
$MEASUREMENT
 70
     0
  9
$CELWEIGHT
370
    -1
  9
$ENDCAPS
280
     0
  9
$JOINSTYLE
280
     0
  9
$LWDISPLAY
290
     1
  9
$INSUNITS
 70
     1
  9
$HYPERLINKBASE
  1

  9
$STYLESHEET
  1

  9
$XEDIT
290
     1
  9
$CEPSNTYPE
380
     0
  9
$PSTYLEMODE
290
     1
  9
$FINGERPRINTGUID
  2
{6100AC88-B79C-756E-D9E4-B059BC60B530}
  9
$VERSIONGUID
  2
{FAEB1C32-E019-11D5-929B-00C0DF256EC4}
  9
$EXTNAMES
290
     1
  9
$PSVPSCALE
 40
0.0
  9
$OLESTARTUP
290
     0
  9
$SORTENTS
280
   127
  9
$INDEXCTL
280
     0
  9
$HIDETEXT
280
     1
  9
$XCLIPFRAME
280
     2
  9
$HALOGAP
280
     0
  9
$OBSCOLOR
 70
   257
  9
$OBSLTYPE
280
     0
  9
$INTERSECTIONDISPLAY
280
     0
  9
$INTERSECTIONCOLOR
 70
   257
  9
$DIMASSOC
280
     2
  9
$PROJECTNAME
  1

  9
$CAMERADISPLAY
290
     0
  9
$LENSLENGTH
 40
50.0
  9
$CAMERAHEIGHT
 40
0.0
  9
$STEPSPERSEC
 40
2.0
  9
$STEPSIZE
 40
6.0
  9
$3DDWFPREC
 40
2.0
  9
$PSOLWIDTH
 40
0.25
  9
$PSOLHEIGHT
 40
4.0
  9
$LOFTANG1
 40
1.570796326794897
  9
$LOFTANG2
 40
1.570796326794897
  9
$LOFTMAG1
 40
0.0
  9
$LOFTMAG2
 40
0.0
  9
$LOFTPARAM
 70
     7
  9
$LOFTNORMALS
280
     1
  9
$LATITUDE
 40
37.795
  9
$LONGITUDE
 40
-122.394
  9
$NORTHDIRECTION
 40
0.0
  9
$TIMEZONE
 70
 -8000
  9
$LIGHTGLYPHDISPLAY
280
     1
  9
$TILEMODELIGHTSYNCH
280
     1
  9
$CMATERIAL
347
3C
  9
$SOLIDHIST
280
     1
  9
$SHOWHIST
280
     1
  9
$DWFFRAME
280
     2
  9
$DGNFRAME
280
     2
  9
$REALWORLDSCALE
290
     1
  9
$INTERFERECOLOR
 62
   256
  9
$CSHADOW
280
     0
  9
$SHADOWPLANELOCATION
 40
0.0
  0
ENDSEC
  0
SECTION
  2
CLASSES
  0
CLASS
  1
ACDBDICTIONARYWDFLT
  2
AcDbDictionaryWithDefault
  3
ObjectDBX Classes
 90
        0
 91
        4
280
     0
281
     0
  0
CLASS
  1
VISUALSTYLE
  2
AcDbVisualStyle
  3
ObjectDBX Classes
 90
     4095
 91
        4
280
     0
281
     0
  0
CLASS
  1
MATERIAL
  2
AcDbMaterial
  3
ObjectDBX Classes
 90
     1153
 91
        4
280
     0
281
     0
  0
CLASS
  1
SUN
  2
AcDbSun
  3
SCENEOE
 90
     1024
 91
        4
280
     0
281
     0
  0
ENDSEC
  0
SECTION
  2
TABLES
  0
TABLE
  2
VPORT
  5
8
330
0
100
AcDbSymbolTable
 70
     1
  0
VPORT
  5
29
330
8
100
AcDbSymbolTableRecord
100
AcDbViewportTableRecord
  2
*Active
 70
     0
 10
0.0
 20
0.0
 11
1.0
 21
1.0
 12
0.0
 22
0.0
 13
0.0
 23
0.0
 14
0.5
 24
0.5
 15
0.5
 25
0.5
 16
0.0
 26
0.0
 36
1.0
 17
105.0008280156501
 27
-148.4999710739862
 37
0.0
 40
296.9999421479724
 41
0.7070764206636528
 42
50.0
 43
0.0
 44
0.0
 50
0.0
 51
0.0
 71
     0
 72
   100
 73
     1
 74
     3
 75
     0
 76
     0
 77
     0
 78
     0
281
     0
 65
     1
110
0.0
120
0.0
130
0.0
111
1.0
121
0.0
131
0.0
112
0.0
122
1.0
132
0.0
 79
     0
146
0.0
 60
     3
 61
     5
292
     1
282
     1
141
0.0
142
0.0
 63
   250
361
3F
  0
ENDTAB
  0
TABLE
  2
LTYPE
  5
5
330
0
100
AcDbSymbolTable
 70
     1
  0
LTYPE
  5
14
330
5
100
AcDbSymbolTableRecord
100
AcDbLinetypeTableRecord
  2
ByBlock
 70
     0
  3

 72
    65
 73
     0
 40
0.0
  0
LTYPE
  5
15
330
5
100
AcDbSymbolTableRecord
100
AcDbLinetypeTableRecord
  2
ByLayer
 70
     0
  3

 72
    65
 73
     0
 40
0.0
  0
LTYPE
  5
16
330
5
100
AcDbSymbolTableRecord
100
AcDbLinetypeTableRecord
  2
Continuous
 70
     0
  3
Solid line
 72
    65
 73
     0
 40
0.0
  0
ENDTAB
  0
TABLE
  2
LAYER
  5
2
330
0
100
AcDbSymbolTable
 70
     2
  0
LAYER
  5
10
330
2
100
AcDbSymbolTableRecord
100
AcDbLayerTableRecord
  2
0
 70
     0
 62
     7
  6
Continuous
370
    -3
390
F
347
3E
  0
LAYER
  5
40
330
2
100
AcDbSymbolTableRecord
100
AcDbLayerTableRecord
  2
_U+30EC_U+30A4_U+30E4_U+30FC 1
 70
     0
 62
     7
  6
Continuous
370
    -3
390
F
347
3E
  0
ENDTAB
  0
TABLE
  2
STYLE
  5
3
330
0
100
AcDbSymbolTable
 70
     1
  0
STYLE
  5
11
330
3
100
AcDbSymbolTableRecord
100
AcDbTextStyleTableRecord
  2
Standard
 70
     0
 40
0.0
 41
1.0
 50
0.0
 71
     0
 42
0.2
  3
txt
  4

  0
ENDTAB
  0
TABLE
  2
VIEW
  5
6
330
0
100
AcDbSymbolTable
 70
     0
  0
ENDTAB
  0
TABLE
  2
UCS
  5
7
330
0
100
AcDbSymbolTable
 70
     0
  0
ENDTAB
  0
TABLE
  2
APPID
  5
9
330
0
100
AcDbSymbolTable
 70
     1
  0
APPID
  5
12
330
9
100
AcDbSymbolTableRecord
100
AcDbRegAppTableRecord
  2
ACAD
 70
     0
  0
ENDTAB
  0
TABLE
  2
DIMSTYLE
  5
A
330
0
100
AcDbSymbolTable
 70
     1
100
AcDbDimStyleTable
  0
DIMSTYLE
105
27
330
A
100
AcDbSymbolTableRecord
100
AcDbDimStyleTableRecord
  2
Standard
 70
     0
178
     0
340
11
  0
ENDTAB
  0
TABLE
  2
BLOCK_RECORD
  5
1
330
0
100
AcDbSymbolTable
 70
    12
  0
BLOCK_RECORD
  5
1F
330
1
100
AcDbSymbolTableRecord
100
AcDbBlockTableRecord
  2
*Model_Space
340
22
 70
     0
280
     1
281
     0
  0
BLOCK_RECORD
  5
1B
330
1
100
AcDbSymbolTableRecord
100
AcDbBlockTableRecord
  2
*Paper_Space
340
1E
 70
     0
280
     1
281
     0
  0
BLOCK_RECORD
  5
23
330
1
100
AcDbSymbolTableRecord
100
AcDbBlockTableRecord
  2
*Paper_Space0
340
26
 70
     0
280
     1
281
     0
  0
BLOCK_RECORD
  5
41
330
1
100
AcDbSymbolTableRecord
100
AcDbBlockTableRecord
  2
block 2
340
0
102
{BLKREFS
331
42
102
}
 70
     0
280
     1
281
     0
  0
BLOCK_RECORD
  5
6D
330
1
100
AcDbSymbolTableRecord
100
AcDbBlockTableRecord
  2
block 3
340
0
102
{BLKREFS
331
6E
102
}
 70
     0
280
     1
281
     0
  0
BLOCK_RECORD
  5
7D
330
1
100
AcDbSymbolTableRecord
100
AcDbBlockTableRecord
  2
block 4
340
0
102
{BLKREFS
331
7E
102
}
 70
     0
280
     1
281
     0
  0
BLOCK_RECORD
  5
83
330
1
100
AcDbSymbolTableRecord
100
AcDbBlockTableRecord
  2
block 5
340
0
102
{BLKREFS
331
84
102
}
 70
     0
280
     1
281
     0
  0
BLOCK_RECORD
  5
8F
330
1
100
AcDbSymbolTableRecord
100
AcDbBlockTableRecord
  2
block 6
340
0
102
{BLKREFS
331
90
102
}
 70
     0
280
     1
281
     0
  0
BLOCK_RECORD
  5
97
330
1
100
AcDbSymbolTableRecord
100
AcDbBlockTableRecord
  2
block 7
340
0
102
{BLKREFS
331
98
102
}
 70
     0
280
     1
281
     0
  0
BLOCK_RECORD
  5
AB
330
1
100
AcDbSymbolTableRecord
100
AcDbBlockTableRecord
  2
block 8
340
0
102
{BLKREFS
331
AC
102
}
 70
     0
280
     1
281
     0
  0
BLOCK_RECORD
  5
BC
330
1
100
AcDbSymbolTableRecord
100
AcDbBlockTableRecord
  2
block 9
340
0
102
{BLKREFS
331
BD
102
}
 70
     0
280
     1
281
     0
  0
BLOCK_RECORD
  5
CC
330
1
100
AcDbSymbolTableRecord
100
AcDbBlockTableRecord
  2
block 10
340
0
102
{BLKREFS
331
CD
102
}
 70
     0
280
     1
281
     0
  0
BLOCK_RECORD
  5
DE
330
1
100
AcDbSymbolTableRecord
100
AcDbBlockTableRecord
  2
block 11
340
0
102
{BLKREFS
331
DF
102
}
 70
     0
280
     1
281
     0
  0
BLOCK_RECORD
  5
EE
330
1
100
AcDbSymbolTableRecord
100
AcDbBlockTableRecord
  2
block 12
340
0
102
{BLKREFS
331
EF
102
}
 70
     0
280
     1
281
     0
  0
ENDTAB
  0
ENDSEC
  0
SECTION
  2
BLOCKS
  0
BLOCK
  5
20
330
1F
100
AcDbEntity
  8
0
100
AcDbBlockBegin
  2
*Model_Space
 70
     0
 10
0.0
 20
0.0
 30
0.0
  3
*Model_Space
  1

  0
ENDBLK
  5
21
330
1F
100
AcDbEntity
  8
0
100
AcDbBlockEnd
  0
BLOCK
  5
1C
330
1B
100
AcDbEntity
 67
     1
  8
0
100
AcDbBlockBegin
  2
*Paper_Space
 70
     0
 10
0.0
 20
0.0
 30
0.0
  3
*Paper_Space
  1

  0
ENDBLK
  5
1D
330
1B
100
AcDbEntity
 67
     1
  8
0
100
AcDbBlockEnd
  0
BLOCK
  5
24
330
23
100
AcDbEntity
  8
0
100
AcDbBlockBegin
  2
*Paper_Space0
 70
     0
 10
0.0
 20
0.0
 30
0.0
  3
*Paper_Space0
  1

  0
ENDBLK
  5
25
330
23
100
AcDbEntity
  8
0
100
AcDbBlockEnd
  0
BLOCK
  5
43
330
41
100
AcDbEntity
  8
0
100
AcDbBlockBegin
  2
block 2
 70
     0
 10
0.0
 20
0.0
 30
0.0
  3
block 2
  1

  0
POLYLINE
  5
45
330
41
100
AcDbEntity
  8
_U+30EC_U+30A4_U+30E4_U+30FC 1
 62
   179
420
  2234388
370
    25
100
AcDb2dPolyline
 66
     1
 10
0.0
 20
0.0
 30
0.0
  0
VERTEX
  5
46
330
45
100
AcDbEntity
  8
_U+30EC_U+30A4_U+30E4_U+30FC 1
 62
   179
420
  2234388
370
    25
100
AcDbVertex
100
AcDb2dVertex
 10
93.82131816197432
 20
-142.9340902420441
 30
0.0
  0
VERTEX
  5
47
330
45
100
AcDbEntity
  8
_U+30EC_U+30A4_U+30E4_U+30FC 1
 62
   179
420
  2234388
370
    25
100
AcDbVertex
100
AcDb2dVertex
 10
97.92133666848524
 20
-142.9340902420441
 30
0.0
  0
SEQEND
  5
48
330
45
100
AcDbEntity
  8
_U+30EC_U+30A4_U+30E4_U+30FC 1
 62
   179
420
  2234388
370
    25
  0
POLYLINE
  5
49
330
41
100
AcDbEntity
  8
_U+30EC_U+30A4_U+30E4_U+30FC 1
 62
   179
420
  2234388
370
    25
100
AcDb2dPolyline
 66
     1
 10
0.0
 20
0.0
 30
0.0
  0
VERTEX
  5
4A
330
49
100
AcDbEntity
  8
_U+30EC_U+30A4_U+30E4_U+30FC 1
 62
   179
420
  2234388
370
    25
100
AcDbVertex
100
AcDb2dVertex
 10
96.82130502988272
 20
-143.9338624640166
 30
0.0
  0
VERTEX
  5
4B
330
49
100
AcDbEntity
  8
_U+30EC_U+30A4_U+30E4_U+30FC 1
 62
   179
420
  2234388
370
    25
100
AcDbVertex
100
AcDb2dVertex
 10
96.82130502988272
 20
-156.5341321830889
 30
0.0
  0
SEQEND
  5
4C
330
49
100
AcDbEntity
  8
_U+30EC_U+30A4_U+30E4_U+30FC 1
 62
   179
420
  2234388
370
    25
  0
POLYLINE
  5
4D
330
41
100
AcDbEntity
  8
_U+30EC_U+30A4_U+30E4_U+30FC 1
 62
   179
420
  2234388
370
    25
100
AcDb2dPolyline
 66
     1
 10
0.0
 20
0.0
 30
0.0
  0
VERTEX
  5
4E
330
4D
100
AcDbEntity
  8
_U+30EC_U+30A4_U+30E4_U+30FC 1
 62
   179
420
  2234388
370
    25
100
AcDbVertex
100
AcDb2dVertex
 10
93.6587228883447
 20
-142.9340902420441
 30
0.0
  0
VERTEX
  5
4F
330
4D
100
AcDbEntity
  8
_U+30EC_U+30A4_U+30E4_U+30FC 1
 62
   179
420
  2234388
370
    25
100
AcDbVertex
100
AcDb2dVertex
 10
93.6587228883447
 20
-143.9338624640166
 30
0.0
  0
SEQEND
  5
50
330
4D
100
AcDbEntity
  8
_U+30EC_U+30A4_U+30E4_U+30FC 1
 62
   179
420
  2234388
370
    25
  0
POLYLINE
  5
51
330
41
100
AcDbEntity
  8
_U+30EC_U+30A4_U+30E4_U+30FC 1
 62
   179
420
  2234388
370
    25
100
AcDb2dPolyline
 66
     1
 10
0.0
 20
0.0
 30
0.0
  0
VERTEX
  5
52
330
51
100
AcDbEntity
  8
_U+30EC_U+30A4_U+30E4_U+30FC 1
 62
   179
420
  2234388
370
    25
100
AcDbVertex
100
AcDb2dVertex
 10
97.92133666848524
 20
-142.9340902420441
 30
0.0
  0
VERTEX
  5
53
330
51
100
AcDbEntity
  8
_U+30EC_U+30A4_U+30E4_U+30FC 1
 62
   179
420
  2234388
370
    25
100
AcDbVertex
100
AcDb2dVertex
 10
97.92133666848524
 20
-155.4344532944747
 30
0.0
  0
SEQEND
  5
54
330
51
100
AcDbEntity
  8
_U+30EC_U+30A4_U+30E4_U+30FC 1
 62
   179
420
  2234388
370
    25
  0
POLYLINE
  5
55
330
41
100
AcDbEntity
  8
_U+30EC_U+30A4_U+30E4_U+30FC 1
 62
   179
420
  2234388
370
    25
100
AcDb2dPolyline
 66
     1
 10
0.0
 20
0.0
 30
0.0
  0
VERTEX
  5
56
330
55
100
AcDbEntity
  8
_U+30EC_U+30A4_U+30E4_U+30FC 1
 62
   179
420
  2234388
370
    25
100
AcDbVertex
100
AcDb2dVertex
 10
113.8214893183941
 20
-155.4344532944747
 30
0.0
  0
VERTEX
  5
57
330
55
100
AcDbEntity
  8
_U+30EC_U+30A4_U+30E4_U+30FC 1
 62
   179
420
  2234388
370
    25
100
AcDbVertex
100
AcDb2dVertex
 10
113.8214893183941
 20
-155.8340799610413
 30
0.0
  0
SEQEND
  5
58
330
55
100
AcDbEntity
  8
_U+30EC_U+30A4_U+30E4_U+30FC 1
 62
   179
420
  2234388
370
    25
  0
POLYLINE
  5
59
330
41
100
AcDbEntity
  8
_U+30EC_U+30A4_U+30E4_U+30FC 1
 62
   179
420
  2234388
370
    25
100
AcDb2dPolyline
 66
     1
 10
0.0
 20
0.0
 30
0.0
  0
VERTEX
  5
5A
330
59
100
AcDbEntity
  8
_U+30EC_U+30A4_U+30E4_U+30FC 1
 62
   179
420
  2234388
370
    25
100
AcDbVertex
100
AcDb2dVertex
 10
97.92133666848524
 20
-155.4344532944747
 30
0.0
  0
VERTEX
  5
5B
330
59
100
AcDbEntity
  8
_U+30EC_U+30A4_U+30E4_U+30FC 1
 62
   179
420
  2234388
370
    25
100
AcDbVertex
100
AcDb2dVertex
 10
113.8214893183941
 20
-155.4344532944747
 30
0.0
  0
SEQEND
  5
5C
330
59
100
AcDbEntity
  8
_U+30EC_U+30A4_U+30E4_U+30FC 1
 62
   179
420
  2234388
370
    25
  0
POLYLINE
  5
5D
330
41
100
AcDbEntity
  8
_U+30EC_U+30A4_U+30E4_U+30FC 1
 62
   179
420
  2234388
370
    25
100
AcDb2dPolyline
 66
     1
 10
0.0
 20
0.0
 30
0.0
  0
VERTEX
  5
5E
330
5D
100
AcDbEntity
  8
_U+30EC_U+30A4_U+30E4_U+30FC 1
 62
   179
420
  2234388
370
    25
100
AcDbVertex
100
AcDb2dVertex
 10
113.8214893183941
 20
-155.8340799610413
 30
0.0
  0
VERTEX
  5
5F
330
5D
100
AcDbEntity
  8
_U+30EC_U+30A4_U+30E4_U+30FC 1
 62
   179
420
  2234388
370
    25
100
AcDbVertex
100
AcDb2dVertex
 10
96.82130502988272
 20
-156.5341321830889
 30
0.0
  0
SEQEND
  5
60
330
5D
100
AcDbEntity
  8
_U+30EC_U+30A4_U+30E4_U+30FC 1
 62
   179
420
  2234388
370
    25
  0
POLYLINE
  5
61
330
41
100
AcDbEntity
  8
_U+30EC_U+30A4_U+30E4_U+30FC 1
 62
   179
420
  2234388
370
    25
100
AcDb2dPolyline
 66
     1
 10
0.0
 20
0.0
 30
0.0
  0
VERTEX
  5
62
330
61
100
AcDbEntity
  8
_U+30EC_U+30A4_U+30E4_U+30FC 1
 62
   179
420
  2234388
370
    25
100
AcDbVertex
100
AcDb2dVertex
 10
93.82131816197432
 20
-143.9338624640166
 30
0.0
  0
VERTEX
  5
63
330
61
100
AcDbEntity
  8
_U+30EC_U+30A4_U+30E4_U+30FC 1
 62
   179
420
  2234388
370
    25
100
AcDbVertex
100
AcDb2dVertex
 10
96.82130502988272
 20
-143.9338624640166
 30
0.0
  0
SEQEND
  5
64
330
61
100
AcDbEntity
  8
_U+30EC_U+30A4_U+30E4_U+30FC 1
 62
   179
420
  2234388
370
    25
  0
SPLINE
  5
65
330
41
100
AcDbEntity
  8
_U+30EC_U+30A4_U+30E4_U+30FC 1
 62
   179
420
  2234388
370
     9
100
AcDbSpline
210
0.0
220
0.0
230
1.0
 70
    11
 71
     3
 72
    17
 73
    13
 74
     0
 42
0.0000000001
 43
0.0000000001
 12
1.0
 22
0.0
 32
0.0
 13
1.0
 23
0.0
 33
0.0
 40
0.0
 40
0.0
 40
0.0
 40
0.0
 40
1.0
 40
1.0
 40
1.0
 40
2.0
 40
2.0
 40
2.0
 40
3.0
 40
3.0
 40
3.0
 40
4.0
 40
4.0
 40
4.0
 40
4.0
 10
117.9214725471282
 20
-142.9340902420441
 30
0.0
 10
117.9214725471282
 20
-142.8786335753914
 30
0.0
 10
117.8767050482703
 20
-142.8341835754025
 30
0.0
 10
117.8212131052415
 20
-142.8341835754025
 30
0.0
 10
117.7661092177585
 20
-142.8341835754025
 30
0.0
 10
117.7213064411237
 20
-142.8786335753914
 30
0.0
 10
117.7213064411237
 20
-142.9340902420441
 30
0.0
 10
117.7213064411237
 20
-142.9891941309193
 30
0.0
 10
117.7661092177585
 20
-143.0339969086861
 30
0.0
 10
117.8212131052415
 20
-143.0339969086861
 30
0.0
 10
117.8767050482703
 20
-143.0339969086861
 30
0.0
 10
117.9214725471282
 20
-142.9891941309193
 30
0.0
 10
117.9214725471282
 20
-142.9340902420441
 30
0.0
  0
SPLINE
  5
66
330
41
100
AcDbEntity
  8
_U+30EC_U+30A4_U+30E4_U+30FC 1
 62
   179
420
  2234388
370
     9
100
AcDbSpline
210
0.0
220
0.0
230
1.0
 70
    11
 71
     3
 72
    17
 73
    13
 74
     0
 42
0.0000000001
 43
0.0000000001
 12
1.0
 22
0.0
 32
0.0
 13
1.0
 23
0.0
 33
0.0
 40
0.0
 40
0.0
 40
0.0
 40
0.0
 40
1.0
 40
1.0
 40
1.0
 40
2.0
 40
2.0
 40
2.0
 40
3.0
 40
3.0
 40
3.0
 40
4.0
 40
4.0
 40
4.0
 40
4.0
 10
117.9214725471282
 20
-155.4344532944747
 30
0.0
 10
117.9214725471282
 20
-155.3786438500443
 30
0.0
 10
117.8767050482703
 20
-155.3338410722776
 30
0.0
 10
117.8212131052415
 20
-155.3338410722776
 30
0.0
 10
117.7661092177585
 20
-155.3338410722776
 30
0.0
 10
117.7213064411237
 20
-155.3786438500443
 30
0.0
 10
117.7213064411237
 20
-155.4344532944747
 30
0.0
 10
117.7213064411237
 20
-155.4895571833496
 30
0.0
 10
117.7661092177585
 20
-155.5343599611164
 30
0.0
 10
117.8212131052415
 20
-155.5343599611164
 30
0.0
 10
117.8767050482703
 20
-155.5343599611164
 30
0.0
 10
117.9214725471282
 20
-155.4895571833496
 30
0.0
 10
117.9214725471282
 20
-155.4344532944747
 30
0.0
  0
SPLINE
  5
67
330
41
100
AcDbEntity
  8
_U+30EC_U+30A4_U+30E4_U+30FC 1
 62
   179
420
  2234388
370
     9
100
AcDbSpline
210
0.0
220
0.0
230
1.0
 70
    11
 71
     3
 72
    17
 73
    13
 74
     0
 42
0.0000000001
 43
0.0000000001
 12
1.0
 22
0.0
 32
0.0
 13
1.0
 23
0.0
 33
0.0
 40
0.0
 40
0.0
 40
0.0
 40
0.0
 40
1.0
 40
1.0
 40
1.0
 40
2.0
 40
2.0
 40
2.0
 40
3.0
 40
3.0
 40
3.0
 40
4.0
 40
4.0
 40
4.0
 40
4.0
 10
117.9214725471282
 20
-155.8340799610413
 30
0.0
 10
117.9214725471282
 20
-155.7789407943888
 30
0.0
 10
117.8767050482703
 20
-155.7341732943996
 30
0.0
 10
117.8212131052415
 20
-155.7341732943996
 30
0.0
 10
117.7661092177585
 20
-155.7341732943996
 30
0.0
 10
117.7213064411237
 20
-155.7789407943888
 30
0.0
 10
117.7213064411237
 20
-155.8340799610413
 30
0.0
 10
117.7213064411237
 20
-155.8891838499168
 30
0.0
 10
117.7661092177585
 20
-155.9339866276829
 30
0.0
 10
117.8212131052415
 20
-155.9339866276829
 30
0.0
 10
117.8767050482703
 20
-155.9339866276829
 30
0.0
 10
117.9214725471282
 20
-155.8891838499168
 30
0.0
 10
117.9214725471282
 20
-155.8340799610413
 30
0.0
  0
SPLINE
  5
68
330
41
100
AcDbEntity
  8
_U+30EC_U+30A4_U+30E4_U+30FC 1
 62
   179
420
  2234388
370
     9
100
AcDbSpline
210
0.0
220
0.0
230
1.0
 70
    11
 71
     3
 72
    17
 73
    13
 74
     0
 42
0.0000000001
 43
0.0000000001
 12
1.0
 22
0.0
 32
0.0
 13
1.0
 23
0.0
 33
0.0
 40
0.0
 40
0.0
 40
0.0
 40
0.0
 40
1.0
 40
1.0
 40
1.0
 40
2.0
 40
2.0
 40
2.0
 40
3.0
 40
3.0
 40
3.0
 40
4.0
 40
4.0
 40
4.0
 40
4.0
 10
113.9213959825119
 20
-160.5338560709776
 30
0.0
 10
113.9213959825119
 20
-160.4787521821027
 30
0.0
 10
113.8765932058772
 20
-160.433949404336
 30
0.0
 10
113.8214893183941
 20
-160.433949404336
 30
0.0
 10
113.7659973753654
 20
-160.433949404336
 30
0.0
 10
113.7212298765075
 20
-160.4787521821027
 30
0.0
 10
113.7212298765075
 20
-160.5338560709776
 30
0.0
 10
113.7212298765075
 20
-160.5889952376307
 30
0.0
 10
113.7659973753654
 20
-160.6337627376193
 30
0.0
 10
113.8214893183941
 20
-160.6337627376193
 30
0.0
 10
113.8765932058772
 20
-160.6337627376193
 30
0.0
 10
113.9213959825119
 20
-160.5889952376307
 30
0.0
 10
113.9213959825119
 20
-160.5338560709776
 30
0.0
  0
SPLINE
  5
69
330
41
100
AcDbEntity
  8
_U+30EC_U+30A4_U+30E4_U+30FC 1
 62
   179
420
  2234388
370
     9
100
AcDbSpline
210
0.0
220
0.0
230
1.0
 70
    11
 71
     3
 72
    17
 73
    13
 74
     0
 42
0.0000000001
 43
0.0000000001
 12
1.0
 22
0.0
 32
0.0
 13
1.0
 23
0.0
 33
0.0
 40
0.0
 40
0.0
 40
0.0
 40
0.0
 40
1.0
 40
1.0
 40
1.0
 40
2.0
 40
2.0
 40
2.0
 40
3.0
 40
3.0
 40
3.0
 40
4.0
 40
4.0
 40
4.0
 40
4.0
 10
93.77446927428065
 20
-160.5338560709776
 30
0.0
 10
93.77446927428065
 20
-160.4787521821027
 30
0.0
 10
93.72966649764588
 20
-160.433949404336
 30
0.0
 10
93.67420983239403
 20
-160.433949404336
 30
0.0
 10
93.61875553215094
 20
-160.433949404336
 30
0.0
 10
93.57430553216199
 20
-160.4787521821027
 30
0.0
 10
93.57430553216199
 20
-160.5338560709776
 30
0.0
 10
93.57430553216199
 20
-160.5889952376307
 30
0.0
 10
93.61875553215094
 20
-160.6337627376193
 30
0.0
 10
93.67420983239403
 20
-160.6337627376193
 30
0.0
 10
93.72966649764588
 20
-160.6337627376193
 30
0.0
 10
93.77446927428065
 20
-160.5889952376307
 30
0.0
 10
93.77446927428065
 20
-160.5338560709776
 30
0.0
  0
SPLINE
  5
6A
330
41
100
AcDbEntity
  8
_U+30EC_U+30A4_U+30E4_U+30FC 1
 62
   179
420
  2234388
370
     9
100
AcDbSpline
210
0.0
220
0.0
230
1.0
 70
    11
 71
     3
 72
    17
 73
    13
 74
     0
 42
0.0000000001
 43
0.0000000001
 12
1.0
 22
0.0
 32
0.0
 13
1.0
 23
0.0
 33
0.0
 40
0.0
 40
0.0
 40
0.0
 40
0.0
 40
1.0
 40
1.0
 40
1.0
 40
2.0
 40
2.0
 40
2.0
 40
3.0
 40
3.0
 40
3.0
 40
4.0
 40
4.0
 40
4.0
 40
4.0
 10
90.81685101640244
 20
-142.9340902420441
 30
0.0
 10
90.81685101640244
 20
-142.8786335753914
 30
0.0
 10
90.77204823976767
 20
-142.8341835754025
 30
0.0
 10
90.7169443522846
 20
-142.8341835754025
 30
0.0
 10
90.66180518702465
 20
-142.8341835754025
 30
0.0
 10
90.61703768816677
 20
-142.8786335753914
 30
0.0
 10
90.61703768816677
 20
-142.9340902420441
 30
0.0
 10
90.61703768816677
 20
-142.9891941309193
 30
0.0
 10
90.66180518702465
 20
-143.0339969086861
 30
0.0
 10
90.7169443522846
 20
-143.0339969086861
 30
0.0
 10
90.77204823976767
 20
-143.0339969086861
 30
0.0
 10
90.81685101640244
 20
-142.9891941309193
 30
0.0
 10
90.81685101640244
 20
-142.9340902420441
 30
0.0
  0
SPLINE
  5
6B
330
41
100
AcDbEntity
  8
_U+30EC_U+30A4_U+30E4_U+30FC 1
 62
   179
420
  2234388
370
     9
100
AcDbSpline
210
0.0
220
0.0
230
1.0
 70
    11
 71
     3
 72
    17
 73
    13
 74
     0
 42
0.0000000001
 43
0.0000000001
 12
1.0
 22
0.0
 32
0.0
 13
1.0
 23
0.0
 33
0.0
 40
0.0
 40
0.0
 40
0.0
 40
0.0
 40
1.0
 40
1.0
 40
1.0
 40
2.0
 40
2.0
 40
2.0
 40
3.0
 40
3.0
 40
3.0
 40
4.0
 40
4.0
 40
4.0
 40
4.0
 10
90.81685101640244
 20
-143.9338624640166
 30
0.0
 10
90.81685101640244
 20
-143.8787232973636
 30
0.0
 10
90.77204823976767
 20
-143.833955797375
 30
0.0
 10
90.7169443522846
 20
-143.833955797375
 30
0.0
 10
90.66180518702465
 20
-143.833955797375
 30
0.0
 10
90.61703768816677
 20
-143.8787232973636
 30
0.0
 10
90.61703768816677
 20
-143.9338624640166
 30
0.0
 10
90.61703768816677
 20
-143.9893191306693
 30
0.0
 10
90.66180518702465
 20
-144.0337691306583
 30
0.0
 10
90.7169443522846
 20
-144.0337691306583
 30
0.0
 10
90.77204823976767
 20
-144.0337691306583
 30
0.0
 10
90.81685101640244
 20
-143.9893191306693
 30
0.0
 10
90.81685101640244
 20
-143.9338624640166
 30
0.0
  0
SPLINE
  5
6C
330
41
100
AcDbEntity
  8
_U+30EC_U+30A4_U+30E4_U+30FC 1
 62
   179
420
  2234388
370
     9
100
AcDbSpline
210
0.0
220
0.0
230
1.0
 70
    11
 71
     3
 72
    17
 73
    13
 74
     0
 42
0.0000000001
 43
0.0000000001
 12
1.0
 22
0.0
 32
0.0
 13
1.0
 23
0.0
 33
0.0
 40
0.0
 40
0.0
 40
0.0
 40
0.0
 40
1.0
 40
1.0
 40
1.0
 40
2.0
 40
2.0
 40
2.0
 40
3.0
 40
3.0
 40
3.0
 40
4.0
 40
4.0
 40
4.0
 40
4.0
 10
96.92156447176933
 20
-160.5338560709776
 30
0.0
 10
96.92156447176933
 20
-160.4787521821027
 30
0.0
 10
96.87676169513458
 20
-160.433949404336
 30
0.0
 10
96.82130502988272
 20
-160.433949404336
 30
0.0
 10
96.76620114239965
 20
-160.433949404336
 30
0.0
 10
96.72139836576488
 20
-160.4787521821027
 30
0.0
 10
96.72139836576488
 20
-160.5338560709776
 30
0.0
 10
96.72139836576488
 20
-160.5889952376307
 30
0.0
 10
96.76620114239965
 20
-160.6337627376193
 30
0.0
 10
96.82130502988272
 20
-160.6337627376193
 30
0.0
 10
96.87676169513458
 20
-160.6337627376193
 30
0.0
 10
96.92156447176933
 20
-160.5889952376307
 30
0.0
 10
96.92156447176933
 20
-160.5338560709776
 30
0.0
  0
INSERT
  5
6E
330
41
100
AcDbEntity
  8
_U+30EC_U+30A4_U+30E4_U+30FC 1
100
AcDbBlockReference
  2
block 3
 10
0.0
 20
0.0
 30
0.0
  0
INSERT
  5
84
330
41
100
AcDbEntity
  8
_U+30EC_U+30A4_U+30E4_U+30FC 1
100
AcDbBlockReference
  2
block 5
 10
0.0
 20
0.0
 30
0.0
  0
INSERT
  5
98
330
41
100
AcDbEntity
  8
_U+30EC_U+30A4_U+30E4_U+30FC 1
100
AcDbBlockReference
  2
block 7
 10
0.0
 20
0.0
 30
0.0
  0
INSERT
  5
BD
330
41
100
AcDbEntity
  8
_U+30EC_U+30A4_U+30E4_U+30FC 1
100
AcDbBlockReference
  2
block 9
 10
0.0
 20
0.0
 30
0.0
  0
INSERT
  5
DF
330
41
100
AcDbEntity
  8
_U+30EC_U+30A4_U+30E4_U+30FC 1
100
AcDbBlockReference
  2
block 11
 10
0.0
 20
0.0
 30
0.0
  0
ENDBLK
  5
44
330
41
100
AcDbEntity
  8
0
100
AcDbBlockEnd
  0
BLOCK
  5
6F
330
6D
100
AcDbEntity
  8
0
100
AcDbBlockBegin
  2
block 3
 70
     0
 10
0.0
 20
0.0
 30
0.0
  3
block 3
  1

  0
POLYLINE
  5
71
330
6D
100
AcDbEntity
  8
_U+30EC_U+30A4_U+30E4_U+30FC 1
 62
   179
420
  2234388
370
     9
100
AcDb2dPolyline
 66
     1
 10
0.0
 20
0.0
 30
0.0
  0
VERTEX
  5
72
330
71
100
AcDbEntity
  8
_U+30EC_U+30A4_U+30E4_U+30FC 1
 62
   179
420
  2234388
370
     9
100
AcDbVertex
100
AcDb2dVertex
 10
93.82131816197432
 20
-160.5338560709776
 30
0.0
  0
VERTEX
  5
73
330
71
100
AcDbEntity
  8
_U+30EC_U+30A4_U+30E4_U+30FC 1
 62
   179
420
  2234388
370
     9
100
AcDbVertex
100
AcDb2dVertex
 10
96.82130502988272
 20
-160.5338560709776
 30
0.0
  0
SEQEND
  5
74
330
71
100
AcDbEntity
  8
_U+30EC_U+30A4_U+30E4_U+30FC 1
 62
   179
420
  2234388
370
     9
  0
POLYLINE
  5
75
330
6D
100
AcDbEntity
  8
_U+30EC_U+30A4_U+30E4_U+30FC 1
 62
   179
420
  2234388
370
     9
100
AcDb2dPolyline
 66
     1
 10
0.0
 20
0.0
 30
0.0
  0
VERTEX
  5
76
330
75
100
AcDbEntity
  8
_U+30EC_U+30A4_U+30E4_U+30FC 1
 62
   179
420
  2234388
370
     9
100
AcDbVertex
100
AcDb2dVertex
 10
93.67420983239403
 20
-146.5741571855788
 30
0.0
  0
VERTEX
  5
77
330
75
100
AcDbEntity
  8
_U+30EC_U+30A4_U+30E4_U+30FC 1
 62
   179
420
  2234388
370
     9
100
AcDbVertex
100
AcDb2dVertex
 10
93.67420983239403
 20
-161.534333848505
 30
0.0
  0
SEQEND
  5
78
330
75
100
AcDbEntity
  8
_U+30EC_U+30A4_U+30E4_U+30FC 1
 62
   179
420
  2234388
370
     9
  0
POLYLINE
  5
79
330
6D
100
AcDbEntity
  8
_U+30EC_U+30A4_U+30E4_U+30FC 1
 62
   179
420
  2234388
370
     9
100
AcDb2dPolyline
 66
     1
 10
0.0
 20
0.0
 30
0.0
  0
VERTEX
  5
7A
330
79
100
AcDbEntity
  8
_U+30EC_U+30A4_U+30E4_U+30FC 1
 62
   179
420
  2234388
370
     9
100
AcDbVertex
100
AcDb2dVertex
 10
96.82130502988272
 20
-159.0738499602314
 30
0.0
  0
VERTEX
  5
7B
330
79
100
AcDbEntity
  8
_U+30EC_U+30A4_U+30E4_U+30FC 1
 62
   179
420
  2234388
370
     9
100
AcDbVertex
100
AcDb2dVertex
 10
96.82130502988272
 20
-161.534333848505
 30
0.0
  0
SEQEND
  5
7C
330
79
100
AcDbEntity
  8
_U+30EC_U+30A4_U+30E4_U+30FC 1
 62
   179
420
  2234388
370
     9
  0
INSERT
  5
7E
330
6D
100
AcDbEntity
  8
_U+30EC_U+30A4_U+30E4_U+30FC 1
100
AcDbBlockReference
  2
block 4
 10
0.0
 20
0.0
 30
0.0
  0
ENDBLK
  5
70
330
6D
100
AcDbEntity
  8
0
100
AcDbBlockEnd
  0
BLOCK
  5
7F
330
7D
100
AcDbEntity
  8
0
100
AcDbBlockBegin
  2
block 4
 70
     0
 10
0.0
 20
0.0
 30
0.0
  3
block 4
  1

  0
SPLINE
  5
81
330
7D
100
AcDbEntity
  8
_U+30EC_U+30A4_U+30E4_U+30FC 1
370
     0
100
AcDbSpline
210
0.0
220
0.0
230
1.0
 70
    11
 71
     3
 72
    62
 73
    58
 74
     0
 42
0.0000000001
 43
0.0000000001
 12
1.0
 22
0.0
 32
0.0
 13
1.0
 23
0.0
 33
0.0
 40
0.0
 40
0.0
 40
0.0
 40
0.0
 40
1.0
 40
1.0
 40
1.0
 40
2.0
 40
2.0
 40
2.0
 40
3.0
 40
3.0
 40
3.0
 40
4.0
 40
4.0
 40
4.0
 40
5.0
 40
5.0
 40
5.0
 40
6.0
 40
6.0
 40
6.0
 40
7.0
 40
7.0
 40
7.0
 40
8.0
 40
8.0
 40
8.0
 40
9.0
 40
9.0
 40
9.0
 40
10.0
 40
10.0
 40
10.0
 40
11.0
 40
11.0
 40
11.0
 40
12.0
 40
12.0
 40
12.0
 40
13.0
 40
13.0
 40
13.0
 40
14.0
 40
14.0
 40
14.0
 40
15.0
 40
15.0
 40
15.0
 40
16.0
 40
16.0
 40
16.0
 40
17.0
 40
17.0
 40
17.0
 40
18.0
 40
18.0
 40
18.0
 40
19.0
 40
19.0
 40
19.0
 40
19.0
 10
95.2257120530165
 20
-159.9385579027237
 30
0.0
 10
95.14458005433886
 20
-159.9385579027237
 30
0.0
 10
94.9588894076839
 20
-159.9175428202637
 30
0.0
 10
94.85243595718967
 20
-159.7315076640602
 30
0.0
 10
94.7893907098096
 20
-159.619197551241
 30
0.0
 10
94.78577335955009
 20
-159.5199788012658
 30
0.0
 10
94.78215600929057
 20
-159.4352294523287
 30
0.0
 10
94.78215600929057
 20
-159.4352294523287
 30
0.0
 10
94.96974145846244
 20
-159.4352294523287
 30
0.0
 10
94.96974145846244
 20
-159.4352294523287
 30
0.0
 10
94.97146400620505
 20
-159.5092990052616
 30
0.0
 10
94.98059350924096
 20
-159.7439100078071
 30
0.0
 10
95.22209470275698
 20
-159.7439100078071
 30
0.0
 10
95.33940020402974
 20
-159.7439100078071
 30
0.0
 10
95.46928030382365
 20
-159.674319079005
 30
0.0
 10
95.46928030382365
 20
-159.445909248333
 30
0.0
 10
95.46928030382365
 20
-159.3294650209315
 30
0.0
 10
95.43672415148805
 20
-159.2808891745895
 30
0.0
 10
95.40968015192884
 20
-159.2491942961252
 30
0.0
 10
95.34663490454876
 20
-159.1751247431923
 30
0.0
 10
95.24741615457357
 20
-159.1623778898969
 30
0.0
 10
95.20056285597417
 20
-159.1623778898969
 30
0.0
 10
95.1843709071935
 20
-159.1623778898969
 30
0.0
 10
95.15370955737477
 20
-159.1644449471881
 30
0.0
 10
95.13028290807507
 20
-159.1685790617704
 30
0.0
 10
95.13028290807507
 20
-159.1685790617704
 30
0.0
 10
95.13028290807507
 20
-158.9739311668538
 30
0.0
 10
95.13028290807507
 20
-158.9739311668538
 30
0.0
 10
95.16266680563642
 20
-158.9804768482757
 30
0.0
 10
95.19866805345728
 20
-158.9825439055669
 30
0.0
 10
95.20418020623369
 20
-158.9825439055669
 30
0.0
 10
95.25999075309473
 20
-158.9825439055669
 30
0.0
 10
95.42948945096902
 20
-158.9611843135583
 30
0.0
 10
95.42948945096902
 20
-158.7245062537217
 30
0.0
 10
95.42948945096902
 20
-158.5467393266828
 30
0.0
 10
95.31769610247267
 20
-158.4916177989188
 30
0.0
 10
95.22398950527386
 20
-158.4916177989188
 30
0.0
 10
94.99850800576426
 20
-158.4916177989188
 30
0.0
 10
94.99127330524524
 20
-158.7245062537217
 30
0.0
 10
94.98782820976
 20
-158.7961642398149
 30
0.0
 10
94.98782820976
 20
-158.7961642398149
 30
0.0
 10
94.81471216162619
 20
-158.7961642398149
 30
0.0
 10
94.81471216162619
 20
-158.7961642398149
 30
0.0
 10
94.82177460737095
 20
-158.6714517832488
 30
0.0
 10
94.8453735114449
 20
-158.294902846711
 30
0.0
 10
95.2348415560524
 20
-158.294902846711
 30
0.0
 10
95.42587210070951
 20
-158.294902846711
 30
0.0
 10
95.63154430117892
 20
-158.4220268701167
 30
0.0
 10
95.63154430117892
 20
-158.7179605722997
 30
0.0
 10
95.63154430117892
 20
-158.9043402380517
 30
0.0
 10
95.55041230250129
 20
-158.9866780201492
 30
0.0
 10
95.46566295356415
 20
-159.0480007197866
 30
0.0
 10
95.51785615016568
 20
-159.0755614836686
 30
0.0
 10
95.67305770177619
 20
-159.1558322084749
 30
0.0
 10
95.67305770177619
 20
-159.4331623950376
 30
0.0
 10
95.67305770177619
 20
-159.7714707716891
 30
0.0
 10
95.46204560330463
 20
-159.9385579027237
 30
0.0
 10
95.2257120530165
 20
-159.9385579027237
 30
0.0
  0
HATCH
  5
82
330
7D
100
AcDbEntity
  8
_U+30EC_U+30A4_U+30E4_U+30FC 1
 62
   179
420
  2234388
100
AcDbHatch
 10
0.0
 20
0.0
 30
0.0
210
0.0
220
0.0
230
1.0
  2
SOLID
 70
     1
 71
     0
 91
        1
 92
        1
 93
        1
 72
     4
 94
        3
 73
     0
 74
     1
 95
       62
 96
       58
 40
0.0
 40
0.0
 40
0.0
 40
0.0
 40
1.0
 40
1.0
 40
1.0
 40
2.0
 40
2.0
 40
2.0
 40
3.0
 40
3.0
 40
3.0
 40
4.0
 40
4.0
 40
4.0
 40
5.0
 40
5.0
 40
5.0
 40
6.0
 40
6.0
 40
6.0
 40
7.0
 40
7.0
 40
7.0
 40
8.0
 40
8.0
 40
8.0
 40
9.0
 40
9.0
 40
9.0
 40
10.0
 40
10.0
 40
10.0
 40
11.0
 40
11.0
 40
11.0
 40
12.0
 40
12.0
 40
12.0
 40
13.0
 40
13.0
 40
13.0
 40
14.0
 40
14.0
 40
14.0
 40
15.0
 40
15.0
 40
15.0
 40
16.0
 40
16.0
 40
16.0
 40
17.0
 40
17.0
 40
17.0
 40
18.0
 40
18.0
 40
18.0
 40
19.0
 40
19.0
 40
19.0
 40
19.0
 10
95.2257120530165
 20
-159.9385579027237
 10
95.14458005433886
 20
-159.9385579027237
 10
94.9588894076839
 20
-159.9175428202637
 10
94.85243595718967
 20
-159.7315076640602
 10
94.7893907098096
 20
-159.619197551241
 10
94.78577335955009
 20
-159.5199788012658
 10
94.78215600929057
 20
-159.4352294523287
 10
94.78215600929057
 20
-159.4352294523287
 10
94.96974145846244
 20
-159.4352294523287
 10
94.96974145846244
 20
-159.4352294523287
 10
94.97146400620505
 20
-159.5092990052616
 10
94.98059350924096
 20
-159.7439100078071
 10
95.22209470275698
 20
-159.7439100078071
 10
95.33940020402974
 20
-159.7439100078071
 10
95.46928030382365
 20
-159.674319079005
 10
95.46928030382365
 20
-159.445909248333
 10
95.46928030382365
 20
-159.3294650209315
 10
95.43672415148805
 20
-159.2808891745895
 10
95.40968015192884
 20
-159.2491942961252
 10
95.34663490454876
 20
-159.1751247431923
 10
95.24741615457357
 20
-159.1623778898969
 10
95.20056285597417
 20
-159.1623778898969
 10
95.1843709071935
 20
-159.1623778898969
 10
95.15370955737477
 20
-159.1644449471881
 10
95.13028290807507
 20
-159.1685790617704
 10
95.13028290807507
 20
-159.1685790617704
 10
95.13028290807507
 20
-158.9739311668538
 10
95.13028290807507
 20
-158.9739311668538
 10
95.16266680563642
 20
-158.9804768482757
 10
95.19866805345728
 20
-158.9825439055669
 10
95.20418020623369
 20
-158.9825439055669
 10
95.25999075309473
 20
-158.9825439055669
 10
95.42948945096902
 20
-158.9611843135583
 10
95.42948945096902
 20
-158.7245062537217
 10
95.42948945096902
 20
-158.5467393266828
 10
95.31769610247267
 20
-158.4916177989188
 10
95.22398950527386
 20
-158.4916177989188
 10
94.99850800576426
 20
-158.4916177989188
 10
94.99127330524524
 20
-158.7245062537217
 10
94.98782820976
 20
-158.7961642398149
 10
94.98782820976
 20
-158.7961642398149
 10
94.81471216162619
 20
-158.7961642398149
 10
94.81471216162619
 20
-158.7961642398149
 10
94.82177460737095
 20
-158.6714517832488
 10
94.8453735114449
 20
-158.294902846711
 10
95.2348415560524
 20
-158.294902846711
 10
95.42587210070951
 20
-158.294902846711
 10
95.63154430117892
 20
-158.4220268701167
 10
95.63154430117892
 20
-158.7179605722997
 10
95.63154430117892
 20
-158.9043402380517
 10
95.55041230250129
 20
-158.9866780201492
 10
95.46566295356415
 20
-159.0480007197866
 10
95.51785615016568
 20
-159.0755614836686
 10
95.67305770177619
 20
-159.1558322084749
 10
95.67305770177619
 20
-159.4331623950376
 10
95.67305770177619
 20
-159.7714707716891
 10
95.46204560330463
 20
-159.9385579027237
 10
95.2257120530165
 20
-159.9385579027237
 97
        0
 97
        0
 75
     2
 76
     1
 98
        0
  0
ENDBLK
  5
80
330
7D
100
AcDbEntity
  8
0
100
AcDbBlockEnd
  0
BLOCK
  5
85
330
83
100
AcDbEntity
  8
0
100
AcDbBlockBegin
  2
block 5
 70
     0
 10
0.0
 20
0.0
 30
0.0
  3
block 5
  1

  0
POLYLINE
  5
87
330
83
100
AcDbEntity
  8
_U+30EC_U+30A4_U+30E4_U+30FC 1
 62
   179
420
  2234388
370
     9
100
AcDb2dPolyline
 66
     1
 10
0.0
 20
0.0
 30
0.0
  0
VERTEX
  5
88
330
87
100
AcDbEntity
  8
_U+30EC_U+30A4_U+30E4_U+30FC 1
 62
   179
420
  2234388
370
     9
100
AcDbVertex
100
AcDb2dVertex
 10
96.82130502988272
 20
-160.5338560709776
 30
0.0
  0
VERTEX
  5
89
330
87
100
AcDbEntity
  8
_U+30EC_U+30A4_U+30E4_U+30FC 1
 62
   179
420
  2234388
370
     9
100
AcDbVertex
100
AcDb2dVertex
 10
113.8214893183941
 20
-160.5338560709776
 30
0.0
  0
SEQEND
  5
8A
330
87
100
AcDbEntity
  8
_U+30EC_U+30A4_U+30E4_U+30FC 1
 62
   179
420
  2234388
370
     9
  0
POLYLINE
  5
8B
330
83
100
AcDbEntity
  8
_U+30EC_U+30A4_U+30E4_U+30FC 1
 62
   179
420
  2234388
370
     9
100
AcDb2dPolyline
 66
     1
 10
0.0
 20
0.0
 30
0.0
  0
VERTEX
  5
8C
330
8B
100
AcDbEntity
  8
_U+30EC_U+30A4_U+30E4_U+30FC 1
 62
   179
420
  2234388
370
     9
100
AcDbVertex
100
AcDb2dVertex
 10
113.8214893183941
 20
-158.3737977381844
 30
0.0
  0
VERTEX
  5
8D
330
8B
100
AcDbEntity
  8
_U+30EC_U+30A4_U+30E4_U+30FC 1
 62
   179
420
  2234388
370
     9
100
AcDbVertex
100
AcDb2dVertex
 10
113.8214893183941
 20
-161.534333848505
 30
0.0
  0
SEQEND
  5
8E
330
8B
100
AcDbEntity
  8
_U+30EC_U+30A4_U+30E4_U+30FC 1
 62
   179
420
  2234388
370
     9
  0
INSERT
  5
90
330
83
100
AcDbEntity
  8
_U+30EC_U+30A4_U+30E4_U+30FC 1
100
AcDbBlockReference
  2
block 6
 10
0.0
 20
0.0
 30
0.0
  0
ENDBLK
  5
86
330
83
100
AcDbEntity
  8
0
100
AcDbBlockEnd
  0
BLOCK
  5
91
330
8F
100
AcDbEntity
  8
0
100
AcDbBlockBegin
  2
block 6
 70
     0
 10
0.0
 20
0.0
 30
0.0
  3
block 6
  1

  0
SPLINE
  5
93
330
8F
100
AcDbEntity
  8
_U+30EC_U+30A4_U+30E4_U+30FC 1
370
     0
100
AcDbSpline
210
0.0
220
0.0
230
1.0
 70
    11
 71
     3
 72
    26
 73
    22
 74
     0
 42
0.0000000001
 43
0.0000000001
 12
1.0
 22
0.0
 32
0.0
 13
1.0
 23
0.0
 33
0.0
 40
0.0
 40
0.0
 40
0.0
 40
0.0
 40
1.0
 40
1.0
 40
1.0
 40
2.0
 40
2.0
 40
2.0
 40
3.0
 40
3.0
 40
3.0
 40
4.0
 40
4.0
 40
4.0
 40
5.0
 40
5.0
 40
5.0
 40
6.0
 40
6.0
 40
6.0
 40
7.0
 40
7.0
 40
7.0
 40
7.0
 10
104.7794785979371
 20
-159.8879149990905
 30
0.0
 10
104.7794785979371
 20
-159.8879149990905
 30
0.0
 10
104.7794785979371
 20
-158.7837618960679
 30
0.0
 10
104.7794785979371
 20
-158.7837618960679
 30
0.0
 10
104.7794785979371
 20
-158.7837618960679
 30
0.0
 10
104.4980142967922
 20
-158.7837618960679
 30
0.0
 10
104.4980142967922
 20
-158.7837618960679
 30
0.0
 10
104.4980142967922
 20
-158.7837618960679
 30
0.0
 10
104.4980142967922
 20
-158.6356227902022
 30
0.0
 10
104.4980142967922
 20
-158.6356227902022
 30
0.0
 10
104.7812011456797
 20
-158.6208088796157
 30
0.0
 10
104.8208197437601
 20
-158.4578558631633
 30
0.0
 10
104.8459689408024
 20
-158.343478693053
 30
0.0
 10
104.8459689408024
 20
-158.343478693053
 30
0.0
 10
104.9706813973685
 20
-158.343478693053
 30
0.0
 10
104.9706813973685
 20
-158.343478693053
 30
0.0
 10
104.9706813973685
 20
-158.343478693053
 30
0.0
 10
104.9706813973685
 20
-159.8879149990905
 30
0.0
 10
104.9706813973685
 20
-159.8879149990905
 30
0.0
 10
104.9706813973685
 20
-159.8879149990905
 30
0.0
 10
104.7794785979371
 20
-159.8879149990905
 30
0.0
 10
104.7794785979371
 20
-159.8879149990905
 30
0.0
  0
HATCH
  5
94
330
8F
100
AcDbEntity
  8
_U+30EC_U+30A4_U+30E4_U+30FC 1
 62
   179
420
  2234388
100
AcDbHatch
 10
0.0
 20
0.0
 30
0.0
210
0.0
220
0.0
230
1.0
  2
SOLID
 70
     1
 71
     0
 91
        1
 92
        1
 93
        1
 72
     4
 94
        3
 73
     0
 74
     1
 95
       26
 96
       22
 40
0.0
 40
0.0
 40
0.0
 40
0.0
 40
1.0
 40
1.0
 40
1.0
 40
2.0
 40
2.0
 40
2.0
 40
3.0
 40
3.0
 40
3.0
 40
4.0
 40
4.0
 40
4.0
 40
5.0
 40
5.0
 40
5.0
 40
6.0
 40
6.0
 40
6.0
 40
7.0
 40
7.0
 40
7.0
 40
7.0
 10
104.7794785979371
 20
-159.8879149990905
 10
104.7794785979371
 20
-159.8879149990905
 10
104.7794785979371
 20
-158.7837618960679
 10
104.7794785979371
 20
-158.7837618960679
 10
104.7794785979371
 20
-158.7837618960679
 10
104.4980142967922
 20
-158.7837618960679
 10
104.4980142967922
 20
-158.7837618960679
 10
104.4980142967922
 20
-158.7837618960679
 10
104.4980142967922
 20
-158.6356227902022
 10
104.4980142967922
 20
-158.6356227902022
 10
104.7812011456797
 20
-158.6208088796157
 10
104.8208197437601
 20
-158.4578558631633
 10
104.8459689408024
 20
-158.343478693053
 10
104.8459689408024
 20
-158.343478693053
 10
104.9706813973685
 20
-158.343478693053
 10
104.9706813973685
 20
-158.343478693053
 10
104.9706813973685
 20
-158.343478693053
 10
104.9706813973685
 20
-159.8879149990905
 10
104.9706813973685
 20
-159.8879149990905
 10
104.9706813973685
 20
-159.8879149990905
 10
104.7794785979371
 20
-159.8879149990905
 10
104.7794785979371
 20
-159.8879149990905
 97
        0
 97
        0
 75
     2
 76
     1
 98
        0
  0
SPLINE
  5
95
330
8F
100
AcDbEntity
  8
_U+30EC_U+30A4_U+30E4_U+30FC 1
370
     0
100
AcDbSpline
210
0.0
220
0.0
230
1.0
 70
    11
 71
     3
 72
    26
 73
    22
 74
     0
 42
0.0000000001
 43
0.0000000001
 12
1.0
 22
0.0
 32
0.0
 13
1.0
 23
0.0
 33
0.0
 40
0.0
 40
0.0
 40
0.0
 40
0.0
 40
1.0
 40
1.0
 40
1.0
 40
2.0
 40
2.0
 40
2.0
 40
3.0
 40
3.0
 40
3.0
 40
4.0
 40
4.0
 40
4.0
 40
5.0
 40
5.0
 40
5.0
 40
6.0
 40
6.0
 40
6.0
 40
7.0
 40
7.0
 40
7.0
 40
7.0
 10
105.7468614101952
 20
-159.8879149990905
 30
0.0
 10
105.7468614101952
 20
-159.8879149990905
 30
0.0
 10
105.5449788147596
 20
-159.8879149990905
 30
0.0
 10
105.5449788147596
 20
-159.8879149990905
 30
0.0
 10
105.5666829163167
 20
-159.5788899340636
 30
0.0
 10
105.7306694614146
 20
-159.060747573082
 30
0.0
 10
106.0769015576822
 20
-158.5550075558474
 30
0.0
 10
106.0769015576822
 20
-158.5550075558474
 30
0.0
 10
105.3627332635899
 20
-158.5550075558474
 30
0.0
 10
105.3627332635899
 20
-158.5550075558474
 30
0.0
 10
105.3627332635899
 20
-158.5550075558474
 30
0.0
 10
105.3627332635899
 20
-158.343478693053
 30
0.0
 10
105.3627332635899
 20
-158.343478693053
 30
0.0
 10
105.3627332635899
 20
-158.343478693053
 30
0.0
 10
106.2787841531178
 20
-158.343478693053
 30
0.0
 10
106.2787841531178
 20
-158.343478693053
 30
0.0
 10
106.2787841531178
 20
-158.343478693053
 30
0.0
 10
106.2787841531178
 20
-158.5550075558474
 30
0.0
 10
106.2787841531178
 20
-158.5550075558474
 30
0.0
 10
106.0031765142978
 20
-158.8450845957054
 30
0.0
 10
105.7758002122713
 20
-159.4372965096198
 30
0.0
 10
105.7468614101952
 20
-159.8879149990905
 30
0.0
  0
HATCH
  5
96
330
8F
100
AcDbEntity
  8
_U+30EC_U+30A4_U+30E4_U+30FC 1
 62
   179
420
  2234388
100
AcDbHatch
 10
0.0
 20
0.0
 30
0.0
210
0.0
220
0.0
230
1.0
  2
SOLID
 70
     1
 71
     0
 91
        1
 92
        1
 93
        1
 72
     4
 94
        3
 73
     0
 74
     1
 95
       26
 96
       22
 40
0.0
 40
0.0
 40
0.0
 40
0.0
 40
1.0
 40
1.0
 40
1.0
 40
2.0
 40
2.0
 40
2.0
 40
3.0
 40
3.0
 40
3.0
 40
4.0
 40
4.0
 40
4.0
 40
5.0
 40
5.0
 40
5.0
 40
6.0
 40
6.0
 40
6.0
 40
7.0
 40
7.0
 40
7.0
 40
7.0
 10
105.7468614101952
 20
-159.8879149990905
 10
105.7468614101952
 20
-159.8879149990905
 10
105.5449788147596
 20
-159.8879149990905
 10
105.5449788147596
 20
-159.8879149990905
 10
105.5666829163167
 20
-159.5788899340636
 10
105.7306694614146
 20
-159.060747573082
 10
106.0769015576822
 20
-158.5550075558474
 10
106.0769015576822
 20
-158.5550075558474
 10
105.3627332635899
 20
-158.5550075558474
 10
105.3627332635899
 20
-158.5550075558474
 10
105.3627332635899
 20
-158.5550075558474
 10
105.3627332635899
 20
-158.343478693053
 10
105.3627332635899
 20
-158.343478693053
 10
105.3627332635899
 20
-158.343478693053
 10
106.2787841531178
 20
-158.343478693053
 10
106.2787841531178
 20
-158.343478693053
 10
106.2787841531178
 20
-158.343478693053
 10
106.2787841531178
 20
-158.5550075558474
 10
106.2787841531178
 20
-158.5550075558474
 10
106.0031765142978
 20
-158.8450845957054
 10
105.7758002122713
 20
-159.4372965096198
 10
105.7468614101952
 20
-159.8879149990905
 97
        0
 97
        0
 75
     2
 76
     1
 98
        0
  0
ENDBLK
  5
92
330
8F
100
AcDbEntity
  8
0
100
AcDbBlockEnd
  0
BLOCK
  5
99
330
97
100
AcDbEntity
  8
0
100
AcDbBlockBegin
  2
block 7
 70
     0
 10
0.0
 20
0.0
 30
0.0
  3
block 7
  1

  0
POLYLINE
  5
9B
330
97
100
AcDbEntity
  8
_U+30EC_U+30A4_U+30E4_U+30FC 1
 62
   179
420
  2234388
370
     9
100
AcDb2dPolyline
 66
     1
 10
0.0
 20
0.0
 30
0.0
  0
VERTEX
  5
9C
330
9B
100
AcDbEntity
  8
_U+30EC_U+30A4_U+30E4_U+30FC 1
 62
   179
420
  2234388
370
     9
100
AcDbVertex
100
AcDb2dVertex
 10
90.7169443522846
 20
-142.9340902420441
 30
0.0
  0
VERTEX
  5
9D
330
9B
100
AcDbEntity
  8
_U+30EC_U+30A4_U+30E4_U+30FC 1
 62
   179
420
  2234388
370
     9
100
AcDbVertex
100
AcDb2dVertex
 10
90.7169443522846
 20
-141.9339652422944
 30
0.0
  0
SEQEND
  5
9E
330
9B
100
AcDbEntity
  8
_U+30EC_U+30A4_U+30E4_U+30FC 1
 62
   179
420
  2234388
370
     9
  0
POLYLINE
  5
9F
330
97
100
AcDbEntity
  8
_U+30EC_U+30A4_U+30E4_U+30FC 1
 62
   179
420
  2234388
370
     9
100
AcDb2dPolyline
 66
     1
 10
0.0
 20
0.0
 30
0.0
  0
VERTEX
  5
A0
330
9F
100
AcDbEntity
  8
_U+30EC_U+30A4_U+30E4_U+30FC 1
 62
   179
420
  2234388
370
     9
100
AcDbVertex
100
AcDb2dVertex
 10
90.7169443522846
 20
-142.9340902420441
 30
0.0
  0
VERTEX
  5
A1
330
9F
100
AcDbEntity
  8
_U+30EC_U+30A4_U+30E4_U+30FC 1
 62
   179
420
  2234388
370
     9
100
AcDbVertex
100
AcDb2dVertex
 10
90.7169443522846
 20
-144.9339521859888
 30
0.0
  0
SEQEND
  5
A2
330
9F
100
AcDbEntity
  8
_U+30EC_U+30A4_U+30E4_U+30FC 1
 62
   179
420
  2234388
370
     9
  0
POLYLINE
  5
A3
330
97
100
AcDbEntity
  8
_U+30EC_U+30A4_U+30E4_U+30FC 1
 62
   179
420
  2234388
370
     9
100
AcDb2dPolyline
 66
     1
 10
0.0
 20
0.0
 30
0.0
  0
VERTEX
  5
A4
330
A3
100
AcDbEntity
  8
_U+30EC_U+30A4_U+30E4_U+30FC 1
 62
   179
420
  2234388
370
     9
100
AcDbVertex
100
AcDb2dVertex
 10
92.17698570392473
 20
-142.9340902420441
 30
0.0
  0
VERTEX
  5
A5
330
A3
100
AcDbEntity
  8
_U+30EC_U+30A4_U+30E4_U+30FC 1
 62
   179
420
  2234388
370
     9
100
AcDbVertex
100
AcDb2dVertex
 10
89.71717215556869
 20
-142.9340902420441
 30
0.0
  0
SEQEND
  5
A6
330
A3
100
AcDbEntity
  8
_U+30EC_U+30A4_U+30E4_U+30FC 1
 62
   179
420
  2234388
370
     9
  0
POLYLINE
  5
A7
330
97
100
AcDbEntity
  8
_U+30EC_U+30A4_U+30E4_U+30FC 1
 62
   179
420
  2234388
370
     9
100
AcDb2dPolyline
 66
     1
 10
0.0
 20
0.0
 30
0.0
  0
VERTEX
  5
A8
330
A7
100
AcDbEntity
  8
_U+30EC_U+30A4_U+30E4_U+30FC 1
 62
   179
420
  2234388
370
     9
100
AcDbVertex
100
AcDb2dVertex
 10
92.17698570392473
 20
-143.9338624640166
 30
0.0
  0
VERTEX
  5
A9
330
A7
100
AcDbEntity
  8
_U+30EC_U+30A4_U+30E4_U+30FC 1
 62
   179
420
  2234388
370
     9
100
AcDbVertex
100
AcDb2dVertex
 10
89.71717215556869
 20
-143.9338624640166
 30
0.0
  0
SEQEND
  5
AA
330
A7
100
AcDbEntity
  8
_U+30EC_U+30A4_U+30E4_U+30FC 1
 62
   179
420
  2234388
370
     9
  0
INSERT
  5
AC
330
97
100
AcDbEntity
  8
_U+30EC_U+30A4_U+30E4_U+30FC 1
100
AcDbBlockReference
  2
block 8
 10
0.0
 20
0.0
 30
0.0
  0
ENDBLK
  5
9A
330
97
100
AcDbEntity
  8
0
100
AcDbBlockEnd
  0
BLOCK
  5
AD
330
AB
100
AcDbEntity
  8
0
100
AcDbBlockBegin
  2
block 8
 70
     0
 10
0.0
 20
0.0
 30
0.0
  3
block 8
  1

  0
SPLINE
  5
AF
330
AB
100
AcDbEntity
  8
_U+30EC_U+30A4_U+30E4_U+30FC 1
370
     0
100
AcDbSpline
210
0.0
220
0.0
230
1.0
 70
    11
 71
     3
 72
    26
 73
    22
 74
     0
 42
0.0000000001
 43
0.0000000001
 12
1.0
 22
0.0
 32
0.0
 13
1.0
 23
0.0
 33
0.0
 40
0.0
 40
0.0
 40
0.0
 40
0.0
 40
1.0
 40
1.0
 40
1.0
 40
2.0
 40
2.0
 40
2.0
 40
3.0
 40
3.0
 40
3.0
 40
4.0
 40
4.0
 40
4.0
 40
5.0
 40
5.0
 40
5.0
 40
6.0
 40
6.0
 40
6.0
 40
7.0
 40
7.0
 40
7.0
 40
7.0
 10
90.07098793321143
 20
-140.6591145481686
 30
0.0
 10
90.07098793321143
 20
-140.6591145481686
 30
0.0
 10
88.96683483018884
 20
-140.6591145481686
 30
0.0
 10
88.96683483018884
 20
-140.6591145481686
 30
0.0
 10
88.96683483018884
 20
-140.6591145481686
 30
0.0
 10
88.96683483018884
 20
-140.9405788493135
 30
0.0
 10
88.96683483018884
 20
-140.9405788493135
 30
0.0
 10
88.96683483018884
 20
-140.9405788493135
 30
0.0
 10
88.8186957243231
 20
-140.9405788493135
 30
0.0
 10
88.8186957243231
 20
-140.9405788493135
 30
0.0
 10
88.80388181373654
 20
-140.6573920004259
 30
0.0
 10
88.64092879728422
 20
-140.6177734023456
 30
0.0
 10
88.52655162717392
 20
-140.5926242053033
 30
0.0
 10
88.52655162717392
 20
-140.5926242053033
 30
0.0
 10
88.52655162717392
 20
-140.4679117487372
 30
0.0
 10
88.52655162717392
 20
-140.4679117487372
 30
0.0
 10
88.52655162717392
 20
-140.4679117487372
 30
0.0
 10
90.07098793321143
 20
-140.4679117487372
 30
0.0
 10
90.07098793321143
 20
-140.4679117487372
 30
0.0
 10
90.07098793321143
 20
-140.4679117487372
 30
0.0
 10
90.07098793321143
 20
-140.6591145481686
 30
0.0
 10
90.07098793321143
 20
-140.6591145481686
 30
0.0
  0
HATCH
  5
B0
330
AB
100
AcDbEntity
  8
_U+30EC_U+30A4_U+30E4_U+30FC 1
 62
   179
420
  2234388
100
AcDbHatch
 10
0.0
 20
0.0
 30
0.0
210
0.0
220
0.0
230
1.0
  2
SOLID
 70
     1
 71
     0
 91
        1
 92
        1
 93
        1
 72
     4
 94
        3
 73
     0
 74
     1
 95
       26
 96
       22
 40
0.0
 40
0.0
 40
0.0
 40
0.0
 40
1.0
 40
1.0
 40
1.0
 40
2.0
 40
2.0
 40
2.0
 40
3.0
 40
3.0
 40
3.0
 40
4.0
 40
4.0
 40
4.0
 40
5.0
 40
5.0
 40
5.0
 40
6.0
 40
6.0
 40
6.0
 40
7.0
 40
7.0
 40
7.0
 40
7.0
 10
90.07098793321143
 20
-140.6591145481686
 10
90.07098793321143
 20
-140.6591145481686
 10
88.96683483018884
 20
-140.6591145481686
 10
88.96683483018884
 20
-140.6591145481686
 10
88.96683483018884
 20
-140.6591145481686
 10
88.96683483018884
 20
-140.9405788493135
 10
88.96683483018884
 20
-140.9405788493135
 10
88.96683483018884
 20
-140.9405788493135
 10
88.8186957243231
 20
-140.9405788493135
 10
88.8186957243231
 20
-140.9405788493135
 10
88.80388181373654
 20
-140.6573920004259
 10
88.64092879728422
 20
-140.6177734023456
 10
88.52655162717392
 20
-140.5926242053033
 10
88.52655162717392
 20
-140.5926242053033
 10
88.52655162717392
 20
-140.4679117487372
 10
88.52655162717392
 20
-140.4679117487372
 10
88.52655162717392
 20
-140.4679117487372
 10
90.07098793321143
 20
-140.4679117487372
 10
90.07098793321143
 20
-140.4679117487372
 10
90.07098793321143
 20
-140.4679117487372
 10
90.07098793321143
 20
-140.6591145481686
 10
90.07098793321143
 20
-140.6591145481686
 97
        0
 97
        0
 75
     2
 76
     1
 98
        0
  0
POLYLINE
  5
B1
330
AB
100
AcDbEntity
  8
_U+30EC_U+30A4_U+30E4_U+30FC 1
370
     0
100
AcDb2dPolyline
 66
     1
 10
0.0
 20
0.0
 30
0.0
  0
VERTEX
  5
B2
330
B1
100
AcDbEntity
  8
_U+30EC_U+30A4_U+30E4_U+30FC 1
370
     0
100
AcDbVertex
100
AcDb2dVertex
 10
90.07098793321143
 20
-139.9911105335786
 30
0.0
  0
VERTEX
  5
B3
330
B1
100
AcDbEntity
  8
_U+30EC_U+30A4_U+30E4_U+30FC 1
370
     0
100
AcDbVertex
100
AcDb2dVertex
 10
89.81915145323966
 20
-139.9911105335786
 30
0.0
  0
VERTEX
  5
B4
330
B1
100
AcDbEntity
  8
_U+30EC_U+30A4_U+30E4_U+30FC 1
370
     0
100
AcDbVertex
100
AcDb2dVertex
 10
89.81915145323966
 20
-139.7764810848475
 30
0.0
  0
VERTEX
  5
B5
330
B1
100
AcDbEntity
  8
_U+30EC_U+30A4_U+30E4_U+30FC 1
370
     0
100
AcDbVertex
100
AcDb2dVertex
 10
90.07098793321143
 20
-139.7764810848475
 30
0.0
  0
VERTEX
  5
B6
330
B1
100
AcDbEntity
  8
_U+30EC_U+30A4_U+30E4_U+30FC 1
370
     0
100
AcDbVertex
100
AcDb2dVertex
 10
90.07098793321143
 20
-139.9911105335786
 30
0.0
  0
SEQEND
  5
B7
330
B1
100
AcDbEntity
  8
_U+30EC_U+30A4_U+30E4_U+30FC 1
370
     0
  0
HATCH
  5
B8
330
AB
100
AcDbEntity
  8
_U+30EC_U+30A4_U+30E4_U+30FC 1
 62
   179
420
  2234388
100
AcDbHatch
 10
0.0
 20
0.0
 30
0.0
210
0.0
220
0.0
230
1.0
  2
SOLID
 70
     1
 71
     0
 91
        1
 92
        1
 93
        4
 72
     1
 10
90.07098793321143
 20
-139.9911105335786
 11
89.81915145323966
 21
-139.9911105335786
 72
     1
 10
89.81915145323966
 20
-139.9911105335786
 11
89.81915145323966
 21
-139.7764810848475
 72
     1
 10
89.81915145323966
 20
-139.7764810848475
 11
90.07098793321143
 21
-139.7764810848475
 72
     1
 10
90.07098793321143
 20
-139.7764810848475
 11
90.07098793321143
 21
-139.9911105335786
 97
        0
 75
     2
 76
     1
 98
        0
  0
SPLINE
  5
B9
330
AB
100
AcDbEntity
  8
_U+30EC_U+30A4_U+30E4_U+30FC 1
370
     0
100
AcDbSpline
210
0.0
220
0.0
230
1.0
 70
    11
 71
     3
 72
    29
 73
    25
 74
     0
 42
0.0000000001
 43
0.0000000001
 12
1.0
 22
0.0
 32
0.0
 13
1.0
 23
0.0
 33
0.0
 40
0.0
 40
0.0
 40
0.0
 40
0.0
 40
1.0
 40
1.0
 40
1.0
 40
2.0
 40
2.0
 40
2.0
 40
3.0
 40
3.0
 40
3.0
 40
4.0
 40
4.0
 40
4.0
 40
5.0
 40
5.0
 40
5.0
 40
6.0
 40
6.0
 40
6.0
 40
7.0
 40
7.0
 40
7.0
 40
8.0
 40
8.0
 40
8.0
 40
8.0
 10
89.89322100617254
 20
-138.810131801235
 30
0.0
 10
90.10268281167572
 20
-138.9021158506911
 30
0.0
 10
90.1216308368446
 20
-139.0499104470084
 30
0.0
 10
90.1216308368446
 20
-139.1491291969836
 30
0.0
 10
90.1216308368446
 20
-139.2862439972965
 30
0.0
 10
90.07512204779373
 20
-139.4068223392802
 30
0.0
 10
89.89322100617254
 20
-139.4881265927321
 30
0.0
 10
89.69857311125591
 20
-139.5763210371545
 30
0.0
 10
89.46189505141925
 20
-139.5925129859352
 30
0.0
 10
89.29894203496694
 20
-139.5925129859352
 30
0.0
 10
89.15493704368349
 20
-139.5925129859352
 30
0.0
 10
88.90310056371173
 20
-139.5783880944457
 30
0.0
 10
88.70431855421282
 20
-139.4881265927321
 30
0.0
 10
88.50140243013159
 20
-139.396142543276
 30
0.0
 10
88.4779757808319
 20
-139.259027742963
 30
0.0
 10
88.4779757808319
 20
-139.1491291969836
 30
0.0
 10
88.4779757808319
 20
-139.0137369444132
 30
0.0
 10
88.52241751259162
 20
-138.8910915451384
 30
0.0
 10
88.70431855421282
 20
-138.810131801235
 30
0.0
 10
88.89689939183828
 20
-138.7253824522978
 30
0.0
 10
89.12530922251034
 20
-138.7054008984834
 30
0.0
 10
89.29894203496694
 20
-138.7054008984834
 30
0.0
 10
89.47016328058385
 20
-138.7054008984834
 30
0.0
 10
89.70064016854707
 20
-138.7236599045552
 30
0.0
 10
89.89322100617254
 20
-138.810131801235
 30
0.0
  0
SPLINE
  5
BA
330
AB
100
AcDbEntity
  8
_U+30EC_U+30A4_U+30E4_U+30FC 1
370
     0
100
AcDbSpline
210
0.0
220
0.0
230
1.0
 70
    11
 71
     3
 72
    17
 73
    13
 74
     0
 42
0.0000000001
 43
0.0000000001
 12
1.0
 22
0.0
 32
0.0
 13
1.0
 23
0.0
 33
0.0
 40
0.0
 40
0.0
 40
0.0
 40
0.0
 40
1.0
 40
1.0
 40
1.0
 40
2.0
 40
2.0
 40
2.0
 40
3.0
 40
3.0
 40
3.0
 40
4.0
 40
4.0
 40
4.0
 40
4.0
 10
88.67055661845737
 20
-139.1491291969836
 30
0.0
 10
88.67055661845737
 20
-139.3616915884235
 30
0.0
 10
88.95408797689343
 20
-139.4016546960524
 30
0.0
 10
89.29894203496694
 20
-139.4016546960524
 30
0.0
 10
89.6183023864496
 20
-139.4016546960524
 30
0.0
 10
89.92698294192797
 20
-139.3709933462337
 30
0.0
 10
89.92698294192797
 20
-139.1491291969836
 30
0.0
 10
89.92698294192797
 20
-138.9379448437377
 30
0.0
 10
89.64586315033159
 20
-138.8966036979147
 30
0.0
 10
89.29894203496694
 20
-138.8966036979147
 30
0.0
 10
88.97923717393574
 20
-138.8966036979147
 30
0.0
 10
88.67055661845737
 20
-138.9289875954761
 30
0.0
 10
88.67055661845737
 20
-139.1491291969836
 30
0.0
  0
HATCH
  5
BB
330
AB
100
AcDbEntity
  8
_U+30EC_U+30A4_U+30E4_U+30FC 1
 62
   179
420
  2234388
100
AcDbHatch
 10
0.0
 20
0.0
 30
0.0
210
0.0
220
0.0
230
1.0
  2
SOLID
 70
     1
 71
     0
 91
        2
 92
        1
 93
        1
 72
     4
 94
        3
 73
     0
 74
     1
 95
       29
 96
       25
 40
0.0
 40
0.0
 40
0.0
 40
0.0
 40
1.0
 40
1.0
 40
1.0
 40
2.0
 40
2.0
 40
2.0
 40
3.0
 40
3.0
 40
3.0
 40
4.0
 40
4.0
 40
4.0
 40
5.0
 40
5.0
 40
5.0
 40
6.0
 40
6.0
 40
6.0
 40
7.0
 40
7.0
 40
7.0
 40
8.0
 40
8.0
 40
8.0
 40
8.0
 10
89.89322100617254
 20
-138.810131801235
 10
90.10268281167572
 20
-138.9021158506911
 10
90.1216308368446
 20
-139.0499104470084
 10
90.1216308368446
 20
-139.1491291969836
 10
90.1216308368446
 20
-139.2862439972965
 10
90.07512204779373
 20
-139.4068223392802
 10
89.89322100617254
 20
-139.4881265927321
 10
89.69857311125591
 20
-139.5763210371545
 10
89.46189505141925
 20
-139.5925129859352
 10
89.29894203496694
 20
-139.5925129859352
 10
89.15493704368349
 20
-139.5925129859352
 10
88.90310056371173
 20
-139.5783880944457
 10
88.70431855421282
 20
-139.4881265927321
 10
88.50140243013159
 20
-139.396142543276
 10
88.4779757808319
 20
-139.259027742963
 10
88.4779757808319
 20
-139.1491291969836
 10
88.4779757808319
 20
-139.0137369444132
 10
88.52241751259162
 20
-138.8910915451384
 10
88.70431855421282
 20
-138.810131801235
 10
88.89689939183828
 20
-138.7253824522978
 10
89.12530922251034
 20
-138.7054008984834
 10
89.29894203496694
 20
-138.7054008984834
 10
89.47016328058385
 20
-138.7054008984834
 10
89.70064016854707
 20
-138.7236599045552
 10
89.89322100617254
 20
-138.810131801235
 97
        0
 97
        0
 92
        1
 93
        1
 72
     4
 94
        3
 73
     0
 74
     1
 95
       17
 96
       13
 40
0.0
 40
0.0
 40
0.0
 40
0.0
 40
1.0
 40
1.0
 40
1.0
 40
2.0
 40
2.0
 40
2.0
 40
3.0
 40
3.0
 40
3.0
 40
4.0
 40
4.0
 40
4.0
 40
4.0
 10
88.67055661845737
 20
-139.1491291969836
 10
88.67055661845737
 20
-139.3616915884235
 10
88.95408797689343
 20
-139.4016546960524
 10
89.29894203496694
 20
-139.4016546960524
 10
89.6183023864496
 20
-139.4016546960524
 10
89.92698294192797
 20
-139.3709933462337
 10
89.92698294192797
 20
-139.1491291969836
 10
89.92698294192797
 20
-138.9379448437377
 10
89.64586315033159
 20
-138.8966036979147
 10
89.29894203496694
 20
-138.8966036979147
 10
88.97923717393574
 20
-138.8966036979147
 10
88.67055661845737
 20
-138.9289875954761
 10
88.67055661845737
 20
-139.1491291969836
 97
        0
 97
        0
 75
     2
 76
     1
 98
        0
  0
ENDBLK
  5
AE
330
AB
100
AcDbEntity
  8
0
100
AcDbBlockEnd
  0
BLOCK
  5
BE
330
BC
100
AcDbEntity
  8
0
100
AcDbBlockBegin
  2
block 9
 70
     0
 10
0.0
 20
0.0
 30
0.0
  3
block 9
  1

  0
POLYLINE
  5
C0
330
BC
100
AcDbEntity
  8
_U+30EC_U+30A4_U+30E4_U+30FC 1
 62
   179
420
  2234388
370
     9
100
AcDb2dPolyline
 66
     1
 10
0.0
 20
0.0
 30
0.0
  0
VERTEX
  5
C1
330
C0
100
AcDbEntity
  8
_U+30EC_U+30A4_U+30E4_U+30FC 1
 62
   179
420
  2234388
370
     9
100
AcDbVertex
100
AcDb2dVertex
 10
117.8212131052415
 20
-142.9340902420441
 30
0.0
  0
VERTEX
  5
C2
330
C0
100
AcDbEntity
  8
_U+30EC_U+30A4_U+30E4_U+30FC 1
 62
   179
420
  2234388
370
     9
100
AcDbVertex
100
AcDb2dVertex
 10
117.8212131052415
 20
-155.4344532944747
 30
0.0
  0
SEQEND
  5
C3
330
C0
100
AcDbEntity
  8
_U+30EC_U+30A4_U+30E4_U+30FC 1
 62
   179
420
  2234388
370
     9
  0
POLYLINE
  5
C4
330
BC
100
AcDbEntity
  8
_U+30EC_U+30A4_U+30E4_U+30FC 1
 62
   179
420
  2234388
370
     9
100
AcDb2dPolyline
 66
     1
 10
0.0
 20
0.0
 30
0.0
  0
VERTEX
  5
C5
330
C4
100
AcDbEntity
  8
_U+30EC_U+30A4_U+30E4_U+30FC 1
 62
   179
420
  2234388
370
     9
100
AcDbVertex
100
AcDb2dVertex
 10
100.4614071592382
 20
-142.9340902420441
 30
0.0
  0
VERTEX
  5
C6
330
C4
100
AcDbEntity
  8
_U+30EC_U+30A4_U+30E4_U+30FC 1
 62
   179
420
  2234388
370
     9
100
AcDbVertex
100
AcDb2dVertex
 10
118.8213380797262
 20
-142.9340902420441
 30
0.0
  0
SEQEND
  5
C7
330
C4
100
AcDbEntity
  8
_U+30EC_U+30A4_U+30E4_U+30FC 1
 62
   179
420
  2234388
370
     9
  0
POLYLINE
  5
C8
330
BC
100
AcDbEntity
  8
_U+30EC_U+30A4_U+30E4_U+30FC 1
 62
   179
420
  2234388
370
     9
100
AcDb2dPolyline
 66
     1
 10
0.0
 20
0.0
 30
0.0
  0
VERTEX
  5
C9
330
C8
100
AcDbEntity
  8
_U+30EC_U+30A4_U+30E4_U+30FC 1
 62
   179
420
  2234388
370
     9
100
AcDbVertex
100
AcDb2dVertex
 10
116.3612070313783
 20
-155.4344532944747
 30
0.0
  0
VERTEX
  5
CA
330
C8
100
AcDbEntity
  8
_U+30EC_U+30A4_U+30E4_U+30FC 1
 62
   179
420
  2234388
370
     9
100
AcDbVertex
100
AcDb2dVertex
 10
118.8213380797262
 20
-155.4344532944747
 30
0.0
  0
SEQEND
  5
CB
330
C8
100
AcDbEntity
  8
_U+30EC_U+30A4_U+30E4_U+30FC 1
 62
   179
420
  2234388
370
     9
  0
INSERT
  5
CD
330
BC
100
AcDbEntity
  8
_U+30EC_U+30A4_U+30E4_U+30FC 1
100
AcDbBlockReference
  2
block 10
 10
0.0
 20
0.0
 30
0.0
  0
ENDBLK
  5
BF
330
BC
100
AcDbEntity
  8
0
100
AcDbBlockEnd
  0
BLOCK
  5
CE
330
CC
100
AcDbEntity
  8
0
100
AcDbBlockBegin
  2
block 10
 70
     0
 10
0.0
 20
0.0
 30
0.0
  3
block 10
  1

  0
SPLINE
  5
D0
330
CC
100
AcDbEntity
  8
_U+30EC_U+30A4_U+30E4_U+30FC 1
370
     0
100
AcDbSpline
210
0.0
220
0.0
230
1.0
 70
    11
 71
     3
 72
    26
 73
    22
 74
     0
 42
0.0000000001
 43
0.0000000001
 12
1.0
 22
0.0
 32
0.0
 13
1.0
 23
0.0
 33
0.0
 40
0.0
 40
0.0
 40
0.0
 40
0.0
 40
1.0
 40
1.0
 40
1.0
 40
2.0
 40
2.0
 40
2.0
 40
3.0
 40
3.0
 40
3.0
 40
4.0
 40
4.0
 40
4.0
 40
5.0
 40
5.0
 40
5.0
 40
6.0
 40
6.0
 40
6.0
 40
7.0
 40
7.0
 40
7.0
 40
7.0
 10
117.175621172963
 20
-150.4597221846073
 30
0.0
 10
117.175621172963
 20
-150.4597221846073
 30
0.0
 10
116.0714680699405
 20
-150.4597221846073
 30
0.0
 10
116.0714680699405
 20
-150.4597221846073
 30
0.0
 10
116.0714680699405
 20
-150.4597221846073
 30
0.0
 10
116.0714680699405
 20
-150.7411864857522
 30
0.0
 10
116.0714680699405
 20
-150.7411864857522
 30
0.0
 10
116.0714680699405
 20
-150.7411864857522
 30
0.0
 10
115.9233289640747
 20
-150.7411864857522
 30
0.0
 10
115.9233289640747
 20
-150.7411864857522
 30
0.0
 10
115.9085150534882
 20
-150.4579996368647
 30
0.0
 10
115.7455620370358
 20
-150.4183810387843
 30
0.0
 10
115.6311848669255
 20
-150.393231841742
 30
0.0
 10
115.6311848669255
 20
-150.393231841742
 30
0.0
 10
115.6311848669255
 20
-150.2685193851759
 30
0.0
 10
115.6311848669255
 20
-150.2685193851759
 30
0.0
 10
115.6311848669255
 20
-150.2685193851759
 30
0.0
 10
117.175621172963
 20
-150.2685193851759
 30
0.0
 10
117.175621172963
 20
-150.2685193851759
 30
0.0
 10
117.175621172963
 20
-150.2685193851759
 30
0.0
 10
117.175621172963
 20
-150.4597221846073
 30
0.0
 10
117.175621172963
 20
-150.4597221846073
 30
0.0
  0
HATCH
  5
D1
330
CC
100
AcDbEntity
  8
_U+30EC_U+30A4_U+30E4_U+30FC 1
 62
   179
420
  2234388
100
AcDbHatch
 10
0.0
 20
0.0
 30
0.0
210
0.0
220
0.0
230
1.0
  2
SOLID
 70
     1
 71
     0
 91
        1
 92
        1
 93
        1
 72
     4
 94
        3
 73
     0
 74
     1
 95
       26
 96
       22
 40
0.0
 40
0.0
 40
0.0
 40
0.0
 40
1.0
 40
1.0
 40
1.0
 40
2.0
 40
2.0
 40
2.0
 40
3.0
 40
3.0
 40
3.0
 40
4.0
 40
4.0
 40
4.0
 40
5.0
 40
5.0
 40
5.0
 40
6.0
 40
6.0
 40
6.0
 40
7.0
 40
7.0
 40
7.0
 40
7.0
 10
117.175621172963
 20
-150.4597221846073
 10
117.175621172963
 20
-150.4597221846073
 10
116.0714680699405
 20
-150.4597221846073
 10
116.0714680699405
 20
-150.4597221846073
 10
116.0714680699405
 20
-150.4597221846073
 10
116.0714680699405
 20
-150.7411864857522
 10
116.0714680699405
 20
-150.7411864857522
 10
116.0714680699405
 20
-150.7411864857522
 10
115.9233289640747
 20
-150.7411864857522
 10
115.9233289640747
 20
-150.7411864857522
 10
115.9085150534882
 20
-150.4579996368647
 10
115.7455620370358
 20
-150.4183810387843
 10
115.6311848669255
 20
-150.393231841742
 10
115.6311848669255
 20
-150.393231841742
 10
115.6311848669255
 20
-150.2685193851759
 10
115.6311848669255
 20
-150.2685193851759
 10
115.6311848669255
 20
-150.2685193851759
 10
117.175621172963
 20
-150.2685193851759
 10
117.175621172963
 20
-150.2685193851759
 10
117.175621172963
 20
-150.2685193851759
 10
117.175621172963
 20
-150.4597221846073
 10
117.175621172963
 20
-150.4597221846073
 97
        0
 97
        0
 75
     2
 76
     1
 98
        0
  0
SPLINE
  5
D2
330
CC
100
AcDbEntity
  8
_U+30EC_U+30A4_U+30E4_U+30FC 1
370
     0
100
AcDbSpline
210
0.0
220
0.0
230
1.0
 70
    11
 71
     3
 72
    44
 73
    40
 74
     0
 42
0.0000000001
 43
0.0000000001
 12
1.0
 22
0.0
 32
0.0
 13
1.0
 23
0.0
 33
0.0
 40
0.0
 40
0.0
 40
0.0
 40
0.0
 40
1.0
 40
1.0
 40
1.0
 40
2.0
 40
2.0
 40
2.0
 40
3.0
 40
3.0
 40
3.0
 40
4.0
 40
4.0
 40
4.0
 40
5.0
 40
5.0
 40
5.0
 40
6.0
 40
6.0
 40
6.0
 40
7.0
 40
7.0
 40
7.0
 40
8.0
 40
8.0
 40
8.0
 40
9.0
 40
9.0
 40
9.0
 40
10.0
 40
10.0
 40
10.0
 40
11.0
 40
11.0
 40
11.0
 40
12.0
 40
12.0
 40
12.0
 40
13.0
 40
13.0
 40
13.0
 40
13.0
 10
116.5937445455044
 20
-149.3373100755129
 30
0.0
 10
116.7525634473744
 20
-149.5230007221679
 30
0.0
 10
116.8266330003072
 20
-149.6022379183286
 30
0.0
 10
116.9702934820422
 20
-149.6435790641516
 30
0.0
 10
116.9702934820422
 20
-149.6435790641516
 30
0.0
 10
116.9702934820422
 20
-148.9800536736925
 30
0.0
 10
116.9702934820422
 20
-148.9800536736925
 30
0.0
 10
116.9702934820422
 20
-148.9800536736925
 30
0.0
 10
117.175621172963
 20
-148.9800536736925
 30
0.0
 10
117.175621172963
 20
-148.9800536736925
 30
0.0
 10
117.175621172963
 20
-148.9800536736925
 30
0.0
 10
117.175621172963
 20
-149.8564859651401
 30
0.0
 10
117.175621172963
 20
-149.8564859651401
 30
0.0
 10
116.8180202615941
 20
-149.8296142203551
 30
0.0
 10
116.7398165940789
 20
-149.7734591639455
 30
0.0
 10
116.4414713250563
 20
-149.4454860737497
 30
0.0
 10
116.2426893155574
 20
-149.2270670199849
 30
0.0
 10
116.174820934498
 20
-149.1712564731239
 30
0.0
 10
116.0373616246365
 20
-149.1712564731239
 30
0.0
 10
115.9188503399439
 20
-149.1712564731239
 30
0.0
 10
115.7879367115044
 20
-149.2325791727613
 30
0.0
 10
115.7879367115044
 20
-149.400355322893
 30
0.0
 10
115.7879367115044
 20
-149.6222194721431
 30
0.0
 10
116.0184135994676
 20
-149.6294541726621
 30
0.0
 10
116.1348578268691
 20
-149.6328992681473
 30
0.0
 10
116.1348578268691
 20
-149.6328992681473
 30
0.0
 10
116.1348578268691
 20
-149.8241020675787
 30
0.0
 10
116.1348578268691
 20
-149.8241020675787
 30
0.0
 10
116.0077338034634
 20
-149.8168673670597
 30
0.0
 10
115.8957682001927
 20
-149.807910118798
 30
0.0
 10
115.7772569155001
 20
-149.7393527186416
 30
0.0
 10
115.616370956339
 20
-149.6456461214428
 30
0.0
 10
115.5826090205835
 20
-149.4868272195727
 30
0.0
 10
115.5826090205835
 20
-149.3876084695976
 30
0.0
 10
115.5826090205835
 20
-149.1512749193094
 30
0.0
 10
115.7665771194959
 20
-148.9745415209161
 30
0.0
 10
116.0394286819276
 20
-148.9745415209161
 30
0.0
 10
116.2681830221482
 20
-148.9745415209161
 30
0.0
 10
116.3674017721234
 20
-149.0737602708913
 30
0.0
 10
116.5937445455044
 20
-149.3373100755129
 30
0.0
  0
HATCH
  5
D3
330
CC
100
AcDbEntity
  8
_U+30EC_U+30A4_U+30E4_U+30FC 1
 62
   179
420
  2234388
100
AcDbHatch
 10
0.0
 20
0.0
 30
0.0
210
0.0
220
0.0
230
1.0
  2
SOLID
 70
     1
 71
     0
 91
        1
 92
        1
 93
        1
 72
     4
 94
        3
 73
     0
 74
     1
 95
       44
 96
       40
 40
0.0
 40
0.0
 40
0.0
 40
0.0
 40
1.0
 40
1.0
 40
1.0
 40
2.0
 40
2.0
 40
2.0
 40
3.0
 40
3.0
 40
3.0
 40
4.0
 40
4.0
 40
4.0
 40
5.0
 40
5.0
 40
5.0
 40
6.0
 40
6.0
 40
6.0
 40
7.0
 40
7.0
 40
7.0
 40
8.0
 40
8.0
 40
8.0
 40
9.0
 40
9.0
 40
9.0
 40
10.0
 40
10.0
 40
10.0
 40
11.0
 40
11.0
 40
11.0
 40
12.0
 40
12.0
 40
12.0
 40
13.0
 40
13.0
 40
13.0
 40
13.0
 10
116.5937445455044
 20
-149.3373100755129
 10
116.7525634473744
 20
-149.5230007221679
 10
116.8266330003072
 20
-149.6022379183286
 10
116.9702934820422
 20
-149.6435790641516
 10
116.9702934820422
 20
-149.6435790641516
 10
116.9702934820422
 20
-148.9800536736925
 10
116.9702934820422
 20
-148.9800536736925
 10
116.9702934820422
 20
-148.9800536736925
 10
117.175621172963
 20
-148.9800536736925
 10
117.175621172963
 20
-148.9800536736925
 10
117.175621172963
 20
-148.9800536736925
 10
117.175621172963
 20
-149.8564859651401
 10
117.175621172963
 20
-149.8564859651401
 10
116.8180202615941
 20
-149.8296142203551
 10
116.7398165940789
 20
-149.7734591639455
 10
116.4414713250563
 20
-149.4454860737497
 10
116.2426893155574
 20
-149.2270670199849
 10
116.174820934498
 20
-149.1712564731239
 10
116.0373616246365
 20
-149.1712564731239
 10
115.9188503399439
 20
-149.1712564731239
 10
115.7879367115044
 20
-149.2325791727613
 10
115.7879367115044
 20
-149.400355322893
 10
115.7879367115044
 20
-149.6222194721431
 10
116.0184135994676
 20
-149.6294541726621
 10
116.1348578268691
 20
-149.6328992681473
 10
116.1348578268691
 20
-149.6328992681473
 10
116.1348578268691
 20
-149.8241020675787
 10
116.1348578268691
 20
-149.8241020675787
 10
116.0077338034634
 20
-149.8168673670597
 10
115.8957682001927
 20
-149.807910118798
 10
115.7772569155001
 20
-149.7393527186416
 10
115.616370956339
 20
-149.6456461214428
 10
115.5826090205835
 20
-149.4868272195727
 10
115.5826090205835
 20
-149.3876084695976
 10
115.5826090205835
 20
-149.1512749193094
 10
115.7665771194959
 20
-148.9745415209161
 10
116.0394286819276
 20
-148.9745415209161
 10
116.2681830221482
 20
-148.9745415209161
 10
116.3674017721234
 20
-149.0737602708913
 10
116.5937445455044
 20
-149.3373100755129
 97
        0
 97
        0
 75
     2
 76
     1
 98
        0
  0
POLYLINE
  5
D4
330
CC
100
AcDbEntity
  8
_U+30EC_U+30A4_U+30E4_U+30FC 1
370
     0
100
AcDb2dPolyline
 66
     1
 10
0.0
 20
0.0
 30
0.0
  0
VERTEX
  5
D5
330
D4
100
AcDbEntity
  8
_U+30EC_U+30A4_U+30E4_U+30FC 1
370
     0
100
AcDbVertex
100
AcDb2dVertex
 10
117.175621172963
 20
-148.7898844029067
 30
0.0
  0
VERTEX
  5
D6
330
D4
100
AcDbEntity
  8
_U+30EC_U+30A4_U+30E4_U+30FC 1
370
     0
100
AcDbVertex
100
AcDb2dVertex
 10
116.9237846929913
 20
-148.7898844029067
 30
0.0
  0
VERTEX
  5
D7
330
D4
100
AcDbEntity
  8
_U+30EC_U+30A4_U+30E4_U+30FC 1
370
     0
100
AcDbVertex
100
AcDb2dVertex
 10
116.9237846929913
 20
-148.5752549541756
 30
0.0
  0
VERTEX
  5
D8
330
D4
100
AcDbEntity
  8
_U+30EC_U+30A4_U+30E4_U+30FC 1
370
     0
100
AcDbVertex
100
AcDb2dVertex
 10
117.175621172963
 20
-148.5752549541756
 30
0.0
  0
VERTEX
  5
D9
330
D4
100
AcDbEntity
  8
_U+30EC_U+30A4_U+30E4_U+30FC 1
370
     0
100
AcDbVertex
100
AcDb2dVertex
 10
117.175621172963
 20
-148.7898844029067
 30
0.0
  0
SEQEND
  5
DA
330
D4
100
AcDbEntity
  8
_U+30EC_U+30A4_U+30E4_U+30FC 1
370
     0
  0
HATCH
  5
DB
330
CC
100
AcDbEntity
  8
_U+30EC_U+30A4_U+30E4_U+30FC 1
 62
   179
420
  2234388
100
AcDbHatch
 10
0.0
 20
0.0
 30
0.0
210
0.0
220
0.0
230
1.0
  2
SOLID
 70
     1
 71
     0
 91
        1
 92
        1
 93
        4
 72
     1
 10
117.175621172963
 20
-148.7898844029067
 11
116.9237846929913
 21
-148.7898844029067
 72
     1
 10
116.9237846929913
 20
-148.7898844029067
 11
116.9237846929913
 21
-148.5752549541756
 72
     1
 10
116.9237846929913
 20
-148.5752549541756
 11
117.175621172963
 21
-148.5752549541756
 72
     1
 10
117.175621172963
 20
-148.5752549541756
 11
117.175621172963
 21
-148.7898844029067
 97
        0
 75
     2
 76
     1
 98
        0
  0
SPLINE
  5
DC
330
CC
100
AcDbEntity
  8
_U+30EC_U+30A4_U+30E4_U+30FC 1
370
     0
100
AcDbSpline
210
0.0
220
0.0
230
1.0
 70
    11
 71
     3
 72
    53
 73
    49
 74
     0
 42
0.0000000001
 43
0.0000000001
 12
1.0
 22
0.0
 32
0.0
 13
1.0
 23
0.0
 33
0.0
 40
0.0
 40
0.0
 40
0.0
 40
0.0
 40
1.0
 40
1.0
 40
1.0
 40
2.0
 40
2.0
 40
2.0
 40
3.0
 40
3.0
 40
3.0
 40
4.0
 40
4.0
 40
4.0
 40
5.0
 40
5.0
 40
5.0
 40
6.0
 40
6.0
 40
6.0
 40
7.0
 40
7.0
 40
7.0
 40
8.0
 40
8.0
 40
8.0
 40
9.0
 40
9.0
 40
9.0
 40
10.0
 40
10.0
 40
10.0
 40
11.0
 40
11.0
 40
11.0
 40
12.0
 40
12.0
 40
12.0
 40
13.0
 40
13.0
 40
13.0
 40
14.0
 40
14.0
 40
14.0
 40
15.0
 40
15.0
 40
15.0
 40
16.0
 40
16.0
 40
16.0
 40
16.0
 10
117.2262640765962
 20
-147.9640950150923
 30
0.0
 10
117.2262640765962
 20
-148.0309298675062
 30
0.0
 10
117.2093831087185
 20
-148.1174017641859
 30
0.0
 10
117.1459933517899
 20
-148.2038736608657
 30
0.0
 10
117.0360948058104
 20
-148.3516682571829
 30
0.0
 10
116.9048366678224
 20
-148.3699272632547
 30
0.0
 10
116.7970051791341
 20
-148.3861192120354
 30
0.0
 10
116.7970051791341
 20
-148.3861192120354
 30
0.0
 10
116.7970051791341
 20
-148.1966389603467
 30
0.0
 10
116.7970051791341
 20
-148.1966389603467
 30
0.0
 10
116.995787188633
 20
-148.1497856617473
 30
0.0
 10
117.0254150098062
 20
-148.0416096635104
 30
0.0
 10
117.0254150098062
 20
-147.9623724673497
 30
0.0
 10
117.0254150098062
 20
-147.84317216356
 30
0.0
 10
116.9258517502824
 20
-147.7132920637661
 30
0.0
 10
116.6933078050281
 20
-147.7132920637661
 30
0.0
 10
116.437337210474
 20
-147.7132920637661
 30
0.0
 10
116.3674017721234
 20
-147.8665988128597
 30
0.0
 10
116.3674017721234
 20
-147.9696071678687
 30
0.0
 10
116.3674017721234
 20
-147.9964789126537
 30
0.0
 10
116.3674017721234
 20
-148.1174017641859
 30
0.0
 10
116.4965928528203
 20
-148.1931938648614
 30
0.0
 10
116.4965928528203
 20
-148.1931938648614
 30
0.0
 10
116.4776448276514
 20
-148.3427110089213
 30
0.0
 10
116.4776448276514
 20
-148.3427110089213
 30
0.0
 10
116.4776448276514
 20
-148.3427110089213
 30
0.0
 10
115.6311848669255
 20
-148.2400471634608
 30
0.0
 10
115.6311848669255
 20
-148.2400471634608
 30
0.0
 10
115.6311848669255
 20
-148.2400471634608
 30
0.0
 10
115.6311848669255
 20
-147.5765217730017
 30
0.0
 10
115.6311848669255
 20
-147.5765217730017
 30
0.0
 10
115.6311848669255
 20
-147.5765217730017
 30
0.0
 10
115.8258327618422
 20
-147.5765217730017
 30
0.0
 10
115.8258327618422
 20
-147.5765217730017
 30
0.0
 10
115.8258327618422
 20
-147.5765217730017
 30
0.0
 10
115.8258327618422
 20
-148.1012098154053
 30
0.0
 10
115.8258327618422
 20
-148.1012098154053
 30
0.0
 10
115.8258327618422
 20
-148.1012098154053
 30
0.0
 10
116.2488904874308
 20
-148.1570203622663
 30
0.0
 10
116.2488904874308
 20
-148.1570203622663
 30
0.0
 10
116.2151285516754
 20
-148.1046549108905
 30
0.0
 10
116.174820934498
 20
-148.0343749629914
 30
0.0
 10
116.174820934498
 20
-147.9334336652736
 30
0.0
 10
116.174820934498
 20
-147.7170816687999
 30
0.0
 10
116.36120060025
 20
-147.5151990733643
 30
0.0
 10
116.6743597798592
 20
-147.5151990733643
 30
0.0
 10
116.9916530740507
 20
-147.5151990733643
 30
0.0
 10
117.2262640765962
 20
-147.7060573632471
 30
0.0
 10
117.2262640765962
 20
-147.9640950150923
 30
0.0
  0
HATCH
  5
DD
330
CC
100
AcDbEntity
  8
_U+30EC_U+30A4_U+30E4_U+30FC 1
 62
   179
420
  2234388
100
AcDbHatch
 10
0.0
 20
0.0
 30
0.0
210
0.0
220
0.0
230
1.0
  2
SOLID
 70
     1
 71
     0
 91
        1
 92
        1
 93
        1
 72
     4
 94
        3
 73
     0
 74
     1
 95
       53
 96
       49
 40
0.0
 40
0.0
 40
0.0
 40
0.0
 40
1.0
 40
1.0
 40
1.0
 40
2.0
 40
2.0
 40
2.0
 40
3.0
 40
3.0
 40
3.0
 40
4.0
 40
4.0
 40
4.0
 40
5.0
 40
5.0
 40
5.0
 40
6.0
 40
6.0
 40
6.0
 40
7.0
 40
7.0
 40
7.0
 40
8.0
 40
8.0
 40
8.0
 40
9.0
 40
9.0
 40
9.0
 40
10.0
 40
10.0
 40
10.0
 40
11.0
 40
11.0
 40
11.0
 40
12.0
 40
12.0
 40
12.0
 40
13.0
 40
13.0
 40
13.0
 40
14.0
 40
14.0
 40
14.0
 40
15.0
 40
15.0
 40
15.0
 40
16.0
 40
16.0
 40
16.0
 40
16.0
 10
117.2262640765962
 20
-147.9640950150923
 10
117.2262640765962
 20
-148.0309298675062
 10
117.2093831087185
 20
-148.1174017641859
 10
117.1459933517899
 20
-148.2038736608657
 10
117.0360948058104
 20
-148.3516682571829
 10
116.9048366678224
 20
-148.3699272632547
 10
116.7970051791341
 20
-148.3861192120354
 10
116.7970051791341
 20
-148.3861192120354
 10
116.7970051791341
 20
-148.1966389603467
 10
116.7970051791341
 20
-148.1966389603467
 10
116.995787188633
 20
-148.1497856617473
 10
117.0254150098062
 20
-148.0416096635104
 10
117.0254150098062
 20
-147.9623724673497
 10
117.0254150098062
 20
-147.84317216356
 10
116.9258517502824
 20
-147.7132920637661
 10
116.6933078050281
 20
-147.7132920637661
 10
116.437337210474
 20
-147.7132920637661
 10
116.3674017721234
 20
-147.8665988128597
 10
116.3674017721234
 20
-147.9696071678687
 10
116.3674017721234
 20
-147.9964789126537
 10
116.3674017721234
 20
-148.1174017641859
 10
116.4965928528203
 20
-148.1931938648614
 10
116.4965928528203
 20
-148.1931938648614
 10
116.4776448276514
 20
-148.3427110089213
 10
116.4776448276514
 20
-148.3427110089213
 10
116.4776448276514
 20
-148.3427110089213
 10
115.6311848669255
 20
-148.2400471634608
 10
115.6311848669255
 20
-148.2400471634608
 10
115.6311848669255
 20
-148.2400471634608
 10
115.6311848669255
 20
-147.5765217730017
 10
115.6311848669255
 20
-147.5765217730017
 10
115.6311848669255
 20
-147.5765217730017
 10
115.8258327618422
 20
-147.5765217730017
 10
115.8258327618422
 20
-147.5765217730017
 10
115.8258327618422
 20
-147.5765217730017
 10
115.8258327618422
 20
-148.1012098154053
 10
115.8258327618422
 20
-148.1012098154053
 10
115.8258327618422
 20
-148.1012098154053
 10
116.2488904874308
 20
-148.1570203622663
 10
116.2488904874308
 20
-148.1570203622663
 10
116.2151285516754
 20
-148.1046549108905
 10
116.174820934498
 20
-148.0343749629914
 10
116.174820934498
 20
-147.9334336652736
 10
116.174820934498
 20
-147.7170816687999
 10
116.36120060025
 20
-147.5151990733643
 10
116.6743597798592
 20
-147.5151990733643
 10
116.9916530740507
 20
-147.5151990733643
 10
117.2262640765962
 20
-147.7060573632471
 10
117.2262640765962
 20
-147.9640950150923
 97
        0
 97
        0
 75
     2
 76
     1
 98
        0
  0
ENDBLK
  5
CF
330
CC
100
AcDbEntity
  8
0
100
AcDbBlockEnd
  0
BLOCK
  5
E0
330
DE
100
AcDbEntity
  8
0
100
AcDbBlockBegin
  2
block 11
 70
     0
 10
0.0
 20
0.0
 30
0.0
  3
block 11
  1

  0
POLYLINE
  5
E2
330
DE
100
AcDbEntity
  8
_U+30EC_U+30A4_U+30E4_U+30FC 1
 62
   179
420
  2234388
370
     9
100
AcDb2dPolyline
 66
     1
 10
0.0
 20
0.0
 30
0.0
  0
VERTEX
  5
E3
330
E2
100
AcDbEntity
  8
_U+30EC_U+30A4_U+30E4_U+30FC 1
 62
   179
420
  2234388
370
     9
100
AcDbVertex
100
AcDb2dVertex
 10
117.8212131052415
 20
-155.8340799610413
 30
0.0
  0
VERTEX
  5
E4
330
E2
100
AcDbEntity
  8
_U+30EC_U+30A4_U+30E4_U+30FC 1
 62
   179
420
  2234388
370
     9
100
AcDbVertex
100
AcDb2dVertex
 10
117.8212131052415
 20
-156.8338521830138
 30
0.0
  0
SEQEND
  5
E5
330
E2
100
AcDbEntity
  8
_U+30EC_U+30A4_U+30E4_U+30FC 1
 62
   179
420
  2234388
370
     9
  0
POLYLINE
  5
E6
330
DE
100
AcDbEntity
  8
_U+30EC_U+30A4_U+30E4_U+30FC 1
 62
   179
420
  2234388
370
     9
100
AcDb2dPolyline
 66
     1
 10
0.0
 20
0.0
 30
0.0
  0
VERTEX
  5
E7
330
E6
100
AcDbEntity
  8
_U+30EC_U+30A4_U+30E4_U+30FC 1
 62
   179
420
  2234388
370
     9
100
AcDbVertex
100
AcDb2dVertex
 10
117.8212131052415
 20
-155.4344532944747
 30
0.0
  0
VERTEX
  5
E8
330
E6
100
AcDbEntity
  8
_U+30EC_U+30A4_U+30E4_U+30FC 1
 62
   179
420
  2234388
370
     9
100
AcDbVertex
100
AcDb2dVertex
 10
117.8212131052415
 20
-155.8340799610413
 30
0.0
  0
SEQEND
  5
E9
330
E6
100
AcDbEntity
  8
_U+30EC_U+30A4_U+30E4_U+30FC 1
 62
   179
420
  2234388
370
     9
  0
POLYLINE
  5
EA
330
DE
100
AcDbEntity
  8
_U+30EC_U+30A4_U+30E4_U+30FC 1
 62
   179
420
  2234388
370
     9
100
AcDb2dPolyline
 66
     1
 10
0.0
 20
0.0
 30
0.0
  0
VERTEX
  5
EB
330
EA
100
AcDbEntity
  8
_U+30EC_U+30A4_U+30E4_U+30FC 1
 62
   179
420
  2234388
370
     9
100
AcDbVertex
100
AcDb2dVertex
 10
116.3612070313783
 20
-155.8340799610413
 30
0.0
  0
VERTEX
  5
EC
330
EA
100
AcDbEntity
  8
_U+30EC_U+30A4_U+30E4_U+30FC 1
 62
   179
420
  2234388
370
     9
100
AcDbVertex
100
AcDb2dVertex
 10
118.8213380797262
 20
-155.8340799610413
 30
0.0
  0
SEQEND
  5
ED
330
EA
100
AcDbEntity
  8
_U+30EC_U+30A4_U+30E4_U+30FC 1
 62
   179
420
  2234388
370
     9
  0
INSERT
  5
EF
330
DE
100
AcDbEntity
  8
_U+30EC_U+30A4_U+30E4_U+30FC 1
100
AcDbBlockReference
  2
block 12
 10
0.0
 20
0.0
 30
0.0
  0
ENDBLK
  5
E1
330
DE
100
AcDbEntity
  8
0
100
AcDbBlockEnd
  0
BLOCK
  5
F0
330
EE
100
AcDbEntity
  8
0
100
AcDbBlockBegin
  2
block 12
 70
     0
 10
0.0
 20
0.0
 30
0.0
  3
block 12
  1

  0
SPLINE
  5
F2
330
EE
100
AcDbEntity
  8
_U+30EC_U+30A4_U+30E4_U+30FC 1
370
     0
100
AcDbSpline
210
0.0
220
0.0
230
1.0
 70
    11
 71
     3
 72
    29
 73
    25
 74
     0
 42
0.0000000001
 43
0.0000000001
 12
1.0
 22
0.0
 32
0.0
 13
1.0
 23
0.0
 33
0.0
 40
0.0
 40
0.0
 40
0.0
 40
0.0
 40
1.0
 40
1.0
 40
1.0
 40
2.0
 40
2.0
 40
2.0
 40
3.0
 40
3.0
 40
3.0
 40
4.0
 40
4.0
 40
4.0
 40
5.0
 40
5.0
 40
5.0
 40
6.0
 40
6.0
 40
6.0
 40
7.0
 40
7.0
 40
7.0
 40
8.0
 40
8.0
 40
8.0
 40
8.0
 10
121.2315320877477
 20
-156.2891682551985
 30
0.0
 10
121.4409938932509
 20
-156.3811523046547
 30
0.0
 10
121.4599419184197
 20
-156.5289469009719
 30
0.0
 10
121.4599419184197
 20
-156.6281656509471
 30
0.0
 10
121.4599419184197
 20
-156.7652804512601
 30
0.0
 10
121.4134331293689
 20
-156.8858587932438
 30
0.0
 10
121.2315320877477
 20
-156.9671630466957
 30
0.0
 10
121.0368841928311
 20
-157.0553574911181
 30
0.0
 10
120.8002061329944
 20
-157.0715494398988
 30
0.0
 10
120.6372531165421
 20
-157.0715494398988
 30
0.0
 10
120.4932481252586
 20
-157.0715494398988
 30
0.0
 10
120.2414116452869
 20
-157.0574245484093
 30
0.0
 10
120.042629635788
 20
-156.9671630466957
 30
0.0
 10
119.8397135117067
 20
-156.8751789972395
 30
0.0
 10
119.816286862407
 20
-156.7380641969266
 30
0.0
 10
119.816286862407
 20
-156.6281656509471
 30
0.0
 10
119.816286862407
 20
-156.4927733983768
 30
0.0
 10
119.8607285941668
 20
-156.3701279991019
 30
0.0
 10
120.042629635788
 20
-156.2891682551985
 30
0.0
 10
120.2352104734134
 20
-156.2044189062614
 30
0.0
 10
120.4636203040855
 20
-156.184437352447
 30
0.0
 10
120.6372531165421
 20
-156.184437352447
 30
0.0
 10
120.808474362159
 20
-156.184437352447
 30
0.0
 10
121.0389512501222
 20
-156.2026963585188
 30
0.0
 10
121.2315320877477
 20
-156.2891682551985
 30
0.0
  0
SPLINE
  5
F3
330
EE
100
AcDbEntity
  8
_U+30EC_U+30A4_U+30E4_U+30FC 1
370
     0
100
AcDbSpline
210
0.0
220
0.0
230
1.0
 70
    11
 71
     3
 72
    17
 73
    13
 74
     0
 42
0.0000000001
 43
0.0000000001
 12
1.0
 22
0.0
 32
0.0
 13
1.0
 23
0.0
 33
0.0
 40
0.0
 40
0.0
 40
0.0
 40
0.0
 40
1.0
 40
1.0
 40
1.0
 40
2.0
 40
2.0
 40
2.0
 40
3.0
 40
3.0
 40
3.0
 40
4.0
 40
4.0
 40
4.0
 40
4.0
 10
120.0088677000325
 20
-156.6281656509471
 30
0.0
 10
120.0088677000325
 20
-156.840728042387
 30
0.0
 10
120.2923990584686
 20
-156.8806911500159
 30
0.0
 10
120.6372531165421
 20
-156.8806911500159
 30
0.0
 10
120.9566134680247
 20
-156.8806911500159
 30
0.0
 10
121.2652940235031
 20
-156.8500298001972
 30
0.0
 10
121.2652940235031
 20
-156.6281656509471
 30
0.0
 10
121.2652940235031
 20
-156.4169812977013
 30
0.0
 10
120.9841742319067
 20
-156.3756401518783
 30
0.0
 10
120.6372531165421
 20
-156.3756401518783
 30
0.0
 10
120.3175482555109
 20
-156.3756401518783
 30
0.0
 10
120.0088677000325
 20
-156.4080240494397
 30
0.0
 10
120.0088677000325
 20
-156.6281656509471
 30
0.0
  0
HATCH
  5
F4
330
EE
100
AcDbEntity
  8
_U+30EC_U+30A4_U+30E4_U+30FC 1
 62
   179
420
  2234388
100
AcDbHatch
 10
0.0
 20
0.0
 30
0.0
210
0.0
220
0.0
230
1.0
  2
SOLID
 70
     1
 71
     0
 91
        2
 92
        1
 93
        1
 72
     4
 94
        3
 73
     0
 74
     1
 95
       29
 96
       25
 40
0.0
 40
0.0
 40
0.0
 40
0.0
 40
1.0
 40
1.0
 40
1.0
 40
2.0
 40
2.0
 40
2.0
 40
3.0
 40
3.0
 40
3.0
 40
4.0
 40
4.0
 40
4.0
 40
5.0
 40
5.0
 40
5.0
 40
6.0
 40
6.0
 40
6.0
 40
7.0
 40
7.0
 40
7.0
 40
8.0
 40
8.0
 40
8.0
 40
8.0
 10
121.2315320877477
 20
-156.2891682551985
 10
121.4409938932509
 20
-156.3811523046547
 10
121.4599419184197
 20
-156.5289469009719
 10
121.4599419184197
 20
-156.6281656509471
 10
121.4599419184197
 20
-156.7652804512601
 10
121.4134331293689
 20
-156.8858587932438
 10
121.2315320877477
 20
-156.9671630466957
 10
121.0368841928311
 20
-157.0553574911181
 10
120.8002061329944
 20
-157.0715494398988
 10
120.6372531165421
 20
-157.0715494398988
 10
120.4932481252586
 20
-157.0715494398988
 10
120.2414116452869
 20
-157.0574245484093
 10
120.042629635788
 20
-156.9671630466957
 10
119.8397135117067
 20
-156.8751789972395
 10
119.816286862407
 20
-156.7380641969266
 10
119.816286862407
 20
-156.6281656509471
 10
119.816286862407
 20
-156.4927733983768
 10
119.8607285941668
 20
-156.3701279991019
 10
120.042629635788
 20
-156.2891682551985
 10
120.2352104734134
 20
-156.2044189062614
 10
120.4636203040855
 20
-156.184437352447
 10
120.6372531165421
 20
-156.184437352447
 10
120.808474362159
 20
-156.184437352447
 10
121.0389512501222
 20
-156.2026963585188
 10
121.2315320877477
 20
-156.2891682551985
 97
        0
 97
        0
 92
        1
 93
        1
 72
     4
 94
        3
 73
     0
 74
     1
 95
       17
 96
       13
 40
0.0
 40
0.0
 40
0.0
 40
0.0
 40
1.0
 40
1.0
 40
1.0
 40
2.0
 40
2.0
 40
2.0
 40
3.0
 40
3.0
 40
3.0
 40
4.0
 40
4.0
 40
4.0
 40
4.0
 10
120.0088677000325
 20
-156.6281656509471
 10
120.0088677000325
 20
-156.840728042387
 10
120.2923990584686
 20
-156.8806911500159
 10
120.6372531165421
 20
-156.8806911500159
 10
120.9566134680247
 20
-156.8806911500159
 10
121.2652940235031
 20
-156.8500298001972
 10
121.2652940235031
 20
-156.6281656509471
 10
121.2652940235031
 20
-156.4169812977013
 10
120.9841742319067
 20
-156.3756401518783
 10
120.6372531165421
 20
-156.3756401518783
 10
120.3175482555109
 20
-156.3756401518783
 10
120.0088677000325
 20
-156.4080240494397
 10
120.0088677000325
 20
-156.6281656509471
 97
        0
 97
        0
 75
     2
 76
     1
 98
        0
  0
POLYLINE
  5
F5
330
EE
100
AcDbEntity
  8
_U+30EC_U+30A4_U+30E4_U+30FC 1
370
     0
100
AcDb2dPolyline
 66
     1
 10
0.0
 20
0.0
 30
0.0
  0
VERTEX
  5
F6
330
F5
100
AcDbEntity
  8
_U+30EC_U+30A4_U+30E4_U+30FC 1
370
     0
100
AcDbVertex
100
AcDb2dVertex
 10
121.4092990147866
 20
-156.0015027821802
 30
0.0
  0
VERTEX
  5
F7
330
F5
100
AcDbEntity
  8
_U+30EC_U+30A4_U+30E4_U+30FC 1
370
     0
100
AcDbVertex
100
AcDb2dVertex
 10
121.1574625348148
 20
-156.0015027821802
 30
0.0
  0
VERTEX
  5
F8
330
F5
100
AcDbEntity
  8
_U+30EC_U+30A4_U+30E4_U+30FC 1
370
     0
100
AcDbVertex
100
AcDb2dVertex
 10
121.1574625348148
 20
-155.7868733334491
 30
0.0
  0
VERTEX
  5
F9
330
F5
100
AcDbEntity
  8
_U+30EC_U+30A4_U+30E4_U+30FC 1
370
     0
100
AcDbVertex
100
AcDb2dVertex
 10
121.4092990147866
 20
-155.7868733334491
 30
0.0
  0
VERTEX
  5
FA
330
F5
100
AcDbEntity
  8
_U+30EC_U+30A4_U+30E4_U+30FC 1
370
     0
100
AcDbVertex
100
AcDb2dVertex
 10
121.4092990147866
 20
-156.0015027821802
 30
0.0
  0
SEQEND
  5
FB
330
F5
100
AcDbEntity
  8
_U+30EC_U+30A4_U+30E4_U+30FC 1
370
     0
  0
HATCH
  5
FC
330
EE
100
AcDbEntity
  8
_U+30EC_U+30A4_U+30E4_U+30FC 1
 62
   179
420
  2234388
100
AcDbHatch
 10
0.0
 20
0.0
 30
0.0
210
0.0
220
0.0
230
1.0
  2
SOLID
 70
     1
 71
     0
 91
        1
 92
        1
 93
        4
 72
     1
 10
121.4092990147866
 20
-156.0015027821802
 11
121.1574625348148
 21
-156.0015027821802
 72
     1
 10
121.1574625348148
 20
-156.0015027821802
 11
121.1574625348148
 21
-155.7868733334491
 72
     1
 10
121.1574625348148
 20
-155.7868733334491
 11
121.4092990147866
 21
-155.7868733334491
 72
     1
 10
121.4092990147866
 20
-155.7868733334491
 11
121.4092990147866
 21
-156.0015027821802
 97
        0
 75
     2
 76
     1
 98
        0
  0
POLYLINE
  5
FD
330
EE
100
AcDbEntity
  8
_U+30EC_U+30A4_U+30E4_U+30FC 1
370
     0
100
AcDb2dPolyline
 66
     1
 10
0.0
 20
0.0
 30
0.0
  0
VERTEX
  5
FE
330
FD
100
AcDbEntity
  8
_U+30EC_U+30A4_U+30E4_U+30FC 1
370
     0
100
AcDbVertex
100
AcDb2dVertex
 10
121.0623778994219
 20
-154.8763345966976
 30
0.0
  0
VERTEX
  5
FF
330
FD
100
AcDbEntity
  8
_U+30EC_U+30A4_U+30E4_U+30FC 1
370
     0
100
AcDbVertex
100
AcDb2dVertex
 10
121.4092990147866
 20
-154.8763345966976
 30
0.0
  0
VERTEX
  5
100
330
FD
100
AcDbEntity
  8
_U+30EC_U+30A4_U+30E4_U+30FC 1
370
     0
100
AcDbVertex
100
AcDb2dVertex
 10
121.4092990147866
 20
-155.0620252433526
 30
0.0
  0
VERTEX
  5
101
330
FD
100
AcDbEntity
  8
_U+30EC_U+30A4_U+30E4_U+30FC 1
370
     0
100
AcDbVertex
100
AcDb2dVertex
 10
121.0623778994219
 20
-155.0620252433526
 30
0.0
  0
VERTEX
  5
102
330
FD
100
AcDbEntity
  8
_U+30EC_U+30A4_U+30E4_U+30FC 1
370
     0
100
AcDbVertex
100
AcDb2dVertex
 10
121.0623778994219
 20
-155.6211642406086
 30
0.0
  0
VERTEX
  5
103
330
FD
100
AcDbEntity
  8
_U+30EC_U+30A4_U+30E4_U+30FC 1
370
     0
100
AcDbVertex
100
AcDb2dVertex
 10
120.8381021833321
 20
-155.6211642406086
 30
0.0
  0
VERTEX
  5
104
330
FD
100
AcDbEntity
  8
_U+30EC_U+30A4_U+30E4_U+30FC 1
370
     0
100
AcDbVertex
100
AcDb2dVertex
 10
119.8648627087491
 20
-155.0423881990866
 30
0.0
  0
VERTEX
  5
105
330
FD
100
AcDbEntity
  8
_U+30EC_U+30A4_U+30E4_U+30FC 1
370
     0
100
AcDbVertex
100
AcDb2dVertex
 10
119.8648627087491
 20
-154.8763345966976
 30
0.0
  0
VERTEX
  5
106
330
FD
100
AcDbEntity
  8
_U+30EC_U+30A4_U+30E4_U+30FC 1
370
     0
100
AcDbVertex
100
AcDb2dVertex
 10
120.863595889923
 20
-154.8763345966976
 30
0.0
  0
VERTEX
  5
107
330
FD
100
AcDbEntity
  8
_U+30EC_U+30A4_U+30E4_U+30FC 1
370
     0
100
AcDbVertex
100
AcDb2dVertex
 10
120.863595889923
 20
-154.6996011983043
 30
0.0
  0
VERTEX
  5
108
330
FD
100
AcDbEntity
  8
_U+30EC_U+30A4_U+30E4_U+30FC 1
370
     0
100
AcDbVertex
100
AcDb2dVertex
 10
121.0623778994219
 20
-154.6996011983043
 30
0.0
  0
VERTEX
  5
109
330
FD
100
AcDbEntity
  8
_U+30EC_U+30A4_U+30E4_U+30FC 1
370
     0
100
AcDbVertex
100
AcDb2dVertex
 10
121.0623778994219
 20
-154.8763345966976
 30
0.0
  0
SEQEND
  5
10A
330
FD
100
AcDbEntity
  8
_U+30EC_U+30A4_U+30E4_U+30FC 1
370
     0
  0
POLYLINE
  5
10B
330
EE
100
AcDbEntity
  8
_U+30EC_U+30A4_U+30E4_U+30FC 1
370
     0
100
AcDb2dPolyline
 66
     1
 10
0.0
 20
0.0
 30
0.0
  0
VERTEX
  5
10C
330
10B
100
AcDbEntity
  8
_U+30EC_U+30A4_U+30E4_U+30FC 1
370
     0
100
AcDbVertex
100
AcDb2dVertex
 10
120.2076497095314
 20
-155.0620252433526
 30
0.0
  0
VERTEX
  5
10D
330
10B
100
AcDbEntity
  8
_U+30EC_U+30A4_U+30E4_U+30FC 1
370
     0
100
AcDbVertex
100
AcDb2dVertex
 10
120.863595889923
 20
-155.4516655427343
 30
0.0
  0
VERTEX
  5
10E
330
10B
100
AcDbEntity
  8
_U+30EC_U+30A4_U+30E4_U+30FC 1
370
     0
100
AcDbVertex
100
AcDb2dVertex
 10
120.863595889923
 20
-155.0620252433526
 30
0.0
  0
VERTEX
  5
10F
330
10B
100
AcDbEntity
  8
_U+30EC_U+30A4_U+30E4_U+30FC 1
370
     0
100
AcDbVertex
100
AcDb2dVertex
 10
120.2076497095314
 20
-155.0620252433526
 30
0.0
  0
SEQEND
  5
110
330
10B
100
AcDbEntity
  8
_U+30EC_U+30A4_U+30E4_U+30FC 1
370
     0
  0
HATCH
  5
111
330
EE
100
AcDbEntity
  8
_U+30EC_U+30A4_U+30E4_U+30FC 1
 62
   179
420
  2234388
100
AcDbHatch
 10
0.0
 20
0.0
 30
0.0
210
0.0
220
0.0
230
1.0
  2
SOLID
 70
     1
 71
     0
 91
        2
 92
        1
 93
       11
 72
     1
 10
121.0623778994219
 20
-154.8763345966976
 11
121.4092990147866
 21
-154.8763345966976
 72
     1
 10
121.4092990147866
 20
-154.8763345966976
 11
121.4092990147866
 21
-155.0620252433526
 72
     1
 10
121.4092990147866
 20
-155.0620252433526
 11
121.0623778994219
 21
-155.0620252433526
 72
     1
 10
121.0623778994219
 20
-155.0620252433526
 11
121.0623778994219
 21
-155.6211642406086
 72
     1
 10
121.0623778994219
 20
-155.6211642406086
 11
120.8381021833321
 21
-155.6211642406086
 72
     1
 10
120.8381021833321
 20
-155.6211642406086
 11
119.8648627087491
 21
-155.0423881990866
 72
     1
 10
119.8648627087491
 20
-155.0423881990866
 11
119.8648627087491
 21
-154.8763345966976
 72
     1
 10
119.8648627087491
 20
-154.8763345966976
 11
120.863595889923
 21
-154.8763345966976
 72
     1
 10
120.863595889923
 20
-154.8763345966976
 11
120.863595889923
 21
-154.6996011983043
 72
     1
 10
120.863595889923
 20
-154.6996011983043
 11
121.0623778994219
 21
-154.6996011983043
 72
     1
 10
121.0623778994219
 20
-154.6996011983043
 11
121.0623778994219
 21
-154.8763345966976
 97
        0
 92
        1
 93
        3
 72
     1
 10
120.2076497095314
 20
-155.0620252433526
 11
120.863595889923
 21
-155.4516655427343
 72
     1
 10
120.863595889923
 20
-155.4516655427343
 11
120.863595889923
 21
-155.0620252433526
 72
     1
 10
120.863595889923
 20
-155.0620252433526
 11
120.2076497095314
 21
-155.0620252433526
 97
        0
 75
     2
 76
     1
 98
        0
  0
ENDBLK
  5
F1
330
EE
100
AcDbEntity
  8
0
100
AcDbBlockEnd
  0
ENDSEC
  0
SECTION
  2
ENTITIES
  0
INSERT
  5
42
330
1F
100
AcDbEntity
  8
_U+30EC_U+30A4_U+30E4_U+30FC 1
100
AcDbBlockReference
  2
block 2
 10
0.0
 20
0.0
 30
0.0
  0
ENDSEC
  0
SECTION
  2
OBJECTS
  0
DICTIONARY
  5
C
330
0
100
AcDbDictionary
281
     1
  3
ACAD_GROUP
350
D
  3
ACAD_LAYOUT
350
1A
  3
ACAD_MATERIAL
350
3B
  3
ACAD_MLEADERSTYLE
350
113
  3
ACAD_MLINESTYLE
350
17
  3
ACAD_PLOTSETTINGS
350
19
  3
ACAD_PLOTSTYLENAME
350
E
  3
ACAD_TABLESTYLE
350
112
  3
ACAD_VISUALSTYLE
350
2A
  0
SUN
  5
3F
330
29
100
AcDbSun
 90
        1
290
     0
 63
     7
421
 16777215
 40
1.0
291
     1
 91
  2455826
 92
 54000000
292
     0
 70
     2
 71
   256
280
     1
  0
DICTIONARY
  5
D
102
{ACAD_REACTORS
330
C
102
}
330
C
100
AcDbDictionary
281
     1
  0
DICTIONARY
  5
1A
102
{ACAD_REACTORS
330
C
102
}
330
C
100
AcDbDictionary
281
     1
  3
Layout1
350
1E
  3
Layout2
350
26
  3
Model
350
22
  0
DICTIONARY
  5
3B
102
{ACAD_REACTORS
330
C
102
}
330
C
100
AcDbDictionary
281
     1
  3
ByBlock
350
3D
  3
ByLayer
350
3C
  3
Global
350
3E
  0
DICTIONARY
  5
113
102
{ACAD_REACTORS
330
C
102
}
330
C
100
AcDbDictionary
281
     1
  0
DICTIONARY
  5
17
102
{ACAD_REACTORS
330
C
102
}
330
C
100
AcDbDictionary
281
     1
  3
Standard
350
18
  0
DICTIONARY
  5
19
102
{ACAD_REACTORS
330
C
102
}
330
C
100
AcDbDictionary
281
     1
  0
ACDBDICTIONARYWDFLT
  5
E
102
{ACAD_REACTORS
330
C
102
}
330
C
100
AcDbDictionary
281
     1
  3
Normal
350
F
100
AcDbDictionaryWithDefault
340
F
  0
DICTIONARY
  5
112
102
{ACAD_REACTORS
330
C
102
}
330
C
100
AcDbDictionary
281
     1
  0
DICTIONARY
  5
2A
102
{ACAD_REACTORS
330
C
102
}
330
C
100
AcDbDictionary
281
     1
  3
2dWireframe
350
2F
  3
3D Hidden
350
31
  3
3dWireframe
350
30
  3
Basic
350
32
  3
Brighten
350
36
  3
ColorChange
350
3A
  3
Conceptual
350
34
  3
Dim
350
35
  3
Facepattern
350
39
  3
Flat
350
2B
  3
FlatWithEdges
350
2C
  3
Gouraud
350
2D
  3
GouraudWithEdges
350
2E
  3
Linepattern
350
38
  3
Realistic
350
33
  3
Thicken
350
37
  0
LAYOUT
  5
1E
102
{ACAD_REACTORS
330
1A
102
}
330
1A
100
AcDbPlotSettings
  1

  2
none_device
  4

  6

 40
0.0
 41
0.0
 42
0.0
 43
0.0
 44
0.0
 45
0.0
 46
0.0
 47
0.0
 48
0.0
 49
0.0
140
0.0
141
0.0
142
1.0
143
1.0
 70
   688
 72
     0
 73
     0
 74
     5
  7

 75
    16
 76
     0
 77
     2
 78
   300
147
1.0
148
0.0
149
0.0
100
AcDbLayout
  1
Layout1
 70
     1
 71
     1
 10
0.0
 20
0.0
 11
12.0
 21
9.0
 12
0.0
 22
0.0
 32
0.0
 14
1.000000000000000E+20
 24
1.000000000000000E+20
 34
1.000000000000000E+20
 15
-1.000000000000000E+20
 25
-1.000000000000000E+20
 35
-1.000000000000000E+20
146
0.0
 13
0.0
 23
0.0
 33
0.0
 16
1.0
 26
0.0
 36
0.0
 17
0.0
 27
1.0
 37
0.0
 76
     0
330
1B
  0
LAYOUT
  5
26
102
{ACAD_REACTORS
330
1A
102
}
330
1A
100
AcDbPlotSettings
  1

  2
none_device
  4

  6

 40
0.0
 41
0.0
 42
0.0
 43
0.0
 44
0.0
 45
0.0
 46
0.0
 47
0.0
 48
0.0
 49
0.0
140
0.0
141
0.0
142
1.0
143
1.0
 70
   688
 72
     0
 73
     0
 74
     5
  7

 75
    16
 76
     0
 77
     2
 78
   300
147
1.0
148
0.0
149
0.0
100
AcDbLayout
  1
Layout2
 70
     1
 71
     2
 10
0.0
 20
0.0
 11
0.0
 21
0.0
 12
0.0
 22
0.0
 32
0.0
 14
0.0
 24
0.0
 34
0.0
 15
0.0
 25
0.0
 35
0.0
146
0.0
 13
0.0
 23
0.0
 33
0.0
 16
1.0
 26
0.0
 36
0.0
 17
0.0
 27
1.0
 37
0.0
 76
     0
330
23
  0
LAYOUT
  5
22
102
{ACAD_REACTORS
330
1A
102
}
330
1A
100
AcDbPlotSettings
  1

  2
none_device
  4

  6

 40
0.0
 41
0.0
 42
0.0
 43
0.0
 44
0.0
 45
0.0
 46
0.0
 47
0.0
 48
0.0
 49
0.0
140
0.0
141
0.0
142
1.0
143
1.0
 70
  1712
 72
     0
 73
     0
 74
     0
  7

 75
     0
 76
     0
 77
     2
 78
   300
147
1.0
148
0.0
149
0.0
100
AcDbLayout
  1
Model
 70
     1
 71
     0
 10
0.0
 20
0.0
 11
12.0
 21
9.0
 12
0.0
 22
0.0
 32
0.0
 14
1.000000000000000E+20
 24
1.000000000000000E+20
 34
1.000000000000000E+20
 15
-1.000000000000000E+20
 25
-1.000000000000000E+20
 35
-1.000000000000000E+20
146
0.0
 13
0.0
 23
0.0
 33
0.0
 16
1.0
 26
0.0
 36
0.0
 17
0.0
 27
1.0
 37
0.0
 76
     0
330
1F
331
29
  0
MATERIAL
  5
3D
102
{ACAD_REACTORS
330
3B
102
}
330
3B
100
AcDbMaterial
  1
ByBlock
 72
     1
 94
      127
  0
MATERIAL
  5
3C
102
{ACAD_REACTORS
330
3B
102
}
330
3B
100
AcDbMaterial
  1
ByLayer
 72
     1
 94
      127
  0
MATERIAL
  5
3E
102
{ACAD_REACTORS
330
3B
102
}
330
3B
100
AcDbMaterial
  1
Global
 72
     1
 94
      127
  0
MLINESTYLE
  5
18
102
{ACAD_REACTORS
330
17
102
}
330
17
100
AcDbMlineStyle
  2
Standard
 70
     0
  3

 62
   256
 51
90.0
 52
90.0
 71
     2
 49
0.5
 62
   256
  6
BYLAYER
 49
-0.5
 62
   256
  6
BYLAYER
  0
ACDBPLACEHOLDER
  5
F
102
{ACAD_REACTORS
330
E
102
}
330
E
  0
VISUALSTYLE
  5
2F
102
{ACAD_REACTORS
330
2A
102
}
330
2A
100
AcDbVisualStyle
  2
2dWireframe
 70
     4
177
     2
291
     0
 71
     0
176
     1
 72
     2
176
     1
 73
     0
176
     1
 90
        0
176
     1
 40
-0.6
176
     1
 41
-30.0
176
     1
 62
     5
 63
     7
421
 16777215
176
     1
 74
     1
176
     1
 91
        4
176
     1
 64
     7
176
     1
 65
   257
176
     1
 75
     1
176
     1
175
     1
176
     1
 42
1.0
176
     1
 92
        0
176
     1
 66
   257
176
     1
 43
1.0
176
     1
 76
     1
176
     1
 77
     6
176
     1
 78
     2
176
     1
 67
     7
176
     1
 79
     5
176
     1
170
     0
176
     1
171
     0
176
     1
290
     0
176
     1
 93
        1
176
     1
 44
0.0
176
     1
173
     0
176
     1
  0
VISUALSTYLE
  5
31
102
{ACAD_REACTORS
330
2A
102
}
330
2A
100
AcDbVisualStyle
  2
3D Hidden
 70
     6
177
     2
291
     0
 71
     1
176
     1
 72
     2
176
     1
 73
     2
176
     1
 90
        0
176
     1
 40
-0.6
176
     1
 41
-30.0
176
     1
 62
     5
 63
     7
421
 16777215
176
     1
 74
     2
176
     1
 91
        2
176
     1
 64
     7
176
     1
 65
   257
176
     1
 75
     2
176
     1
175
     1
176
     1
 42
40.0
176
     1
 92
        0
176
     1
 66
   257
176
     1
 43
1.0
176
     1
 76
     1
176
     1
 77
     6
176
     1
 78
     2
176
     1
 67
     7
176
     1
 79
     3
176
     1
170
     0
176
     1
171
     0
176
     1
290
     0
176
     1
 93
        1
176
     1
 44
0.0
176
     1
173
     0
176
     1
  0
VISUALSTYLE
  5
30
102
{ACAD_REACTORS
330
2A
102
}
330
2A
100
AcDbVisualStyle
  2
3dWireframe
 70
     5
177
     2
291
     0
 71
     0
176
     1
 72
     2
176
     1
 73
     0
176
     1
 90
        0
176
     1
 40
-0.6
176
     1
 41
-30.0
176
     1
 62
     5
 63
     7
421
 16777215
176
     1
 74
     1
176
     1
 91
        4
176
     1
 64
     7
176
     1
 65
   257
176
     1
 75
     1
176
     1
175
     1
176
     1
 42
1.0
176
     1
 92
        0
176
     1
 66
   257
176
     1
 43
1.0
176
     1
 76
     1
176
     1
 77
     6
176
     1
 78
     2
176
     1
 67
     7
176
     1
 79
     5
176
     1
170
     0
176
     1
171
     0
176
     1
290
     0
176
     1
 93
        1
176
     1
 44
0.0
176
     1
173
     0
176
     1
  0
VISUALSTYLE
  5
32
102
{ACAD_REACTORS
330
2A
102
}
330
2A
100
AcDbVisualStyle
  2
Basic
 70
     7
177
     2
291
     1
 71
     1
176
     1
 72
     0
176
     1
 73
     1
176
     1
 90
        0
176
     1
 40
-0.6
176
     1
 41
-30.0
176
     1
 62
     5
 63
     7
421
 16777215
176
     1
 74
     0
176
     1
 91
        4
176
     1
 64
     7
176
     1
 65
   257
176
     1
 75
     1
176
     1
175
     1
176
     1
 42
1.0
176
     1
 92
        8
176
     1
 66
     7
176
     1
 43
1.0
176
     1
 76
     1
176
     1
 77
     6
176
     1
 78
     2
176
     1
 67
     7
176
     1
 79
     5
176
     1
170
     0
176
     1
171
     0
176
     1
290
     0
176
     1
 93
        1
176
     1
 44
0.0
176
     1
173
     0
176
     1
  0
VISUALSTYLE
  5
36
102
{ACAD_REACTORS
330
2A
102
}
330
2A
100
AcDbVisualStyle
  2
Brighten
 70
    12
177
     2
291
     1
 71
     2
176
     1
 72
     2
176
     1
 73
     0
176
     1
 90
        0
176
     1
 40
-0.6
176
     1
 41
-30.0
176
     1
 62
     5
 63
     7
421
 16777215
176
     1
 74
     1
176
     1
 91
        4
176
     1
 64
     7
176
     1
 65
   257
176
     1
 75
     1
176
     1
175
     1
176
     1
 42
1.0
176
     1
 92
        8
176
     1
 66
     7
176
     1
 43
1.0
176
     1
 76
     1
176
     1
 77
     6
176
     1
 78
     2
176
     1
 67
     7
176
     1
 79
     5
176
     1
170
     0
176
     1
171
     0
176
     1
290
     0
176
     1
 93
        1
176
     1
 44
50.0
176
     1
173
     0
176
     1
  0
VISUALSTYLE
  5
3A
102
{ACAD_REACTORS
330
2A
102
}
330
2A
100
AcDbVisualStyle
  2
ColorChange
 70
    16
177
     2
291
     1
 71
     2
176
     1
 72
     2
176
     1
 73
     3
176
     1
 90
        0
176
     1
 40
-0.6
176
     1
 41
-30.0
176
     1
 62
     5
 63
     8
421
  8421504
176
     1
 74
     1
176
     1
 91
        4
176
     1
 64
     7
176
     1
 65
   257
176
     1
 75
     1
176
     1
175
     1
176
     1
 42
1.0
176
     1
 92
        8
176
     1
 66
     8
424
  8421504
176
     1
 43
1.0
176
     1
 76
     1
176
     1
 77
     6
176
     1
 78
     2
176
     1
 67
     7
176
     1
 79
     5
176
     1
170
     0
176
     1
171
     0
176
     1
290
     0
176
     1
 93
        1
176
     1
 44
0.0
176
     1
173
     0
176
     1
  0
VISUALSTYLE
  5
34
102
{ACAD_REACTORS
330
2A
102
}
330
2A
100
AcDbVisualStyle
  2
Conceptual
 70
     9
177
     2
291
     0
 71
     3
176
     1
 72
     2
176
     1
 73
     0
176
     1
 90
        0
176
     1
 40
-0.6
176
     1
 41
-30.0
176
     1
 62
     5
 63
     7
421
 16777215
176
     1
 74
     2
176
     1
 91
        2
176
     1
 64
     7
176
     1
 65
   257
176
     1
 75
     1
176
     1
175
     1
176
     1
 42
40.0
176
     1
 92
        8
176
     1
 66
     7
176
     1
 43
1.0
176
     1
 76
     1
176
     1
 77
     6
176
     1
 78
     2
176
     1
 67
     7
176
     1
 79
     3
176
     1
170
     0
176
     1
171
     0
176
     1
290
     0
176
     1
 93
        1
176
     1
 44
0.0
176
     1
173
     0
176
     1
  0
VISUALSTYLE
  5
35
102
{ACAD_REACTORS
330
2A
102
}
330
2A
100
AcDbVisualStyle
  2
Dim
 70
    11
177
     2
291
     1
 71
     2
176
     1
 72
     2
176
     1
 73
     0
176
     1
 90
        0
176
     1
 40
-0.6
176
     1
 41
-30.0
176
     1
 62
     5
 63
     7
421
 16777215
176
     1
 74
     1
176
     1
 91
        4
176
     1
 64
     7
176
     1
 65
   257
176
     1
 75
     1
176
     1
175
     1
176
     1
 42
1.0
176
     1
 92
        8
176
     1
 66
     7
176
     1
 43
1.0
176
     1
 76
     1
176
     1
 77
     6
176
     1
 78
     2
176
     1
 67
     7
176
     1
 79
     5
176
     1
170
     0
176
     1
171
     0
176
     1
290
     0
176
     1
 93
        1
176
     1
 44
-50.0
176
     1
173
     0
176
     1
  0
VISUALSTYLE
  5
39
102
{ACAD_REACTORS
330
2A
102
}
330
2A
100
AcDbVisualStyle
  2
Facepattern
 70
    15
177
     2
291
     1
 71
     2
176
     1
 72
     2
176
     1
 73
     0
176
     1
 90
        0
176
     1
 40
-0.6
176
     1
 41
-30.0
176
     1
 62
     5
 63
     7
421
 16777215
176
     1
 74
     1
176
     1
 91
        4
176
     1
 64
     7
176
     1
 65
   257
176
     1
 75
     1
176
     1
175
     1
176
     1
 42
1.0
176
     1
 92
        8
176
     1
 66
     7
176
     1
 43
1.0
176
     1
 76
     1
176
     1
 77
     6
176
     1
 78
     2
176
     1
 67
     7
176
     1
 79
     5
176
     1
170
     0
176
     1
171
     0
176
     1
290
     0
176
     1
 93
        1
176
     1
 44
0.0
176
     1
173
     0
176
     1
  0
VISUALSTYLE
  5
2B
102
{ACAD_REACTORS
330
2A
102
}
330
2A
100
AcDbVisualStyle
  2
Flat
 70
     0
177
     2
291
     1
 71
     2
176
     1
 72
     1
176
     1
 73
     1
176
     1
 90
        2
176
     1
 40
-0.6
176
     1
 41
30.0
176
     1
 62
     5
 63
     7
421
 16777215
176
     1
 74
     0
176
     1
 91
        4
176
     1
 64
     7
176
     1
 65
   257
176
     1
 75
     1
176
     1
175
     1
176
     1
 42
1.0
176
     1
 92
        8
176
     1
 66
     7
176
     1
 43
1.0
176
     1
 76
     1
176
     1
 77
     6
176
     1
 78
     2
176
     1
 67
     7
176
     1
 79
     5
176
     1
170
     0
176
     1
171
     0
176
     1
290
     0
176
     1
 93
       13
176
     1
 44
0.0
176
     1
173
     0
176
     1
  0
VISUALSTYLE
  5
2C
102
{ACAD_REACTORS
330
2A
102
}
330
2A
100
AcDbVisualStyle
  2
FlatWithEdges
 70
     1
177
     2
291
     1
 71
     2
176
     1
 72
     1
176
     1
 73
     1
176
     1
 90
        2
176
     1
 40
-0.6
176
     1
 41
30.0
176
     1
 62
     5
 63
     7
421
 16777215
176
     1
 74
     1
176
     1
 91
        4
176
     1
 64
     7
176
     1
 65
   257
176
     1
 75
     1
176
     1
175
     1
176
     1
 42
1.0
176
     1
 92
        0
176
     1
 66
   257
176
     1
 43
1.0
176
     1
 76
     1
176
     1
 77
     6
176
     1
 78
     2
176
     1
 67
     7
176
     1
 79
     5
176
     1
170
     0
176
     1
171
     0
176
     1
290
     0
176
     1
 93
       13
176
     1
 44
0.0
176
     1
173
     0
176
     1
  0
VISUALSTYLE
  5
2D
102
{ACAD_REACTORS
330
2A
102
}
330
2A
100
AcDbVisualStyle
  2
Gouraud
 70
     2
177
     2
291
     1
 71
     2
176
     1
 72
     2
176
     1
 73
     1
176
     1
 90
        2
176
     1
 40
-0.6
176
     1
 41
30.0
176
     1
 62
     5
 63
     7
421
 16777215
176
     1
 74
     0
176
     1
 91
        4
176
     1
 64
     7
176
     1
 65
   257
176
     1
 75
     1
176
     1
175
     1
176
     1
 42
1.0
176
     1
 92
        0
176
     1
 66
     7
176
     1
 43
1.0
176
     1
 76
     1
176
     1
 77
     6
176
     1
 78
     2
176
     1
 67
     7
176
     1
 79
     5
176
     1
170
     0
176
     1
171
     0
176
     1
290
     0
176
     1
 93
       13
176
     1
 44
0.0
176
     1
173
     0
176
     1
  0
VISUALSTYLE
  5
2E
102
{ACAD_REACTORS
330
2A
102
}
330
2A
100
AcDbVisualStyle
  2
GouraudWithEdges
 70
     3
177
     2
291
     1
 71
     2
176
     1
 72
     2
176
     1
 73
     1
176
     1
 90
        2
176
     1
 40
-0.6
176
     1
 41
30.0
176
     1
 62
     5
 63
     7
421
 16777215
176
     1
 74
     1
176
     1
 91
        4
176
     1
 64
     7
176
     1
 65
   257
176
     1
 75
     1
176
     1
175
     1
176
     1
 42
1.0
176
     1
 92
        0
176
     1
 66
   257
176
     1
 43
1.0
176
     1
 76
     1
176
     1
 77
     6
176
     1
 78
     2
176
     1
 67
     7
176
     1
 79
     5
176
     1
170
     0
176
     1
171
     0
176
     1
290
     0
176
     1
 93
       13
176
     1
 44
0.0
176
     1
173
     0
176
     1
  0
VISUALSTYLE
  5
38
102
{ACAD_REACTORS
330
2A
102
}
330
2A
100
AcDbVisualStyle
  2
Linepattern
 70
    14
177
     2
291
     1
 71
     2
176
     1
 72
     2
176
     1
 73
     0
176
     1
 90
        0
176
     1
 40
-0.6
176
     1
 41
-30.0
176
     1
 62
     5
 63
     7
421
 16777215
176
     1
 74
     1
176
     1
 91
        4
176
     1
 64
     7
176
     1
 65
   257
176
     1
 75
     7
176
     1
175
     7
176
     1
 42
1.0
176
     1
 92
        8
176
     1
 66
     7
176
     1
 43
1.0
176
     1
 76
     1
176
     1
 77
     6
176
     1
 78
     2
176
     1
 67
     7
176
     1
 79
     5
176
     1
170
     0
176
     1
171
     0
176
     1
290
     0
176
     1
 93
        1
176
     1
 44
0.0
176
     1
173
     0
176
     1
  0
VISUALSTYLE
  5
33
102
{ACAD_REACTORS
330
2A
102
}
330
2A
100
AcDbVisualStyle
  2
Realistic
 70
     8
177
     2
291
     0
 71
     2
176
     1
 72
     2
176
     1
 73
     0
176
     1
 90
        0
176
     1
 40
-0.6
176
     1
 41
-30.0
176
     1
 62
     5
 63
     7
421
 16777215
176
     1
 74
     1
176
     1
 91
        0
176
     1
 64
     7
176
     1
 65
   257
176
     1
 75
     1
176
     1
175
     1
176
     1
 42
1.0
176
     1
 92
        8
176
     1
 66
     8
424
  7895160
176
     1
 43
1.0
176
     1
 76
     1
176
     1
 77
     6
176
     1
 78
     2
176
     1
 67
     7
176
     1
 79
     5
176
     1
170
     0
176
     1
171
     0
176
     1
290
     0
176
     1
 93
       13
176
     1
 44
0.0
176
     1
173
     0
176
     1
  0
VISUALSTYLE
  5
37
102
{ACAD_REACTORS
330
2A
102
}
330
2A
100
AcDbVisualStyle
  2
Thicken
 70
    13
177
     2
291
     1
 71
     2
176
     1
 72
     2
176
     1
 73
     0
176
     1
 90
        0
176
     1
 40
-0.6
176
     1
 41
-30.0
176
     1
 62
     5
 63
     7
421
 16777215
176
     1
 74
     1
176
     1
 91
        4
176
     1
 64
     7
176
     1
 65
   257
176
     1
 75
     1
176
     1
175
     1
176
     1
 42
1.0
176
     1
 92
       12
176
     1
 66
     7
176
     1
 43
1.0
176
     1
 76
     1
176
     1
 77
     6
176
     1
 78
     2
176
     1
 67
     7
176
     1
 79
     5
176
     1
170
     0
176
     1
171
     0
176
     1
290
     0
176
     1
 93
        1
176
     1
 44
0.0
176
     1
173
     0
176
     1
  0
ENDSEC
  0
EOF
