  0
SECTION
  2
HEADER
  9
$ACADVER
  1
AC1024
  9
$ACADMAINTVER
 70
     6
  9
$DWGCODEPAGE
  3
UNDEFINED
  9
$INSBASE
 10
0.0
 20
0.0
 30
0.0
  9
$EXTMIN
 10
1.000000000000000E+20
 20
1.000000000000000E+20
 30
1.000000000000000E+20
  9
$EXTMAX
 10
-1.000000000000000E+20
 20
-1.000000000000000E+20
 30
-1.000000000000000E+20
  9
$LIMMIN
 10
0.0
 20
0.0
  9
$LIMMAX
 10
12.0
 20
9.0
  9
$ORTHOMODE
 70
     0
  9
$REGENMODE
 70
     1
  9
$FILLMODE
 70
     1
  9
$QTEXTMODE
 70
     0
  9
$MIRRTEXT
 70
     1
  9
$LTSCALE
 40
1.0
  9
$ATTMODE
 70
     1
  9
$TEXTSIZE
 40
0.2
  9
$TRACEWID
 40
0.05
  9
$TEXTSTYLE
  7
Standard
  9
$CLAYER
  8
0
  9
$CELTYPE
  6
ByLayer
  9
$CECOLOR
 62
   256
  9
$CELTSCALE
 40
1.0
  9
$DISPSILH
 70
     0
  9
$DIMSCALE
 40
1.0
  9
$DIMASZ
 40
0.18
  9
$DIMEXO
 40
0.0625
  9
$DIMDLI
 40
0.38
  9
$DIMRND
 40
0.0
  9
$DIMDLE
 40
0.0
  9
$DIMEXE
 40
0.18
  9
$DIMTP
 40
0.0
  9
$DIMTM
 40
0.0
  9
$DIMTXT
 40
0.18
  9
$DIMCEN
 40
0.09
  9
$DIMTSZ
 40
0.0
  9
$DIMTOL
 70
     0
  9
$DIMLIM
 70
     0
  9
$DIMTIH
 70
     1
  9
$DIMTOH
 70
     1
  9
$DIMSE1
 70
     0
  9
$DIMSE2
 70
     0
  9
$DIMTAD
 70
     0
  9
$DIMZIN
 70
     0
  9
$DIMBLK
  1

  9
$DIMASO
 70
     1
  9
$DIMSHO
 70
     1
  9
$DIMPOST
  1

  9
$DIMAPOST
  1

  9
$DIMALT
 70
     0
  9
$DIMALTD
 70
     2
  9
$DIMALTF
 40
25.4
  9
$DIMLFAC
 40
1.0
  9
$DIMTOFL
 70
     0
  9
$DIMTVP
 40
0.0
  9
$DIMTIX
 70
     0
  9
$DIMSOXD
 70
     0
  9
$DIMSAH
 70
     0
  9
$DIMBLK1
  1

  9
$DIMBLK2
  1

  9
$DIMSTYLE
  2
Standard
  9
$DIMCLRD
 70
     0
  9
$DIMCLRE
 70
     0
  9
$DIMCLRT
 70
     0
  9
$DIMTFAC
 40
1.0
  9
$DIMGAP
 40
0.09
  9
$DIMJUST
 70
     0
  9
$DIMSD1
 70
     0
  9
$DIMSD2
 70
     0
  9
$DIMTOLJ
 70
     1
  9
$DIMTZIN
 70
     0
  9
$DIMALTZ
 70
     0
  9
$DIMALTTZ
 70
     0
  9
$DIMUPT
 70
     0
  9
$DIMDEC
 70
     4
  9
$DIMTDEC
 70
     4
  9
$DIMALTU
 70
     2
  9
$DIMALTTD
 70
     2
  9
$DIMTXSTY
  7
Standard
  9
$DIMAUNIT
 70
     0
  9
$DIMADEC
 70
     0
  9
$DIMALTRND
 40
0.0
  9
$DIMAZIN
 70
     0
  9
$DIMDSEP
 70
    46
  9
$DIMATFIT
 70
     3
  9
$DIMFRAC
 70
     0
  9
$DIMLDRBLK
  1

  9
$DIMLUNIT
 70
     2
  9
$DIMLWD
 70
    -2
  9
$DIMLWE
 70
    -2
  9
$DIMTMOVE
 70
     0
  9
$DIMFXL
 40
1.0
  9
$DIMFXLON
 70
     0
  9
$DIMJOGANG
 40
0.7853981633974483
  9
$DIMTFILL
 70
     0
  9
$DIMTFILLCLR
 70
     0
  9
$DIMARCSYM
 70
     0
  9
$DIMLTYPE
  6

  9
$DIMLTEX1
  6

  9
$DIMLTEX2
  6

  9
$DIMTXTDIRECTION
 70
     0
  9
$LUNITS
 70
     2
  9
$LUPREC
 70
     4
  9
$SKETCHINC
 40
0.1
  9
$FILLETRAD
 40
0.5
  9
$AUNITS
 70
     0
  9
$AUPREC
 70
     0
  9
$MENU
  1
.
  9
$ELEVATION
 40
0.0
  9
$PELEVATION
 40
0.0
  9
$THICKNESS
 40
0.0
  9
$LIMCHECK
 70
     0
  9
$CHAMFERA
 40
0.5
  9
$CHAMFERB
 40
0.5
  9
$CHAMFERC
 40
1.0
  9
$CHAMFERD
 40
0.0
  9
$SKPOLY
 70
     0
  9
$TDCREATE
 40
2457917.587361111
  9
$TDUCREATE
 40
2457917.212361111
  9
$TDUPDATE
 40
2457917.587361111
  9
$TDUUPDATE
 40
2457917.212361111
  9
$TDINDWG
 40
0.0000000116
  9
$TDUSRTIMER
 40
0.0000000116
  9
$USRTIMER
 70
     1
  9
$ANGBASE
 50
0.0
  9
$ANGDIR
 70
     0
  9
$PDMODE
 70
     0
  9
$PDSIZE
 40
0.0
  9
$PLINEWID
 40
0.0
  9
$SPLFRAME
 70
     0
  9
$SPLINETYPE
 70
     6
  9
$SPLINESEGS
 70
     8
  9
$HANDSEED
  5
113
  9
$SURFTAB1
 70
     6
  9
$SURFTAB2
 70
     6
  9
$SURFTYPE
 70
     6
  9
$SURFU
 70
     6
  9
$SURFV
 70
     6
  9
$UCSBASE
  2

  9
$UCSNAME
  2

  9
$UCSORG
 10
0.0
 20
0.0
 30
0.0
  9
$UCSXDIR
 10
1.0
 20
0.0
 30
0.0
  9
$UCSYDIR
 10
0.0
 20
1.0
 30
0.0
  9
$UCSORTHOREF
  2

  9
$UCSORTHOVIEW
 70
     0
  9
$UCSORGTOP
 10
0.0
 20
0.0
 30
0.0
  9
$UCSORGBOTTOM
 10
0.0
 20
0.0
 30
0.0
  9
$UCSORGLEFT
 10
0.0
 20
0.0
 30
0.0
  9
$UCSORGRIGHT
 10
0.0
 20
0.0
 30
0.0
  9
$UCSORGFRONT
 10
0.0
 20
0.0
 30
0.0
  9
$UCSORGBACK
 10
0.0
 20
0.0
 30
0.0
  9
$PUCSBASE
  2

  9
$PUCSNAME
  2

  9
$PUCSORG
 10
0.0
 20
0.0
 30
0.0
  9
$PUCSXDIR
 10
1.0
 20
0.0
 30
0.0
  9
$PUCSYDIR
 10
0.0
 20
1.0
 30
0.0
  9
$PUCSORTHOREF
  2

  9
$PUCSORTHOVIEW
 70
     0
  9
$PUCSORGTOP
 10
0.0
 20
0.0
 30
0.0
  9
$PUCSORGBOTTOM
 10
0.0
 20
0.0
 30
0.0
  9
$PUCSORGLEFT
 10
0.0
 20
0.0
 30
0.0
  9
$PUCSORGRIGHT
 10
0.0
 20
0.0
 30
0.0
  9
$PUCSORGFRONT
 10
0.0
 20
0.0
 30
0.0
  9
$PUCSORGBACK
 10
0.0
 20
0.0
 30
0.0
  9
$USERI1
 70
     0
  9
$USERI2
 70
     0
  9
$USERI3
 70
     0
  9
$USERI4
 70
     0
  9
$USERI5
 70
     0
  9
$USERR1
 40
0.0
  9
$USERR2
 40
0.0
  9
$USERR3
 40
0.0
  9
$USERR4
 40
0.0
  9
$USERR5
 40
0.0
  9
$WORLDVIEW
 70
     1
  9
$SHADEDGE
 70
     3
  9
$SHADEDIF
 70
    70
  9
$TILEMODE
 70
     1
  9
$MAXACTVP
 70
    64
  9
$PINSBASE
 10
0.0
 20
0.0
 30
0.0
  9
$PLIMCHECK
 70
     0
  9
$PEXTMIN
 10
1.000000000000000E+20
 20
1.000000000000000E+20
 30
1.000000000000000E+20
  9
$PEXTMAX
 10
-1.000000000000000E+20
 20
-1.000000000000000E+20
 30
-1.000000000000000E+20
  9
$PLIMMIN
 10
0.0
 20
0.0
  9
$PLIMMAX
 10
12.0
 20
9.0
  9
$UNITMODE
 70
     0
  9
$VISRETAIN
 70
     1
  9
$PLINEGEN
 70
     0
  9
$PSLTSCALE
 70
     1
  9
$TREEDEPTH
 70
  3020
  9
$CMLSTYLE
  2
Standard
  9
$CMLJUST
 70
     0
  9
$CMLSCALE
 40
1.0
  9
$PROXYGRAPHICS
 70
     1
  9
$MEASUREMENT
 70
     0
  9
$CELWEIGHT
370
    -1
  9
$ENDCAPS
280
     0
  9
$JOINSTYLE
280
     0
  9
$LWDISPLAY
290
     1
  9
$INSUNITS
 70
     1
  9
$HYPERLINKBASE
  1

  9
$STYLESHEET
  1

  9
$XEDIT
290
     1
  9
$CEPSNTYPE
380
     0
  9
$PSTYLEMODE
290
     1
  9
$FINGERPRINTGUID
  2
{0158C612-DFEE-4506-9679-FF32D25CCD26}
  9
$VERSIONGUID
  2
{FAEB1C32-E019-11D5-929B-00C0DF256EC4}
  9
$EXTNAMES
290
     1
  9
$PSVPSCALE
 40
0.0
  9
$OLESTARTUP
290
     0
  9
$SORTENTS
280
   127
  9
$INDEXCTL
280
     0
  9
$HIDETEXT
280
     1
  9
$XCLIPFRAME
280
     2
  9
$HALOGAP
280
     0
  9
$OBSCOLOR
 70
   257
  9
$OBSLTYPE
280
     0
  9
$INTERSECTIONDISPLAY
280
     0
  9
$INTERSECTIONCOLOR
 70
   257
  9
$DIMASSOC
280
     2
  9
$PROJECTNAME
  1

  9
$CAMERADISPLAY
290
     0
  9
$LENSLENGTH
 40
50.0
  9
$CAMERAHEIGHT
 40
0.0
  9
$STEPSPERSEC
 40
2.0
  9
$STEPSIZE
 40
6.0
  9
$3DDWFPREC
 40
2.0
  9
$PSOLWIDTH
 40
0.25
  9
$PSOLHEIGHT
 40
4.0
  9
$LOFTANG1
 40
1.570796326794897
  9
$LOFTANG2
 40
1.570796326794897
  9
$LOFTMAG1
 40
0.0
  9
$LOFTMAG2
 40
0.0
  9
$LOFTPARAM
 70
     7
  9
$LOFTNORMALS
280
     1
  9
$LATITUDE
 40
37.795
  9
$LONGITUDE
 40
-122.394
  9
$NORTHDIRECTION
 40
0.0
  9
$TIMEZONE
 70
 -8000
  9
$LIGHTGLYPHDISPLAY
280
     1
  9
$TILEMODELIGHTSYNCH
280
     1
  9
$CMATERIAL
347
3C
  9
$SOLIDHIST
280
     1
  9
$SHOWHIST
280
     1
  9
$DWFFRAME
280
     2
  9
$DGNFRAME
280
     2
  9
$REALWORLDSCALE
290
     1
  9
$INTERFERECOLOR
 62
   256
  9
$CSHADOW
280
     0
  9
$SHADOWPLANELOCATION
 40
0.0
  0
ENDSEC
  0
SECTION
  2
CLASSES
  0
CLASS
  1
ACDBDICTIONARYWDFLT
  2
AcDbDictionaryWithDefault
  3
ObjectDBX Classes
 90
        0
 91
        4
280
     0
281
     0
  0
CLASS
  1
VISUALSTYLE
  2
AcDbVisualStyle
  3
ObjectDBX Classes
 90
     4095
 91
        4
280
     0
281
     0
  0
CLASS
  1
MATERIAL
  2
AcDbMaterial
  3
ObjectDBX Classes
 90
     1153
 91
        4
280
     0
281
     0
  0
CLASS
  1
SUN
  2
AcDbSun
  3
SCENEOE
 90
     1024
 91
        4
280
     0
281
     0
  0
ENDSEC
  0
SECTION
  2
TABLES
  0
TABLE
  2
VPORT
  5
8
330
0
100
AcDbSymbolTable
 70
     1
  0
VPORT
  5
29
330
8
100
AcDbSymbolTableRecord
100
AcDbViewportTableRecord
  2
*Active
 70
     0
 10
0.0
 20
0.0
 11
1.0
 21
1.0
 12
0.0
 22
0.0
 13
0.0
 23
0.0
 14
0.5
 24
0.5
 15
0.5
 25
0.5
 16
0.0
 26
0.0
 36
1.0
 17
105.0008280156501
 27
-148.4999710739862
 37
0.0
 40
296.9999421479724
 41
0.7070764206636528
 42
50.0
 43
0.0
 44
0.0
 50
0.0
 51
0.0
 71
     0
 72
   100
 73
     1
 74
     3
 75
     0
 76
     0
 77
     0
 78
     0
281
     0
 65
     1
110
0.0
120
0.0
130
0.0
111
1.0
121
0.0
131
0.0
112
0.0
122
1.0
132
0.0
 79
     0
146
0.0
 60
     3
 61
     5
292
     1
282
     1
141
0.0
142
0.0
 63
   250
361
3F
  0
ENDTAB
  0
TABLE
  2
LTYPE
  5
5
330
0
100
AcDbSymbolTable
 70
     1
  0
LTYPE
  5
14
330
5
100
AcDbSymbolTableRecord
100
AcDbLinetypeTableRecord
  2
ByBlock
 70
     0
  3

 72
    65
 73
     0
 40
0.0
  0
LTYPE
  5
15
330
5
100
AcDbSymbolTableRecord
100
AcDbLinetypeTableRecord
  2
ByLayer
 70
     0
  3

 72
    65
 73
     0
 40
0.0
  0
LTYPE
  5
16
330
5
100
AcDbSymbolTableRecord
100
AcDbLinetypeTableRecord
  2
Continuous
 70
     0
  3
Solid line
 72
    65
 73
     0
 40
0.0
  0
ENDTAB
  0
TABLE
  2
LAYER
  5
2
330
0
100
AcDbSymbolTable
 70
     2
  0
LAYER
  5
10
330
2
100
AcDbSymbolTableRecord
100
AcDbLayerTableRecord
  2
0
 70
     0
 62
     7
  6
Continuous
370
    -3
390
F
347
3E
  0
LAYER
  5
40
330
2
100
AcDbSymbolTableRecord
100
AcDbLayerTableRecord
  2
_U+30EC_U+30A4_U+30E4_U+30FC 1
 70
     0
 62
     7
  6
Continuous
370
    -3
390
F
347
3E
  0
ENDTAB
  0
TABLE
  2
STYLE
  5
3
330
0
100
AcDbSymbolTable
 70
     1
  0
STYLE
  5
11
330
3
100
AcDbSymbolTableRecord
100
AcDbTextStyleTableRecord
  2
Standard
 70
     0
 40
0.0
 41
1.0
 50
0.0
 71
     0
 42
0.2
  3
txt
  4

  0
ENDTAB
  0
TABLE
  2
VIEW
  5
6
330
0
100
AcDbSymbolTable
 70
     0
  0
ENDTAB
  0
TABLE
  2
UCS
  5
7
330
0
100
AcDbSymbolTable
 70
     0
  0
ENDTAB
  0
TABLE
  2
APPID
  5
9
330
0
100
AcDbSymbolTable
 70
     1
  0
APPID
  5
12
330
9
100
AcDbSymbolTableRecord
100
AcDbRegAppTableRecord
  2
ACAD
 70
     0
  0
ENDTAB
  0
TABLE
  2
DIMSTYLE
  5
A
330
0
100
AcDbSymbolTable
 70
     1
100
AcDbDimStyleTable
  0
DIMSTYLE
105
27
330
A
100
AcDbSymbolTableRecord
100
AcDbDimStyleTableRecord
  2
Standard
 70
     0
178
     0
340
11
  0
ENDTAB
  0
TABLE
  2
BLOCK_RECORD
  5
1
330
0
100
AcDbSymbolTable
 70
    12
  0
BLOCK_RECORD
  5
1F
330
1
100
AcDbSymbolTableRecord
100
AcDbBlockTableRecord
  2
*Model_Space
340
22
 70
     0
280
     1
281
     0
  0
BLOCK_RECORD
  5
1B
330
1
100
AcDbSymbolTableRecord
100
AcDbBlockTableRecord
  2
*Paper_Space
340
1E
 70
     0
280
     1
281
     0
  0
BLOCK_RECORD
  5
23
330
1
100
AcDbSymbolTableRecord
100
AcDbBlockTableRecord
  2
*Paper_Space0
340
26
 70
     0
280
     1
281
     0
  0
BLOCK_RECORD
  5
41
330
1
100
AcDbSymbolTableRecord
100
AcDbBlockTableRecord
  2
block 2
340
0
102
{BLKREFS
331
42
102
}
 70
     0
280
     1
281
     0
  0
BLOCK_RECORD
  5
6D
330
1
100
AcDbSymbolTableRecord
100
AcDbBlockTableRecord
  2
block 3
340
0
102
{BLKREFS
331
6E
102
}
 70
     0
280
     1
281
     0
  0
BLOCK_RECORD
  5
7D
330
1
100
AcDbSymbolTableRecord
100
AcDbBlockTableRecord
  2
block 4
340
0
102
{BLKREFS
331
7E
102
}
 70
     0
280
     1
281
     0
  0
BLOCK_RECORD
  5
83
330
1
100
AcDbSymbolTableRecord
100
AcDbBlockTableRecord
  2
block 5
340
0
102
{BLKREFS
331
84
102
}
 70
     0
280
     1
281
     0
  0
BLOCK_RECORD
  5
8F
330
1
100
AcDbSymbolTableRecord
100
AcDbBlockTableRecord
  2
block 6
340
0
102
{BLKREFS
331
90
102
}
 70
     0
280
     1
281
     0
  0
BLOCK_RECORD
  5
97
330
1
100
AcDbSymbolTableRecord
100
AcDbBlockTableRecord
  2
block 7
340
0
102
{BLKREFS
331
98
102
}
 70
     0
280
     1
281
     0
  0
BLOCK_RECORD
  5
AB
330
1
100
AcDbSymbolTableRecord
100
AcDbBlockTableRecord
  2
block 8
340
0
102
{BLKREFS
331
AC
102
}
 70
     0
280
     1
281
     0
  0
BLOCK_RECORD
  5
BC
330
1
100
AcDbSymbolTableRecord
100
AcDbBlockTableRecord
  2
block 9
340
0
102
{BLKREFS
331
BD
102
}
 70
     0
280
     1
281
     0
  0
BLOCK_RECORD
  5
CC
330
1
100
AcDbSymbolTableRecord
100
AcDbBlockTableRecord
  2
block 10
340
0
102
{BLKREFS
331
CD
102
}
 70
     0
280
     1
281
     0
  0
BLOCK_RECORD
  5
DD
330
1
100
AcDbSymbolTableRecord
100
AcDbBlockTableRecord
  2
block 11
340
0
102
{BLKREFS
331
DE
102
}
 70
     0
280
     1
281
     0
  0
BLOCK_RECORD
  5
ED
330
1
100
AcDbSymbolTableRecord
100
AcDbBlockTableRecord
  2
block 12
340
0
102
{BLKREFS
331
EE
102
}
 70
     0
280
     1
281
     0
  0
ENDTAB
  0
ENDSEC
  0
SECTION
  2
BLOCKS
  0
BLOCK
  5
20
330
1F
100
AcDbEntity
  8
0
100
AcDbBlockBegin
  2
*Model_Space
 70
     0
 10
0.0
 20
0.0
 30
0.0
  3
*Model_Space
  1

  0
ENDBLK
  5
21
330
1F
100
AcDbEntity
  8
0
100
AcDbBlockEnd
  0
BLOCK
  5
1C
330
1B
100
AcDbEntity
 67
     1
  8
0
100
AcDbBlockBegin
  2
*Paper_Space
 70
     0
 10
0.0
 20
0.0
 30
0.0
  3
*Paper_Space
  1

  0
ENDBLK
  5
1D
330
1B
100
AcDbEntity
 67
     1
  8
0
100
AcDbBlockEnd
  0
BLOCK
  5
24
330
23
100
AcDbEntity
  8
0
100
AcDbBlockBegin
  2
*Paper_Space0
 70
     0
 10
0.0
 20
0.0
 30
0.0
  3
*Paper_Space0
  1

  0
ENDBLK
  5
25
330
23
100
AcDbEntity
  8
0
100
AcDbBlockEnd
  0
BLOCK
  5
43
330
41
100
AcDbEntity
  8
0
100
AcDbBlockBegin
  2
block 2
 70
     0
 10
0.0
 20
0.0
 30
0.0
  3
block 2
  1

  0
POLYLINE
  5
45
330
41
100
AcDbEntity
  8
_U+30EC_U+30A4_U+30E4_U+30FC 1
 62
   179
420
  2234388
370
    25
100
AcDb2dPolyline
 66
     1
 10
0.0
 20
0.0
 30
0.0
  0
VERTEX
  5
46
330
45
100
AcDbEntity
  8
_U+30EC_U+30A4_U+30E4_U+30FC 1
 62
   179
420
  2234388
370
    25
100
AcDbVertex
100
AcDb2dVertex
 10
93.45612497663596
 20
-144.1698355195131
 30
0.0
  0
VERTEX
  5
47
330
45
100
AcDbEntity
  8
_U+30EC_U+30A4_U+30E4_U+30FC 1
 62
   179
420
  2234388
370
    25
100
AcDbVertex
100
AcDb2dVertex
 10
97.5561411222466
 20
-144.1698355195131
 30
0.0
  0
SEQEND
  5
48
330
45
100
AcDbEntity
  8
_U+30EC_U+30A4_U+30E4_U+30FC 1
 62
   179
420
  2234388
370
    25
  0
POLYLINE
  5
49
330
41
100
AcDbEntity
  8
_U+30EC_U+30A4_U+30E4_U+30FC 1
 62
   179
420
  2234388
370
    25
100
AcDb2dPolyline
 66
     1
 10
0.0
 20
0.0
 30
0.0
  0
VERTEX
  5
4A
330
49
100
AcDbEntity
  8
_U+30EC_U+30A4_U+30E4_U+30FC 1
 62
   179
420
  2234388
370
    25
100
AcDbVertex
100
AcDb2dVertex
 10
96.45610948364408
 20
-145.170136908152
 30
0.0
  0
VERTEX
  5
4B
330
49
100
AcDbEntity
  8
_U+30EC_U+30A4_U+30E4_U+30FC 1
 62
   179
420
  2234388
370
    25
100
AcDbVertex
100
AcDb2dVertex
 10
96.45610948364408
 20
-154.7695377390855
 30
0.0
  0
SEQEND
  5
4C
330
49
100
AcDbEntity
  8
_U+30EC_U+30A4_U+30E4_U+30FC 1
 62
   179
420
  2234388
370
    25
  0
POLYLINE
  5
4D
330
41
100
AcDbEntity
  8
_U+30EC_U+30A4_U+30E4_U+30FC 1
 62
   179
420
  2234388
370
    25
100
AcDb2dPolyline
 66
     1
 10
0.0
 20
0.0
 30
0.0
  0
VERTEX
  5
4E
330
4D
100
AcDbEntity
  8
_U+30EC_U+30A4_U+30E4_U+30FC 1
 62
   179
420
  2234388
370
    25
100
AcDbVertex
100
AcDb2dVertex
 10
93.45612497663596
 20
-145.170136908152
 30
0.0
  0
VERTEX
  5
4F
330
4D
100
AcDbEntity
  8
_U+30EC_U+30A4_U+30E4_U+30FC 1
 62
   179
420
  2234388
370
    25
100
AcDbVertex
100
AcDb2dVertex
 10
96.45610948364408
 20
-145.170136908152
 30
0.0
  0
SEQEND
  5
50
330
4D
100
AcDbEntity
  8
_U+30EC_U+30A4_U+30E4_U+30FC 1
 62
   179
420
  2234388
370
    25
  0
POLYLINE
  5
51
330
41
100
AcDbEntity
  8
_U+30EC_U+30A4_U+30E4_U+30FC 1
 62
   179
420
  2234388
370
    25
100
AcDb2dPolyline
 66
     1
 10
0.0
 20
0.0
 30
0.0
  0
VERTEX
  5
52
330
51
100
AcDbEntity
  8
_U+30EC_U+30A4_U+30E4_U+30FC 1
 62
   179
420
  2234388
370
    25
100
AcDbVertex
100
AcDb2dVertex
 10
93.31109567499118
 20
-144.1698355195131
 30
0.0
  0
VERTEX
  5
53
330
51
100
AcDbEntity
  8
_U+30EC_U+30A4_U+30E4_U+30FC 1
 62
   179
420
  2234388
370
    25
100
AcDbVertex
100
AcDb2dVertex
 10
93.31109567499118
 20
-145.170136908152
 30
0.0
  0
SEQEND
  5
54
330
51
100
AcDbEntity
  8
_U+30EC_U+30A4_U+30E4_U+30FC 1
 62
   179
420
  2234388
370
    25
  0
POLYLINE
  5
55
330
41
100
AcDbEntity
  8
_U+30EC_U+30A4_U+30E4_U+30FC 1
 62
   179
420
  2234388
370
    25
100
AcDb2dPolyline
 66
     1
 10
0.0
 20
0.0
 30
0.0
  0
VERTEX
  5
56
330
55
100
AcDbEntity
  8
_U+30EC_U+30A4_U+30E4_U+30FC 1
 62
   179
420
  2234388
370
    25
100
AcDbVertex
100
AcDb2dVertex
 10
97.5561411222466
 20
-144.1698355195131
 30
0.0
  0
VERTEX
  5
57
330
55
100
AcDbEntity
  8
_U+30EC_U+30A4_U+30E4_U+30FC 1
 62
   179
420
  2234388
370
    25
100
AcDbVertex
100
AcDb2dVertex
 10
97.5561411222466
 20
-153.6698588504713
 30
0.0
  0
SEQEND
  5
58
330
55
100
AcDbEntity
  8
_U+30EC_U+30A4_U+30E4_U+30FC 1
 62
   179
420
  2234388
370
    25
  0
POLYLINE
  5
59
330
41
100
AcDbEntity
  8
_U+30EC_U+30A4_U+30E4_U+30FC 1
 62
   179
420
  2234388
370
    25
100
AcDb2dPolyline
 66
     1
 10
0.0
 20
0.0
 30
0.0
  0
VERTEX
  5
5A
330
59
100
AcDbEntity
  8
_U+30EC_U+30A4_U+30E4_U+30FC 1
 62
   179
420
  2234388
370
    25
100
AcDbVertex
100
AcDb2dVertex
 10
113.4562937721555
 20
-153.6698588504713
 30
0.0
  0
VERTEX
  5
5B
330
59
100
AcDbEntity
  8
_U+30EC_U+30A4_U+30E4_U+30FC 1
 62
   179
420
  2234388
370
    25
100
AcDbVertex
100
AcDb2dVertex
 10
113.4562937721555
 20
-154.0701910725934
 30
0.0
  0
SEQEND
  5
5C
330
59
100
AcDbEntity
  8
_U+30EC_U+30A4_U+30E4_U+30FC 1
 62
   179
420
  2234388
370
    25
  0
POLYLINE
  5
5D
330
41
100
AcDbEntity
  8
_U+30EC_U+30A4_U+30E4_U+30FC 1
 62
   179
420
  2234388
370
    25
100
AcDb2dPolyline
 66
     1
 10
0.0
 20
0.0
 30
0.0
  0
VERTEX
  5
5E
330
5D
100
AcDbEntity
  8
_U+30EC_U+30A4_U+30E4_U+30FC 1
 62
   179
420
  2234388
370
    25
100
AcDbVertex
100
AcDb2dVertex
 10
97.5561411222466
 20
-153.6698588504713
 30
0.0
  0
VERTEX
  5
5F
330
5D
100
AcDbEntity
  8
_U+30EC_U+30A4_U+30E4_U+30FC 1
 62
   179
420
  2234388
370
    25
100
AcDbVertex
100
AcDb2dVertex
 10
113.4562937721555
 20
-153.6698588504713
 30
0.0
  0
SEQEND
  5
60
330
5D
100
AcDbEntity
  8
_U+30EC_U+30A4_U+30E4_U+30FC 1
 62
   179
420
  2234388
370
    25
  0
POLYLINE
  5
61
330
41
100
AcDbEntity
  8
_U+30EC_U+30A4_U+30E4_U+30FC 1
 62
   179
420
  2234388
370
    25
100
AcDb2dPolyline
 66
     1
 10
0.0
 20
0.0
 30
0.0
  0
VERTEX
  5
62
330
61
100
AcDbEntity
  8
_U+30EC_U+30A4_U+30E4_U+30FC 1
 62
   179
420
  2234388
370
    25
100
AcDbVertex
100
AcDb2dVertex
 10
113.4562937721555
 20
-154.0701910725934
 30
0.0
  0
VERTEX
  5
63
330
61
100
AcDbEntity
  8
_U+30EC_U+30A4_U+30E4_U+30FC 1
 62
   179
420
  2234388
370
    25
100
AcDbVertex
100
AcDb2dVertex
 10
96.45610948364408
 20
-154.7695377390855
 30
0.0
  0
SEQEND
  5
64
330
61
100
AcDbEntity
  8
_U+30EC_U+30A4_U+30E4_U+30FC 1
 62
   179
420
  2234388
370
    25
  0
SPLINE
  5
65
330
41
100
AcDbEntity
  8
_U+30EC_U+30A4_U+30E4_U+30FC 1
 62
   179
420
  2234388
370
     9
100
AcDbSpline
210
0.0
220
0.0
230
1.0
 70
    11
 71
     3
 72
    17
 73
    13
 74
     0
 42
0.0000000001
 43
0.0000000001
 12
1.0
 22
0.0
 32
0.0
 13
1.0
 23
0.0
 33
0.0
 40
0.0
 40
0.0
 40
0.0
 40
0.0
 40
1.0
 40
1.0
 40
1.0
 40
2.0
 40
2.0
 40
2.0
 40
3.0
 40
3.0
 40
3.0
 40
4.0
 40
4.0
 40
4.0
 40
4.0
 10
117.5563122786664
 20
-144.1698355195131
 30
0.0
 10
117.5563122786664
 20
-144.1147316306379
 30
0.0
 10
117.5115095020316
 20
-144.0699288528714
 30
0.0
 10
117.4560528367798
 20
-144.0699288528714
 30
0.0
 10
117.4009166373168
 20
-144.0699288528714
 30
0.0
 10
117.356146172662
 20
-144.1147316306379
 30
0.0
 10
117.356146172662
 20
-144.1698355195131
 30
0.0
 10
117.356146172662
 20
-144.2252921861658
 30
0.0
 10
117.4009166373168
 20
-144.2700949639325
 30
0.0
 10
117.4560528367798
 20
-144.2700949639325
 30
0.0
 10
117.5115095020316
 20
-144.2700949639325
 30
0.0
 10
117.5563122786664
 20
-144.2252921861658
 30
0.0
 10
117.5563122786664
 20
-144.1698355195131
 30
0.0
  0
SPLINE
  5
66
330
41
100
AcDbEntity
  8
_U+30EC_U+30A4_U+30E4_U+30FC 1
 62
   179
420
  2234388
370
     9
100
AcDbSpline
210
0.0
220
0.0
230
1.0
 70
    11
 71
     3
 72
    17
 73
    13
 74
     0
 42
0.0000000001
 43
0.0000000001
 12
1.0
 22
0.0
 32
0.0
 13
1.0
 23
0.0
 33
0.0
 40
0.0
 40
0.0
 40
0.0
 40
0.0
 40
1.0
 40
1.0
 40
1.0
 40
2.0
 40
2.0
 40
2.0
 40
3.0
 40
3.0
 40
3.0
 40
4.0
 40
4.0
 40
4.0
 40
4.0
 10
117.5563122786664
 20
-153.6698588504713
 30
0.0
 10
117.5563122786664
 20
-153.6147549615964
 30
0.0
 10
117.5115095020316
 20
-153.5699521838296
 30
0.0
 10
117.4560528367798
 20
-153.5699521838296
 30
0.0
 10
117.4009166373168
 20
-153.5699521838296
 30
0.0
 10
117.356146172662
 20
-153.6147549615964
 30
0.0
 10
117.356146172662
 20
-153.6698588504713
 30
0.0
 10
117.356146172662
 20
-153.7249980171244
 30
0.0
 10
117.4009166373168
 20
-153.7697655171129
 30
0.0
 10
117.4560528367798
 20
-153.7697655171129
 30
0.0
 10
117.5115095020316
 20
-153.7697655171129
 30
0.0
 10
117.5563122786664
 20
-153.7249980171244
 30
0.0
 10
117.5563122786664
 20
-153.6698588504713
 30
0.0
  0
SPLINE
  5
67
330
41
100
AcDbEntity
  8
_U+30EC_U+30A4_U+30E4_U+30FC 1
 62
   179
420
  2234388
370
     9
100
AcDbSpline
210
0.0
220
0.0
230
1.0
 70
    11
 71
     3
 72
    17
 73
    13
 74
     0
 42
0.0000000001
 43
0.0000000001
 12
1.0
 22
0.0
 32
0.0
 13
1.0
 23
0.0
 33
0.0
 40
0.0
 40
0.0
 40
0.0
 40
0.0
 40
1.0
 40
1.0
 40
1.0
 40
2.0
 40
2.0
 40
2.0
 40
3.0
 40
3.0
 40
3.0
 40
4.0
 40
4.0
 40
4.0
 40
4.0
 10
117.5563122786664
 20
-154.0701910725934
 30
0.0
 10
117.5563122786664
 20
-154.0143816281629
 30
0.0
 10
117.5115095020316
 20
-153.9695788503962
 30
0.0
 10
117.4560528367798
 20
-153.9695788503962
 30
0.0
 10
117.4009166373168
 20
-153.9695788503962
 30
0.0
 10
117.356146172662
 20
-154.0143816281629
 30
0.0
 10
117.356146172662
 20
-154.0701910725934
 30
0.0
 10
117.356146172662
 20
-154.1252949614689
 30
0.0
 10
117.4009166373168
 20
-154.170097739235
 30
0.0
 10
117.4560528367798
 20
-154.170097739235
 30
0.0
 10
117.5115095020316
 20
-154.170097739235
 30
0.0
 10
117.5563122786664
 20
-154.1252949614689
 30
0.0
 10
117.5563122786664
 20
-154.0701910725934
 30
0.0
  0
SPLINE
  5
68
330
41
100
AcDbEntity
  8
_U+30EC_U+30A4_U+30E4_U+30FC 1
 62
   179
420
  2234388
370
     9
100
AcDbSpline
210
0.0
220
0.0
230
1.0
 70
    11
 71
     3
 72
    17
 73
    13
 74
     0
 42
0.0000000001
 43
0.0000000001
 12
1.0
 22
0.0
 32
0.0
 13
1.0
 23
0.0
 33
0.0
 40
0.0
 40
0.0
 40
0.0
 40
0.0
 40
1.0
 40
1.0
 40
1.0
 40
2.0
 40
2.0
 40
2.0
 40
3.0
 40
3.0
 40
3.0
 40
4.0
 40
4.0
 40
4.0
 40
4.0
 10
113.5562004362733
 20
-158.7699671825297
 30
0.0
 10
113.5562004362733
 20
-158.7148632936548
 30
0.0
 10
113.5113976596385
 20
-158.6700605158881
 30
0.0
 10
113.4562937721555
 20
-158.6700605158881
 30
0.0
 10
113.4008371069036
 20
-158.6700605158881
 30
0.0
 10
113.3560343302689
 20
-158.7148632936548
 30
0.0
 10
113.3560343302689
 20
-158.7699671825297
 30
0.0
 10
113.3560343302689
 20
-158.8251063491828
 30
0.0
 10
113.4008371069036
 20
-158.8698738491713
 30
0.0
 10
113.4562937721555
 20
-158.8698738491713
 30
0.0
 10
113.5113976596385
 20
-158.8698738491713
 30
0.0
 10
113.5562004362733
 20
-158.8251063491828
 30
0.0
 10
113.5562004362733
 20
-158.7699671825297
 30
0.0
  0
SPLINE
  5
69
330
41
100
AcDbEntity
  8
_U+30EC_U+30A4_U+30E4_U+30FC 1
 62
   179
420
  2234388
370
     9
100
AcDbSpline
210
0.0
220
0.0
230
1.0
 70
    11
 71
     3
 72
    17
 73
    13
 74
     0
 42
0.0000000001
 43
0.0000000001
 12
1.0
 22
0.0
 32
0.0
 13
1.0
 23
0.0
 33
0.0
 40
0.0
 40
0.0
 40
0.0
 40
0.0
 40
1.0
 40
1.0
 40
1.0
 40
2.0
 40
2.0
 40
2.0
 40
3.0
 40
3.0
 40
3.0
 40
4.0
 40
4.0
 40
4.0
 40
4.0
 10
93.4089562280501
 20
-158.7699671825297
 30
0.0
 10
93.4089562280501
 20
-158.7148632936548
 30
0.0
 10
93.36415345141533
 20
-158.6700605158881
 30
0.0
 10
93.3086967861635
 20
-158.6700605158881
 30
0.0
 10
93.25320484313477
 20
-158.6700605158881
 30
0.0
 10
93.20879012204566
 20
-158.7148632936548
 30
0.0
 10
93.20879012204566
 20
-158.7699671825297
 30
0.0
 10
93.20879012204566
 20
-158.8251063491828
 30
0.0
 10
93.25320484313477
 20
-158.8698738491713
 30
0.0
 10
93.3086967861635
 20
-158.8698738491713
 30
0.0
 10
93.36415345141533
 20
-158.8698738491713
 30
0.0
 10
93.4089562280501
 20
-158.8251063491828
 30
0.0
 10
93.4089562280501
 20
-158.7699671825297
 30
0.0
  0
SPLINE
  5
6A
330
41
100
AcDbEntity
  8
_U+30EC_U+30A4_U+30E4_U+30FC 1
 62
   179
420
  2234388
370
     9
100
AcDbSpline
210
0.0
220
0.0
230
1.0
 70
    11
 71
     3
 72
    17
 73
    13
 74
     0
 42
0.0000000001
 43
0.0000000001
 12
1.0
 22
0.0
 32
0.0
 13
1.0
 23
0.0
 33
0.0
 40
0.0
 40
0.0
 40
0.0
 40
0.0
 40
1.0
 40
1.0
 40
1.0
 40
2.0
 40
2.0
 40
2.0
 40
3.0
 40
3.0
 40
3.0
 40
4.0
 40
4.0
 40
4.0
 40
4.0
 10
90.46922380304892
 20
-144.1698355195131
 30
0.0
 10
90.46922380304892
 20
-144.1147316306379
 30
0.0
 10
90.42445630419104
 20
-144.0699288528714
 30
0.0
 10
90.36931942185211
 20
-144.0699288528714
 30
0.0
 10
90.31421325144802
 20
-144.0699288528714
 30
0.0
 10
90.26941047481326
 20
-144.1147316306379
 30
0.0
 10
90.26941047481326
 20
-144.1698355195131
 30
0.0
 10
90.26941047481326
 20
-144.2252921861658
 30
0.0
 10
90.31421325144802
 20
-144.2700949639325
 30
0.0
 10
90.36931942185211
 20
-144.2700949639325
 30
0.0
 10
90.42445630419104
 20
-144.2700949639325
 30
0.0
 10
90.46922380304892
 20
-144.2252921861658
 30
0.0
 10
90.46922380304892
 20
-144.1698355195131
 30
0.0
  0
SPLINE
  5
6B
330
41
100
AcDbEntity
  8
_U+30EC_U+30A4_U+30E4_U+30FC 1
 62
   179
420
  2234388
370
     9
100
AcDbSpline
210
0.0
220
0.0
230
1.0
 70
    11
 71
     3
 72
    17
 73
    13
 74
     0
 42
0.0000000001
 43
0.0000000001
 12
1.0
 22
0.0
 32
0.0
 13
1.0
 23
0.0
 33
0.0
 40
0.0
 40
0.0
 40
0.0
 40
0.0
 40
1.0
 40
1.0
 40
1.0
 40
2.0
 40
2.0
 40
2.0
 40
3.0
 40
3.0
 40
3.0
 40
4.0
 40
4.0
 40
4.0
 40
4.0
 10
90.46922380304892
 20
-145.170136908152
 30
0.0
 10
90.46922380304892
 20
-145.1146449637214
 30
0.0
 10
90.42445630419104
 20
-145.0702302415103
 30
0.0
 10
90.36931942185211
 20
-145.0702302415103
 30
0.0
 10
90.31421325144802
 20
-145.0702302415103
 30
0.0
 10
90.26941047481326
 20
-145.1146449637214
 30
0.0
 10
90.26941047481326
 20
-145.170136908152
 30
0.0
 10
90.26941047481326
 20
-145.2252407970269
 30
0.0
 10
90.31421325144802
 20
-145.2700435747936
 30
0.0
 10
90.36931942185211
 20
-145.2700435747936
 30
0.0
 10
90.42445630419104
 20
-145.2700435747936
 30
0.0
 10
90.46922380304892
 20
-145.2252407970269
 30
0.0
 10
90.46922380304892
 20
-145.170136908152
 30
0.0
  0
SPLINE
  5
6C
330
41
100
AcDbEntity
  8
_U+30EC_U+30A4_U+30E4_U+30FC 1
 62
   179
420
  2234388
370
     9
100
AcDbSpline
210
0.0
220
0.0
230
1.0
 70
    11
 71
     3
 72
    17
 73
    13
 74
     0
 42
0.0000000001
 43
0.0000000001
 12
1.0
 22
0.0
 32
0.0
 13
1.0
 23
0.0
 33
0.0
 40
0.0
 40
0.0
 40
0.0
 40
0.0
 40
1.0
 40
1.0
 40
1.0
 40
2.0
 40
2.0
 40
2.0
 40
3.0
 40
3.0
 40
3.0
 40
4.0
 40
4.0
 40
4.0
 40
4.0
 10
96.55636892553069
 20
-158.7699671825297
 30
0.0
 10
96.55636892553069
 20
-158.7148632936548
 30
0.0
 10
96.51160142667281
 20
-158.6700605158881
 30
0.0
 10
96.45610948364408
 20
-158.6700605158881
 30
0.0
 10
96.40100559616101
 20
-158.6700605158881
 30
0.0
 10
96.35620281952625
 20
-158.7148632936548
 30
0.0
 10
96.35620281952625
 20
-158.7699671825297
 30
0.0
 10
96.35620281952625
 20
-158.8251063491828
 30
0.0
 10
96.40100559616101
 20
-158.8698738491713
 30
0.0
 10
96.45610948364408
 20
-158.8698738491713
 30
0.0
 10
96.51160142667281
 20
-158.8698738491713
 30
0.0
 10
96.55636892553069
 20
-158.8251063491828
 30
0.0
 10
96.55636892553069
 20
-158.7699671825297
 30
0.0
  0
INSERT
  5
6E
330
41
100
AcDbEntity
  8
_U+30EC_U+30A4_U+30E4_U+30FC 1
100
AcDbBlockReference
  2
block 3
 10
0.0
 20
0.0
 30
0.0
  0
INSERT
  5
84
330
41
100
AcDbEntity
  8
_U+30EC_U+30A4_U+30E4_U+30FC 1
100
AcDbBlockReference
  2
block 5
 10
0.0
 20
0.0
 30
0.0
  0
INSERT
  5
98
330
41
100
AcDbEntity
  8
_U+30EC_U+30A4_U+30E4_U+30FC 1
100
AcDbBlockReference
  2
block 7
 10
0.0
 20
0.0
 30
0.0
  0
INSERT
  5
BD
330
41
100
AcDbEntity
  8
_U+30EC_U+30A4_U+30E4_U+30FC 1
100
AcDbBlockReference
  2
block 9
 10
0.0
 20
0.0
 30
0.0
  0
INSERT
  5
DE
330
41
100
AcDbEntity
  8
_U+30EC_U+30A4_U+30E4_U+30FC 1
100
AcDbBlockReference
  2
block 11
 10
0.0
 20
0.0
 30
0.0
  0
ENDBLK
  5
44
330
41
100
AcDbEntity
  8
0
100
AcDbBlockEnd
  0
BLOCK
  5
6F
330
6D
100
AcDbEntity
  8
0
100
AcDbBlockBegin
  2
block 3
 70
     0
 10
0.0
 20
0.0
 30
0.0
  3
block 3
  1

  0
POLYLINE
  5
71
330
6D
100
AcDbEntity
  8
_U+30EC_U+30A4_U+30E4_U+30FC 1
 62
   179
420
  2234388
370
     9
100
AcDb2dPolyline
 66
     1
 10
0.0
 20
0.0
 30
0.0
  0
VERTEX
  5
72
330
71
100
AcDbEntity
  8
_U+30EC_U+30A4_U+30E4_U+30FC 1
 62
   179
420
  2234388
370
     9
100
AcDbVertex
100
AcDb2dVertex
 10
93.45612497663596
 20
-158.7699671825297
 30
0.0
  0
VERTEX
  5
73
330
71
100
AcDbEntity
  8
_U+30EC_U+30A4_U+30E4_U+30FC 1
 62
   179
420
  2234388
370
     9
100
AcDbVertex
100
AcDb2dVertex
 10
96.45610948364408
 20
-158.7699671825297
 30
0.0
  0
SEQEND
  5
74
330
71
100
AcDbEntity
  8
_U+30EC_U+30A4_U+30E4_U+30FC 1
 62
   179
420
  2234388
370
     9
  0
POLYLINE
  5
75
330
6D
100
AcDbEntity
  8
_U+30EC_U+30A4_U+30E4_U+30FC 1
 62
   179
420
  2234388
370
     9
100
AcDb2dPolyline
 66
     1
 10
0.0
 20
0.0
 30
0.0
  0
VERTEX
  5
76
330
75
100
AcDbEntity
  8
_U+30EC_U+30A4_U+30E4_U+30FC 1
 62
   179
420
  2234388
370
     9
100
AcDbVertex
100
AcDb2dVertex
 10
93.3086967861635
 20
-147.8099377408253
 30
0.0
  0
VERTEX
  5
77
330
75
100
AcDbEntity
  8
_U+30EC_U+30A4_U+30E4_U+30FC 1
 62
   179
420
  2234388
370
     9
100
AcDbVertex
100
AcDb2dVertex
 10
93.3086967861635
 20
-159.7704449600571
 30
0.0
  0
SEQEND
  5
78
330
75
100
AcDbEntity
  8
_U+30EC_U+30A4_U+30E4_U+30FC 1
 62
   179
420
  2234388
370
     9
  0
POLYLINE
  5
79
330
6D
100
AcDbEntity
  8
_U+30EC_U+30A4_U+30E4_U+30FC 1
 62
   179
420
  2234388
370
     9
100
AcDb2dPolyline
 66
     1
 10
0.0
 20
0.0
 30
0.0
  0
VERTEX
  5
7A
330
79
100
AcDbEntity
  8
_U+30EC_U+30A4_U+30E4_U+30FC 1
 62
   179
420
  2234388
370
     9
100
AcDbVertex
100
AcDb2dVertex
 10
96.45610948364408
 20
-157.3099610717835
 30
0.0
  0
VERTEX
  5
7B
330
79
100
AcDbEntity
  8
_U+30EC_U+30A4_U+30E4_U+30FC 1
 62
   179
420
  2234388
370
     9
100
AcDbVertex
100
AcDb2dVertex
 10
96.45610948364408
 20
-159.7704449600571
 30
0.0
  0
SEQEND
  5
7C
330
79
100
AcDbEntity
  8
_U+30EC_U+30A4_U+30E4_U+30FC 1
 62
   179
420
  2234388
370
     9
  0
INSERT
  5
7E
330
6D
100
AcDbEntity
  8
_U+30EC_U+30A4_U+30E4_U+30FC 1
100
AcDbBlockReference
  2
block 4
 10
0.0
 20
0.0
 30
0.0
  0
ENDBLK
  5
70
330
6D
100
AcDbEntity
  8
0
100
AcDbBlockEnd
  0
BLOCK
  5
7F
330
7D
100
AcDbEntity
  8
0
100
AcDbBlockBegin
  2
block 4
 70
     0
 10
0.0
 20
0.0
 30
0.0
  3
block 4
  1

  0
SPLINE
  5
81
330
7D
100
AcDbEntity
  8
_U+30EC_U+30A4_U+30E4_U+30FC 1
370
     0
100
AcDbSpline
210
0.0
220
0.0
230
1.0
 70
    11
 71
     3
 72
    62
 73
    58
 74
     0
 42
0.0000000001
 43
0.0000000001
 12
1.0
 22
0.0
 32
0.0
 13
1.0
 23
0.0
 33
0.0
 40
0.0
 40
0.0
 40
0.0
 40
0.0
 40
1.0
 40
1.0
 40
1.0
 40
2.0
 40
2.0
 40
2.0
 40
3.0
 40
3.0
 40
3.0
 40
4.0
 40
4.0
 40
4.0
 40
5.0
 40
5.0
 40
5.0
 40
6.0
 40
6.0
 40
6.0
 40
7.0
 40
7.0
 40
7.0
 40
8.0
 40
8.0
 40
8.0
 40
9.0
 40
9.0
 40
9.0
 40
10.0
 40
10.0
 40
10.0
 40
11.0
 40
11.0
 40
11.0
 40
12.0
 40
12.0
 40
12.0
 40
13.0
 40
13.0
 40
13.0
 40
14.0
 40
14.0
 40
14.0
 40
15.0
 40
15.0
 40
15.0
 40
16.0
 40
16.0
 40
16.0
 40
17.0
 40
17.0
 40
17.0
 40
18.0
 40
18.0
 40
18.0
 40
19.0
 40
19.0
 40
19.0
 40
19.0
 10
94.86053193158001
 20
-158.1746690142758
 30
0.0
 10
94.77939993290238
 20
-158.1746690142758
 30
0.0
 10
94.59370928624742
 20
-158.1536539318158
 30
0.0
 10
94.48725583575319
 20
-157.9676187756123
 30
0.0
 10
94.42421058837311
 20
-157.8553086627931
 30
0.0
 10
94.42059323811361
 20
-157.7560899128179
 30
0.0
 10
94.4169758878541
 20
-157.6713405638808
 30
0.0
 10
94.4169758878541
 20
-157.6713405638808
 30
0.0
 10
94.60456133702594
 20
-157.6713405638808
 30
0.0
 10
94.60456133702594
 20
-157.6713405638808
 30
0.0
 10
94.60628388476857
 20
-157.7454101168136
 30
0.0
 10
94.61541338780448
 20
-157.9800211193592
 30
0.0
 10
94.8569145813205
 20
-157.9800211193592
 30
0.0
 10
94.97422008259325
 20
-157.9800211193592
 30
0.0
 10
95.10410018238717
 20
-157.9104301905571
 30
0.0
 10
95.10410018238717
 20
-157.6820203598851
 30
0.0
 10
95.10410018238717
 20
-157.5655761324836
 30
0.0
 10
95.07154403005157
 20
-157.5170002861416
 30
0.0
 10
95.04450003049236
 20
-157.4853054076773
 30
0.0
 10
94.98145478311228
 20
-157.4112358547444
 30
0.0
 10
94.88223603313709
 20
-157.398489001449
 30
0.0
 10
94.83538273453769
 20
-157.398489001449
 30
0.0
 10
94.81919078575702
 20
-157.398489001449
 30
0.0
 10
94.78852943593829
 20
-157.4005560587401
 30
0.0
 10
94.7651027866386
 20
-157.4046901733225
 30
0.0
 10
94.7651027866386
 20
-157.4046901733225
 30
0.0
 10
94.7651027866386
 20
-157.2100422784058
 30
0.0
 10
94.7651027866386
 20
-157.2100422784058
 30
0.0
 10
94.79748668419994
 20
-157.2165879598278
 30
0.0
 10
94.8334879320208
 20
-157.2186550171189
 30
0.0
 10
94.83900008479719
 20
-157.2186550171189
 30
0.0
 10
94.89481063165825
 20
-157.2186550171189
 30
0.0
 10
95.06430932953253
 20
-157.1972954251104
 30
0.0
 10
95.06430932953253
 20
-156.9606173652737
 30
0.0
 10
95.06430932953253
 20
-156.7828504382348
 30
0.0
 10
94.95251598103619
 20
-156.7277289104709
 30
0.0
 10
94.85880938383738
 20
-156.7277289104709
 30
0.0
 10
94.63332788432778
 20
-156.7277289104709
 30
0.0
 10
94.62609318380876
 20
-156.9606173652737
 30
0.0
 10
94.62264808832352
 20
-157.0322753513669
 30
0.0
 10
94.62264808832352
 20
-157.0322753513669
 30
0.0
 10
94.44953204018971
 20
-157.0322753513669
 30
0.0
 10
94.44953204018971
 20
-157.0322753513669
 30
0.0
 10
94.45659448593446
 20
-156.9075628948009
 30
0.0
 10
94.48019339000842
 20
-156.5310139582631
 30
0.0
 10
94.86966143461592
 20
-156.5310139582631
 30
0.0
 10
95.06069197927303
 20
-156.5310139582631
 30
0.0
 10
95.26636417974244
 20
-156.6581379816688
 30
0.0
 10
95.26636417974244
 20
-156.9540716838518
 30
0.0
 10
95.26636417974244
 20
-157.1404513496038
 30
0.0
 10
95.1852321810648
 20
-157.2227891317013
 30
0.0
 10
95.10048283212767
 20
-157.2841118313387
 30
0.0
 10
95.1526760287292
 20
-157.3116725952207
 30
0.0
 10
95.3078775803397
 20
-157.391943320027
 30
0.0
 10
95.3078775803397
 20
-157.6692735065896
 30
0.0
 10
95.3078775803397
 20
-158.0075818832412
 30
0.0
 10
95.09686548186815
 20
-158.1746690142758
 30
0.0
 10
94.86053193158001
 20
-158.1746690142758
 30
0.0
  0
HATCH
  5
82
330
7D
100
AcDbEntity
  8
_U+30EC_U+30A4_U+30E4_U+30FC 1
 62
   179
420
  2234388
100
AcDbHatch
 10
0.0
 20
0.0
 30
0.0
210
0.0
220
0.0
230
1.0
  2
SOLID
 70
     1
 71
     0
 91
        1
 92
        1
 93
        1
 72
     4
 94
        3
 73
     0
 74
     1
 95
       62
 96
       58
 40
0.0
 40
0.0
 40
0.0
 40
0.0
 40
1.0
 40
1.0
 40
1.0
 40
2.0
 40
2.0
 40
2.0
 40
3.0
 40
3.0
 40
3.0
 40
4.0
 40
4.0
 40
4.0
 40
5.0
 40
5.0
 40
5.0
 40
6.0
 40
6.0
 40
6.0
 40
7.0
 40
7.0
 40
7.0
 40
8.0
 40
8.0
 40
8.0
 40
9.0
 40
9.0
 40
9.0
 40
10.0
 40
10.0
 40
10.0
 40
11.0
 40
11.0
 40
11.0
 40
12.0
 40
12.0
 40
12.0
 40
13.0
 40
13.0
 40
13.0
 40
14.0
 40
14.0
 40
14.0
 40
15.0
 40
15.0
 40
15.0
 40
16.0
 40
16.0
 40
16.0
 40
17.0
 40
17.0
 40
17.0
 40
18.0
 40
18.0
 40
18.0
 40
19.0
 40
19.0
 40
19.0
 40
19.0
 10
94.86053193158001
 20
-158.1746690142758
 10
94.77939993290238
 20
-158.1746690142758
 10
94.59370928624742
 20
-158.1536539318158
 10
94.48725583575319
 20
-157.9676187756123
 10
94.42421058837311
 20
-157.8553086627931
 10
94.42059323811361
 20
-157.7560899128179
 10
94.4169758878541
 20
-157.6713405638808
 10
94.4169758878541
 20
-157.6713405638808
 10
94.60456133702594
 20
-157.6713405638808
 10
94.60456133702594
 20
-157.6713405638808
 10
94.60628388476857
 20
-157.7454101168136
 10
94.61541338780448
 20
-157.9800211193592
 10
94.8569145813205
 20
-157.9800211193592
 10
94.97422008259325
 20
-157.9800211193592
 10
95.10410018238717
 20
-157.9104301905571
 10
95.10410018238717
 20
-157.6820203598851
 10
95.10410018238717
 20
-157.5655761324836
 10
95.07154403005157
 20
-157.5170002861416
 10
95.04450003049236
 20
-157.4853054076773
 10
94.98145478311228
 20
-157.4112358547444
 10
94.88223603313709
 20
-157.398489001449
 10
94.83538273453769
 20
-157.398489001449
 10
94.81919078575702
 20
-157.398489001449
 10
94.78852943593829
 20
-157.4005560587401
 10
94.7651027866386
 20
-157.4046901733225
 10
94.7651027866386
 20
-157.4046901733225
 10
94.7651027866386
 20
-157.2100422784058
 10
94.7651027866386
 20
-157.2100422784058
 10
94.79748668419994
 20
-157.2165879598278
 10
94.8334879320208
 20
-157.2186550171189
 10
94.83900008479719
 20
-157.2186550171189
 10
94.89481063165825
 20
-157.2186550171189
 10
95.06430932953253
 20
-157.1972954251104
 10
95.06430932953253
 20
-156.9606173652737
 10
95.06430932953253
 20
-156.7828504382348
 10
94.95251598103619
 20
-156.7277289104709
 10
94.85880938383738
 20
-156.7277289104709
 10
94.63332788432778
 20
-156.7277289104709
 10
94.62609318380876
 20
-156.9606173652737
 10
94.62264808832352
 20
-157.0322753513669
 10
94.62264808832352
 20
-157.0322753513669
 10
94.44953204018971
 20
-157.0322753513669
 10
94.44953204018971
 20
-157.0322753513669
 10
94.45659448593446
 20
-156.9075628948009
 10
94.48019339000842
 20
-156.5310139582631
 10
94.86966143461592
 20
-156.5310139582631
 10
95.06069197927303
 20
-156.5310139582631
 10
95.26636417974244
 20
-156.6581379816688
 10
95.26636417974244
 20
-156.9540716838518
 10
95.26636417974244
 20
-157.1404513496038
 10
95.1852321810648
 20
-157.2227891317013
 10
95.10048283212767
 20
-157.2841118313387
 10
95.1526760287292
 20
-157.3116725952207
 10
95.3078775803397
 20
-157.391943320027
 10
95.3078775803397
 20
-157.6692735065896
 10
95.3078775803397
 20
-158.0075818832412
 10
95.09686548186815
 20
-158.1746690142758
 10
94.86053193158001
 20
-158.1746690142758
 97
        0
 97
        0
 75
     2
 76
     1
 98
        0
  0
ENDBLK
  5
80
330
7D
100
AcDbEntity
  8
0
100
AcDbBlockEnd
  0
BLOCK
  5
85
330
83
100
AcDbEntity
  8
0
100
AcDbBlockBegin
  2
block 5
 70
     0
 10
0.0
 20
0.0
 30
0.0
  3
block 5
  1

  0
POLYLINE
  5
87
330
83
100
AcDbEntity
  8
_U+30EC_U+30A4_U+30E4_U+30FC 1
 62
   179
420
  2234388
370
     9
100
AcDb2dPolyline
 66
     1
 10
0.0
 20
0.0
 30
0.0
  0
VERTEX
  5
88
330
87
100
AcDbEntity
  8
_U+30EC_U+30A4_U+30E4_U+30FC 1
 62
   179
420
  2234388
370
     9
100
AcDbVertex
100
AcDb2dVertex
 10
96.45610948364408
 20
-158.7699671825297
 30
0.0
  0
VERTEX
  5
89
330
87
100
AcDbEntity
  8
_U+30EC_U+30A4_U+30E4_U+30FC 1
 62
   179
420
  2234388
370
     9
100
AcDbVertex
100
AcDb2dVertex
 10
113.4562937721555
 20
-158.7699671825297
 30
0.0
  0
SEQEND
  5
8A
330
87
100
AcDbEntity
  8
_U+30EC_U+30A4_U+30E4_U+30FC 1
 62
   179
420
  2234388
370
     9
  0
POLYLINE
  5
8B
330
83
100
AcDbEntity
  8
_U+30EC_U+30A4_U+30E4_U+30FC 1
 62
   179
420
  2234388
370
     9
100
AcDb2dPolyline
 66
     1
 10
0.0
 20
0.0
 30
0.0
  0
VERTEX
  5
8C
330
8B
100
AcDbEntity
  8
_U+30EC_U+30A4_U+30E4_U+30FC 1
 62
   179
420
  2234388
370
     9
100
AcDbVertex
100
AcDb2dVertex
 10
113.4562937721555
 20
-156.6099088497365
 30
0.0
  0
VERTEX
  5
8D
330
8B
100
AcDbEntity
  8
_U+30EC_U+30A4_U+30E4_U+30FC 1
 62
   179
420
  2234388
370
     9
100
AcDbVertex
100
AcDb2dVertex
 10
113.4562937721555
 20
-159.7704449600571
 30
0.0
  0
SEQEND
  5
8E
330
8B
100
AcDbEntity
  8
_U+30EC_U+30A4_U+30E4_U+30FC 1
 62
   179
420
  2234388
370
     9
  0
INSERT
  5
90
330
83
100
AcDbEntity
  8
_U+30EC_U+30A4_U+30E4_U+30FC 1
100
AcDbBlockReference
  2
block 6
 10
0.0
 20
0.0
 30
0.0
  0
ENDBLK
  5
86
330
83
100
AcDbEntity
  8
0
100
AcDbBlockEnd
  0
BLOCK
  5
91
330
8F
100
AcDbEntity
  8
0
100
AcDbBlockBegin
  2
block 6
 70
     0
 10
0.0
 20
0.0
 30
0.0
  3
block 6
  1

  0
SPLINE
  5
93
330
8F
100
AcDbEntity
  8
_U+30EC_U+30A4_U+30E4_U+30FC 1
370
     0
100
AcDbSpline
210
0.0
220
0.0
230
1.0
 70
    11
 71
     3
 72
    26
 73
    22
 74
     0
 42
0.0000000001
 43
0.0000000001
 12
1.0
 22
0.0
 32
0.0
 13
1.0
 23
0.0
 33
0.0
 40
0.0
 40
0.0
 40
0.0
 40
0.0
 40
1.0
 40
1.0
 40
1.0
 40
2.0
 40
2.0
 40
2.0
 40
3.0
 40
3.0
 40
3.0
 40
4.0
 40
4.0
 40
4.0
 40
5.0
 40
5.0
 40
5.0
 40
6.0
 40
6.0
 40
6.0
 40
7.0
 40
7.0
 40
7.0
 40
7.0
 10
104.4142984765006
 20
-158.1240261106426
 30
0.0
 10
104.4142984765006
 20
-158.1240261106426
 30
0.0
 10
104.4142984765006
 20
-157.01987300762
 30
0.0
 10
104.4142984765006
 20
-157.01987300762
 30
0.0
 10
104.4142984765006
 20
-157.01987300762
 30
0.0
 10
104.1328341753557
 20
-157.01987300762
 30
0.0
 10
104.1328341753557
 20
-157.01987300762
 30
0.0
 10
104.1328341753557
 20
-157.01987300762
 30
0.0
 10
104.1328341753557
 20
-156.8717339017543
 30
0.0
 10
104.1328341753557
 20
-156.8717339017543
 30
0.0
 10
104.4160210242432
 20
-156.8569199911677
 30
0.0
 10
104.4556396223236
 20
-156.6939669747154
 30
0.0
 10
104.4807888193659
 20
-156.5795898046051
 30
0.0
 10
104.4807888193659
 20
-156.5795898046051
 30
0.0
 10
104.605501275932
 20
-156.5795898046051
 30
0.0
 10
104.605501275932
 20
-156.5795898046051
 30
0.0
 10
104.605501275932
 20
-156.5795898046051
 30
0.0
 10
104.605501275932
 20
-158.1240261106426
 30
0.0
 10
104.605501275932
 20
-158.1240261106426
 30
0.0
 10
104.605501275932
 20
-158.1240261106426
 30
0.0
 10
104.4142984765006
 20
-158.1240261106426
 30
0.0
 10
104.4142984765006
 20
-158.1240261106426
 30
0.0
  0
HATCH
  5
94
330
8F
100
AcDbEntity
  8
_U+30EC_U+30A4_U+30E4_U+30FC 1
 62
   179
420
  2234388
100
AcDbHatch
 10
0.0
 20
0.0
 30
0.0
210
0.0
220
0.0
230
1.0
  2
SOLID
 70
     1
 71
     0
 91
        1
 92
        1
 93
        1
 72
     4
 94
        3
 73
     0
 74
     1
 95
       26
 96
       22
 40
0.0
 40
0.0
 40
0.0
 40
0.0
 40
1.0
 40
1.0
 40
1.0
 40
2.0
 40
2.0
 40
2.0
 40
3.0
 40
3.0
 40
3.0
 40
4.0
 40
4.0
 40
4.0
 40
5.0
 40
5.0
 40
5.0
 40
6.0
 40
6.0
 40
6.0
 40
7.0
 40
7.0
 40
7.0
 40
7.0
 10
104.4142984765006
 20
-158.1240261106426
 10
104.4142984765006
 20
-158.1240261106426
 10
104.4142984765006
 20
-157.01987300762
 10
104.4142984765006
 20
-157.01987300762
 10
104.4142984765006
 20
-157.01987300762
 10
104.1328341753557
 20
-157.01987300762
 10
104.1328341753557
 20
-157.01987300762
 10
104.1328341753557
 20
-157.01987300762
 10
104.1328341753557
 20
-156.8717339017543
 10
104.1328341753557
 20
-156.8717339017543
 10
104.4160210242432
 20
-156.8569199911677
 10
104.4556396223236
 20
-156.6939669747154
 10
104.4807888193659
 20
-156.5795898046051
 10
104.4807888193659
 20
-156.5795898046051
 10
104.605501275932
 20
-156.5795898046051
 10
104.605501275932
 20
-156.5795898046051
 10
104.605501275932
 20
-156.5795898046051
 10
104.605501275932
 20
-158.1240261106426
 10
104.605501275932
 20
-158.1240261106426
 10
104.605501275932
 20
-158.1240261106426
 10
104.4142984765006
 20
-158.1240261106426
 10
104.4142984765006
 20
-158.1240261106426
 97
        0
 97
        0
 75
     2
 76
     1
 98
        0
  0
SPLINE
  5
95
330
8F
100
AcDbEntity
  8
_U+30EC_U+30A4_U+30E4_U+30FC 1
370
     0
100
AcDbSpline
210
0.0
220
0.0
230
1.0
 70
    11
 71
     3
 72
    26
 73
    22
 74
     0
 42
0.0000000001
 43
0.0000000001
 12
1.0
 22
0.0
 32
0.0
 13
1.0
 23
0.0
 33
0.0
 40
0.0
 40
0.0
 40
0.0
 40
0.0
 40
1.0
 40
1.0
 40
1.0
 40
2.0
 40
2.0
 40
2.0
 40
3.0
 40
3.0
 40
3.0
 40
4.0
 40
4.0
 40
4.0
 40
5.0
 40
5.0
 40
5.0
 40
6.0
 40
6.0
 40
6.0
 40
7.0
 40
7.0
 40
7.0
 40
7.0
 10
105.3816812887588
 20
-158.1240261106426
 30
0.0
 10
105.3816812887588
 20
-158.1240261106426
 30
0.0
 10
105.1797986933231
 20
-158.1240261106426
 30
0.0
 10
105.1797986933231
 20
-158.1240261106426
 30
0.0
 10
105.2015027948802
 20
-157.8150010456157
 30
0.0
 10
105.3654893399781
 20
-157.2968586846341
 30
0.0
 10
105.7117214362457
 20
-156.7911186673994
 30
0.0
 10
105.7117214362457
 20
-156.7911186673994
 30
0.0
 10
104.9975531421534
 20
-156.7911186673994
 30
0.0
 10
104.9975531421534
 20
-156.7911186673994
 30
0.0
 10
104.9975531421534
 20
-156.7911186673994
 30
0.0
 10
104.9975531421534
 20
-156.5795898046051
 30
0.0
 10
104.9975531421534
 20
-156.5795898046051
 30
0.0
 10
104.9975531421534
 20
-156.5795898046051
 30
0.0
 10
105.9136040316813
 20
-156.5795898046051
 30
0.0
 10
105.9136040316813
 20
-156.5795898046051
 30
0.0
 10
105.9136040316813
 20
-156.5795898046051
 30
0.0
 10
105.9136040316813
 20
-156.7911186673994
 30
0.0
 10
105.9136040316813
 20
-156.7911186673994
 30
0.0
 10
105.6379963928613
 20
-157.0811957072575
 30
0.0
 10
105.4106200908349
 20
-157.6734076211719
 30
0.0
 10
105.3816812887588
 20
-158.1240261106426
 30
0.0
  0
HATCH
  5
96
330
8F
100
AcDbEntity
  8
_U+30EC_U+30A4_U+30E4_U+30FC 1
 62
   179
420
  2234388
100
AcDbHatch
 10
0.0
 20
0.0
 30
0.0
210
0.0
220
0.0
230
1.0
  2
SOLID
 70
     1
 71
     0
 91
        1
 92
        1
 93
        1
 72
     4
 94
        3
 73
     0
 74
     1
 95
       26
 96
       22
 40
0.0
 40
0.0
 40
0.0
 40
0.0
 40
1.0
 40
1.0
 40
1.0
 40
2.0
 40
2.0
 40
2.0
 40
3.0
 40
3.0
 40
3.0
 40
4.0
 40
4.0
 40
4.0
 40
5.0
 40
5.0
 40
5.0
 40
6.0
 40
6.0
 40
6.0
 40
7.0
 40
7.0
 40
7.0
 40
7.0
 10
105.3816812887588
 20
-158.1240261106426
 10
105.3816812887588
 20
-158.1240261106426
 10
105.1797986933231
 20
-158.1240261106426
 10
105.1797986933231
 20
-158.1240261106426
 10
105.2015027948802
 20
-157.8150010456157
 10
105.3654893399781
 20
-157.2968586846341
 10
105.7117214362457
 20
-156.7911186673994
 10
105.7117214362457
 20
-156.7911186673994
 10
104.9975531421534
 20
-156.7911186673994
 10
104.9975531421534
 20
-156.7911186673994
 10
104.9975531421534
 20
-156.7911186673994
 10
104.9975531421534
 20
-156.5795898046051
 10
104.9975531421534
 20
-156.5795898046051
 10
104.9975531421534
 20
-156.5795898046051
 10
105.9136040316813
 20
-156.5795898046051
 10
105.9136040316813
 20
-156.5795898046051
 10
105.9136040316813
 20
-156.5795898046051
 10
105.9136040316813
 20
-156.7911186673994
 10
105.9136040316813
 20
-156.7911186673994
 10
105.6379963928613
 20
-157.0811957072575
 10
105.4106200908349
 20
-157.6734076211719
 10
105.3816812887588
 20
-158.1240261106426
 97
        0
 97
        0
 75
     2
 76
     1
 98
        0
  0
ENDBLK
  5
92
330
8F
100
AcDbEntity
  8
0
100
AcDbBlockEnd
  0
BLOCK
  5
99
330
97
100
AcDbEntity
  8
0
100
AcDbBlockBegin
  2
block 7
 70
     0
 10
0.0
 20
0.0
 30
0.0
  3
block 7
  1

  0
POLYLINE
  5
9B
330
97
100
AcDbEntity
  8
_U+30EC_U+30A4_U+30E4_U+30FC 1
 62
   179
420
  2234388
370
     9
100
AcDb2dPolyline
 66
     1
 10
0.0
 20
0.0
 30
0.0
  0
VERTEX
  5
9C
330
9B
100
AcDbEntity
  8
_U+30EC_U+30A4_U+30E4_U+30FC 1
 62
   179
420
  2234388
370
     9
100
AcDbVertex
100
AcDb2dVertex
 10
90.36931942185211
 20
-144.1698355195131
 30
0.0
  0
VERTEX
  5
9D
330
9B
100
AcDbEntity
  8
_U+30EC_U+30A4_U+30E4_U+30FC 1
 62
   179
420
  2234388
370
     9
100
AcDbVertex
100
AcDb2dVertex
 10
90.36931942185211
 20
-143.1700632975409
 30
0.0
  0
SEQEND
  5
9E
330
9B
100
AcDbEntity
  8
_U+30EC_U+30A4_U+30E4_U+30FC 1
 62
   179
420
  2234388
370
     9
  0
POLYLINE
  5
9F
330
97
100
AcDbEntity
  8
_U+30EC_U+30A4_U+30E4_U+30FC 1
 62
   179
420
  2234388
370
     9
100
AcDb2dPolyline
 66
     1
 10
0.0
 20
0.0
 30
0.0
  0
VERTEX
  5
A0
330
9F
100
AcDbEntity
  8
_U+30EC_U+30A4_U+30E4_U+30FC 1
 62
   179
420
  2234388
370
     9
100
AcDbVertex
100
AcDb2dVertex
 10
90.36931942185211
 20
-144.1698355195131
 30
0.0
  0
VERTEX
  5
A1
330
9F
100
AcDbEntity
  8
_U+30EC_U+30A4_U+30E4_U+30FC 1
 62
   179
420
  2234388
370
     9
100
AcDbVertex
100
AcDb2dVertex
 10
90.36931942185211
 20
-146.1698738523463
 30
0.0
  0
SEQEND
  5
A2
330
9F
100
AcDbEntity
  8
_U+30EC_U+30A4_U+30E4_U+30FC 1
 62
   179
420
  2234388
370
     9
  0
POLYLINE
  5
A3
330
97
100
AcDbEntity
  8
_U+30EC_U+30A4_U+30E4_U+30FC 1
 62
   179
420
  2234388
370
     9
100
AcDb2dPolyline
 66
     1
 10
0.0
 20
0.0
 30
0.0
  0
VERTEX
  5
A4
330
A3
100
AcDbEntity
  8
_U+30EC_U+30A4_U+30E4_U+30FC 1
 62
   179
420
  2234388
370
     9
100
AcDbVertex
100
AcDb2dVertex
 10
91.82935849057122
 20
-144.1698355195131
 30
0.0
  0
VERTEX
  5
A5
330
A3
100
AcDbEntity
  8
_U+30EC_U+30A4_U+30E4_U+30FC 1
 62
   179
420
  2234388
370
     9
100
AcDbVertex
100
AcDb2dVertex
 10
89.36958021999206
 20
-144.1698355195131
 30
0.0
  0
SEQEND
  5
A6
330
A3
100
AcDbEntity
  8
_U+30EC_U+30A4_U+30E4_U+30FC 1
 62
   179
420
  2234388
370
     9
  0
POLYLINE
  5
A7
330
97
100
AcDbEntity
  8
_U+30EC_U+30A4_U+30E4_U+30FC 1
 62
   179
420
  2234388
370
     9
100
AcDb2dPolyline
 66
     1
 10
0.0
 20
0.0
 30
0.0
  0
VERTEX
  5
A8
330
A7
100
AcDbEntity
  8
_U+30EC_U+30A4_U+30E4_U+30FC 1
 62
   179
420
  2234388
370
     9
100
AcDbVertex
100
AcDb2dVertex
 10
91.82935849057122
 20
-145.170136908152
 30
0.0
  0
VERTEX
  5
A9
330
A7
100
AcDbEntity
  8
_U+30EC_U+30A4_U+30E4_U+30FC 1
 62
   179
420
  2234388
370
     9
100
AcDbVertex
100
AcDb2dVertex
 10
89.36958021999206
 20
-145.170136908152
 30
0.0
  0
SEQEND
  5
AA
330
A7
100
AcDbEntity
  8
_U+30EC_U+30A4_U+30E4_U+30FC 1
 62
   179
420
  2234388
370
     9
  0
INSERT
  5
AC
330
97
100
AcDbEntity
  8
_U+30EC_U+30A4_U+30E4_U+30FC 1
100
AcDbBlockReference
  2
block 8
 10
0.0
 20
0.0
 30
0.0
  0
ENDBLK
  5
9A
330
97
100
AcDbEntity
  8
0
100
AcDbBlockEnd
  0
BLOCK
  5
AD
330
AB
100
AcDbEntity
  8
0
100
AcDbBlockBegin
  2
block 8
 70
     0
 10
0.0
 20
0.0
 30
0.0
  3
block 8
  1

  0
SPLINE
  5
AF
330
AB
100
AcDbEntity
  8
_U+30EC_U+30A4_U+30E4_U+30FC 1
370
     0
100
AcDbSpline
210
0.0
220
0.0
230
1.0
 70
    11
 71
     3
 72
    26
 73
    22
 74
     0
 42
0.0000000001
 43
0.0000000001
 12
1.0
 22
0.0
 32
0.0
 13
1.0
 23
0.0
 33
0.0
 40
0.0
 40
0.0
 40
0.0
 40
0.0
 40
1.0
 40
1.0
 40
1.0
 40
2.0
 40
2.0
 40
2.0
 40
3.0
 40
3.0
 40
3.0
 40
4.0
 40
4.0
 40
4.0
 40
5.0
 40
5.0
 40
5.0
 40
6.0
 40
6.0
 40
6.0
 40
7.0
 40
7.0
 40
7.0
 40
7.0
 10
89.72337779874971
 20
-141.8948702987277
 30
0.0
 10
89.72337779874971
 20
-141.8948702987277
 30
0.0
 10
88.61922469572714
 20
-141.8948702987277
 30
0.0
 10
88.61922469572714
 20
-141.8948702987277
 30
0.0
 10
88.61922469572714
 20
-141.8948702987277
 30
0.0
 10
88.61922469572714
 20
-142.1763345998726
 30
0.0
 10
88.61922469572714
 20
-142.1763345998726
 30
0.0
 10
88.61922469572714
 20
-142.1763345998726
 30
0.0
 10
88.4710855898614
 20
-142.1763345998726
 30
0.0
 10
88.4710855898614
 20
-142.1763345998726
 30
0.0
 10
88.45627167927482
 20
-141.8931477509851
 30
0.0
 10
88.29331866282251
 20
-141.8535291529047
 30
0.0
 10
88.17894149271221
 20
-141.8283799558623
 30
0.0
 10
88.17894149271221
 20
-141.8283799558623
 30
0.0
 10
88.17894149271221
 20
-141.7036674992963
 30
0.0
 10
88.17894149271221
 20
-141.7036674992963
 30
0.0
 10
88.17894149271221
 20
-141.7036674992963
 30
0.0
 10
89.72337779874971
 20
-141.7036674992963
 30
0.0
 10
89.72337779874971
 20
-141.7036674992963
 30
0.0
 10
89.72337779874971
 20
-141.7036674992963
 30
0.0
 10
89.72337779874971
 20
-141.8948702987277
 30
0.0
 10
89.72337779874971
 20
-141.8948702987277
 30
0.0
  0
HATCH
  5
B0
330
AB
100
AcDbEntity
  8
_U+30EC_U+30A4_U+30E4_U+30FC 1
 62
   179
420
  2234388
100
AcDbHatch
 10
0.0
 20
0.0
 30
0.0
210
0.0
220
0.0
230
1.0
  2
SOLID
 70
     1
 71
     0
 91
        1
 92
        1
 93
        1
 72
     4
 94
        3
 73
     0
 74
     1
 95
       26
 96
       22
 40
0.0
 40
0.0
 40
0.0
 40
0.0
 40
1.0
 40
1.0
 40
1.0
 40
2.0
 40
2.0
 40
2.0
 40
3.0
 40
3.0
 40
3.0
 40
4.0
 40
4.0
 40
4.0
 40
5.0
 40
5.0
 40
5.0
 40
6.0
 40
6.0
 40
6.0
 40
7.0
 40
7.0
 40
7.0
 40
7.0
 10
89.72337779874971
 20
-141.8948702987277
 10
89.72337779874971
 20
-141.8948702987277
 10
88.61922469572714
 20
-141.8948702987277
 10
88.61922469572714
 20
-141.8948702987277
 10
88.61922469572714
 20
-141.8948702987277
 10
88.61922469572714
 20
-142.1763345998726
 10
88.61922469572714
 20
-142.1763345998726
 10
88.61922469572714
 20
-142.1763345998726
 10
88.4710855898614
 20
-142.1763345998726
 10
88.4710855898614
 20
-142.1763345998726
 10
88.45627167927482
 20
-141.8931477509851
 10
88.29331866282251
 20
-141.8535291529047
 10
88.17894149271221
 20
-141.8283799558623
 10
88.17894149271221
 20
-141.8283799558623
 10
88.17894149271221
 20
-141.7036674992963
 10
88.17894149271221
 20
-141.7036674992963
 10
88.17894149271221
 20
-141.7036674992963
 10
89.72337779874971
 20
-141.7036674992963
 10
89.72337779874971
 20
-141.7036674992963
 10
89.72337779874971
 20
-141.7036674992963
 10
89.72337779874971
 20
-141.8948702987277
 10
89.72337779874971
 20
-141.8948702987277
 97
        0
 97
        0
 75
     2
 76
     1
 98
        0
  0
POLYLINE
  5
B1
330
AB
100
AcDbEntity
  8
_U+30EC_U+30A4_U+30E4_U+30FC 1
370
     0
100
AcDb2dPolyline
 66
     1
 10
0.0
 20
0.0
 30
0.0
  0
VERTEX
  5
B2
330
B1
100
AcDbEntity
  8
_U+30EC_U+30A4_U+30E4_U+30FC 1
370
     0
100
AcDbVertex
100
AcDb2dVertex
 10
89.72337779874971
 20
-141.2268662841377
 30
0.0
  0
VERTEX
  5
B3
330
B1
100
AcDbEntity
  8
_U+30EC_U+30A4_U+30E4_U+30FC 1
370
     0
100
AcDbVertex
100
AcDb2dVertex
 10
89.47154131877795
 20
-141.2268662841377
 30
0.0
  0
VERTEX
  5
B4
330
B1
100
AcDbEntity
  8
_U+30EC_U+30A4_U+30E4_U+30FC 1
370
     0
100
AcDbVertex
100
AcDb2dVertex
 10
89.47154131877795
 20
-141.0122368354067
 30
0.0
  0
VERTEX
  5
B5
330
B1
100
AcDbEntity
  8
_U+30EC_U+30A4_U+30E4_U+30FC 1
370
     0
100
AcDbVertex
100
AcDb2dVertex
 10
89.72337779874971
 20
-141.0122368354067
 30
0.0
  0
VERTEX
  5
B6
330
B1
100
AcDbEntity
  8
_U+30EC_U+30A4_U+30E4_U+30FC 1
370
     0
100
AcDbVertex
100
AcDb2dVertex
 10
89.72337779874971
 20
-141.2268662841377
 30
0.0
  0
SEQEND
  5
B7
330
B1
100
AcDbEntity
  8
_U+30EC_U+30A4_U+30E4_U+30FC 1
370
     0
  0
HATCH
  5
B8
330
AB
100
AcDbEntity
  8
_U+30EC_U+30A4_U+30E4_U+30FC 1
 62
   179
420
  2234388
100
AcDbHatch
 10
0.0
 20
0.0
 30
0.0
210
0.0
220
0.0
230
1.0
  2
SOLID
 70
     1
 71
     0
 91
        1
 92
        1
 93
        4
 72
     1
 10
89.72337779874971
 20
-141.2268662841377
 11
89.47154131877795
 21
-141.2268662841377
 72
     1
 10
89.47154131877795
 20
-141.2268662841377
 11
89.47154131877795
 21
-141.0122368354067
 72
     1
 10
89.47154131877795
 20
-141.0122368354067
 11
89.72337779874971
 21
-141.0122368354067
 72
     1
 10
89.72337779874971
 20
-141.0122368354067
 11
89.72337779874971
 21
-141.2268662841377
 97
        0
 75
     2
 76
     1
 98
        0
  0
SPLINE
  5
B9
330
AB
100
AcDbEntity
  8
_U+30EC_U+30A4_U+30E4_U+30FC 1
370
     0
100
AcDbSpline
210
0.0
220
0.0
230
1.0
 70
    11
 71
     3
 72
    29
 73
    25
 74
     0
 42
0.0000000001
 43
0.0000000001
 12
1.0
 22
0.0
 32
0.0
 13
1.0
 23
0.0
 33
0.0
 40
0.0
 40
0.0
 40
0.0
 40
0.0
 40
1.0
 40
1.0
 40
1.0
 40
2.0
 40
2.0
 40
2.0
 40
3.0
 40
3.0
 40
3.0
 40
4.0
 40
4.0
 40
4.0
 40
5.0
 40
5.0
 40
5.0
 40
6.0
 40
6.0
 40
6.0
 40
7.0
 40
7.0
 40
7.0
 40
8.0
 40
8.0
 40
8.0
 40
8.0
 10
89.54561087171082
 20
-140.0458875517941
 30
0.0
 10
89.75507267721402
 20
-140.1378716012503
 30
0.0
 10
89.77402070238288
 20
-140.2856661975675
 30
0.0
 10
89.77402070238288
 20
-140.3848849475427
 30
0.0
 10
89.77402070238288
 20
-140.5219997478556
 30
0.0
 10
89.72751191333201
 20
-140.6425780898394
 30
0.0
 10
89.54561087171082
 20
-140.7238823432913
 30
0.0
 10
89.35096297679421
 20
-140.8120767877137
 30
0.0
 10
89.11428491695754
 20
-140.8286132460429
 30
0.0
 10
88.95133190050522
 20
-140.8286132460429
 30
0.0
 10
88.80732690922179
 20
-140.8286132460429
 30
0.0
 10
88.55549042925001
 20
-140.8141438450048
 30
0.0
 10
88.3567084197511
 20
-140.7238823432913
 30
0.0
 10
88.15379229566989
 20
-140.6318982938351
 30
0.0
 10
88.1303656463702
 20
-140.4947834935221
 30
0.0
 10
88.1303656463702
 20
-140.3848849475427
 30
0.0
 10
88.1303656463702
 20
-140.2494926949724
 30
0.0
 10
88.17480737812991
 20
-140.1268472956975
 30
0.0
 10
88.3567084197511
 20
-140.0458875517941
 30
0.0
 10
88.54928925737657
 20
-139.9611382028569
 30
0.0
 10
88.77769908804864
 20
-139.9411566490425
 30
0.0
 10
88.95133190050522
 20
-139.9411566490425
 30
0.0
 10
89.12255314612214
 20
-139.9411566490425
 30
0.0
 10
89.35303003408536
 20
-139.9594156551143
 30
0.0
 10
89.54561087171082
 20
-140.0458875517941
 30
0.0
  0
SPLINE
  5
BA
330
AB
100
AcDbEntity
  8
_U+30EC_U+30A4_U+30E4_U+30FC 1
370
     0
100
AcDbSpline
210
0.0
220
0.0
230
1.0
 70
    11
 71
     3
 72
    17
 73
    13
 74
     0
 42
0.0000000001
 43
0.0000000001
 12
1.0
 22
0.0
 32
0.0
 13
1.0
 23
0.0
 33
0.0
 40
0.0
 40
0.0
 40
0.0
 40
0.0
 40
1.0
 40
1.0
 40
1.0
 40
2.0
 40
2.0
 40
2.0
 40
3.0
 40
3.0
 40
3.0
 40
4.0
 40
4.0
 40
4.0
 40
4.0
 10
88.32294648399565
 20
-140.3848849475427
 30
0.0
 10
88.32294648399565
 20
-140.5977918485311
 30
0.0
 10
88.60647784243172
 20
-140.6374104466115
 30
0.0
 10
88.95133190050522
 20
-140.6374104466115
 30
0.0
 10
89.27069225198788
 20
-140.6374104466115
 30
0.0
 10
89.57937280746627
 20
-140.6067490967928
 30
0.0
 10
89.57937280746627
 20
-140.3848849475427
 30
0.0
 10
89.57937280746627
 20
-140.1737005942969
 30
0.0
 10
89.29825301586989
 20
-140.1323594484739
 30
0.0
 10
88.95133190050522
 20
-140.1323594484739
 30
0.0
 10
88.63162703947404
 20
-140.1323594484739
 30
0.0
 10
88.32294648399565
 20
-140.1647433460352
 30
0.0
 10
88.32294648399565
 20
-140.3848849475427
 30
0.0
  0
HATCH
  5
BB
330
AB
100
AcDbEntity
  8
_U+30EC_U+30A4_U+30E4_U+30FC 1
 62
   179
420
  2234388
100
AcDbHatch
 10
0.0
 20
0.0
 30
0.0
210
0.0
220
0.0
230
1.0
  2
SOLID
 70
     1
 71
     0
 91
        2
 92
        1
 93
        1
 72
     4
 94
        3
 73
     0
 74
     1
 95
       29
 96
       25
 40
0.0
 40
0.0
 40
0.0
 40
0.0
 40
1.0
 40
1.0
 40
1.0
 40
2.0
 40
2.0
 40
2.0
 40
3.0
 40
3.0
 40
3.0
 40
4.0
 40
4.0
 40
4.0
 40
5.0
 40
5.0
 40
5.0
 40
6.0
 40
6.0
 40
6.0
 40
7.0
 40
7.0
 40
7.0
 40
8.0
 40
8.0
 40
8.0
 40
8.0
 10
89.54561087171082
 20
-140.0458875517941
 10
89.75507267721402
 20
-140.1378716012503
 10
89.77402070238288
 20
-140.2856661975675
 10
89.77402070238288
 20
-140.3848849475427
 10
89.77402070238288
 20
-140.5219997478556
 10
89.72751191333201
 20
-140.6425780898394
 10
89.54561087171082
 20
-140.7238823432913
 10
89.35096297679421
 20
-140.8120767877137
 10
89.11428491695754
 20
-140.8286132460429
 10
88.95133190050522
 20
-140.8286132460429
 10
88.80732690922179
 20
-140.8286132460429
 10
88.55549042925001
 20
-140.8141438450048
 10
88.3567084197511
 20
-140.7238823432913
 10
88.15379229566989
 20
-140.6318982938351
 10
88.1303656463702
 20
-140.4947834935221
 10
88.1303656463702
 20
-140.3848849475427
 10
88.1303656463702
 20
-140.2494926949724
 10
88.17480737812991
 20
-140.1268472956975
 10
88.3567084197511
 20
-140.0458875517941
 10
88.54928925737657
 20
-139.9611382028569
 10
88.77769908804864
 20
-139.9411566490425
 10
88.95133190050522
 20
-139.9411566490425
 10
89.12255314612214
 20
-139.9411566490425
 10
89.35303003408536
 20
-139.9594156551143
 10
89.54561087171082
 20
-140.0458875517941
 97
        0
 97
        0
 92
        1
 93
        1
 72
     4
 94
        3
 73
     0
 74
     1
 95
       17
 96
       13
 40
0.0
 40
0.0
 40
0.0
 40
0.0
 40
1.0
 40
1.0
 40
1.0
 40
2.0
 40
2.0
 40
2.0
 40
3.0
 40
3.0
 40
3.0
 40
4.0
 40
4.0
 40
4.0
 40
4.0
 10
88.32294648399565
 20
-140.3848849475427
 10
88.32294648399565
 20
-140.5977918485311
 10
88.60647784243172
 20
-140.6374104466115
 10
88.95133190050522
 20
-140.6374104466115
 10
89.27069225198788
 20
-140.6374104466115
 10
89.57937280746627
 20
-140.6067490967928
 10
89.57937280746627
 20
-140.3848849475427
 10
89.57937280746627
 20
-140.1737005942969
 10
89.29825301586989
 20
-140.1323594484739
 10
88.95133190050522
 20
-140.1323594484739
 10
88.63162703947404
 20
-140.1323594484739
 10
88.32294648399565
 20
-140.1647433460352
 10
88.32294648399565
 20
-140.3848849475427
 97
        0
 97
        0
 75
     2
 76
     1
 98
        0
  0
ENDBLK
  5
AE
330
AB
100
AcDbEntity
  8
0
100
AcDbBlockEnd
  0
BLOCK
  5
BE
330
BC
100
AcDbEntity
  8
0
100
AcDbBlockBegin
  2
block 9
 70
     0
 10
0.0
 20
0.0
 30
0.0
  3
block 9
  1

  0
POLYLINE
  5
C0
330
BC
100
AcDbEntity
  8
_U+30EC_U+30A4_U+30E4_U+30FC 1
 62
   179
420
  2234388
370
     9
100
AcDb2dPolyline
 66
     1
 10
0.0
 20
0.0
 30
0.0
  0
VERTEX
  5
C1
330
C0
100
AcDbEntity
  8
_U+30EC_U+30A4_U+30E4_U+30FC 1
 62
   179
420
  2234388
370
     9
100
AcDbVertex
100
AcDb2dVertex
 10
117.4560528367798
 20
-144.1698355195131
 30
0.0
  0
VERTEX
  5
C2
330
C0
100
AcDbEntity
  8
_U+30EC_U+30A4_U+30E4_U+30FC 1
 62
   179
420
  2234388
370
     9
100
AcDbVertex
100
AcDb2dVertex
 10
117.4560528367798
 20
-153.6698588504713
 30
0.0
  0
SEQEND
  5
C3
330
C0
100
AcDbEntity
  8
_U+30EC_U+30A4_U+30E4_U+30FC 1
 62
   179
420
  2234388
370
     9
  0
POLYLINE
  5
C4
330
BC
100
AcDbEntity
  8
_U+30EC_U+30A4_U+30E4_U+30FC 1
 62
   179
420
  2234388
370
     9
100
AcDb2dPolyline
 66
     1
 10
0.0
 20
0.0
 30
0.0
  0
VERTEX
  5
C5
330
C4
100
AcDbEntity
  8
_U+30EC_U+30A4_U+30E4_U+30FC 1
 62
   179
420
  2234388
370
     9
100
AcDbVertex
100
AcDb2dVertex
 10
100.0962116129996
 20
-144.1698355195131
 30
0.0
  0
VERTEX
  5
C6
330
C4
100
AcDbEntity
  8
_U+30EC_U+30A4_U+30E4_U+30FC 1
 62
   179
420
  2234388
370
     9
100
AcDbVertex
100
AcDb2dVertex
 10
118.4561778112645
 20
-144.1698355195131
 30
0.0
  0
SEQEND
  5
C7
330
C4
100
AcDbEntity
  8
_U+30EC_U+30A4_U+30E4_U+30FC 1
 62
   179
420
  2234388
370
     9
  0
POLYLINE
  5
C8
330
BC
100
AcDbEntity
  8
_U+30EC_U+30A4_U+30E4_U+30FC 1
 62
   179
420
  2234388
370
     9
100
AcDb2dPolyline
 66
     1
 10
0.0
 20
0.0
 30
0.0
  0
VERTEX
  5
C9
330
C8
100
AcDbEntity
  8
_U+30EC_U+30A4_U+30E4_U+30FC 1
 62
   179
420
  2234388
370
     9
100
AcDbVertex
100
AcDb2dVertex
 10
115.9960114851396
 20
-153.6698588504713
 30
0.0
  0
VERTEX
  5
CA
330
C8
100
AcDbEntity
  8
_U+30EC_U+30A4_U+30E4_U+30FC 1
 62
   179
420
  2234388
370
     9
100
AcDbVertex
100
AcDb2dVertex
 10
118.4561778112645
 20
-153.6698588504713
 30
0.0
  0
SEQEND
  5
CB
330
C8
100
AcDbEntity
  8
_U+30EC_U+30A4_U+30E4_U+30FC 1
 62
   179
420
  2234388
370
     9
  0
INSERT
  5
CD
330
BC
100
AcDbEntity
  8
_U+30EC_U+30A4_U+30E4_U+30FC 1
100
AcDbBlockReference
  2
block 10
 10
0.0
 20
0.0
 30
0.0
  0
ENDBLK
  5
BF
330
BC
100
AcDbEntity
  8
0
100
AcDbBlockEnd
  0
BLOCK
  5
CE
330
CC
100
AcDbEntity
  8
0
100
AcDbBlockBegin
  2
block 10
 70
     0
 10
0.0
 20
0.0
 30
0.0
  3
block 10
  1

  0
SPLINE
  5
D0
330
CC
100
AcDbEntity
  8
_U+30EC_U+30A4_U+30E4_U+30FC 1
370
     0
100
AcDbSpline
210
0.0
220
0.0
230
1.0
 70
    11
 71
     3
 72
    32
 73
    28
 74
     0
 42
0.0000000001
 43
0.0000000001
 12
1.0
 22
0.0
 32
0.0
 13
1.0
 23
0.0
 33
0.0
 40
0.0
 40
0.0
 40
0.0
 40
0.0
 40
1.0
 40
1.0
 40
1.0
 40
2.0
 40
2.0
 40
2.0
 40
3.0
 40
3.0
 40
3.0
 40
4.0
 40
4.0
 40
4.0
 40
5.0
 40
5.0
 40
5.0
 40
6.0
 40
6.0
 40
6.0
 40
7.0
 40
7.0
 40
7.0
 40
8.0
 40
8.0
 40
8.0
 40
9.0
 40
9.0
 40
9.0
 40
9.0
 10
116.8610839551597
 20
-149.689743343654
 30
0.0
 10
116.8610839551597
 20
-149.8375379399712
 30
0.0
 10
116.7914930263577
 20
-150.0466552359258
 30
0.0
 10
116.4593858215796
 20
-150.0790391334872
 30
0.0
 10
116.4593858215796
 20
-150.0790391334872
 30
0.0
 10
116.4593858215796
 20
-149.8967935823175
 30
0.0
 10
116.4593858215796
 20
-149.8967935823175
 30
0.0
 10
116.5186414639259
 20
-149.8878363340558
 30
0.0
 10
116.6664360602431
 20
-149.8609645892709
 30
0.0
 10
116.6664360602431
 20
-149.6876762863628
 30
0.0
 10
116.6664360602431
 20
-149.4389403923278
 30
0.0
 10
116.3363959127562
 20
-149.4065564947664
 30
0.0
 10
116.1314127313838
 20
-149.3955321892136
 30
0.0
 10
116.2116834561901
 20
-149.4730468376318
 30
0.0
 10
116.2688720412453
 20
-149.530924441784
 30
0.0
 10
116.2688720412453
 20
-149.6859537386202
 30
0.0
 10
116.2688720412453
 20
-149.8392604877138
 30
0.0
 10
116.1631076098481
 20
-150.097298139559
 30
0.0
 10
115.7569308521372
 20
-150.097298139559
 30
0.0
 10
115.4375705006545
 20
-150.097298139559
 30
0.0
 10
115.217428899147
 20
-149.9274549321362
 30
0.0
 10
115.217428899147
 20
-149.6570149365441
 30
0.0
 10
115.217428899147
 20
-149.2187987908203
 30
0.0
 10
115.7717447627237
 20
-149.2098415425586
 30
0.0
 10
115.9853406828092
 20
-149.2098415425586
 30
0.0
 10
116.2158175707724
 20
-149.2098415425586
 30
0.0
 10
116.8610839551597
 20
-149.2260334913393
 30
0.0
 10
116.8610839551597
 20
-149.689743343654
 30
0.0
  0
SPLINE
  5
D1
330
CC
100
AcDbEntity
  8
_U+30EC_U+30A4_U+30E4_U+30FC 1
370
     0
100
AcDbSpline
210
0.0
220
0.0
230
1.0
 70
    11
 71
     3
 72
    17
 73
    13
 74
     0
 42
0.0000000001
 43
0.0000000001
 12
1.0
 22
0.0
 32
0.0
 13
1.0
 23
0.0
 33
0.0
 40
0.0
 40
0.0
 40
0.0
 40
0.0
 40
1.0
 40
1.0
 40
1.0
 40
2.0
 40
2.0
 40
2.0
 40
3.0
 40
3.0
 40
3.0
 40
4.0
 40
4.0
 40
4.0
 40
4.0
 10
115.4100097367725
 20
-149.6552923888015
 30
0.0
 10
115.4100097367725
 20
-149.7562336865193
 30
0.0
 10
115.4671983218277
 20
-149.9060953401276
 30
0.0
 10
115.7527967375549
 20
-149.9060953401276
 30
0.0
 10
115.9791395109358
 20
-149.9060953401276
 30
0.0
 10
116.0742241463287
 20
-149.786895036338
 30
0.0
 10
116.0742241463287
 20
-149.6714843375821
 30
0.0
 10
116.0742241463287
 20
-149.4478976405894
 30
0.0
 10
115.8647623408255
 20
-149.4155137430281
 30
0.0
 10
115.748318113424
 20
-149.4155137430281
 30
0.0
 10
115.5729627532248
 20
-149.4155137430281
 30
0.0
 10
115.4100097367725
 20
-149.4964734869314
 30
0.0
 10
115.4100097367725
 20
-149.6552923888015
 30
0.0
  0
HATCH
  5
D2
330
CC
100
AcDbEntity
  8
_U+30EC_U+30A4_U+30E4_U+30FC 1
 62
   179
420
  2234388
100
AcDbHatch
 10
0.0
 20
0.0
 30
0.0
210
0.0
220
0.0
230
1.0
  2
SOLID
 70
     1
 71
     0
 91
        2
 92
        1
 93
        1
 72
     4
 94
        3
 73
     0
 74
     1
 95
       32
 96
       28
 40
0.0
 40
0.0
 40
0.0
 40
0.0
 40
1.0
 40
1.0
 40
1.0
 40
2.0
 40
2.0
 40
2.0
 40
3.0
 40
3.0
 40
3.0
 40
4.0
 40
4.0
 40
4.0
 40
5.0
 40
5.0
 40
5.0
 40
6.0
 40
6.0
 40
6.0
 40
7.0
 40
7.0
 40
7.0
 40
8.0
 40
8.0
 40
8.0
 40
9.0
 40
9.0
 40
9.0
 40
9.0
 10
116.8610839551597
 20
-149.689743343654
 10
116.8610839551597
 20
-149.8375379399712
 10
116.7914930263577
 20
-150.0466552359258
 10
116.4593858215796
 20
-150.0790391334872
 10
116.4593858215796
 20
-150.0790391334872
 10
116.4593858215796
 20
-149.8967935823175
 10
116.4593858215796
 20
-149.8967935823175
 10
116.5186414639259
 20
-149.8878363340558
 10
116.6664360602431
 20
-149.8609645892709
 10
116.6664360602431
 20
-149.6876762863628
 10
116.6664360602431
 20
-149.4389403923278
 10
116.3363959127562
 20
-149.4065564947664
 10
116.1314127313838
 20
-149.3955321892136
 10
116.2116834561901
 20
-149.4730468376318
 10
116.2688720412453
 20
-149.530924441784
 10
116.2688720412453
 20
-149.6859537386202
 10
116.2688720412453
 20
-149.8392604877138
 10
116.1631076098481
 20
-150.097298139559
 10
115.7569308521372
 20
-150.097298139559
 10
115.4375705006545
 20
-150.097298139559
 10
115.217428899147
 20
-149.9274549321362
 10
115.217428899147
 20
-149.6570149365441
 10
115.217428899147
 20
-149.2187987908203
 10
115.7717447627237
 20
-149.2098415425586
 10
115.9853406828092
 20
-149.2098415425586
 10
116.2158175707724
 20
-149.2098415425586
 10
116.8610839551597
 20
-149.2260334913393
 10
116.8610839551597
 20
-149.689743343654
 97
        0
 97
        0
 92
        1
 93
        1
 72
     4
 94
        3
 73
     0
 74
     1
 95
       17
 96
       13
 40
0.0
 40
0.0
 40
0.0
 40
0.0
 40
1.0
 40
1.0
 40
1.0
 40
2.0
 40
2.0
 40
2.0
 40
3.0
 40
3.0
 40
3.0
 40
4.0
 40
4.0
 40
4.0
 40
4.0
 10
115.4100097367725
 20
-149.6552923888015
 10
115.4100097367725
 20
-149.7562336865193
 10
115.4671983218277
 20
-149.9060953401276
 10
115.7527967375549
 20
-149.9060953401276
 10
115.9791395109358
 20
-149.9060953401276
 10
116.0742241463287
 20
-149.786895036338
 10
116.0742241463287
 20
-149.6714843375821
 10
116.0742241463287
 20
-149.4478976405894
 10
115.8647623408255
 20
-149.4155137430281
 10
115.748318113424
 20
-149.4155137430281
 10
115.5729627532248
 20
-149.4155137430281
 10
115.4100097367725
 20
-149.4964734869314
 10
115.4100097367725
 20
-149.6552923888015
 97
        0
 97
        0
 75
     2
 76
     1
 98
        0
  0
POLYLINE
  5
D3
330
CC
100
AcDbEntity
  8
_U+30EC_U+30A4_U+30E4_U+30FC 1
370
     0
100
AcDb2dPolyline
 66
     1
 10
0.0
 20
0.0
 30
0.0
  0
VERTEX
  5
D4
330
D3
100
AcDbEntity
  8
_U+30EC_U+30A4_U+30E4_U+30FC 1
370
     0
100
AcDbVertex
100
AcDb2dVertex
 10
116.8104410515266
 20
-149.0269069722919
 30
0.0
  0
VERTEX
  5
D5
330
D3
100
AcDbEntity
  8
_U+30EC_U+30A4_U+30E4_U+30FC 1
370
     0
100
AcDbVertex
100
AcDb2dVertex
 10
116.5586045715548
 20
-149.0269069722919
 30
0.0
  0
VERTEX
  5
D6
330
D3
100
AcDbEntity
  8
_U+30EC_U+30A4_U+30E4_U+30FC 1
370
     0
100
AcDbVertex
100
AcDb2dVertex
 10
116.5586045715548
 20
-148.8122775235608
 30
0.0
  0
VERTEX
  5
D7
330
D3
100
AcDbEntity
  8
_U+30EC_U+30A4_U+30E4_U+30FC 1
370
     0
100
AcDbVertex
100
AcDb2dVertex
 10
116.8104410515266
 20
-148.8122775235608
 30
0.0
  0
VERTEX
  5
D8
330
D3
100
AcDbEntity
  8
_U+30EC_U+30A4_U+30E4_U+30FC 1
370
     0
100
AcDbVertex
100
AcDb2dVertex
 10
116.8104410515266
 20
-149.0269069722919
 30
0.0
  0
SEQEND
  5
D9
330
D3
100
AcDbEntity
  8
_U+30EC_U+30A4_U+30E4_U+30FC 1
370
     0
  0
HATCH
  5
DA
330
CC
100
AcDbEntity
  8
_U+30EC_U+30A4_U+30E4_U+30FC 1
 62
   179
420
  2234388
100
AcDbHatch
 10
0.0
 20
0.0
 30
0.0
210
0.0
220
0.0
230
1.0
  2
SOLID
 70
     1
 71
     0
 91
        1
 92
        1
 93
        4
 72
     1
 10
116.8104410515266
 20
-149.0269069722919
 11
116.5586045715548
 21
-149.0269069722919
 72
     1
 10
116.5586045715548
 20
-149.0269069722919
 11
116.5586045715548
 21
-148.8122775235608
 72
     1
 10
116.5586045715548
 20
-148.8122775235608
 11
116.8104410515266
 21
-148.8122775235608
 72
     1
 10
116.8104410515266
 20
-148.8122775235608
 11
116.8104410515266
 21
-149.0269069722919
 97
        0
 75
     2
 76
     1
 98
        0
  0
SPLINE
  5
DB
330
CC
100
AcDbEntity
  8
_U+30EC_U+30A4_U+30E4_U+30FC 1
370
     0
100
AcDbSpline
210
0.0
220
0.0
230
1.0
 70
    11
 71
     3
 72
    53
 73
    49
 74
     0
 42
0.0000000001
 43
0.0000000001
 12
1.0
 22
0.0
 32
0.0
 13
1.0
 23
0.0
 33
0.0
 40
0.0
 40
0.0
 40
0.0
 40
0.0
 40
1.0
 40
1.0
 40
1.0
 40
2.0
 40
2.0
 40
2.0
 40
3.0
 40
3.0
 40
3.0
 40
4.0
 40
4.0
 40
4.0
 40
5.0
 40
5.0
 40
5.0
 40
6.0
 40
6.0
 40
6.0
 40
7.0
 40
7.0
 40
7.0
 40
8.0
 40
8.0
 40
8.0
 40
9.0
 40
9.0
 40
9.0
 40
10.0
 40
10.0
 40
10.0
 40
11.0
 40
11.0
 40
11.0
 40
12.0
 40
12.0
 40
12.0
 40
13.0
 40
13.0
 40
13.0
 40
14.0
 40
14.0
 40
14.0
 40
15.0
 40
15.0
 40
15.0
 40
16.0
 40
16.0
 40
16.0
 40
16.0
 10
116.8610839551597
 20
-148.2011175844775
 30
0.0
 10
116.8610839551597
 20
-148.2679524368914
 30
0.0
 10
116.844202987282
 20
-148.3544243335711
 30
0.0
 10
116.7808132303534
 20
-148.4408962302509
 30
0.0
 10
116.6709146843739
 20
-148.5886908265681
 30
0.0
 10
116.5396565463859
 20
-148.6069498326399
 30
0.0
 10
116.4318250576976
 20
-148.6231417814206
 30
0.0
 10
116.4318250576976
 20
-148.6231417814206
 30
0.0
 10
116.4318250576976
 20
-148.4336615297319
 30
0.0
 10
116.4318250576976
 20
-148.4336615297319
 30
0.0
 10
116.6306070671965
 20
-148.3868082311325
 30
0.0
 10
116.6602348883697
 20
-148.2786322328956
 30
0.0
 10
116.6602348883697
 20
-148.1993950367349
 30
0.0
 10
116.6602348883697
 20
-148.0801947329452
 30
0.0
 10
116.560671628846
 20
-147.9503146331513
 30
0.0
 10
116.3281276835916
 20
-147.9503146331513
 30
0.0
 10
116.0721570890375
 20
-147.9503146331513
 30
0.0
 10
116.0022216506869
 20
-148.1036213822449
 30
0.0
 10
116.0022216506869
 20
-148.2066297372539
 30
0.0
 10
116.0022216506869
 20
-148.2335014820389
 30
0.0
 10
116.0022216506869
 20
-148.3544243335711
 30
0.0
 10
116.1314127313838
 20
-148.4302164342466
 30
0.0
 10
116.1314127313838
 20
-148.4302164342466
 30
0.0
 10
116.112464706215
 20
-148.5797335783065
 30
0.0
 10
116.112464706215
 20
-148.5797335783065
 30
0.0
 10
116.112464706215
 20
-148.5797335783065
 30
0.0
 10
115.2660047454891
 20
-148.477069732846
 30
0.0
 10
115.2660047454891
 20
-148.477069732846
 30
0.0
 10
115.2660047454891
 20
-148.477069732846
 30
0.0
 10
115.2660047454891
 20
-147.8135443423869
 30
0.0
 10
115.2660047454891
 20
-147.8135443423869
 30
0.0
 10
115.2660047454891
 20
-147.8135443423869
 30
0.0
 10
115.4606526404057
 20
-147.8135443423869
 30
0.0
 10
115.4606526404057
 20
-147.8135443423869
 30
0.0
 10
115.4606526404057
 20
-147.8135443423869
 30
0.0
 10
115.4606526404057
 20
-148.3382323847904
 30
0.0
 10
115.4606526404057
 20
-148.3382323847904
 30
0.0
 10
115.4606526404057
 20
-148.3382323847904
 30
0.0
 10
115.8837103659944
 20
-148.3940429316515
 30
0.0
 10
115.8837103659944
 20
-148.3940429316515
 30
0.0
 10
115.8499484302389
 20
-148.3416774802757
 30
0.0
 10
115.8096408130615
 20
-148.2713975323766
 30
0.0
 10
115.8096408130615
 20
-148.1704562346588
 30
0.0
 10
115.8096408130615
 20
-147.9541042381851
 30
0.0
 10
115.9960204788135
 20
-147.7522216427494
 30
0.0
 10
116.3091796584227
 20
-147.7522216427494
 30
0.0
 10
116.6264729526142
 20
-147.7522216427494
 30
0.0
 10
116.8610839551597
 20
-147.9430799326323
 30
0.0
 10
116.8610839551597
 20
-148.2011175844775
 30
0.0
  0
HATCH
  5
DC
330
CC
100
AcDbEntity
  8
_U+30EC_U+30A4_U+30E4_U+30FC 1
 62
   179
420
  2234388
100
AcDbHatch
 10
0.0
 20
0.0
 30
0.0
210
0.0
220
0.0
230
1.0
  2
SOLID
 70
     1
 71
     0
 91
        1
 92
        1
 93
        1
 72
     4
 94
        3
 73
     0
 74
     1
 95
       53
 96
       49
 40
0.0
 40
0.0
 40
0.0
 40
0.0
 40
1.0
 40
1.0
 40
1.0
 40
2.0
 40
2.0
 40
2.0
 40
3.0
 40
3.0
 40
3.0
 40
4.0
 40
4.0
 40
4.0
 40
5.0
 40
5.0
 40
5.0
 40
6.0
 40
6.0
 40
6.0
 40
7.0
 40
7.0
 40
7.0
 40
8.0
 40
8.0
 40
8.0
 40
9.0
 40
9.0
 40
9.0
 40
10.0
 40
10.0
 40
10.0
 40
11.0
 40
11.0
 40
11.0
 40
12.0
 40
12.0
 40
12.0
 40
13.0
 40
13.0
 40
13.0
 40
14.0
 40
14.0
 40
14.0
 40
15.0
 40
15.0
 40
15.0
 40
16.0
 40
16.0
 40
16.0
 40
16.0
 10
116.8610839551597
 20
-148.2011175844775
 10
116.8610839551597
 20
-148.2679524368914
 10
116.844202987282
 20
-148.3544243335711
 10
116.7808132303534
 20
-148.4408962302509
 10
116.6709146843739
 20
-148.5886908265681
 10
116.5396565463859
 20
-148.6069498326399
 10
116.4318250576976
 20
-148.6231417814206
 10
116.4318250576976
 20
-148.6231417814206
 10
116.4318250576976
 20
-148.4336615297319
 10
116.4318250576976
 20
-148.4336615297319
 10
116.6306070671965
 20
-148.3868082311325
 10
116.6602348883697
 20
-148.2786322328956
 10
116.6602348883697
 20
-148.1993950367349
 10
116.6602348883697
 20
-148.0801947329452
 10
116.560671628846
 20
-147.9503146331513
 10
116.3281276835916
 20
-147.9503146331513
 10
116.0721570890375
 20
-147.9503146331513
 10
116.0022216506869
 20
-148.1036213822449
 10
116.0022216506869
 20
-148.2066297372539
 10
116.0022216506869
 20
-148.2335014820389
 10
116.0022216506869
 20
-148.3544243335711
 10
116.1314127313838
 20
-148.4302164342466
 10
116.1314127313838
 20
-148.4302164342466
 10
116.112464706215
 20
-148.5797335783065
 10
116.112464706215
 20
-148.5797335783065
 10
116.112464706215
 20
-148.5797335783065
 10
115.2660047454891
 20
-148.477069732846
 10
115.2660047454891
 20
-148.477069732846
 10
115.2660047454891
 20
-148.477069732846
 10
115.2660047454891
 20
-147.8135443423869
 10
115.2660047454891
 20
-147.8135443423869
 10
115.2660047454891
 20
-147.8135443423869
 10
115.4606526404057
 20
-147.8135443423869
 10
115.4606526404057
 20
-147.8135443423869
 10
115.4606526404057
 20
-147.8135443423869
 10
115.4606526404057
 20
-148.3382323847904
 10
115.4606526404057
 20
-148.3382323847904
 10
115.4606526404057
 20
-148.3382323847904
 10
115.8837103659944
 20
-148.3940429316515
 10
115.8837103659944
 20
-148.3940429316515
 10
115.8499484302389
 20
-148.3416774802757
 10
115.8096408130615
 20
-148.2713975323766
 10
115.8096408130615
 20
-148.1704562346588
 10
115.8096408130615
 20
-147.9541042381851
 10
115.9960204788135
 20
-147.7522216427494
 10
116.3091796584227
 20
-147.7522216427494
 10
116.6264729526142
 20
-147.7522216427494
 10
116.8610839551597
 20
-147.9430799326323
 10
116.8610839551597
 20
-148.2011175844775
 97
        0
 97
        0
 75
     2
 76
     1
 98
        0
  0
ENDBLK
  5
CF
330
CC
100
AcDbEntity
  8
0
100
AcDbBlockEnd
  0
BLOCK
  5
DF
330
DD
100
AcDbEntity
  8
0
100
AcDbBlockBegin
  2
block 11
 70
     0
 10
0.0
 20
0.0
 30
0.0
  3
block 11
  1

  0
POLYLINE
  5
E1
330
DD
100
AcDbEntity
  8
_U+30EC_U+30A4_U+30E4_U+30FC 1
 62
   179
420
  2234388
370
     9
100
AcDb2dPolyline
 66
     1
 10
0.0
 20
0.0
 30
0.0
  0
VERTEX
  5
E2
330
E1
100
AcDbEntity
  8
_U+30EC_U+30A4_U+30E4_U+30FC 1
 62
   179
420
  2234388
370
     9
100
AcDbVertex
100
AcDb2dVertex
 10
117.4560528367798
 20
-154.0701910725934
 30
0.0
  0
VERTEX
  5
E3
330
E1
100
AcDbEntity
  8
_U+30EC_U+30A4_U+30E4_U+30FC 1
 62
   179
420
  2234388
370
     9
100
AcDbVertex
100
AcDb2dVertex
 10
117.4560528367798
 20
-155.0699632945659
 30
0.0
  0
SEQEND
  5
E4
330
E1
100
AcDbEntity
  8
_U+30EC_U+30A4_U+30E4_U+30FC 1
 62
   179
420
  2234388
370
     9
  0
POLYLINE
  5
E5
330
DD
100
AcDbEntity
  8
_U+30EC_U+30A4_U+30E4_U+30FC 1
 62
   179
420
  2234388
370
     9
100
AcDb2dPolyline
 66
     1
 10
0.0
 20
0.0
 30
0.0
  0
VERTEX
  5
E6
330
E5
100
AcDbEntity
  8
_U+30EC_U+30A4_U+30E4_U+30FC 1
 62
   179
420
  2234388
370
     9
100
AcDbVertex
100
AcDb2dVertex
 10
117.4560528367798
 20
-153.6698588504713
 30
0.0
  0
VERTEX
  5
E7
330
E5
100
AcDbEntity
  8
_U+30EC_U+30A4_U+30E4_U+30FC 1
 62
   179
420
  2234388
370
     9
100
AcDbVertex
100
AcDb2dVertex
 10
117.4560528367798
 20
-154.0701910725934
 30
0.0
  0
SEQEND
  5
E8
330
E5
100
AcDbEntity
  8
_U+30EC_U+30A4_U+30E4_U+30FC 1
 62
   179
420
  2234388
370
     9
  0
POLYLINE
  5
E9
330
DD
100
AcDbEntity
  8
_U+30EC_U+30A4_U+30E4_U+30FC 1
 62
   179
420
  2234388
370
     9
100
AcDb2dPolyline
 66
     1
 10
0.0
 20
0.0
 30
0.0
  0
VERTEX
  5
EA
330
E9
100
AcDbEntity
  8
_U+30EC_U+30A4_U+30E4_U+30FC 1
 62
   179
420
  2234388
370
     9
100
AcDbVertex
100
AcDb2dVertex
 10
115.9960114851396
 20
-154.0701910725934
 30
0.0
  0
VERTEX
  5
EB
330
E9
100
AcDbEntity
  8
_U+30EC_U+30A4_U+30E4_U+30FC 1
 62
   179
420
  2234388
370
     9
100
AcDbVertex
100
AcDb2dVertex
 10
118.4561778112645
 20
-154.0701910725934
 30
0.0
  0
SEQEND
  5
EC
330
E9
100
AcDbEntity
  8
_U+30EC_U+30A4_U+30E4_U+30FC 1
 62
   179
420
  2234388
370
     9
  0
INSERT
  5
EE
330
DD
100
AcDbEntity
  8
_U+30EC_U+30A4_U+30E4_U+30FC 1
100
AcDbBlockReference
  2
block 12
 10
0.0
 20
0.0
 30
0.0
  0
ENDBLK
  5
E0
330
DD
100
AcDbEntity
  8
0
100
AcDbBlockEnd
  0
BLOCK
  5
EF
330
ED
100
AcDbEntity
  8
0
100
AcDbBlockBegin
  2
block 12
 70
     0
 10
0.0
 20
0.0
 30
0.0
  3
block 12
  1

  0
SPLINE
  5
F1
330
ED
100
AcDbEntity
  8
_U+30EC_U+30A4_U+30E4_U+30FC 1
370
     0
100
AcDbSpline
210
0.0
220
0.0
230
1.0
 70
    11
 71
     3
 72
    29
 73
    25
 74
     0
 42
0.0000000001
 43
0.0000000001
 12
1.0
 22
0.0
 32
0.0
 13
1.0
 23
0.0
 33
0.0
 40
0.0
 40
0.0
 40
0.0
 40
0.0
 40
1.0
 40
1.0
 40
1.0
 40
2.0
 40
2.0
 40
2.0
 40
3.0
 40
3.0
 40
3.0
 40
4.0
 40
4.0
 40
4.0
 40
5.0
 40
5.0
 40
5.0
 40
6.0
 40
6.0
 40
6.0
 40
7.0
 40
7.0
 40
7.0
 40
8.0
 40
8.0
 40
8.0
 40
8.0
 10
121.1013074784052
 20
-154.4081461202521
 30
0.0
 10
121.3107692839084
 20
-154.5001301697083
 30
0.0
 10
121.3297173090773
 20
-154.6479247660255
 30
0.0
 10
121.3297173090773
 20
-154.7471435160007
 30
0.0
 10
121.3297173090773
 20
-154.8842583163137
 30
0.0
 10
121.2832085200264
 20
-155.0048366582974
 30
0.0
 10
121.1013074784052
 20
-155.0861409117493
 30
0.0
 10
120.9066595834886
 20
-155.1743353561717
 30
0.0
 10
120.669981523652
 20
-155.1905273049524
 30
0.0
 10
120.5070285071996
 20
-155.1905273049524
 30
0.0
 10
120.3630235159162
 20
-155.1905273049524
 30
0.0
 10
120.1111870359444
 20
-155.1764024134629
 30
0.0
 10
119.9124050264455
 20
-155.0861409117493
 30
0.0
 10
119.7094889023643
 20
-154.9941568622931
 30
0.0
 10
119.6860622530646
 20
-154.8570420619802
 30
0.0
 10
119.6860622530646
 20
-154.7471435160007
 30
0.0
 10
119.6860622530646
 20
-154.6117512634304
 30
0.0
 10
119.7305039848243
 20
-154.4891058641555
 30
0.0
 10
119.9124050264455
 20
-154.4081461202521
 30
0.0
 10
120.104985864071
 20
-154.323396771315
 30
0.0
 10
120.333395694743
 20
-154.3034152175005
 30
0.0
 10
120.5070285071996
 20
-154.3034152175005
 30
0.0
 10
120.6782497528166
 20
-154.3034152175005
 30
0.0
 10
120.9087266407798
 20
-154.3216742235724
 30
0.0
 10
121.1013074784052
 20
-154.4081461202521
 30
0.0
  0
SPLINE
  5
F2
330
ED
100
AcDbEntity
  8
_U+30EC_U+30A4_U+30E4_U+30FC 1
370
     0
100
AcDbSpline
210
0.0
220
0.0
230
1.0
 70
    11
 71
     3
 72
    17
 73
    13
 74
     0
 42
0.0000000001
 43
0.0000000001
 12
1.0
 22
0.0
 32
0.0
 13
1.0
 23
0.0
 33
0.0
 40
0.0
 40
0.0
 40
0.0
 40
0.0
 40
1.0
 40
1.0
 40
1.0
 40
2.0
 40
2.0
 40
2.0
 40
3.0
 40
3.0
 40
3.0
 40
4.0
 40
4.0
 40
4.0
 40
4.0
 10
119.8786430906901
 20
-154.7471435160007
 30
0.0
 10
119.8786430906901
 20
-154.9597059074407
 30
0.0
 10
120.1621744491261
 20
-154.9996690150695
 30
0.0
 10
120.5070285071996
 20
-154.9996690150695
 30
0.0
 10
120.8263888586823
 20
-154.9996690150695
 30
0.0
 10
121.1350694141607
 20
-154.9690076652508
 30
0.0
 10
121.1350694141607
 20
-154.7471435160007
 30
0.0
 10
121.1350694141607
 20
-154.5359591627549
 30
0.0
 10
120.8539496225643
 20
-154.4946180169319
 30
0.0
 10
120.5070285071996
 20
-154.4946180169319
 30
0.0
 10
120.1873236461685
 20
-154.4946180169319
 30
0.0
 10
119.8786430906901
 20
-154.5270019144933
 30
0.0
 10
119.8786430906901
 20
-154.7471435160007
 30
0.0
  0
HATCH
  5
F3
330
ED
100
AcDbEntity
  8
_U+30EC_U+30A4_U+30E4_U+30FC 1
 62
   179
420
  2234388
100
AcDbHatch
 10
0.0
 20
0.0
 30
0.0
210
0.0
220
0.0
230
1.0
  2
SOLID
 70
     1
 71
     0
 91
        2
 92
        1
 93
        1
 72
     4
 94
        3
 73
     0
 74
     1
 95
       29
 96
       25
 40
0.0
 40
0.0
 40
0.0
 40
0.0
 40
1.0
 40
1.0
 40
1.0
 40
2.0
 40
2.0
 40
2.0
 40
3.0
 40
3.0
 40
3.0
 40
4.0
 40
4.0
 40
4.0
 40
5.0
 40
5.0
 40
5.0
 40
6.0
 40
6.0
 40
6.0
 40
7.0
 40
7.0
 40
7.0
 40
8.0
 40
8.0
 40
8.0
 40
8.0
 10
121.1013074784052
 20
-154.4081461202521
 10
121.3107692839084
 20
-154.5001301697083
 10
121.3297173090773
 20
-154.6479247660255
 10
121.3297173090773
 20
-154.7471435160007
 10
121.3297173090773
 20
-154.8842583163137
 10
121.2832085200264
 20
-155.0048366582974
 10
121.1013074784052
 20
-155.0861409117493
 10
120.9066595834886
 20
-155.1743353561717
 10
120.669981523652
 20
-155.1905273049524
 10
120.5070285071996
 20
-155.1905273049524
 10
120.3630235159162
 20
-155.1905273049524
 10
120.1111870359444
 20
-155.1764024134629
 10
119.9124050264455
 20
-155.0861409117493
 10
119.7094889023643
 20
-154.9941568622931
 10
119.6860622530646
 20
-154.8570420619802
 10
119.6860622530646
 20
-154.7471435160007
 10
119.6860622530646
 20
-154.6117512634304
 10
119.7305039848243
 20
-154.4891058641555
 10
119.9124050264455
 20
-154.4081461202521
 10
120.104985864071
 20
-154.323396771315
 10
120.333395694743
 20
-154.3034152175005
 10
120.5070285071996
 20
-154.3034152175005
 10
120.6782497528166
 20
-154.3034152175005
 10
120.9087266407798
 20
-154.3216742235724
 10
121.1013074784052
 20
-154.4081461202521
 97
        0
 97
        0
 92
        1
 93
        1
 72
     4
 94
        3
 73
     0
 74
     1
 95
       17
 96
       13
 40
0.0
 40
0.0
 40
0.0
 40
0.0
 40
1.0
 40
1.0
 40
1.0
 40
2.0
 40
2.0
 40
2.0
 40
3.0
 40
3.0
 40
3.0
 40
4.0
 40
4.0
 40
4.0
 40
4.0
 10
119.8786430906901
 20
-154.7471435160007
 10
119.8786430906901
 20
-154.9597059074407
 10
120.1621744491261
 20
-154.9996690150695
 10
120.5070285071996
 20
-154.9996690150695
 10
120.8263888586823
 20
-154.9996690150695
 10
121.1350694141607
 20
-154.9690076652508
 10
121.1350694141607
 20
-154.7471435160007
 10
121.1350694141607
 20
-154.5359591627549
 10
120.8539496225643
 20
-154.4946180169319
 10
120.5070285071996
 20
-154.4946180169319
 10
120.1873236461685
 20
-154.4946180169319
 10
119.8786430906901
 20
-154.5270019144933
 10
119.8786430906901
 20
-154.7471435160007
 97
        0
 97
        0
 75
     2
 76
     1
 98
        0
  0
POLYLINE
  5
F4
330
ED
100
AcDbEntity
  8
_U+30EC_U+30A4_U+30E4_U+30FC 1
370
     0
100
AcDb2dPolyline
 66
     1
 10
0.0
 20
0.0
 30
0.0
  0
VERTEX
  5
F5
330
F4
100
AcDbEntity
  8
_U+30EC_U+30A4_U+30E4_U+30FC 1
370
     0
100
AcDbVertex
100
AcDb2dVertex
 10
121.2790744054441
 20
-154.1204806472338
 30
0.0
  0
VERTEX
  5
F6
330
F4
100
AcDbEntity
  8
_U+30EC_U+30A4_U+30E4_U+30FC 1
370
     0
100
AcDbVertex
100
AcDb2dVertex
 10
121.0272379254724
 20
-154.1204806472338
 30
0.0
  0
VERTEX
  5
F7
330
F4
100
AcDbEntity
  8
_U+30EC_U+30A4_U+30E4_U+30FC 1
370
     0
100
AcDbVertex
100
AcDb2dVertex
 10
121.0272379254724
 20
-153.9058511985027
 30
0.0
  0
VERTEX
  5
F8
330
F4
100
AcDbEntity
  8
_U+30EC_U+30A4_U+30E4_U+30FC 1
370
     0
100
AcDbVertex
100
AcDb2dVertex
 10
121.2790744054441
 20
-153.9058511985027
 30
0.0
  0
VERTEX
  5
F9
330
F4
100
AcDbEntity
  8
_U+30EC_U+30A4_U+30E4_U+30FC 1
370
     0
100
AcDbVertex
100
AcDb2dVertex
 10
121.2790744054441
 20
-154.1204806472338
 30
0.0
  0
SEQEND
  5
FA
330
F4
100
AcDbEntity
  8
_U+30EC_U+30A4_U+30E4_U+30FC 1
370
     0
  0
HATCH
  5
FB
330
ED
100
AcDbEntity
  8
_U+30EC_U+30A4_U+30E4_U+30FC 1
 62
   179
420
  2234388
100
AcDbHatch
 10
0.0
 20
0.0
 30
0.0
210
0.0
220
0.0
230
1.0
  2
SOLID
 70
     1
 71
     0
 91
        1
 92
        1
 93
        4
 72
     1
 10
121.2790744054441
 20
-154.1204806472338
 11
121.0272379254724
 21
-154.1204806472338
 72
     1
 10
121.0272379254724
 20
-154.1204806472338
 11
121.0272379254724
 21
-153.9058511985027
 72
     1
 10
121.0272379254724
 20
-153.9058511985027
 11
121.2790744054441
 21
-153.9058511985027
 72
     1
 10
121.2790744054441
 20
-153.9058511985027
 11
121.2790744054441
 21
-154.1204806472338
 97
        0
 75
     2
 76
     1
 98
        0
  0
POLYLINE
  5
FC
330
ED
100
AcDbEntity
  8
_U+30EC_U+30A4_U+30E4_U+30FC 1
370
     0
100
AcDb2dPolyline
 66
     1
 10
0.0
 20
0.0
 30
0.0
  0
VERTEX
  5
FD
330
FC
100
AcDbEntity
  8
_U+30EC_U+30A4_U+30E4_U+30FC 1
370
     0
100
AcDbVertex
100
AcDb2dVertex
 10
120.9321532900795
 20
-152.9953124617512
 30
0.0
  0
VERTEX
  5
FE
330
FC
100
AcDbEntity
  8
_U+30EC_U+30A4_U+30E4_U+30FC 1
370
     0
100
AcDbVertex
100
AcDb2dVertex
 10
121.2790744054441
 20
-152.9953124617512
 30
0.0
  0
VERTEX
  5
FF
330
FC
100
AcDbEntity
  8
_U+30EC_U+30A4_U+30E4_U+30FC 1
370
     0
100
AcDbVertex
100
AcDb2dVertex
 10
121.2790744054441
 20
-153.1810031084061
 30
0.0
  0
VERTEX
  5
100
330
FC
100
AcDbEntity
  8
_U+30EC_U+30A4_U+30E4_U+30FC 1
370
     0
100
AcDbVertex
100
AcDb2dVertex
 10
120.9321532900795
 20
-153.1810031084061
 30
0.0
  0
VERTEX
  5
101
330
FC
100
AcDbEntity
  8
_U+30EC_U+30A4_U+30E4_U+30FC 1
370
     0
100
AcDbVertex
100
AcDb2dVertex
 10
120.9321532900795
 20
-153.7401421056622
 30
0.0
  0
VERTEX
  5
102
330
FC
100
AcDbEntity
  8
_U+30EC_U+30A4_U+30E4_U+30FC 1
370
     0
100
AcDbVertex
100
AcDb2dVertex
 10
120.7078775739897
 20
-153.7401421056622
 30
0.0
  0
VERTEX
  5
103
330
FC
100
AcDbEntity
  8
_U+30EC_U+30A4_U+30E4_U+30FC 1
370
     0
100
AcDbVertex
100
AcDb2dVertex
 10
119.7346380994066
 20
-153.1613660641402
 30
0.0
  0
VERTEX
  5
104
330
FC
100
AcDbEntity
  8
_U+30EC_U+30A4_U+30E4_U+30FC 1
370
     0
100
AcDbVertex
100
AcDb2dVertex
 10
119.7346380994066
 20
-152.9953124617512
 30
0.0
  0
VERTEX
  5
105
330
FC
100
AcDbEntity
  8
_U+30EC_U+30A4_U+30E4_U+30FC 1
370
     0
100
AcDbVertex
100
AcDb2dVertex
 10
120.7333712805806
 20
-152.9953124617512
 30
0.0
  0
VERTEX
  5
106
330
FC
100
AcDbEntity
  8
_U+30EC_U+30A4_U+30E4_U+30FC 1
370
     0
100
AcDbVertex
100
AcDb2dVertex
 10
120.7333712805806
 20
-152.8185790633579
 30
0.0
  0
VERTEX
  5
107
330
FC
100
AcDbEntity
  8
_U+30EC_U+30A4_U+30E4_U+30FC 1
370
     0
100
AcDbVertex
100
AcDb2dVertex
 10
120.9321532900795
 20
-152.8185790633579
 30
0.0
  0
VERTEX
  5
108
330
FC
100
AcDbEntity
  8
_U+30EC_U+30A4_U+30E4_U+30FC 1
370
     0
100
AcDbVertex
100
AcDb2dVertex
 10
120.9321532900795
 20
-152.9953124617512
 30
0.0
  0
SEQEND
  5
109
330
FC
100
AcDbEntity
  8
_U+30EC_U+30A4_U+30E4_U+30FC 1
370
     0
  0
POLYLINE
  5
10A
330
ED
100
AcDbEntity
  8
_U+30EC_U+30A4_U+30E4_U+30FC 1
370
     0
100
AcDb2dPolyline
 66
     1
 10
0.0
 20
0.0
 30
0.0
  0
VERTEX
  5
10B
330
10A
100
AcDbEntity
  8
_U+30EC_U+30A4_U+30E4_U+30FC 1
370
     0
100
AcDbVertex
100
AcDb2dVertex
 10
120.077425100189
 20
-153.1810031084061
 30
0.0
  0
VERTEX
  5
10C
330
10A
100
AcDbEntity
  8
_U+30EC_U+30A4_U+30E4_U+30FC 1
370
     0
100
AcDbVertex
100
AcDb2dVertex
 10
120.7333712805806
 20
-153.5706434077879
 30
0.0
  0
VERTEX
  5
10D
330
10A
100
AcDbEntity
  8
_U+30EC_U+30A4_U+30E4_U+30FC 1
370
     0
100
AcDbVertex
100
AcDb2dVertex
 10
120.7333712805806
 20
-153.1810031084061
 30
0.0
  0
VERTEX
  5
10E
330
10A
100
AcDbEntity
  8
_U+30EC_U+30A4_U+30E4_U+30FC 1
370
     0
100
AcDbVertex
100
AcDb2dVertex
 10
120.077425100189
 20
-153.1810031084061
 30
0.0
  0
SEQEND
  5
10F
330
10A
100
AcDbEntity
  8
_U+30EC_U+30A4_U+30E4_U+30FC 1
370
     0
  0
HATCH
  5
110
330
ED
100
AcDbEntity
  8
_U+30EC_U+30A4_U+30E4_U+30FC 1
 62
   179
420
  2234388
100
AcDbHatch
 10
0.0
 20
0.0
 30
0.0
210
0.0
220
0.0
230
1.0
  2
SOLID
 70
     1
 71
     0
 91
        2
 92
        1
 93
       11
 72
     1
 10
120.9321532900795
 20
-152.9953124617512
 11
121.2790744054441
 21
-152.9953124617512
 72
     1
 10
121.2790744054441
 20
-152.9953124617512
 11
121.2790744054441
 21
-153.1810031084061
 72
     1
 10
121.2790744054441
 20
-153.1810031084061
 11
120.9321532900795
 21
-153.1810031084061
 72
     1
 10
120.9321532900795
 20
-153.1810031084061
 11
120.9321532900795
 21
-153.7401421056622
 72
     1
 10
120.9321532900795
 20
-153.7401421056622
 11
120.7078775739897
 21
-153.7401421056622
 72
     1
 10
120.7078775739897
 20
-153.7401421056622
 11
119.7346380994066
 21
-153.1613660641402
 72
     1
 10
119.7346380994066
 20
-153.1613660641402
 11
119.7346380994066
 21
-152.9953124617512
 72
     1
 10
119.7346380994066
 20
-152.9953124617512
 11
120.7333712805806
 21
-152.9953124617512
 72
     1
 10
120.7333712805806
 20
-152.9953124617512
 11
120.7333712805806
 21
-152.8185790633579
 72
     1
 10
120.7333712805806
 20
-152.8185790633579
 11
120.9321532900795
 21
-152.8185790633579
 72
     1
 10
120.9321532900795
 20
-152.8185790633579
 11
120.9321532900795
 21
-152.9953124617512
 97
        0
 92
        1
 93
        3
 72
     1
 10
120.077425100189
 20
-153.1810031084061
 11
120.7333712805806
 21
-153.5706434077879
 72
     1
 10
120.7333712805806
 20
-153.5706434077879
 11
120.7333712805806
 21
-153.1810031084061
 72
     1
 10
120.7333712805806
 20
-153.1810031084061
 11
120.077425100189
 21
-153.1810031084061
 97
        0
 75
     2
 76
     1
 98
        0
  0
ENDBLK
  5
F0
330
ED
100
AcDbEntity
  8
0
100
AcDbBlockEnd
  0
ENDSEC
  0
SECTION
  2
ENTITIES
  0
INSERT
  5
42
330
1F
100
AcDbEntity
  8
_U+30EC_U+30A4_U+30E4_U+30FC 1
100
AcDbBlockReference
  2
block 2
 10
0.0
 20
0.0
 30
0.0
  0
ENDSEC
  0
SECTION
  2
OBJECTS
  0
DICTIONARY
  5
C
330
0
100
AcDbDictionary
281
     1
  3
ACAD_GROUP
350
D
  3
ACAD_LAYOUT
350
1A
  3
ACAD_MATERIAL
350
3B
  3
ACAD_MLEADERSTYLE
350
112
  3
ACAD_MLINESTYLE
350
17
  3
ACAD_PLOTSETTINGS
350
19
  3
ACAD_PLOTSTYLENAME
350
E
  3
ACAD_TABLESTYLE
350
111
  3
ACAD_VISUALSTYLE
350
2A
  0
SUN
  5
3F
330
29
100
AcDbSun
 90
        1
290
     0
 63
     7
421
 16777215
 40
1.0
291
     1
 91
  2455826
 92
 54000000
292
     0
 70
     2
 71
   256
280
     1
  0
DICTIONARY
  5
D
102
{ACAD_REACTORS
330
C
102
}
330
C
100
AcDbDictionary
281
     1
  0
DICTIONARY
  5
1A
102
{ACAD_REACTORS
330
C
102
}
330
C
100
AcDbDictionary
281
     1
  3
Layout1
350
1E
  3
Layout2
350
26
  3
Model
350
22
  0
DICTIONARY
  5
3B
102
{ACAD_REACTORS
330
C
102
}
330
C
100
AcDbDictionary
281
     1
  3
ByBlock
350
3D
  3
ByLayer
350
3C
  3
Global
350
3E
  0
DICTIONARY
  5
112
102
{ACAD_REACTORS
330
C
102
}
330
C
100
AcDbDictionary
281
     1
  0
DICTIONARY
  5
17
102
{ACAD_REACTORS
330
C
102
}
330
C
100
AcDbDictionary
281
     1
  3
Standard
350
18
  0
DICTIONARY
  5
19
102
{ACAD_REACTORS
330
C
102
}
330
C
100
AcDbDictionary
281
     1
  0
ACDBDICTIONARYWDFLT
  5
E
102
{ACAD_REACTORS
330
C
102
}
330
C
100
AcDbDictionary
281
     1
  3
Normal
350
F
100
AcDbDictionaryWithDefault
340
F
  0
DICTIONARY
  5
111
102
{ACAD_REACTORS
330
C
102
}
330
C
100
AcDbDictionary
281
     1
  0
DICTIONARY
  5
2A
102
{ACAD_REACTORS
330
C
102
}
330
C
100
AcDbDictionary
281
     1
  3
2dWireframe
350
2F
  3
3D Hidden
350
31
  3
3dWireframe
350
30
  3
Basic
350
32
  3
Brighten
350
36
  3
ColorChange
350
3A
  3
Conceptual
350
34
  3
Dim
350
35
  3
Facepattern
350
39
  3
Flat
350
2B
  3
FlatWithEdges
350
2C
  3
Gouraud
350
2D
  3
GouraudWithEdges
350
2E
  3
Linepattern
350
38
  3
Realistic
350
33
  3
Thicken
350
37
  0
LAYOUT
  5
1E
102
{ACAD_REACTORS
330
1A
102
}
330
1A
100
AcDbPlotSettings
  1

  2
none_device
  4

  6

 40
0.0
 41
0.0
 42
0.0
 43
0.0
 44
0.0
 45
0.0
 46
0.0
 47
0.0
 48
0.0
 49
0.0
140
0.0
141
0.0
142
1.0
143
1.0
 70
   688
 72
     0
 73
     0
 74
     5
  7

 75
    16
 76
     0
 77
     2
 78
   300
147
1.0
148
0.0
149
0.0
100
AcDbLayout
  1
Layout1
 70
     1
 71
     1
 10
0.0
 20
0.0
 11
12.0
 21
9.0
 12
0.0
 22
0.0
 32
0.0
 14
1.000000000000000E+20
 24
1.000000000000000E+20
 34
1.000000000000000E+20
 15
-1.000000000000000E+20
 25
-1.000000000000000E+20
 35
-1.000000000000000E+20
146
0.0
 13
0.0
 23
0.0
 33
0.0
 16
1.0
 26
0.0
 36
0.0
 17
0.0
 27
1.0
 37
0.0
 76
     0
330
1B
  0
LAYOUT
  5
26
102
{ACAD_REACTORS
330
1A
102
}
330
1A
100
AcDbPlotSettings
  1

  2
none_device
  4

  6

 40
0.0
 41
0.0
 42
0.0
 43
0.0
 44
0.0
 45
0.0
 46
0.0
 47
0.0
 48
0.0
 49
0.0
140
0.0
141
0.0
142
1.0
143
1.0
 70
   688
 72
     0
 73
     0
 74
     5
  7

 75
    16
 76
     0
 77
     2
 78
   300
147
1.0
148
0.0
149
0.0
100
AcDbLayout
  1
Layout2
 70
     1
 71
     2
 10
0.0
 20
0.0
 11
0.0
 21
0.0
 12
0.0
 22
0.0
 32
0.0
 14
0.0
 24
0.0
 34
0.0
 15
0.0
 25
0.0
 35
0.0
146
0.0
 13
0.0
 23
0.0
 33
0.0
 16
1.0
 26
0.0
 36
0.0
 17
0.0
 27
1.0
 37
0.0
 76
     0
330
23
  0
LAYOUT
  5
22
102
{ACAD_REACTORS
330
1A
102
}
330
1A
100
AcDbPlotSettings
  1

  2
none_device
  4

  6

 40
0.0
 41
0.0
 42
0.0
 43
0.0
 44
0.0
 45
0.0
 46
0.0
 47
0.0
 48
0.0
 49
0.0
140
0.0
141
0.0
142
1.0
143
1.0
 70
  1712
 72
     0
 73
     0
 74
     0
  7

 75
     0
 76
     0
 77
     2
 78
   300
147
1.0
148
0.0
149
0.0
100
AcDbLayout
  1
Model
 70
     1
 71
     0
 10
0.0
 20
0.0
 11
12.0
 21
9.0
 12
0.0
 22
0.0
 32
0.0
 14
1.000000000000000E+20
 24
1.000000000000000E+20
 34
1.000000000000000E+20
 15
-1.000000000000000E+20
 25
-1.000000000000000E+20
 35
-1.000000000000000E+20
146
0.0
 13
0.0
 23
0.0
 33
0.0
 16
1.0
 26
0.0
 36
0.0
 17
0.0
 27
1.0
 37
0.0
 76
     0
330
1F
331
29
  0
MATERIAL
  5
3D
102
{ACAD_REACTORS
330
3B
102
}
330
3B
100
AcDbMaterial
  1
ByBlock
 72
     1
 94
      127
  0
MATERIAL
  5
3C
102
{ACAD_REACTORS
330
3B
102
}
330
3B
100
AcDbMaterial
  1
ByLayer
 72
     1
 94
      127
  0
MATERIAL
  5
3E
102
{ACAD_REACTORS
330
3B
102
}
330
3B
100
AcDbMaterial
  1
Global
 72
     1
 94
      127
  0
MLINESTYLE
  5
18
102
{ACAD_REACTORS
330
17
102
}
330
17
100
AcDbMlineStyle
  2
Standard
 70
     0
  3

 62
   256
 51
90.0
 52
90.0
 71
     2
 49
0.5
 62
   256
  6
BYLAYER
 49
-0.5
 62
   256
  6
BYLAYER
  0
ACDBPLACEHOLDER
  5
F
102
{ACAD_REACTORS
330
E
102
}
330
E
  0
VISUALSTYLE
  5
2F
102
{ACAD_REACTORS
330
2A
102
}
330
2A
100
AcDbVisualStyle
  2
2dWireframe
 70
     4
177
     2
291
     0
 71
     0
176
     1
 72
     2
176
     1
 73
     0
176
     1
 90
        0
176
     1
 40
-0.6
176
     1
 41
-30.0
176
     1
 62
     5
 63
     7
421
 16777215
176
     1
 74
     1
176
     1
 91
        4
176
     1
 64
     7
176
     1
 65
   257
176
     1
 75
     1
176
     1
175
     1
176
     1
 42
1.0
176
     1
 92
        0
176
     1
 66
   257
176
     1
 43
1.0
176
     1
 76
     1
176
     1
 77
     6
176
     1
 78
     2
176
     1
 67
     7
176
     1
 79
     5
176
     1
170
     0
176
     1
171
     0
176
     1
290
     0
176
     1
 93
        1
176
     1
 44
0.0
176
     1
173
     0
176
     1
  0
VISUALSTYLE
  5
31
102
{ACAD_REACTORS
330
2A
102
}
330
2A
100
AcDbVisualStyle
  2
3D Hidden
 70
     6
177
     2
291
     0
 71
     1
176
     1
 72
     2
176
     1
 73
     2
176
     1
 90
        0
176
     1
 40
-0.6
176
     1
 41
-30.0
176
     1
 62
     5
 63
     7
421
 16777215
176
     1
 74
     2
176
     1
 91
        2
176
     1
 64
     7
176
     1
 65
   257
176
     1
 75
     2
176
     1
175
     1
176
     1
 42
40.0
176
     1
 92
        0
176
     1
 66
   257
176
     1
 43
1.0
176
     1
 76
     1
176
     1
 77
     6
176
     1
 78
     2
176
     1
 67
     7
176
     1
 79
     3
176
     1
170
     0
176
     1
171
     0
176
     1
290
     0
176
     1
 93
        1
176
     1
 44
0.0
176
     1
173
     0
176
     1
  0
VISUALSTYLE
  5
30
102
{ACAD_REACTORS
330
2A
102
}
330
2A
100
AcDbVisualStyle
  2
3dWireframe
 70
     5
177
     2
291
     0
 71
     0
176
     1
 72
     2
176
     1
 73
     0
176
     1
 90
        0
176
     1
 40
-0.6
176
     1
 41
-30.0
176
     1
 62
     5
 63
     7
421
 16777215
176
     1
 74
     1
176
     1
 91
        4
176
     1
 64
     7
176
     1
 65
   257
176
     1
 75
     1
176
     1
175
     1
176
     1
 42
1.0
176
     1
 92
        0
176
     1
 66
   257
176
     1
 43
1.0
176
     1
 76
     1
176
     1
 77
     6
176
     1
 78
     2
176
     1
 67
     7
176
     1
 79
     5
176
     1
170
     0
176
     1
171
     0
176
     1
290
     0
176
     1
 93
        1
176
     1
 44
0.0
176
     1
173
     0
176
     1
  0
VISUALSTYLE
  5
32
102
{ACAD_REACTORS
330
2A
102
}
330
2A
100
AcDbVisualStyle
  2
Basic
 70
     7
177
     2
291
     1
 71
     1
176
     1
 72
     0
176
     1
 73
     1
176
     1
 90
        0
176
     1
 40
-0.6
176
     1
 41
-30.0
176
     1
 62
     5
 63
     7
421
 16777215
176
     1
 74
     0
176
     1
 91
        4
176
     1
 64
     7
176
     1
 65
   257
176
     1
 75
     1
176
     1
175
     1
176
     1
 42
1.0
176
     1
 92
        8
176
     1
 66
     7
176
     1
 43
1.0
176
     1
 76
     1
176
     1
 77
     6
176
     1
 78
     2
176
     1
 67
     7
176
     1
 79
     5
176
     1
170
     0
176
     1
171
     0
176
     1
290
     0
176
     1
 93
        1
176
     1
 44
0.0
176
     1
173
     0
176
     1
  0
VISUALSTYLE
  5
36
102
{ACAD_REACTORS
330
2A
102
}
330
2A
100
AcDbVisualStyle
  2
Brighten
 70
    12
177
     2
291
     1
 71
     2
176
     1
 72
     2
176
     1
 73
     0
176
     1
 90
        0
176
     1
 40
-0.6
176
     1
 41
-30.0
176
     1
 62
     5
 63
     7
421
 16777215
176
     1
 74
     1
176
     1
 91
        4
176
     1
 64
     7
176
     1
 65
   257
176
     1
 75
     1
176
     1
175
     1
176
     1
 42
1.0
176
     1
 92
        8
176
     1
 66
     7
176
     1
 43
1.0
176
     1
 76
     1
176
     1
 77
     6
176
     1
 78
     2
176
     1
 67
     7
176
     1
 79
     5
176
     1
170
     0
176
     1
171
     0
176
     1
290
     0
176
     1
 93
        1
176
     1
 44
50.0
176
     1
173
     0
176
     1
  0
VISUALSTYLE
  5
3A
102
{ACAD_REACTORS
330
2A
102
}
330
2A
100
AcDbVisualStyle
  2
ColorChange
 70
    16
177
     2
291
     1
 71
     2
176
     1
 72
     2
176
     1
 73
     3
176
     1
 90
        0
176
     1
 40
-0.6
176
     1
 41
-30.0
176
     1
 62
     5
 63
     8
421
  8421504
176
     1
 74
     1
176
     1
 91
        4
176
     1
 64
     7
176
     1
 65
   257
176
     1
 75
     1
176
     1
175
     1
176
     1
 42
1.0
176
     1
 92
        8
176
     1
 66
     8
424
  8421504
176
     1
 43
1.0
176
     1
 76
     1
176
     1
 77
     6
176
     1
 78
     2
176
     1
 67
     7
176
     1
 79
     5
176
     1
170
     0
176
     1
171
     0
176
     1
290
     0
176
     1
 93
        1
176
     1
 44
0.0
176
     1
173
     0
176
     1
  0
VISUALSTYLE
  5
34
102
{ACAD_REACTORS
330
2A
102
}
330
2A
100
AcDbVisualStyle
  2
Conceptual
 70
     9
177
     2
291
     0
 71
     3
176
     1
 72
     2
176
     1
 73
     0
176
     1
 90
        0
176
     1
 40
-0.6
176
     1
 41
-30.0
176
     1
 62
     5
 63
     7
421
 16777215
176
     1
 74
     2
176
     1
 91
        2
176
     1
 64
     7
176
     1
 65
   257
176
     1
 75
     1
176
     1
175
     1
176
     1
 42
40.0
176
     1
 92
        8
176
     1
 66
     7
176
     1
 43
1.0
176
     1
 76
     1
176
     1
 77
     6
176
     1
 78
     2
176
     1
 67
     7
176
     1
 79
     3
176
     1
170
     0
176
     1
171
     0
176
     1
290
     0
176
     1
 93
        1
176
     1
 44
0.0
176
     1
173
     0
176
     1
  0
VISUALSTYLE
  5
35
102
{ACAD_REACTORS
330
2A
102
}
330
2A
100
AcDbVisualStyle
  2
Dim
 70
    11
177
     2
291
     1
 71
     2
176
     1
 72
     2
176
     1
 73
     0
176
     1
 90
        0
176
     1
 40
-0.6
176
     1
 41
-30.0
176
     1
 62
     5
 63
     7
421
 16777215
176
     1
 74
     1
176
     1
 91
        4
176
     1
 64
     7
176
     1
 65
   257
176
     1
 75
     1
176
     1
175
     1
176
     1
 42
1.0
176
     1
 92
        8
176
     1
 66
     7
176
     1
 43
1.0
176
     1
 76
     1
176
     1
 77
     6
176
     1
 78
     2
176
     1
 67
     7
176
     1
 79
     5
176
     1
170
     0
176
     1
171
     0
176
     1
290
     0
176
     1
 93
        1
176
     1
 44
-50.0
176
     1
173
     0
176
     1
  0
VISUALSTYLE
  5
39
102
{ACAD_REACTORS
330
2A
102
}
330
2A
100
AcDbVisualStyle
  2
Facepattern
 70
    15
177
     2
291
     1
 71
     2
176
     1
 72
     2
176
     1
 73
     0
176
     1
 90
        0
176
     1
 40
-0.6
176
     1
 41
-30.0
176
     1
 62
     5
 63
     7
421
 16777215
176
     1
 74
     1
176
     1
 91
        4
176
     1
 64
     7
176
     1
 65
   257
176
     1
 75
     1
176
     1
175
     1
176
     1
 42
1.0
176
     1
 92
        8
176
     1
 66
     7
176
     1
 43
1.0
176
     1
 76
     1
176
     1
 77
     6
176
     1
 78
     2
176
     1
 67
     7
176
     1
 79
     5
176
     1
170
     0
176
     1
171
     0
176
     1
290
     0
176
     1
 93
        1
176
     1
 44
0.0
176
     1
173
     0
176
     1
  0
VISUALSTYLE
  5
2B
102
{ACAD_REACTORS
330
2A
102
}
330
2A
100
AcDbVisualStyle
  2
Flat
 70
     0
177
     2
291
     1
 71
     2
176
     1
 72
     1
176
     1
 73
     1
176
     1
 90
        2
176
     1
 40
-0.6
176
     1
 41
30.0
176
     1
 62
     5
 63
     7
421
 16777215
176
     1
 74
     0
176
     1
 91
        4
176
     1
 64
     7
176
     1
 65
   257
176
     1
 75
     1
176
     1
175
     1
176
     1
 42
1.0
176
     1
 92
        8
176
     1
 66
     7
176
     1
 43
1.0
176
     1
 76
     1
176
     1
 77
     6
176
     1
 78
     2
176
     1
 67
     7
176
     1
 79
     5
176
     1
170
     0
176
     1
171
     0
176
     1
290
     0
176
     1
 93
       13
176
     1
 44
0.0
176
     1
173
     0
176
     1
  0
VISUALSTYLE
  5
2C
102
{ACAD_REACTORS
330
2A
102
}
330
2A
100
AcDbVisualStyle
  2
FlatWithEdges
 70
     1
177
     2
291
     1
 71
     2
176
     1
 72
     1
176
     1
 73
     1
176
     1
 90
        2
176
     1
 40
-0.6
176
     1
 41
30.0
176
     1
 62
     5
 63
     7
421
 16777215
176
     1
 74
     1
176
     1
 91
        4
176
     1
 64
     7
176
     1
 65
   257
176
     1
 75
     1
176
     1
175
     1
176
     1
 42
1.0
176
     1
 92
        0
176
     1
 66
   257
176
     1
 43
1.0
176
     1
 76
     1
176
     1
 77
     6
176
     1
 78
     2
176
     1
 67
     7
176
     1
 79
     5
176
     1
170
     0
176
     1
171
     0
176
     1
290
     0
176
     1
 93
       13
176
     1
 44
0.0
176
     1
173
     0
176
     1
  0
VISUALSTYLE
  5
2D
102
{ACAD_REACTORS
330
2A
102
}
330
2A
100
AcDbVisualStyle
  2
Gouraud
 70
     2
177
     2
291
     1
 71
     2
176
     1
 72
     2
176
     1
 73
     1
176
     1
 90
        2
176
     1
 40
-0.6
176
     1
 41
30.0
176
     1
 62
     5
 63
     7
421
 16777215
176
     1
 74
     0
176
     1
 91
        4
176
     1
 64
     7
176
     1
 65
   257
176
     1
 75
     1
176
     1
175
     1
176
     1
 42
1.0
176
     1
 92
        0
176
     1
 66
     7
176
     1
 43
1.0
176
     1
 76
     1
176
     1
 77
     6
176
     1
 78
     2
176
     1
 67
     7
176
     1
 79
     5
176
     1
170
     0
176
     1
171
     0
176
     1
290
     0
176
     1
 93
       13
176
     1
 44
0.0
176
     1
173
     0
176
     1
  0
VISUALSTYLE
  5
2E
102
{ACAD_REACTORS
330
2A
102
}
330
2A
100
AcDbVisualStyle
  2
GouraudWithEdges
 70
     3
177
     2
291
     1
 71
     2
176
     1
 72
     2
176
     1
 73
     1
176
     1
 90
        2
176
     1
 40
-0.6
176
     1
 41
30.0
176
     1
 62
     5
 63
     7
421
 16777215
176
     1
 74
     1
176
     1
 91
        4
176
     1
 64
     7
176
     1
 65
   257
176
     1
 75
     1
176
     1
175
     1
176
     1
 42
1.0
176
     1
 92
        0
176
     1
 66
   257
176
     1
 43
1.0
176
     1
 76
     1
176
     1
 77
     6
176
     1
 78
     2
176
     1
 67
     7
176
     1
 79
     5
176
     1
170
     0
176
     1
171
     0
176
     1
290
     0
176
     1
 93
       13
176
     1
 44
0.0
176
     1
173
     0
176
     1
  0
VISUALSTYLE
  5
38
102
{ACAD_REACTORS
330
2A
102
}
330
2A
100
AcDbVisualStyle
  2
Linepattern
 70
    14
177
     2
291
     1
 71
     2
176
     1
 72
     2
176
     1
 73
     0
176
     1
 90
        0
176
     1
 40
-0.6
176
     1
 41
-30.0
176
     1
 62
     5
 63
     7
421
 16777215
176
     1
 74
     1
176
     1
 91
        4
176
     1
 64
     7
176
     1
 65
   257
176
     1
 75
     7
176
     1
175
     7
176
     1
 42
1.0
176
     1
 92
        8
176
     1
 66
     7
176
     1
 43
1.0
176
     1
 76
     1
176
     1
 77
     6
176
     1
 78
     2
176
     1
 67
     7
176
     1
 79
     5
176
     1
170
     0
176
     1
171
     0
176
     1
290
     0
176
     1
 93
        1
176
     1
 44
0.0
176
     1
173
     0
176
     1
  0
VISUALSTYLE
  5
33
102
{ACAD_REACTORS
330
2A
102
}
330
2A
100
AcDbVisualStyle
  2
Realistic
 70
     8
177
     2
291
     0
 71
     2
176
     1
 72
     2
176
     1
 73
     0
176
     1
 90
        0
176
     1
 40
-0.6
176
     1
 41
-30.0
176
     1
 62
     5
 63
     7
421
 16777215
176
     1
 74
     1
176
     1
 91
        0
176
     1
 64
     7
176
     1
 65
   257
176
     1
 75
     1
176
     1
175
     1
176
     1
 42
1.0
176
     1
 92
        8
176
     1
 66
     8
424
  7895160
176
     1
 43
1.0
176
     1
 76
     1
176
     1
 77
     6
176
     1
 78
     2
176
     1
 67
     7
176
     1
 79
     5
176
     1
170
     0
176
     1
171
     0
176
     1
290
     0
176
     1
 93
       13
176
     1
 44
0.0
176
     1
173
     0
176
     1
  0
VISUALSTYLE
  5
37
102
{ACAD_REACTORS
330
2A
102
}
330
2A
100
AcDbVisualStyle
  2
Thicken
 70
    13
177
     2
291
     1
 71
     2
176
     1
 72
     2
176
     1
 73
     0
176
     1
 90
        0
176
     1
 40
-0.6
176
     1
 41
-30.0
176
     1
 62
     5
 63
     7
421
 16777215
176
     1
 74
     1
176
     1
 91
        4
176
     1
 64
     7
176
     1
 65
   257
176
     1
 75
     1
176
     1
175
     1
176
     1
 42
1.0
176
     1
 92
       12
176
     1
 66
     7
176
     1
 43
1.0
176
     1
 76
     1
176
     1
 77
     6
176
     1
 78
     2
176
     1
 67
     7
176
     1
 79
     5
176
     1
170
     0
176
     1
171
     0
176
     1
290
     0
176
     1
 93
        1
176
     1
 44
0.0
176
     1
173
     0
176
     1
  0
ENDSEC
  0
EOF
