  0
SECTION
  2
HEADER
  9
$ACADVER
  1
AC1024
  9
$ACADMAINTVER
 70
   226
  9
$DWGCODEPAGE
  3
ANSI_932
  9
$INSBASE
 10
0.0
 20
0.0
 30
0.0
  9
$EXTMIN
 10
1.000000000000000E+20
 20
1.000000000000000E+20
 30
1.000000000000000E+20
  9
$EXTMAX
 10
-1.000000000000000E+20
 20
-1.000000000000000E+20
 30
-1.000000000000000E+20
  9
$LIMMIN
 10
0.0
 20
0.0
  9
$LIMMAX
 10
12.0
 20
9.0
  9
$ORTHOMODE
 70
     0
  9
$REGENMODE
 70
     1
  9
$FILLMODE
 70
     1
  9
$QTEXTMODE
 70
     0
  9
$MIRRTEXT
 70
     0
  9
$LTSCALE
 40
1.0
  9
$ATTMODE
 70
     1
  9
$TEXTSIZE
 40
0.2
  9
$TRACEWID
 40
0.05
  9
$TEXTSTYLE
  7
Standard
  9
$CLAYER
  8
0
  9
$CELTYPE
  6
ByLayer
  9
$CECOLOR
 62
   256
  9
$CELTSCALE
 40
1.0
  9
$DISPSILH
 70
     0
  9
$DIMSCALE
 40
1.0
  9
$DIMASZ
 40
0.18
  9
$DIMEXO
 40
0.0625
  9
$DIMDLI
 40
0.38
  9
$DIMRND
 40
0.0
  9
$DIMDLE
 40
0.0
  9
$DIMEXE
 40
0.18
  9
$DIMTP
 40
0.0
  9
$DIMTM
 40
0.0
  9
$DIMTXT
 40
0.18
  9
$DIMCEN
 40
0.09
  9
$DIMTSZ
 40
0.0
  9
$DIMTOL
 70
     0
  9
$DIMLIM
 70
     0
  9
$DIMTIH
 70
     1
  9
$DIMTOH
 70
     1
  9
$DIMSE1
 70
     0
  9
$DIMSE2
 70
     0
  9
$DIMTAD
 70
     0
  9
$DIMZIN
 70
     0
  9
$DIMBLK
  1

  9
$DIMASO
 70
     1
  9
$DIMSHO
 70
     1
  9
$DIMPOST
  1

  9
$DIMAPOST
  1

  9
$DIMALT
 70
     0
  9
$DIMALTD
 70
     2
  9
$DIMALTF
 40
25.4
  9
$DIMLFAC
 40
1.0
  9
$DIMTOFL
 70
     0
  9
$DIMTVP
 40
0.0
  9
$DIMTIX
 70
     0
  9
$DIMSOXD
 70
     0
  9
$DIMSAH
 70
     0
  9
$DIMBLK1
  1

  9
$DIMBLK2
  1

  9
$DIMSTYLE
  2
Standard
  9
$DIMCLRD
 70
     0
  9
$DIMCLRE
 70
     0
  9
$DIMCLRT
 70
     0
  9
$DIMTFAC
 40
1.0
  9
$DIMGAP
 40
0.09
  9
$DIMJUST
 70
     0
  9
$DIMSD1
 70
     0
  9
$DIMSD2
 70
     0
  9
$DIMTOLJ
 70
     1
  9
$DIMTZIN
 70
     0
  9
$DIMALTZ
 70
     0
  9
$DIMALTTZ
 70
     0
  9
$DIMUPT
 70
     0
  9
$DIMDEC
 70
     4
  9
$DIMTDEC
 70
     4
  9
$DIMALTU
 70
     2
  9
$DIMALTTD
 70
     2
  9
$DIMTXSTY
  7
Standard
  9
$DIMAUNIT
 70
     0
  9
$DIMADEC
 70
     0
  9
$DIMALTRND
 40
0.0
  9
$DIMAZIN
 70
     0
  9
$DIMDSEP
 70
    46
  9
$DIMATFIT
 70
     3
  9
$DIMFRAC
 70
     0
  9
$DIMLDRBLK
  1

  9
$DIMLUNIT
 70
     2
  9
$DIMLWD
 70
    -2
  9
$DIMLWE
 70
    -2
  9
$DIMTMOVE
 70
     0
  9
$DIMFXL
 40
1.0
  9
$DIMFXLON
 70
     0
  9
$DIMJOGANG
 40
0.7853981633974483
  9
$DIMTFILL
 70
     0
  9
$DIMTFILLCLR
 70
     0
  9
$DIMARCSYM
 70
     0
  9
$DIMLTYPE
  6

  9
$DIMLTEX1
  6

  9
$DIMLTEX2
  6

  9
$DIMTXTDIRECTION
 70
     0
  9
$LUNITS
 70
     2
  9
$LUPREC
 70
     4
  9
$SKETCHINC
 40
0.1
  9
$FILLETRAD
 40
0.0
  9
$AUNITS
 70
     0
  9
$AUPREC
 70
     0
  9
$MENU
  1
.
  9
$ELEVATION
 40
0.0
  9
$PELEVATION
 40
0.0
  9
$THICKNESS
 40
0.0
  9
$LIMCHECK
 70
     0
  9
$CHAMFERA
 40
0.0
  9
$CHAMFERB
 40
0.0
  9
$CHAMFERC
 40
0.0
  9
$CHAMFERD
 40
0.0
  9
$SKPOLY
 70
     0
  9
$TDCREATE
 40
2459676.430381944
  9
$TDUCREATE
 40
2459676.055381944
  9
$TDUPDATE
 40
2459676.430381944
  9
$TDUUPDATE
 40
2459676.055381944
  9
$TDINDWG
 40
0.0000000000
  9
$TDUSRTIMER
 40
0.0000000000
  9
$USRTIMER
 70
     1
  9
$ANGBASE
 50
0.0
  9
$ANGDIR
 70
     0
  9
$PDMODE
 70
     0
  9
$PDSIZE
 40
0.0
  9
$PLINEWID
 40
0.0
  9
$SPLFRAME
 70
     0
  9
$SPLINETYPE
 70
     6
  9
$SPLINESEGS
 70
     8
  9
$HANDSEED
  5
13B
  9
$SURFTAB1
 70
     6
  9
$SURFTAB2
 70
     6
  9
$SURFTYPE
 70
     6
  9
$SURFU
 70
     6
  9
$SURFV
 70
     6
  9
$UCSBASE
  2

  9
$UCSNAME
  2

  9
$UCSORG
 10
0.0
 20
0.0
 30
0.0
  9
$UCSXDIR
 10
1.0
 20
0.0
 30
0.0
  9
$UCSYDIR
 10
0.0
 20
1.0
 30
0.0
  9
$UCSORTHOREF
  2

  9
$UCSORTHOVIEW
 70
     0
  9
$UCSORGTOP
 10
0.0
 20
0.0
 30
0.0
  9
$UCSORGBOTTOM
 10
0.0
 20
0.0
 30
0.0
  9
$UCSORGLEFT
 10
0.0
 20
0.0
 30
0.0
  9
$UCSORGRIGHT
 10
0.0
 20
0.0
 30
0.0
  9
$UCSORGFRONT
 10
0.0
 20
0.0
 30
0.0
  9
$UCSORGBACK
 10
0.0
 20
0.0
 30
0.0
  9
$PUCSBASE
  2

  9
$PUCSNAME
  2

  9
$PUCSORG
 10
0.0
 20
0.0
 30
0.0
  9
$PUCSXDIR
 10
1.0
 20
0.0
 30
0.0
  9
$PUCSYDIR
 10
0.0
 20
1.0
 30
0.0
  9
$PUCSORTHOREF
  2

  9
$PUCSORTHOVIEW
 70
     0
  9
$PUCSORGTOP
 10
0.0
 20
0.0
 30
0.0
  9
$PUCSORGBOTTOM
 10
0.0
 20
0.0
 30
0.0
  9
$PUCSORGLEFT
 10
0.0
 20
0.0
 30
0.0
  9
$PUCSORGRIGHT
 10
0.0
 20
0.0
 30
0.0
  9
$PUCSORGFRONT
 10
0.0
 20
0.0
 30
0.0
  9
$PUCSORGBACK
 10
0.0
 20
0.0
 30
0.0
  9
$USERI1
 70
     0
  9
$USERI2
 70
     0
  9
$USERI3
 70
     0
  9
$USERI4
 70
     0
  9
$USERI5
 70
     0
  9
$USERR1
 40
0.0
  9
$USERR2
 40
0.0
  9
$USERR3
 40
0.0
  9
$USERR4
 40
0.0
  9
$USERR5
 40
0.0
  9
$WORLDVIEW
 70
     1
  9
$SHADEDGE
 70
     3
  9
$SHADEDIF
 70
    70
  9
$TILEMODE
 70
     1
  9
$MAXACTVP
 70
    64
  9
$PINSBASE
 10
0.0
 20
0.0
 30
0.0
  9
$PLIMCHECK
 70
     0
  9
$PEXTMIN
 10
1.000000000000000E+20
 20
1.000000000000000E+20
 30
1.000000000000000E+20
  9
$PEXTMAX
 10
-1.000000000000000E+20
 20
-1.000000000000000E+20
 30
-1.000000000000000E+20
  9
$PLIMMIN
 10
0.0
 20
0.0
  9
$PLIMMAX
 10
12.0
 20
9.0
  9
$UNITMODE
 70
     0
  9
$VISRETAIN
 70
     1
  9
$PLINEGEN
 70
     0
  9
$PSLTSCALE
 70
     1
  9
$TREEDEPTH
 70
  3020
  9
$CMLSTYLE
  2
Standard
  9
$CMLJUST
 70
     0
  9
$CMLSCALE
 40
1.0
  9
$PROXYGRAPHICS
 70
     1
  9
$MEASUREMENT
 70
     0
  9
$CELWEIGHT
370
    -1
  9
$ENDCAPS
280
     0
  9
$JOINSTYLE
280
     0
  9
$LWDISPLAY
290
     1
  9
$INSUNITS
 70
     4
  9
$HYPERLINKBASE
  1

  9
$STYLESHEET
  1

  9
$XEDIT
290
     1
  9
$CEPSNTYPE
380
     0
  9
$PSTYLEMODE
290
     1
  9
$FINGERPRINTGUID
  2
{2DEB995B-0E1C-A34B-A1D0-3BE501B1F718}
  9
$VERSIONGUID
  2
{737D6FD9-C7D4-1C48-99AF-B8716CBF4DA9}
  9
$EXTNAMES
290
     1
  9
$PSVPSCALE
 40
0.0
  9
$OLESTARTUP
290
     0
  9
$SORTENTS
280
   127
  9
$INDEXCTL
280
     0
  9
$HIDETEXT
280
     1
  9
$XCLIPFRAME
280
     2
  9
$HALOGAP
280
     0
  9
$OBSCOLOR
 70
   257
  9
$OBSLTYPE
280
     0
  9
$INTERSECTIONDISPLAY
280
     0
  9
$INTERSECTIONCOLOR
 70
   257
  9
$DIMASSOC
280
     2
  9
$PROJECTNAME
  1

  9
$CAMERADISPLAY
290
     0
  9
$LENSLENGTH
 40
50.0
  9
$CAMERAHEIGHT
 40
0.0
  9
$STEPSPERSEC
 40
2.0
  9
$STEPSIZE
 40
6.0
  9
$3DDWFPREC
 40
2.0
  9
$PSOLWIDTH
 40
0.25
  9
$PSOLHEIGHT
 40
4.0
  9
$LOFTANG1
 40
1.570796326794896
  9
$LOFTANG2
 40
1.570796326794896
  9
$LOFTMAG1
 40
0.0
  9
$LOFTMAG2
 40
0.0
  9
$LOFTPARAM
 70
     7
  9
$LOFTNORMALS
280
     1
  9
$LATITUDE
 40
37.795
  9
$LONGITUDE
 40
-122.394
  9
$NORTHDIRECTION
 40
0.0
  9
$TIMEZONE
 70
 -8000
  9
$LIGHTGLYPHDISPLAY
280
     1
  9
$TILEMODELIGHTSYNCH
280
     1
  9
$CMATERIAL
347
11
  9
$SOLIDHIST
280
     0
  9
$SHOWHIST
280
     1
  9
$DWFFRAME
280
     2
  9
$DGNFRAME
280
     0
  9
$REALWORLDSCALE
290
     1
  9
$INTERFERECOLOR
 62
     1
  9
$INTERFEREOBJVS
345
33
  9
$INTERFEREVPVS
346
30
  9
$CSHADOW
280
     0
  9
$SHADOWPLANELOCATION
 40
0.0
  0
ENDSEC
  0
SECTION
  2
CLASSES
  0
CLASS
  1
ACDBDICTIONARYWDFLT
  2
AcDbDictionaryWithDefault
  3
ObjectDBX Classes
 90
        0
 91
        1
280
     0
281
     0
  0
CLASS
  1
MATERIAL
  2
AcDbMaterial
  3
ObjectDBX Classes
 90
     1153
 91
        3
280
     0
281
     0
  0
CLASS
  1
VISUALSTYLE
  2
AcDbVisualStyle
  3
ObjectDBX Classes
 90
     4095
 91
       24
280
     0
281
     0
  0
CLASS
  1
SCALE
  2
AcDbScale
  3
ObjectDBX Classes
 90
     1153
 91
       17
280
     0
281
     0
  0
CLASS
  1
TABLESTYLE
  2
AcDbTableStyle
  3
ObjectDBX Classes
 90
     4095
 91
        1
280
     0
281
     0
  0
CLASS
  1
MLEADERSTYLE
  2
AcDbMLeaderStyle
  3
ACDB_MLEADERSTYLE_CLASS
 90
     4095
 91
        1
280
     0
281
     0
  0
CLASS
  1
ACDBSECTIONVIEWSTYLE
  2
AcDbSectionViewStyle
  3
ObjectDBX Classes
 90
     1025
 91
        1
280
     0
281
     0
  0
CLASS
  1
ACDBDETAILVIEWSTYLE
  2
AcDbDetailViewStyle
  3
ObjectDBX Classes
 90
     1025
 91
        1
280
     0
281
     0
  0
CLASS
  1
DICTIONARYVAR
  2
AcDbDictionaryVar
  3
ObjectDBX Classes
 90
        0
 91
        5
280
     0
281
     0
  0
CLASS
  1
CELLSTYLEMAP
  2
AcDbCellStyleMap
  3
ObjectDBX Classes
 90
     1152
 91
        1
280
     0
281
     0
  0
ENDSEC
  0
SECTION
  2
TABLES
  0
TABLE
  2
VPORT
  5
8
330
0
100
AcDbSymbolTable
 70
     1
  0
VPORT
  5
57
330
8
100
AcDbSymbolTableRecord
100
AcDbViewportTableRecord
  2
*Active
 70
     0
 10
0.0
 20
0.0
 11
1.0
 21
1.0
 12
0.0
 22
0.0
 13
0.0
 23
0.0
 14
1.0
 24
1.0
 15
0.0
 25
0.0
 16
0.0
 26
0.0
 36
1.0
 17
104.9999999737534
 27
-148.4999999628701
 37
0.0
 40
302.939999924255
 41
0.7070707070707534
 42
50.0
 43
0.0
 44
0.0
 50
0.0
 51
0.0
 71
     0
 72
   100
 73
     1
 74
     0
 75
     1
 76
     0
 77
     0
 78
     0
281
     0
 65
     1
110
0.0
120
0.0
130
0.0
111
1.0
121
0.0
131
0.0
112
0.0
122
1.0
132
0.0
 79
     0
146
0.0
 60
     3
 61
     5
292
     1
282
     1
141
0.0
142
0.0
 63
   250
421
  3355443
  0
ENDTAB
  0
TABLE
  2
LTYPE
  5
5
330
0
100
AcDbSymbolTable
 70
     2
  0
LTYPE
  5
5B
330
5
100
AcDbSymbolTableRecord
100
AcDbLinetypeTableRecord
  2
ByBlock
 70
     0
  3

 72
    65
 73
     0
 40
0.0
  0
LTYPE
  5
5C
330
5
100
AcDbSymbolTableRecord
100
AcDbLinetypeTableRecord
  2
ByLayer
 70
     0
  3

 72
    65
 73
     0
 40
0.0
  0
LTYPE
  5
5D
330
5
100
AcDbSymbolTableRecord
100
AcDbLinetypeTableRecord
  2
Continuous
 70
     0
  3
Solid line
 72
    65
 73
     0
 40
0.0
  0
LTYPE
  5
D9
330
5
100
AcDbSymbolTableRecord
100
AcDbLinetypeTableRecord
  2
AI-Linetype-0
 70
     0
  3
Adobe Illustrator Linetype No. 0
 72
    65
 73
     2
 40
1.411111110758333
 49
0.7055555553791667
 74
     0
 49
-0.7055555553791667
 74
     0
  0
ENDTAB
  0
TABLE
  2
LAYER
  5
2
330
0
100
AcDbSymbolTable
 70
     2
  0
LAYER
  5
54
330
2
100
AcDbSymbolTableRecord
100
AcDbLayerTableRecord
  2
0
 70
     0
 62
     7
  6
Continuous
370
    -3
390
F
347
21
  0
LAYER
  5
78
330
2
100
AcDbSymbolTableRecord
100
AcDbLayerTableRecord
  2
レイヤー 1
 70
     0
 62
     7
  6
Continuous
370
     0
390
F
347
21
  0
ENDTAB
  0
TABLE
  2
STYLE
  5
3
330
0
100
AcDbSymbolTable
 70
     2
  0
STYLE
  5
55
330
3
100
AcDbSymbolTableRecord
100
AcDbTextStyleTableRecord
  2
Standard
 70
     0
 40
0.0
 41
1.0
 50
0.0
 71
     0
 42
0.2
  3
txt
  4

  0
STYLE
  5
5A
330
3
100
AcDbSymbolTableRecord
100
AcDbTextStyleTableRecord
  2
Annotative
 70
     0
 40
0.0
 41
1.0
 50
0.0
 71
     0
 42
0.2
  3
txt
  4

1001
AcadAnnotative
1000
AnnotativeData
1002
{
1070
     1
1070
     1
1002
}
  0
ENDTAB
  0
TABLE
  2
VIEW
  5
6
330
0
100
AcDbSymbolTable
 70
     0
  0
ENDTAB
  0
TABLE
  2
UCS
  5
7
330
0
100
AcDbSymbolTable
 70
     0
  0
ENDTAB
  0
TABLE
  2
APPID
  5
9
330
0
100
AcDbSymbolTable
 70
     2
  0
APPID
  5
56
330
9
100
AcDbSymbolTableRecord
100
AcDbRegAppTableRecord
  2
ACAD
 70
     0
  0
APPID
  5
5E
330
9
100
AcDbSymbolTableRecord
100
AcDbRegAppTableRecord
  2
AcadAnnotative
 70
     0
  0
ENDTAB
  0
TABLE
  2
DIMSTYLE
  5
A
330
0
100
AcDbSymbolTable
 70
     2
100
AcDbDimStyleTable
 71
     0
  0
DIMSTYLE
105
58
330
A
100
AcDbSymbolTableRecord
100
AcDbDimStyleTableRecord
  2
Standard
 70
     0
340
55
  0
DIMSTYLE
105
59
330
A
100
AcDbSymbolTableRecord
100
AcDbDimStyleTableRecord
  2
Annotative
 70
     0
340
55
1001
AcadAnnotative
1000
AnnotativeData
1002
{
1070
     1
1070
     1
1002
}
  0
ENDTAB
  0
TABLE
  2
BLOCK_RECORD
  5
1
330
0
100
AcDbSymbolTable
 70
    14
  0
BLOCK_RECORD
  5
70
330
1
100
AcDbSymbolTableRecord
100
AcDbBlockTableRecord
  2
*Model_Space
340
73
 70
     0
280
     1
281
     0
  0
BLOCK_RECORD
  5
6C
330
1
100
AcDbSymbolTableRecord
100
AcDbBlockTableRecord
  2
*Paper_Space
340
6F
 70
     0
280
     1
281
     0
  0
BLOCK_RECORD
  5
74
330
1
100
AcDbSymbolTableRecord
100
AcDbBlockTableRecord
  2
*Paper_Space0
340
77
 70
     0
280
     1
281
     0
  0
BLOCK_RECORD
  5
79
330
1
100
AcDbSymbolTableRecord
100
AcDbBlockTableRecord
  2
Block_0
340
0
102
{BLKREFS
331
7A
102
}
 70
     0
280
     1
281
     0
  0
BLOCK_RECORD
  5
7D
330
1
100
AcDbSymbolTableRecord
100
AcDbBlockTableRecord
  2
Block_1
340
0
102
{BLKREFS
331
7E
102
}
 70
     0
280
     1
281
     0
  0
BLOCK_RECORD
  5
94
330
1
100
AcDbSymbolTableRecord
100
AcDbBlockTableRecord
  2
Block_2
340
0
102
{BLKREFS
331
95
102
}
 70
     0
280
     1
281
     0
  0
BLOCK_RECORD
  5
9C
330
1
100
AcDbSymbolTableRecord
100
AcDbBlockTableRecord
  2
Block_3
340
0
102
{BLKREFS
331
9D
102
}
 70
     0
280
     1
281
     0
  0
BLOCK_RECORD
  5
A0
330
1
100
AcDbSymbolTableRecord
100
AcDbBlockTableRecord
  2
Block_4
340
0
102
{BLKREFS
331
A1
102
}
 70
     0
280
     1
281
     0
  0
BLOCK_RECORD
  5
AA
330
1
100
AcDbSymbolTableRecord
100
AcDbBlockTableRecord
  2
Block_5
340
0
102
{BLKREFS
331
AB
102
}
 70
     0
280
     1
281
     0
  0
BLOCK_RECORD
  5
B5
330
1
100
AcDbSymbolTableRecord
100
AcDbBlockTableRecord
  2
Block_6
340
0
102
{BLKREFS
331
B6
102
}
 70
     0
280
     1
281
     0
  0
BLOCK_RECORD
  5
B9
330
1
100
AcDbSymbolTableRecord
100
AcDbBlockTableRecord
  2
Block_7
340
0
102
{BLKREFS
331
BA
102
}
 70
     0
280
     1
281
     0
  0
BLOCK_RECORD
  5
C9
330
1
100
AcDbSymbolTableRecord
100
AcDbBlockTableRecord
  2
Block_8
340
0
102
{BLKREFS
331
CA
102
}
 70
     0
280
     1
281
     0
  0
BLOCK_RECORD
  5
CD
330
1
100
AcDbSymbolTableRecord
100
AcDbBlockTableRecord
  2
Block_9
340
0
102
{BLKREFS
331
CE
102
}
 70
     0
280
     1
281
     0
  0
BLOCK_RECORD
  5
DA
330
1
100
AcDbSymbolTableRecord
100
AcDbBlockTableRecord
  2
Block_10
340
0
102
{BLKREFS
331
DB
102
}
 70
     0
280
     1
281
     0
  0
BLOCK_RECORD
  5
E1
330
1
100
AcDbSymbolTableRecord
100
AcDbBlockTableRecord
  2
Block_11
340
0
102
{BLKREFS
331
E2
102
}
 70
     0
280
     1
281
     0
  0
BLOCK_RECORD
  5
E5
330
1
100
AcDbSymbolTableRecord
100
AcDbBlockTableRecord
  2
Block_12
340
0
102
{BLKREFS
331
E6
102
}
 70
     0
280
     1
281
     0
  0
ENDTAB
  0
ENDSEC
  0
SECTION
  2
BLOCKS
  0
BLOCK
  5
71
330
70
100
AcDbEntity
  8
0
100
AcDbBlockBegin
  2
*Model_Space
 70
     0
 10
0.0
 20
0.0
 30
0.0
  3
*Model_Space
  1

  0
ENDBLK
  5
72
330
70
100
AcDbEntity
  8
0
100
AcDbBlockEnd
  0
BLOCK
  5
6D
330
6C
100
AcDbEntity
 67
     1
  8
0
100
AcDbBlockBegin
  2
*Paper_Space
 70
     0
 10
0.0
 20
0.0
 30
0.0
  3
*Paper_Space
  1

  0
ENDBLK
  5
6E
330
6C
100
AcDbEntity
 67
     1
  8
0
100
AcDbBlockEnd
  0
BLOCK
  5
75
330
74
100
AcDbEntity
 67
     1
  8
0
100
AcDbBlockBegin
  2
*Paper_Space0
 70
     0
 10
0.0
 20
0.0
 30
0.0
  3
*Paper_Space0
  1

  0
ENDBLK
  5
76
330
74
100
AcDbEntity
 67
     1
  8
0
100
AcDbBlockEnd
  0
BLOCK
  5
7B
330
79
100
AcDbEntity
  8
0
100
AcDbBlockBegin
  2
Block_0
 70
     0
 10
0.0
 20
0.0
 30
0.0
  3
Block_0
  1

  0
INSERT
  5
7E
330
79
100
AcDbEntity
  8
レイヤー 1
100
AcDbBlockReference
  2
Block_1
 10
0.0
 20
0.0
 30
0.0
  0
ENDBLK
  5
7C
330
79
100
AcDbEntity
  8
0
100
AcDbBlockEnd
  0
BLOCK
  5
7F
330
7D
100
AcDbEntity
  8
0
100
AcDbBlockBegin
  2
Block_1
 70
     0
 10
0.0
 20
0.0
 30
0.0
  3
Block_1
  1

  0
LINE
  5
81
330
7D
100
AcDbEntity
  8
レイヤー 1
 62
   250
420
  2299925
370
    25
100
AcDbLine
 10
93.21773484232808
 20
-144.777604498352
 30
0.0
 11
97.21774234132748
 21
-144.777604498352
 31
0.0
  0
LINE
  5
82
330
7D
100
AcDbEntity
  8
レイヤー 1
 62
   250
420
  2299925
370
    25
100
AcDbLine
 10
96.21774599441227
 20
-145.7773766950679
 30
0.0
 11
96.21774599441227
 21
-151.777433483912
 31
0.0
  0
LINE
  5
83
330
7D
100
AcDbEntity
  8
レイヤー 1
 62
   250
420
  2299925
370
    25
100
AcDbLine
 10
93.21773484232808
 20
-145.7773766950679
 30
0.0
 11
96.21774595268901
 21
-145.7773766950679
 31
0.0
  0
LINE
  5
84
330
7D
100
AcDbEntity
  8
レイヤー 1
 62
   250
420
  2299925
370
    25
100
AcDbLine
 10
93.21773484232808
 20
-144.777604498352
 30
0.0
 11
93.21773484232808
 21
-145.7773766950679
 31
0.0
  0
LINE
  5
85
330
7D
100
AcDbEntity
  8
レイヤー 1
 62
   250
420
  2299925
370
    25
100
AcDbLine
 10
97.21774237816678
 20
-144.777604498352
 30
0.0
 11
97.21774237816678
 21
-150.7777546230535
 31
0.0
  0
LINE
  5
86
330
7D
100
AcDbEntity
  8
レイヤー 1
 62
   250
420
  2299925
370
    25
100
AcDbLine
 10
113.2177180637056
 20
-150.7777546230535
 30
0.0
 11
113.2177180637056
 21
-151.1777340572937
 31
0.0
  0
LINE
  5
87
330
7D
100
AcDbEntity
  8
レイヤー 1
 62
   250
420
  2299925
370
    25
100
AcDbLine
 10
97.21774238305075
 20
-150.7777546230535
 30
0.0
 11
113.2177180637056
 21
-150.7777546230535
 31
0.0
  0
LINE
  5
88
330
7D
100
AcDbEntity
  8
レイヤー 1
 62
   250
420
  2299925
370
    25
100
AcDbLine
 10
113.2177180637056
 20
-151.1777340572937
 30
0.0
 11
96.21774599441227
 21
-151.777433483912
 31
0.0
  0
SPLINE
  5
89
330
7D
100
AcDbEntity
  8
レイヤー 1
 62
   250
420
  2299925
370
     9
100
AcDbSpline
210
0.0
220
0.0
230
1.0
 70
     9
 71
     3
 72
    17
 73
    13
 74
     0
 42
0.0000000001
 43
0.0000000001
 40
0.0
 40
0.0
 40
0.0
 40
0.0
 40
1.0
 40
1.0
 40
1.0
 40
2.0
 40
2.0
 40
2.0
 40
3.0
 40
3.0
 40
3.0
 40
4.0
 40
4.0
 40
4.0
 40
4.0
 10
117.3180904335816
 20
-144.777604498352
 30
0.0
 10
117.3180904335816
 20
-144.7223242219846
 30
0.0
 10
117.2732876558148
 20
-144.6775214453498
 30
0.0
 10
117.2174771283299
 20
-144.6775214453498
 30
0.0
 10
117.1623732408468
 20
-144.6775214453498
 30
0.0
 10
117.1175704642121
 20
-144.7223242219846
 30
0.0
 10
117.1175704642121
 20
-144.777604498352
 30
0.0
 10
117.1175704642121
 20
-144.8328847747198
 30
0.0
 10
117.1623732408468
 20
-144.8776875513543
 30
0.0
 10
117.2174771283299
 20
-144.8776875513543
 30
0.0
 10
117.2732876558148
 20
-144.8776875513543
 30
0.0
 10
117.3180904335816
 20
-144.8328847747198
 30
0.0
 10
117.3180904335816
 20
-144.777604498352
 30
0.0
  0
SPLINE
  5
8A
330
7D
100
AcDbEntity
  8
レイヤー 1
 62
   250
420
  2299925
370
     9
100
AcDbSpline
210
0.0
220
0.0
230
1.0
 70
     9
 71
     3
 72
    17
 73
    13
 74
     0
 42
0.0000000001
 43
0.0000000001
 40
0.0
 40
0.0
 40
0.0
 40
0.0
 40
1.0
 40
1.0
 40
1.0
 40
2.0
 40
2.0
 40
2.0
 40
3.0
 40
3.0
 40
3.0
 40
4.0
 40
4.0
 40
4.0
 40
4.0
 10
117.3180904335816
 20
-150.7777546230535
 30
0.0
 10
117.3180904335816
 20
-150.7222979578017
 30
0.0
 10
117.2732876558148
 20
-150.6774951811669
 30
0.0
 10
117.2174771283299
 20
-150.6774951811669
 30
0.0
 10
117.1623732408468
 20
-150.6774951811669
 30
0.0
 10
117.1175704642121
 20
-150.7222979578017
 30
0.0
 10
117.1175704642121
 20
-150.7777546230535
 30
0.0
 10
117.1175704642121
 20
-150.8328585105366
 30
0.0
 10
117.1623732408468
 20
-150.8776612871714
 30
0.0
 10
117.2174771283299
 20
-150.8776612871714
 30
0.0
 10
117.2732876558148
 20
-150.8776612871714
 30
0.0
 10
117.3180904335816
 20
-150.8328585105366
 30
0.0
 10
117.3180904335816
 20
-150.7777546230535
 30
0.0
  0
SPLINE
  5
8B
330
7D
100
AcDbEntity
  8
レイヤー 1
 62
   250
420
  2299925
370
     9
100
AcDbSpline
210
0.0
220
0.0
230
1.0
 70
     9
 71
     3
 72
    17
 73
    13
 74
     0
 42
0.0000000001
 43
0.0000000001
 40
0.0
 40
0.0
 40
0.0
 40
0.0
 40
1.0
 40
1.0
 40
1.0
 40
2.0
 40
2.0
 40
2.0
 40
3.0
 40
3.0
 40
3.0
 40
4.0
 40
4.0
 40
4.0
 40
4.0
 10
117.3180904335816
 20
-151.1777340572937
 30
0.0
 10
117.3180904335816
 20
-151.1222773920418
 30
0.0
 10
117.2732876558148
 20
-151.0774746154071
 30
0.0
 10
117.2174771283299
 20
-151.0774746154071
 30
0.0
 10
117.1623732408468
 20
-151.0774746154071
 30
0.0
 10
117.1175704642121
 20
-151.1222773920418
 30
0.0
 10
117.1175704642121
 20
-151.1777340572937
 30
0.0
 10
117.1175704642121
 20
-151.2328379447767
 30
0.0
 10
117.1623732408468
 20
-151.2776407214115
 30
0.0
 10
117.2174771283299
 20
-151.2776407214115
 30
0.0
 10
117.2732876558148
 20
-151.2776407214115
 30
0.0
 10
117.3180904335816
 20
-151.2328379447767
 30
0.0
 10
117.3180904335816
 20
-151.1777340572937
 30
0.0
  0
CIRCLE
  5
8C
330
7D
100
AcDbEntity
  8
レイヤー 1
 62
   250
420
  2299925
370
     9
100
AcDbCircle
 10
113.2177180637056
 20
-155.877368937396
 30
0.0
 40
0.0999066641178353
  0
SPLINE
  5
8D
330
7D
100
AcDbEntity
  8
レイヤー 1
 62
   250
420
  2299925
370
     9
100
AcDbSpline
210
0.0
220
0.0
230
1.0
 70
     9
 71
     3
 72
    17
 73
    13
 74
     0
 42
0.0000000001
 43
0.0000000001
 40
0.0
 40
0.0
 40
0.0
 40
0.0
 40
1.0
 40
1.0
 40
1.0
 40
2.0
 40
2.0
 40
2.0
 40
3.0
 40
3.0
 40
3.0
 40
4.0
 40
4.0
 40
4.0
 40
4.0
 10
93.31781789785827
 20
-155.877368937396
 30
0.0
 10
93.31781789785827
 20
-155.8222237814655
 30
0.0
 10
93.27301512009155
 20
-155.7774622732781
 30
0.0
 10
93.21773484232808
 20
-155.7774622732781
 30
0.0
 10
93.16245456456396
 20
-155.7774622732781
 30
0.0
 10
93.11782817568612
 20
-155.8222237814655
 30
0.0
 10
93.11782817568612
 20
-155.877368937396
 30
0.0
 10
93.11782817568612
 20
-155.9324728248791
 30
0.0
 10
93.16245456456396
 20
-155.9772756015138
 30
0.0
 10
93.21773484232808
 20
-155.9772756015138
 30
0.0
 10
93.27301512009155
 20
-155.9772756015138
 30
0.0
 10
93.31781789785827
 20
-155.9324728248791
 30
0.0
 10
93.31781789785827
 20
-155.877368937396
 30
0.0
  0
SPLINE
  5
8E
330
7D
100
AcDbEntity
  8
レイヤー 1
 62
   250
420
  2299925
370
     9
100
AcDbSpline
210
0.0
220
0.0
230
1.0
 70
     9
 71
     3
 72
    17
 73
    13
 74
     0
 42
0.0000000001
 43
0.0000000001
 40
0.0
 40
0.0
 40
0.0
 40
0.0
 40
1.0
 40
1.0
 40
1.0
 40
2.0
 40
2.0
 40
2.0
 40
3.0
 40
3.0
 40
3.0
 40
4.0
 40
4.0
 40
4.0
 40
4.0
 10
91.26796734281494
 20
-144.777604498352
 30
0.0
 10
91.26796734281494
 20
-144.7223242219846
 30
0.0
 10
91.22319984282638
 20
-144.6775214453498
 30
0.0
 10
91.16806067617394
 20
-144.6775214453498
 30
0.0
 10
91.1127803984095
 20
-144.6775214453498
 30
0.0
 10
91.0680128984203
 20
-144.7223242219846
 30
0.0
 10
91.0680128984203
 20
-144.777604498352
 30
0.0
 10
91.0680128984203
 20
-144.8328847747198
 30
0.0
 10
91.1127803984095
 20
-144.8776875513543
 30
0.0
 10
91.16806067617394
 20
-144.8776875513543
 30
0.0
 10
91.22319984282638
 20
-144.8776875513543
 30
0.0
 10
91.26796734281494
 20
-144.8328847747198
 30
0.0
 10
91.26796734281494
 20
-144.777604498352
 30
0.0
  0
SPLINE
  5
8F
330
7D
100
AcDbEntity
  8
レイヤー 1
 62
   250
420
  2299925
370
     9
100
AcDbSpline
210
0.0
220
0.0
230
1.0
 70
     9
 71
     3
 72
    17
 73
    13
 74
     0
 42
0.0000000001
 43
0.0000000001
 40
0.0
 40
0.0
 40
0.0
 40
0.0
 40
1.0
 40
1.0
 40
1.0
 40
2.0
 40
2.0
 40
2.0
 40
3.0
 40
3.0
 40
3.0
 40
4.0
 40
4.0
 40
4.0
 40
4.0
 10
91.26796734281494
 20
-145.7773766950679
 30
0.0
 10
91.26796734281494
 20
-145.722237529808
 30
0.0
 10
91.22319984282638
 20
-145.6774700309504
 30
0.0
 10
91.16806067617394
 20
-145.6774700309504
 30
0.0
 10
91.1127803984095
 20
-145.6774700309504
 30
0.0
 10
91.0680128984203
 20
-145.722237529808
 30
0.0
 10
91.0680128984203
 20
-145.7773766950679
 30
0.0
 10
91.0680128984203
 20
-145.8328333603198
 30
0.0
 10
91.1127803984095
 20
-145.8776361369546
 30
0.0
 10
91.16806067617394
 20
-145.8776361369546
 30
0.0
 10
91.22319984282638
 20
-145.8776361369546
 30
0.0
 10
91.26796734281494
 20
-145.8328333603198
 30
0.0
 10
91.26796734281494
 20
-145.7773766950679
 30
0.0
  0
SPLINE
  5
90
330
7D
100
AcDbEntity
  8
レイヤー 1
 62
   250
420
  2299925
370
     9
100
AcDbSpline
210
0.0
220
0.0
230
1.0
 70
     9
 71
     3
 72
    17
 73
    13
 74
     0
 42
0.0000000001
 43
0.0000000001
 40
0.0
 40
0.0
 40
0.0
 40
0.0
 40
1.0
 40
1.0
 40
1.0
 40
2.0
 40
2.0
 40
2.0
 40
3.0
 40
3.0
 40
3.0
 40
4.0
 40
4.0
 40
4.0
 40
4.0
 10
96.31779377216462
 20
-155.877368937396
 30
0.0
 10
96.31779377216462
 20
-155.8222237814655
 30
0.0
 10
96.27302627217607
 20
-155.7774622732781
 30
0.0
 10
96.21774599441227
 20
-155.7774622732781
 30
0.0
 10
96.16260682775919
 20
-155.7774622732781
 30
0.0
 10
96.11783932776999
 20
-155.8222237814655
 30
0.0
 10
96.11783932776999
 20
-155.877368937396
 30
0.0
 10
96.11783932776999
 20
-155.9324728248791
 30
0.0
 10
96.16260682775919
 20
-155.9772756015138
 30
0.0
 10
96.21774599441227
 20
-155.9772756015138
 30
0.0
 10
96.27302627217607
 20
-155.9772756015138
 30
0.0
 10
96.31779377216462
 20
-155.9324728248791
 30
0.0
 10
96.31779377216462
 20
-155.877368937396
 30
0.0
  0
LINE
  5
91
330
7D
100
AcDbEntity
  8
レイヤー 1
 62
   250
420
  2299925
370
     9
100
AcDbLine
 10
93.21791123121665
 20
-155.877368937396
 30
0.0
 11
96.21774595268901
 21
-155.877368937396
 31
0.0
  0
LINE
  5
92
330
7D
100
AcDbEntity
  8
レイヤー 1
 62
   250
420
  2299925
370
     9
100
AcDbLine
 10
93.21773484232808
 20
-148.4175302388231
 30
0.0
 11
93.21773484232808
 21
-156.8778114118726
 31
0.0
  0
LINE
  5
93
330
7D
100
AcDbEntity
  8
レイヤー 1
 62
   250
420
  2299925
370
     9
100
AcDbLine
 10
96.21774599441227
 20
-154.4173275857558
 30
0.0
 11
96.21774599441227
 21
-156.8778114118726
 31
0.0
  0
INSERT
  5
95
330
7D
100
AcDbEntity
  8
レイヤー 1
100
AcDbBlockReference
  2
Block_2
 10
0.0
 20
0.0
 30
0.0
  0
LINE
  5
9A
330
7D
100
AcDbEntity
  8
レイヤー 1
 62
   250
420
  2299925
370
     9
100
AcDbLine
 10
96.21774599441227
 20
-155.877368937396
 30
0.0
 11
113.2177180637056
 21
-155.877368937396
 31
0.0
  0
LINE
  5
9B
330
7D
100
AcDbEntity
  8
レイヤー 1
 62
   250
420
  2299925
370
     9
100
AcDbLine
 10
113.2177180637056
 20
-153.7172753813934
 30
0.0
 11
113.2177180637056
 21
-156.8778114118726
 31
0.0
  0
INSERT
  5
9D
330
7D
100
AcDbEntity
  8
レイヤー 1
100
AcDbBlockReference
  2
Block_3
 10
0.0
 20
0.0
 30
0.0
  0
LINE
  5
A8
330
7D
100
AcDbEntity
  8
レイヤー 1
 62
   250
420
  2299925
370
     9
100
AcDbLine
 10
117.2174771283299
 20
-150.7777546230535
 30
0.0
 11
117.2174771283299
 21
-144.777604498352
 31
0.0
  0
LINE
  5
A9
330
7D
100
AcDbEntity
  8
レイヤー 1
 62
   250
420
  2299925
370
     9
100
AcDbLine
 10
99.85781293794634
 20
-144.777604498352
 30
0.0
 11
118.2179196028065
 21
-144.777604498352
 31
0.0
  0
INSERT
  5
AB
330
7D
100
AcDbEntity
  8
レイヤー 1
100
AcDbBlockReference
  2
Block_5
 10
0.0
 20
0.0
 30
0.0
  0
LINE
  5
B1
330
7D
100
AcDbEntity
  8
レイヤー 1
 62
   250
420
  2299925
370
     9
100
AcDbLine
 10
117.2174771283299
 20
-151.1777340572937
 30
0.0
 11
117.2174771283299
 21
-152.1775062540096
 31
0.0
  0
LINE
  5
B2
330
7D
100
AcDbEntity
  8
レイヤー 1
 62
   250
420
  2299925
370
     9
100
AcDbLine
 10
117.2174771283299
 20
-150.7777546230535
 30
0.0
 11
117.2174771283299
 21
-151.1777340572937
 31
0.0
  0
LINE
  5
B3
330
7D
100
AcDbEntity
  8
レイヤー 1
 62
   250
420
  2299925
370
     9
100
AcDbLine
 10
115.7574357766898
 20
-150.7777546230535
 30
0.0
 11
118.2179196028065
 21
-150.7777546230535
 31
0.0
  0
LINE
  5
B4
330
7D
100
AcDbEntity
  8
レイヤー 1
 62
   250
420
  2299925
370
     9
100
AcDbLine
 10
115.7574357766898
 20
-151.1777340572937
 30
0.0
 11
118.2179196028065
 21
-151.1777340572937
 31
0.0
  0
INSERT
  5
B6
330
7D
100
AcDbEntity
  8
レイヤー 1
100
AcDbBlockReference
  2
Block_6
 10
0.0
 20
0.0
 30
0.0
  0
LINE
  5
C5
330
7D
100
AcDbEntity
  8
レイヤー 1
 62
   250
420
  2299925
370
     9
100
AcDbLine
 10
91.16806067617394
 20
-144.777604498352
 30
0.0
 11
91.16806067617394
 21
-143.7776559127517
 31
0.0
  0
LINE
  5
C6
330
7D
100
AcDbEntity
  8
レイヤー 1
 62
   250
420
  2299925
370
     9
100
AcDbLine
 10
91.16806067617394
 20
-144.777604498352
 30
0.0
 11
91.16806067617394
 21
-146.7774663917757
 31
0.0
  0
LINE
  5
C7
330
7D
100
AcDbEntity
  8
レイヤー 1
 62
   250
420
  2299925
370
     9
100
AcDbLine
 10
92.62792567580813
 20
-144.777604498352
 30
0.0
 11
90.16797095420116
 21
-144.777604498352
 31
0.0
  0
LINE
  5
C8
330
7D
100
AcDbEntity
  8
レイヤー 1
 62
   250
420
  2299925
370
     9
100
AcDbLine
 10
92.62792567580813
 20
-145.7773766950679
 30
0.0
 11
90.16797095420116
 21
-145.7773766950679
 31
0.0
  0
INSERT
  5
CA
330
7D
100
AcDbEntity
  8
レイヤー 1
100
AcDbBlockReference
  2
Block_8
 10
0.0
 20
0.0
 30
0.0
  0
ENDBLK
  5
80
330
7D
100
AcDbEntity
  8
0
100
AcDbBlockEnd
  0
BLOCK
  5
96
330
94
100
AcDbEntity
  8
0
100
AcDbBlockBegin
  2
Block_2
 70
     0
 10
0.0
 20
0.0
 30
0.0
  3
Block_2
  1

  0
SPLINE
  5
98
330
94
100
AcDbEntity
  8
レイヤー 1
100
AcDbSpline
210
0.0
220
0.0
230
1.0
 70
     9
 71
     3
 72
    62
 73
    58
 74
     0
 42
0.0000000001
 43
0.0000000001
 40
0.0
 40
0.0
 40
0.0
 40
0.0
 40
1.0
 40
1.0
 40
1.0
 40
2.0
 40
2.0
 40
2.0
 40
3.0
 40
3.0
 40
3.0
 40
4.0
 40
4.0
 40
4.0
 40
5.0
 40
5.0
 40
5.0
 40
6.0
 40
6.0
 40
6.0
 40
7.0
 40
7.0
 40
7.0
 40
8.0
 40
8.0
 40
8.0
 40
9.0
 40
9.0
 40
9.0
 40
10.0
 40
10.0
 40
10.0
 40
11.0
 40
11.0
 40
11.0
 40
12.0
 40
12.0
 40
12.0
 40
13.0
 40
13.0
 40
13.0
 40
14.0
 40
14.0
 40
14.0
 40
15.0
 40
15.0
 40
15.0
 40
16.0
 40
16.0
 40
16.0
 40
17.0
 40
17.0
 40
17.0
 40
18.0
 40
18.0
 40
18.0
 40
19.0
 40
19.0
 40
19.0
 40
19.0
 10
94.7108425327459
 20
-155.28216684486
 30
0.0
 10
94.62971053406826
 20
-155.28216684486
 30
0.0
 10
94.44401988741331
 20
-155.2611517624
 30
0.0
 10
94.33756643691909
 20
-155.0751166061965
 30
0.0
 10
94.27452118953901
 20
-154.9628064933773
 30
0.0
 10
94.2709038392795
 20
-154.8635877434022
 30
0.0
 10
94.26728648901999
 20
-154.778838394465
 30
0.0
 10
94.26728648901999
 20
-154.778838394465
 30
0.0
 10
94.45487193819184
 20
-154.778838394465
 30
0.0
 10
94.45487193819184
 20
-154.778838394465
 30
0.0
 10
94.45659448593445
 20
-154.8529079473978
 30
0.0
 10
94.46572398897037
 20
-155.0875189499434
 30
0.0
 10
94.70739743726065
 20
-155.0875189499434
 30
0.0
 10
94.82453068375916
 20
-155.0875189499434
 30
0.0
 10
94.95441078355307
 20
-155.0179280211413
 30
0.0
 10
94.95441078355307
 20
-154.7895181904693
 30
0.0
 10
94.95441078355307
 20
-154.6730739630678
 30
0.0
 10
94.92185463121746
 20
-154.6244981167258
 30
0.0
 10
94.89481063165824
 20
-154.5928032382615
 30
0.0
 10
94.83176538427818
 20
-154.5187336853286
 30
0.0
 10
94.73254663430298
 20
-154.5059868320332
 30
0.0
 10
94.68569333570357
 20
-154.5059868320332
 30
0.0
 10
94.6695013869229
 20
-154.5059868320332
 30
0.0
 10
94.63884003710418
 20
-154.5080538893244
 30
0.0
 10
94.61541338780447
 20
-154.5121880039067
 30
0.0
 10
94.61541338780447
 20
-154.5121880039067
 30
0.0
 10
94.61541338780447
 20
-154.3175401089901
 30
0.0
 10
94.61541338780447
 20
-154.3175401089901
 30
0.0
 10
94.64779728536582
 20
-154.324085790412
 30
0.0
 10
94.68379853318669
 20
-154.3261528477032
 30
0.0
 10
94.6893106859631
 20
-154.3261528477032
 30
0.0
 10
94.74512123282414
 20
-154.3261528477032
 30
0.0
 10
94.91461993069844
 20
-154.3047932556946
 30
0.0
 10
94.91461993069844
 20
-154.068115195858
 30
0.0
 10
94.91461993069844
 20
-153.8903482688191
 30
0.0
 10
94.80282658220207
 20
-153.8352267410551
 30
0.0
 10
94.70911998500328
 20
-153.8352267410551
 30
0.0
 10
94.48363848549368
 20
-153.8352267410551
 30
0.0
 10
94.47657603974892
 20
-154.068115195858
 30
0.0
 10
94.47295868948939
 20
-154.1397731819512
 30
0.0
 10
94.47295868948939
 20
-154.1397731819512
 30
0.0
 10
94.2998426413556
 20
-154.1397731819512
 30
0.0
 10
94.2998426413556
 20
-154.1397731819512
 30
0.0
 10
94.30690508710036
 20
-154.0150607253851
 30
0.0
 10
94.33050399117432
 20
-153.6385117888473
 30
0.0
 10
94.71997203578181
 20
-153.6385117888473
 30
0.0
 10
94.91100258043891
 20
-153.6385117888473
 30
0.0
 10
95.11667478090833
 20
-153.765635812253
 30
0.0
 10
95.11667478090833
 20
-154.061569514436
 30
0.0
 10
95.11667478090833
 20
-154.247949180188
 30
0.0
 10
95.0355427822307
 20
-154.3302869622855
 30
0.0
 10
94.95079343329356
 20
-154.3916096619229
 30
0.0
 10
95.00298662989509
 20
-154.4191704258049
 30
0.0
 10
95.1581881815056
 20
-154.4994411506112
 30
0.0
 10
95.1581881815056
 20
-154.7767713371738
 30
0.0
 10
95.1581881815056
 20
-155.1150797138254
 30
0.0
 10
94.94717608303403
 20
-155.28216684486
 30
0.0
 10
94.7108425327459
 20
-155.28216684486
 30
0.0
  0
HATCH
  5
99
330
94
100
AcDbEntity
  8
レイヤー 1
 62
   250
420
  2299925
440
 33554687
100
AcDbHatch
 10
0.0
 20
0.0
 30
0.0
210
0.0
220
0.0
230
1.0
  2
SOLID
 70
     1
 71
     1
 91
        1
 92
        1
 93
        1
 72
     4
 94
        3
 73
     0
 74
     0
 95
       62
 96
       58
 40
0.0
 40
0.0
 40
0.0
 40
0.0
 40
1.0
 40
1.0
 40
1.0
 40
2.0
 40
2.0
 40
2.0
 40
3.0
 40
3.0
 40
3.0
 40
4.0
 40
4.0
 40
4.0
 40
5.0
 40
5.0
 40
5.0
 40
6.0
 40
6.0
 40
6.0
 40
7.0
 40
7.0
 40
7.0
 40
8.0
 40
8.0
 40
8.0
 40
9.0
 40
9.0
 40
9.0
 40
10.0
 40
10.0
 40
10.0
 40
11.0
 40
11.0
 40
11.0
 40
12.0
 40
12.0
 40
12.0
 40
13.0
 40
13.0
 40
13.0
 40
14.0
 40
14.0
 40
14.0
 40
15.0
 40
15.0
 40
15.0
 40
16.0
 40
16.0
 40
16.0
 40
17.0
 40
17.0
 40
17.0
 40
18.0
 40
18.0
 40
18.0
 40
19.0
 40
19.0
 40
19.0
 40
19.0
 10
94.7108425327459
 20
-155.28216684486
 10
94.62971053406826
 20
-155.28216684486
 10
94.44401988741331
 20
-155.2611517624
 10
94.33756643691909
 20
-155.0751166061965
 10
94.27452118953901
 20
-154.9628064933773
 10
94.2709038392795
 20
-154.8635877434022
 10
94.26728648901999
 20
-154.778838394465
 10
94.26728648901999
 20
-154.778838394465
 10
94.45487193819184
 20
-154.778838394465
 10
94.45487193819184
 20
-154.778838394465
 10
94.45659448593445
 20
-154.8529079473978
 10
94.46572398897037
 20
-155.0875189499434
 10
94.70739743726065
 20
-155.0875189499434
 10
94.82453068375916
 20
-155.0875189499434
 10
94.95441078355307
 20
-155.0179280211413
 10
94.95441078355307
 20
-154.7895181904693
 10
94.95441078355307
 20
-154.6730739630678
 10
94.92185463121746
 20
-154.6244981167258
 10
94.89481063165824
 20
-154.5928032382615
 10
94.83176538427818
 20
-154.5187336853286
 10
94.73254663430298
 20
-154.5059868320332
 10
94.68569333570357
 20
-154.5059868320332
 10
94.6695013869229
 20
-154.5059868320332
 10
94.63884003710418
 20
-154.5080538893244
 10
94.61541338780447
 20
-154.5121880039067
 10
94.61541338780447
 20
-154.5121880039067
 10
94.61541338780447
 20
-154.3175401089901
 10
94.61541338780447
 20
-154.3175401089901
 10
94.64779728536582
 20
-154.324085790412
 10
94.68379853318669
 20
-154.3261528477032
 10
94.6893106859631
 20
-154.3261528477032
 10
94.74512123282414
 20
-154.3261528477032
 10
94.91461993069844
 20
-154.3047932556946
 10
94.91461993069844
 20
-154.068115195858
 10
94.91461993069844
 20
-153.8903482688191
 10
94.80282658220207
 20
-153.8352267410551
 10
94.70911998500328
 20
-153.8352267410551
 10
94.48363848549368
 20
-153.8352267410551
 10
94.47657603974892
 20
-154.068115195858
 10
94.47295868948939
 20
-154.1397731819512
 10
94.47295868948939
 20
-154.1397731819512
 10
94.2998426413556
 20
-154.1397731819512
 10
94.2998426413556
 20
-154.1397731819512
 10
94.30690508710036
 20
-154.0150607253851
 10
94.33050399117432
 20
-153.6385117888473
 10
94.71997203578181
 20
-153.6385117888473
 10
94.91100258043891
 20
-153.6385117888473
 10
95.11667478090833
 20
-153.765635812253
 10
95.11667478090833
 20
-154.061569514436
 10
95.11667478090833
 20
-154.247949180188
 10
95.0355427822307
 20
-154.3302869622855
 10
94.95079343329356
 20
-154.3916096619229
 10
95.00298662989509
 20
-154.4191704258049
 10
95.1581881815056
 20
-154.4994411506112
 10
95.1581881815056
 20
-154.7767713371738
 10
95.1581881815056
 20
-155.1150797138254
 10
94.94717608303403
 20
-155.28216684486
 10
94.7108425327459
 20
-155.28216684486
 97
        0
 97
        1
330
98
 75
     2
 76
     1
 98
        1
 10
0.0
 20
0.0
450
        0
451
        0
460
0.0
461
0.0
452
        0
462
0.0
453
        0
470

  0
ENDBLK
  5
97
330
94
100
AcDbEntity
  8
0
100
AcDbBlockEnd
  0
BLOCK
  5
9E
330
9C
100
AcDbEntity
  8
0
100
AcDbBlockBegin
  2
Block_3
 70
     0
 10
0.0
 20
0.0
 30
0.0
  3
Block_3
  1

  0
INSERT
  5
A1
330
9C
100
AcDbEntity
  8
レイヤー 1
100
AcDbBlockReference
  2
Block_4
 10
0.0
 20
0.0
 30
0.0
  0
ENDBLK
  5
9F
330
9C
100
AcDbEntity
  8
0
100
AcDbBlockEnd
  0
BLOCK
  5
A2
330
A0
100
AcDbEntity
  8
0
100
AcDbBlockBegin
  2
Block_4
 70
     0
 10
0.0
 20
0.0
 30
0.0
  3
Block_4
  1

  0
SPLINE
  5
A4
330
A0
100
AcDbEntity
  8
レイヤー 1
100
AcDbSpline
210
0.0
220
0.0
230
1.0
 70
    11
 71
     3
 72
    26
 73
    22
 74
     0
 42
0.0000000001
 43
0.0000000001
 40
0.0
 40
0.0
 40
0.0
 40
0.0
 40
1.0
 40
1.0
 40
1.0
 40
2.0
 40
2.0
 40
2.0
 40
3.0
 40
3.0
 40
3.0
 40
4.0
 40
4.0
 40
4.0
 40
5.0
 40
5.0
 40
5.0
 40
6.0
 40
6.0
 40
6.0
 40
7.0
 40
7.0
 40
7.0
 40
7.0
 10
104.1758978689213
 20
-155.2318684507754
 30
0.0
 10
104.1758978689213
 20
-155.2318684507754
 30
0.0
 10
104.1758978689213
 20
-154.1277153477528
 30
0.0
 10
104.1758978689213
 20
-154.1277153477528
 30
0.0
 10
104.1758978689213
 20
-154.1277153477528
 30
0.0
 10
103.8944335677764
 20
-154.1277153477528
 30
0.0
 10
103.8944335677764
 20
-154.1277153477528
 30
0.0
 10
103.8944335677764
 20
-154.1277153477528
 30
0.0
 10
103.8944335677764
 20
-153.979576241887
 30
0.0
 10
103.8944335677764
 20
-153.979576241887
 30
0.0
 10
104.1776204166639
 20
-153.9647623313005
 30
0.0
 10
104.2172390147443
 20
-153.8018093148481
 30
0.0
 10
104.2423882117866
 20
-153.6874321447379
 30
0.0
 10
104.2423882117866
 20
-153.6874321447379
 30
0.0
 10
104.3671006683527
 20
-153.6874321447379
 30
0.0
 10
104.3671006683527
 20
-153.6874321447379
 30
0.0
 10
104.3671006683527
 20
-153.6874321447379
 30
0.0
 10
104.3671006683527
 20
-155.2318684507754
 30
0.0
 10
104.3671006683527
 20
-155.2318684507754
 30
0.0
 10
104.3671006683527
 20
-155.2318684507754
 30
0.0
 10
104.1758978689213
 20
-155.2318684507754
 30
0.0
 10
104.1758978689213
 20
-155.2318684507754
 30
0.0
  0
HATCH
  5
A5
330
A0
100
AcDbEntity
  8
レイヤー 1
 62
   250
420
  2299925
440
 33554687
100
AcDbHatch
 10
0.0
 20
0.0
 30
0.0
210
0.0
220
0.0
230
1.0
  2
SOLID
 70
     1
 71
     1
 91
        1
 92
        1
 93
        1
 72
     4
 94
        3
 73
     0
 74
     0
 95
       26
 96
       22
 40
0.0
 40
0.0
 40
0.0
 40
0.0
 40
1.0
 40
1.0
 40
1.0
 40
2.0
 40
2.0
 40
2.0
 40
3.0
 40
3.0
 40
3.0
 40
4.0
 40
4.0
 40
4.0
 40
5.0
 40
5.0
 40
5.0
 40
6.0
 40
6.0
 40
6.0
 40
7.0
 40
7.0
 40
7.0
 40
7.0
 10
104.1758978689213
 20
-155.2318684507754
 10
104.1758978689213
 20
-155.2318684507754
 10
104.1758978689213
 20
-154.1277153477528
 10
104.1758978689213
 20
-154.1277153477528
 10
104.1758978689213
 20
-154.1277153477528
 10
103.8944335677764
 20
-154.1277153477528
 10
103.8944335677764
 20
-154.1277153477528
 10
103.8944335677764
 20
-154.1277153477528
 10
103.8944335677764
 20
-153.979576241887
 10
103.8944335677764
 20
-153.979576241887
 10
104.1776204166639
 20
-153.9647623313005
 10
104.2172390147443
 20
-153.8018093148481
 10
104.2423882117866
 20
-153.6874321447379
 10
104.2423882117866
 20
-153.6874321447379
 10
104.3671006683527
 20
-153.6874321447379
 10
104.3671006683527
 20
-153.6874321447379
 10
104.3671006683527
 20
-153.6874321447379
 10
104.3671006683527
 20
-155.2318684507754
 10
104.3671006683527
 20
-155.2318684507754
 10
104.3671006683527
 20
-155.2318684507754
 10
104.1758978689213
 20
-155.2318684507754
 10
104.1758978689213
 20
-155.2318684507754
 97
        0
 97
        1
330
A4
 75
     2
 76
     1
 98
        1
 10
0.0
 20
0.0
450
        0
451
        0
460
0.0
461
0.0
452
        0
462
0.0
453
        0
470

  0
SPLINE
  5
A6
330
A0
100
AcDbEntity
  8
レイヤー 1
100
AcDbSpline
210
0.0
220
0.0
230
1.0
 70
     9
 71
     3
 72
    26
 73
    22
 74
     0
 42
0.0000000001
 43
0.0000000001
 40
0.0
 40
0.0
 40
0.0
 40
0.0
 40
1.0
 40
1.0
 40
1.0
 40
2.0
 40
2.0
 40
2.0
 40
3.0
 40
3.0
 40
3.0
 40
4.0
 40
4.0
 40
4.0
 40
5.0
 40
5.0
 40
5.0
 40
6.0
 40
6.0
 40
6.0
 40
7.0
 40
7.0
 40
7.0
 40
7.0
 10
105.1432806811794
 20
-155.2318684507754
 30
0.0
 10
105.1432806811794
 20
-155.2318684507754
 30
0.0
 10
104.9413980857438
 20
-155.2318684507754
 30
0.0
 10
104.9413980857438
 20
-155.2318684507754
 30
0.0
 10
104.9631021873009
 20
-154.9228433857484
 30
0.0
 10
105.1270887323988
 20
-154.4047010247669
 30
0.0
 10
105.4733208286664
 20
-153.8989610075322
 30
0.0
 10
105.4733208286664
 20
-153.8989610075322
 30
0.0
 10
104.7591525345741
 20
-153.8989610075322
 30
0.0
 10
104.7591525345741
 20
-153.8989610075322
 30
0.0
 10
104.7591525345741
 20
-153.8989610075322
 30
0.0
 10
104.7591525345741
 20
-153.6874321447379
 30
0.0
 10
104.7591525345741
 20
-153.6874321447379
 30
0.0
 10
104.7591525345741
 20
-153.6874321447379
 30
0.0
 10
105.675203424102
 20
-153.6874321447379
 30
0.0
 10
105.675203424102
 20
-153.6874321447379
 30
0.0
 10
105.675203424102
 20
-153.6874321447379
 30
0.0
 10
105.675203424102
 20
-153.8989610075322
 30
0.0
 10
105.675203424102
 20
-153.8989610075322
 30
0.0
 10
105.399595785282
 20
-154.1890380473902
 30
0.0
 10
105.1722194832555
 20
-154.7812499613047
 30
0.0
 10
105.1432806811794
 20
-155.2318684507754
 30
0.0
  0
HATCH
  5
A7
330
A0
100
AcDbEntity
  8
レイヤー 1
 62
   250
420
  2299925
440
 33554687
100
AcDbHatch
 10
0.0
 20
0.0
 30
0.0
210
0.0
220
0.0
230
1.0
  2
SOLID
 70
     1
 71
     1
 91
        1
 92
        1
 93
        1
 72
     4
 94
        3
 73
     0
 74
     0
 95
       26
 96
       22
 40
0.0
 40
0.0
 40
0.0
 40
0.0
 40
1.0
 40
1.0
 40
1.0
 40
2.0
 40
2.0
 40
2.0
 40
3.0
 40
3.0
 40
3.0
 40
4.0
 40
4.0
 40
4.0
 40
5.0
 40
5.0
 40
5.0
 40
6.0
 40
6.0
 40
6.0
 40
7.0
 40
7.0
 40
7.0
 40
7.0
 10
105.1432806811794
 20
-155.2318684507754
 10
105.1432806811794
 20
-155.2318684507754
 10
104.9413980857438
 20
-155.2318684507754
 10
104.9413980857438
 20
-155.2318684507754
 10
104.9631021873009
 20
-154.9228433857484
 10
105.1270887323988
 20
-154.4047010247669
 10
105.4733208286664
 20
-153.8989610075322
 10
105.4733208286664
 20
-153.8989610075322
 10
104.7591525345741
 20
-153.8989610075322
 10
104.7591525345741
 20
-153.8989610075322
 10
104.7591525345741
 20
-153.8989610075322
 10
104.7591525345741
 20
-153.6874321447379
 10
104.7591525345741
 20
-153.6874321447379
 10
104.7591525345741
 20
-153.6874321447379
 10
105.675203424102
 20
-153.6874321447379
 10
105.675203424102
 20
-153.6874321447379
 10
105.675203424102
 20
-153.6874321447379
 10
105.675203424102
 20
-153.8989610075322
 10
105.675203424102
 20
-153.8989610075322
 10
105.399595785282
 20
-154.1890380473902
 10
105.1722194832555
 20
-154.7812499613047
 10
105.1432806811794
 20
-155.2318684507754
 97
        0
 97
        1
330
A6
 75
     2
 76
     1
 98
        1
 10
0.0
 20
0.0
450
        0
451
        0
460
0.0
461
0.0
452
        0
462
0.0
453
        0
470

  0
ENDBLK
  5
A3
330
A0
100
AcDbEntity
  8
0
100
AcDbBlockEnd
  0
BLOCK
  5
AC
330
AA
100
AcDbEntity
  8
0
100
AcDbBlockBegin
  2
Block_5
 70
     0
 10
0.0
 20
0.0
 30
0.0
  3
Block_5
  1

  0
SPLINE
  5
AE
330
AA
100
AcDbEntity
  8
レイヤー 1
100
AcDbSpline
210
0.0
220
0.0
230
1.0
 70
     9
 71
     3
 72
    17
 73
    13
 74
     0
 42
0.0000000001
 43
0.0000000001
 40
0.0
 40
0.0
 40
0.0
 40
0.0
 40
1.0
 40
1.0
 40
1.0
 40
2.0
 40
2.0
 40
2.0
 40
3.0
 40
3.0
 40
3.0
 40
4.0
 40
4.0
 40
4.0
 40
4.0
 10
115.7634765335591
 20
-147.7587673241714
 30
0.0
 10
115.7634765335591
 20
-147.9823540211641
 30
0.0
 10
115.9750053963535
 20
-148.0147379187255
 30
0.0
 10
116.0914496237549
 20
-148.0147379187255
 30
0.0
 10
116.2671494935026
 20
-148.0147379187255
 30
0.0
 10
116.430102509955
 20
-147.9334336652736
 30
0.0
 10
116.430102509955
 20
-147.7766818206947
 30
0.0
 10
116.430102509955
 20
-147.6736734656857
 30
0.0
 10
116.3708468676087
 20
-147.5241563216259
 30
0.0
 10
116.0852484518814
 20
-147.5241563216259
 30
0.0
 10
115.8609727357917
 20
-147.5241563216259
 30
0.0
 10
115.7634765335591
 20
-147.643012115867
 30
0.0
 10
115.7634765335591
 20
-147.7587673241714
 30
0.0
  0
SPLINE
  5
AF
330
AA
100
AcDbEntity
  8
レイヤー 1
100
AcDbSpline
210
0.0
220
0.0
230
1.0
 70
     9
 71
     3
 72
    32
 73
    28
 74
     0
 42
0.0000000001
 43
0.0000000001
 40
0.0
 40
0.0
 40
0.0
 40
0.0
 40
1.0
 40
1.0
 40
1.0
 40
2.0
 40
2.0
 40
2.0
 40
3.0
 40
3.0
 40
3.0
 40
4.0
 40
4.0
 40
4.0
 40
5.0
 40
5.0
 40
5.0
 40
6.0
 40
6.0
 40
6.0
 40
7.0
 40
7.0
 40
7.0
 40
8.0
 40
8.0
 40
8.0
 40
9.0
 40
9.0
 40
9.0
 40
9.0
 10
116.6223388380319
 20
-147.7728922156609
 30
0.0
 10
116.6223388380319
 20
-148.2131754186759
 30
0.0
 10
116.0683674840037
 20
-148.2204101191949
 30
0.0
 10
115.8544270543697
 20
-148.2204101191949
 30
0.0
 10
115.6239501664065
 20
-148.2204101191949
 30
0.0
 10
114.976616724728
 20
-148.2038736608657
 30
0.0
 10
114.976616724728
 20
-147.7405083180996
 30
0.0
 10
114.976616724728
 20
-147.5927137217824
 30
0.0
 10
115.0465521630786
 20
-147.3835964258277
 30
0.0
 10
115.3786593678567
 20
-147.3512125282663
 30
0.0
 10
115.3786593678567
 20
-147.3512125282663
 30
0.0
 10
115.3786593678567
 20
-147.5331135698876
 30
0.0
 10
115.3786593678567
 20
-147.5331135698876
 30
0.0
 10
115.3214707828016
 20
-147.5420708181492
 30
0.0
 10
115.1733316769358
 20
-147.5692870724827
 30
0.0
 10
115.1733316769358
 20
-147.7422308658422
 30
0.0
 10
115.1733316769358
 20
-147.9913112694258
 30
0.0
 10
115.5013047671316
 20
-148.0254177147297
 30
0.0
 10
115.706287948504
 20
-148.0364420202825
 30
0.0
 10
115.6280842809888
 20
-147.9568603145733
 30
0.0
 10
115.5688286386425
 20
-147.8993272199696
 30
0.0
 10
115.5688286386425
 20
-147.7442979231334
 30
0.0
 10
115.5688286386425
 20
-147.5909911740397
 30
0.0
 10
115.6770046368793
 20
-147.3329535221945
 30
0.0
 10
116.0831813945903
 20
-147.3329535221945
 30
0.0
 10
116.402541746073
 20
-147.3329535221945
 30
0.0
 10
116.6223388380319
 20
-147.5024522200688
 30
0.0
 10
116.6223388380319
 20
-147.7728922156609
 30
0.0
  0
HATCH
  5
B0
330
AA
100
AcDbEntity
  8
レイヤー 1
 62
   250
420
  2299925
440
 33554687
100
AcDbHatch
 10
0.0
 20
0.0
 30
0.0
210
0.0
220
0.0
230
1.0
  2
SOLID
 70
     1
 71
     1
 91
        2
 92
        1
 93
        1
 72
     4
 94
        3
 73
     0
 74
     0
 95
       17
 96
       13
 40
0.0
 40
0.0
 40
0.0
 40
0.0
 40
1.0
 40
1.0
 40
1.0
 40
2.0
 40
2.0
 40
2.0
 40
3.0
 40
3.0
 40
3.0
 40
4.0
 40
4.0
 40
4.0
 40
4.0
 10
115.7634765335591
 20
-147.7587673241714
 10
115.7634765335591
 20
-147.9823540211641
 10
115.9750053963535
 20
-148.0147379187255
 10
116.0914496237549
 20
-148.0147379187255
 10
116.2671494935026
 20
-148.0147379187255
 10
116.430102509955
 20
-147.9334336652736
 10
116.430102509955
 20
-147.7766818206947
 10
116.430102509955
 20
-147.6736734656857
 10
116.3708468676087
 20
-147.5241563216259
 10
116.0852484518814
 20
-147.5241563216259
 10
115.8609727357917
 20
-147.5241563216259
 10
115.7634765335591
 20
-147.643012115867
 10
115.7634765335591
 20
-147.7587673241714
 97
        0
 97
        1
330
AE
 92
        1
 93
        1
 72
     4
 94
        3
 73
     0
 74
     0
 95
       32
 96
       28
 40
0.0
 40
0.0
 40
0.0
 40
0.0
 40
1.0
 40
1.0
 40
1.0
 40
2.0
 40
2.0
 40
2.0
 40
3.0
 40
3.0
 40
3.0
 40
4.0
 40
4.0
 40
4.0
 40
5.0
 40
5.0
 40
5.0
 40
6.0
 40
6.0
 40
6.0
 40
7.0
 40
7.0
 40
7.0
 40
8.0
 40
8.0
 40
8.0
 40
9.0
 40
9.0
 40
9.0
 40
9.0
 10
116.6223388380319
 20
-147.7728922156609
 10
116.6223388380319
 20
-148.2131754186759
 10
116.0683674840037
 20
-148.2204101191949
 10
115.8544270543697
 20
-148.2204101191949
 10
115.6239501664065
 20
-148.2204101191949
 10
114.976616724728
 20
-148.2038736608657
 10
114.976616724728
 20
-147.7405083180996
 10
114.976616724728
 20
-147.5927137217824
 10
115.0465521630786
 20
-147.3835964258277
 10
115.3786593678567
 20
-147.3512125282663
 10
115.3786593678567
 20
-147.3512125282663
 10
115.3786593678567
 20
-147.5331135698876
 10
115.3786593678567
 20
-147.5331135698876
 10
115.3214707828016
 20
-147.5420708181492
 10
115.1733316769358
 20
-147.5692870724827
 10
115.1733316769358
 20
-147.7422308658422
 10
115.1733316769358
 20
-147.9913112694258
 10
115.5013047671316
 20
-148.0254177147297
 10
115.706287948504
 20
-148.0364420202825
 10
115.6280842809888
 20
-147.9568603145733
 10
115.5688286386425
 20
-147.8993272199696
 10
115.5688286386425
 20
-147.7442979231334
 10
115.5688286386425
 20
-147.5909911740397
 10
115.6770046368793
 20
-147.3329535221945
 10
116.0831813945903
 20
-147.3329535221945
 10
116.402541746073
 20
-147.3329535221945
 10
116.6223388380319
 20
-147.5024522200688
 10
116.6223388380319
 20
-147.7728922156609
 97
        0
 97
        1
330
AF
 75
     2
 76
     1
 98
        1
 10
0.0
 20
0.0
450
        0
451
        0
460
0.0
461
0.0
452
        0
462
0.0
453
        0
470

  0
ENDBLK
  5
AD
330
AA
100
AcDbEntity
  8
0
100
AcDbBlockEnd
  0
BLOCK
  5
B7
330
B5
100
AcDbEntity
  8
0
100
AcDbBlockBegin
  2
Block_6
 70
     0
 10
0.0
 20
0.0
 30
0.0
  3
Block_6
  1

  0
INSERT
  5
BA
330
B5
100
AcDbEntity
  8
レイヤー 1
100
AcDbBlockReference
  2
Block_7
 10
0.0
 20
0.0
 30
0.0
  0
ENDBLK
  5
B8
330
B5
100
AcDbEntity
  8
0
100
AcDbBlockEnd
  0
BLOCK
  5
BB
330
B9
100
AcDbEntity
  8
0
100
AcDbBlockBegin
  2
Block_7
 70
     0
 10
0.0
 20
0.0
 30
0.0
  3
Block_7
  1

  0
SPLINE
  5
BD
330
B9
100
AcDbEntity
  8
レイヤー 1
100
AcDbSpline
210
0.0
220
0.0
230
1.0
 70
     9
 71
     3
 72
    17
 73
    13
 74
     0
 42
0.0000000001
 43
0.0000000001
 40
0.0
 40
0.0
 40
0.0
 40
0.0
 40
1.0
 40
1.0
 40
1.0
 40
2.0
 40
2.0
 40
2.0
 40
3.0
 40
3.0
 40
3.0
 40
4.0
 40
4.0
 40
4.0
 40
4.0
 10
119.4045979519197
 20
-151.8532633083908
 30
0.0
 10
119.4045979519197
 20
-152.0658256998308
 30
0.0
 10
119.6881293103557
 20
-152.1057888074597
 30
0.0
 10
120.0329833684292
 20
-152.1057888074597
 30
0.0
 10
120.3523437199119
 20
-152.1057888074597
 30
0.0
 10
120.6610242753903
 20
-152.0751274576409
 30
0.0
 10
120.6610242753903
 20
-151.8532633083908
 30
0.0
 10
120.6610242753903
 20
-151.642078955145
 30
0.0
 10
120.3799044837939
 20
-151.600737809322
 30
0.0
 10
120.0329833684292
 20
-151.600737809322
 30
0.0
 10
119.7132785073981
 20
-151.600737809322
 30
0.0
 10
119.4045979519197
 20
-151.6331217068834
 30
0.0
 10
119.4045979519197
 20
-151.8532633083908
 30
0.0
  0
SPLINE
  5
BE
330
B9
100
AcDbEntity
  8
レイヤー 1
100
AcDbSpline
210
0.0
220
0.0
230
1.0
 70
     9
 71
     3
 72
    29
 73
    25
 74
     0
 42
0.0000000001
 43
0.0000000001
 40
0.0
 40
0.0
 40
0.0
 40
0.0
 40
1.0
 40
1.0
 40
1.0
 40
2.0
 40
2.0
 40
2.0
 40
3.0
 40
3.0
 40
3.0
 40
4.0
 40
4.0
 40
4.0
 40
5.0
 40
5.0
 40
5.0
 40
6.0
 40
6.0
 40
6.0
 40
7.0
 40
7.0
 40
7.0
 40
8.0
 40
8.0
 40
8.0
 40
8.0
 10
120.6272623396348
 20
-151.5142659126423
 30
0.0
 10
120.836724145138
 20
-151.6062499620984
 30
0.0
 10
120.8556721703069
 20
-151.7540445584157
 30
0.0
 10
120.8556721703069
 20
-151.8532633083908
 30
0.0
 10
120.8556721703069
 20
-151.9903781087038
 30
0.0
 10
120.809163381256
 20
-152.1109564506875
 30
0.0
 10
120.6272623396348
 20
-152.1922607041394
 30
0.0
 10
120.4326144447182
 20
-152.2804551485618
 30
0.0
 10
120.195591875333
 20
-152.2966470973425
 30
0.0
 10
120.0329833684292
 20
-152.2966470973425
 30
0.0
 10
119.8889783771458
 20
-152.2966470973425
 30
0.0
 10
119.637141897174
 20
-152.282522205853
 30
0.0
 10
119.4383598876751
 20
-152.1922607041394
 30
0.0
 10
119.2354437635939
 20
-152.1002766546833
 30
0.0
 10
119.2120171142942
 20
-151.9631618543703
 30
0.0
 10
119.2120171142942
 20
-151.8532633083908
 30
0.0
 10
119.2120171142942
 20
-151.7178710558205
 30
0.0
 10
119.2564588460539
 20
-151.5952256565456
 30
0.0
 10
119.4383598876751
 20
-151.5142659126423
 30
0.0
 10
119.6309407253006
 20
-151.4295165637051
 30
0.0
 10
119.8593505559726
 20
-151.4095350098906
 30
0.0
 10
120.0329833684292
 20
-151.4095350098906
 30
0.0
 10
120.2042046140461
 20
-151.4095350098906
 30
0.0
 10
120.4346815020094
 20
-151.4277940159625
 30
0.0
 10
120.6272623396348
 20
-151.5142659126423
 30
0.0
  0
HATCH
  5
BF
330
B9
100
AcDbEntity
  8
レイヤー 1
 62
   250
420
  2299925
440
 33554687
100
AcDbHatch
 10
0.0
 20
0.0
 30
0.0
210
0.0
220
0.0
230
1.0
  2
SOLID
 70
     1
 71
     1
 91
        2
 92
        1
 93
        1
 72
     4
 94
        3
 73
     0
 74
     0
 95
       17
 96
       13
 40
0.0
 40
0.0
 40
0.0
 40
0.0
 40
1.0
 40
1.0
 40
1.0
 40
2.0
 40
2.0
 40
2.0
 40
3.0
 40
3.0
 40
3.0
 40
4.0
 40
4.0
 40
4.0
 40
4.0
 10
119.4045979519197
 20
-151.8532633083908
 10
119.4045979519197
 20
-152.0658256998308
 10
119.6881293103557
 20
-152.1057888074597
 10
120.0329833684292
 20
-152.1057888074597
 10
120.3523437199119
 20
-152.1057888074597
 10
120.6610242753903
 20
-152.0751274576409
 10
120.6610242753903
 20
-151.8532633083908
 10
120.6610242753903
 20
-151.642078955145
 10
120.3799044837939
 20
-151.600737809322
 10
120.0329833684292
 20
-151.600737809322
 10
119.7132785073981
 20
-151.600737809322
 10
119.4045979519197
 20
-151.6331217068834
 10
119.4045979519197
 20
-151.8532633083908
 97
        0
 97
        1
330
BD
 92
        1
 93
        1
 72
     4
 94
        3
 73
     0
 74
     0
 95
       29
 96
       25
 40
0.0
 40
0.0
 40
0.0
 40
0.0
 40
1.0
 40
1.0
 40
1.0
 40
2.0
 40
2.0
 40
2.0
 40
3.0
 40
3.0
 40
3.0
 40
4.0
 40
4.0
 40
4.0
 40
5.0
 40
5.0
 40
5.0
 40
6.0
 40
6.0
 40
6.0
 40
7.0
 40
7.0
 40
7.0
 40
8.0
 40
8.0
 40
8.0
 40
8.0
 10
120.6272623396348
 20
-151.5142659126423
 10
120.836724145138
 20
-151.6062499620984
 10
120.8556721703069
 20
-151.7540445584157
 10
120.8556721703069
 20
-151.8532633083908
 10
120.8556721703069
 20
-151.9903781087038
 10
120.809163381256
 20
-152.1109564506875
 10
120.6272623396348
 20
-152.1922607041394
 10
120.4326144447182
 20
-152.2804551485618
 10
120.195591875333
 20
-152.2966470973425
 10
120.0329833684292
 20
-152.2966470973425
 10
119.8889783771458
 20
-152.2966470973425
 10
119.637141897174
 20
-152.282522205853
 10
119.4383598876751
 20
-152.1922607041394
 10
119.2354437635939
 20
-152.1002766546833
 10
119.2120171142942
 20
-151.9631618543703
 10
119.2120171142942
 20
-151.8532633083908
 10
119.2120171142942
 20
-151.7178710558205
 10
119.2564588460539
 20
-151.5952256565456
 10
119.4383598876751
 20
-151.5142659126423
 10
119.6309407253006
 20
-151.4295165637051
 10
119.8593505559726
 20
-151.4095350098906
 10
120.0329833684292
 20
-151.4095350098906
 10
120.2042046140461
 20
-151.4095350098906
 10
120.4346815020094
 20
-151.4277940159625
 10
120.6272623396348
 20
-151.5142659126423
 97
        0
 97
        1
330
BE
 75
     2
 76
     1
 98
        1
 10
0.0
 20
0.0
450
        0
451
        0
460
0.0
461
0.0
452
        0
462
0.0
453
        0
470

  0
SPLINE
  5
C0
330
B9
100
AcDbEntity
  8
レイヤー 1
100
AcDbSpline
210
0.0
220
0.0
230
1.0
 70
    11
 71
     3
 72
    17
 73
    13
 74
     0
 42
0.0000000001
 43
0.0000000001
 40
0.0
 40
0.0
 40
0.0
 40
0.0
 40
1.0
 40
1.0
 40
1.0
 40
2.0
 40
2.0
 40
2.0
 40
3.0
 40
3.0
 40
3.0
 40
4.0
 40
4.0
 40
4.0
 40
4.0
 10
120.8050292666737
 20
-151.2266004396239
 30
0.0
 10
120.8050292666737
 20
-151.2266004396239
 30
0.0
 10
120.553192786702
 20
-151.2266004396239
 30
0.0
 10
120.553192786702
 20
-151.2266004396239
 30
0.0
 10
120.553192786702
 20
-151.2266004396239
 30
0.0
 10
120.553192786702
 20
-151.0119709908928
 30
0.0
 10
120.553192786702
 20
-151.0119709908928
 30
0.0
 10
120.553192786702
 20
-151.0119709908928
 30
0.0
 10
120.8050292666737
 20
-151.0119709908928
 30
0.0
 10
120.8050292666737
 20
-151.0119709908928
 30
0.0
 10
120.8050292666737
 20
-151.0119709908928
 30
0.0
 10
120.8050292666737
 20
-151.2266004396239
 30
0.0
 10
120.8050292666737
 20
-151.2266004396239
 30
0.0
  0
HATCH
  5
C1
330
B9
100
AcDbEntity
  8
レイヤー 1
 62
   250
420
  2299925
440
 33554687
100
AcDbHatch
 10
0.0
 20
0.0
 30
0.0
210
0.0
220
0.0
230
1.0
  2
SOLID
 70
     1
 71
     1
 91
        1
 92
        1
 93
        1
 72
     4
 94
        3
 73
     0
 74
     0
 95
       17
 96
       13
 40
0.0
 40
0.0
 40
0.0
 40
0.0
 40
1.0
 40
1.0
 40
1.0
 40
2.0
 40
2.0
 40
2.0
 40
3.0
 40
3.0
 40
3.0
 40
4.0
 40
4.0
 40
4.0
 40
4.0
 10
120.8050292666737
 20
-151.2266004396239
 10
120.8050292666737
 20
-151.2266004396239
 10
120.553192786702
 20
-151.2266004396239
 10
120.553192786702
 20
-151.2266004396239
 10
120.553192786702
 20
-151.2266004396239
 10
120.553192786702
 20
-151.0119709908928
 10
120.553192786702
 20
-151.0119709908928
 10
120.553192786702
 20
-151.0119709908928
 10
120.8050292666737
 20
-151.0119709908928
 10
120.8050292666737
 20
-151.0119709908928
 10
120.8050292666737
 20
-151.0119709908928
 10
120.8050292666737
 20
-151.2266004396239
 10
120.8050292666737
 20
-151.2266004396239
 97
        0
 97
        1
330
C0
 75
     2
 76
     1
 98
        1
 10
0.0
 20
0.0
450
        0
451
        0
460
0.0
461
0.0
452
        0
462
0.0
453
        0
470

  0
SPLINE
  5
C2
330
B9
100
AcDbEntity
  8
レイヤー 1
100
AcDbSpline
210
0.0
220
0.0
230
1.0
 70
    11
 71
     3
 72
    14
 73
    10
 74
     0
 42
0.0000000001
 43
0.0000000001
 40
0.0
 40
0.0
 40
0.0
 40
0.0
 40
1.0
 40
1.0
 40
1.0
 40
2.0
 40
2.0
 40
2.0
 40
3.0
 40
3.0
 40
3.0
 40
3.0
 10
119.6033799614186
 20
-150.2871229007963
 30
0.0
 10
119.6033799614186
 20
-150.2871229007963
 30
0.0
 10
120.2593261418102
 20
-150.676763200178
 30
0.0
 10
120.2593261418102
 20
-150.676763200178
 30
0.0
 10
120.2593261418102
 20
-150.676763200178
 30
0.0
 10
120.2593261418102
 20
-150.2871229007963
 30
0.0
 10
120.2593261418102
 20
-150.2871229007963
 30
0.0
 10
120.2593261418102
 20
-150.2871229007963
 30
0.0
 10
119.6033799614186
 20
-150.2871229007963
 30
0.0
 10
119.6033799614186
 20
-150.2871229007963
 30
0.0
  0
SPLINE
  5
C3
330
B9
100
AcDbEntity
  8
レイヤー 1
100
AcDbSpline
210
0.0
220
0.0
230
1.0
 70
    11
 71
     3
 72
    38
 73
    34
 74
     0
 42
0.0000000001
 43
0.0000000001
 40
0.0
 40
0.0
 40
0.0
 40
0.0
 40
1.0
 40
1.0
 40
1.0
 40
2.0
 40
2.0
 40
2.0
 40
3.0
 40
3.0
 40
3.0
 40
4.0
 40
4.0
 40
4.0
 40
5.0
 40
5.0
 40
5.0
 40
6.0
 40
6.0
 40
6.0
 40
7.0
 40
7.0
 40
7.0
 40
8.0
 40
8.0
 40
8.0
 40
9.0
 40
9.0
 40
9.0
 40
10.0
 40
10.0
 40
10.0
 40
11.0
 40
11.0
 40
11.0
 40
11.0
 10
120.4581081513091
 20
-150.1014322541413
 30
0.0
 10
120.4581081513091
 20
-150.1014322541413
 30
0.0
 10
120.8050292666737
 20
-150.1014322541413
 30
0.0
 10
120.8050292666737
 20
-150.1014322541413
 30
0.0
 10
120.8050292666737
 20
-150.1014322541413
 30
0.0
 10
120.8050292666737
 20
-150.2871229007963
 30
0.0
 10
120.8050292666737
 20
-150.2871229007963
 30
0.0
 10
120.8050292666737
 20
-150.2871229007963
 30
0.0
 10
120.4581081513091
 20
-150.2871229007963
 30
0.0
 10
120.4581081513091
 20
-150.2871229007963
 30
0.0
 10
120.4581081513091
 20
-150.2871229007963
 30
0.0
 10
120.4581081513091
 20
-150.8462618980523
 30
0.0
 10
120.4581081513091
 20
-150.8462618980523
 30
0.0
 10
120.4581081513091
 20
-150.8462618980523
 30
0.0
 10
120.2338324352193
 20
-150.8462618980523
 30
0.0
 10
120.2338324352193
 20
-150.8462618980523
 30
0.0
 10
120.2338324352193
 20
-150.8462618980523
 30
0.0
 10
119.2605929606362
 20
-150.2674858565303
 30
0.0
 10
119.2605929606362
 20
-150.2674858565303
 30
0.0
 10
119.2605929606362
 20
-150.2674858565303
 30
0.0
 10
119.2605929606362
 20
-150.1014322541413
 30
0.0
 10
119.2605929606362
 20
-150.1014322541413
 30
0.0
 10
119.2605929606362
 20
-150.1014322541413
 30
0.0
 10
120.2593261418102
 20
-150.1014322541413
 30
0.0
 10
120.2593261418102
 20
-150.1014322541413
 30
0.0
 10
120.2593261418102
 20
-150.1014322541413
 30
0.0
 10
120.2593261418102
 20
-149.924698855748
 30
0.0
 10
120.2593261418102
 20
-149.924698855748
 30
0.0
 10
120.2593261418102
 20
-149.924698855748
 30
0.0
 10
120.4581081513091
 20
-149.924698855748
 30
0.0
 10
120.4581081513091
 20
-149.924698855748
 30
0.0
 10
120.4581081513091
 20
-149.924698855748
 30
0.0
 10
120.4581081513091
 20
-150.1014322541413
 30
0.0
 10
120.4581081513091
 20
-150.1014322541413
 30
0.0
  0
HATCH
  5
C4
330
B9
100
AcDbEntity
  8
レイヤー 1
 62
   250
420
  2299925
440
 33554687
100
AcDbHatch
 10
0.0
 20
0.0
 30
0.0
210
0.0
220
0.0
230
1.0
  2
SOLID
 70
     1
 71
     1
 91
        2
 92
        1
 93
        1
 72
     4
 94
        3
 73
     0
 74
     0
 95
       14
 96
       10
 40
0.0
 40
0.0
 40
0.0
 40
0.0
 40
1.0
 40
1.0
 40
1.0
 40
2.0
 40
2.0
 40
2.0
 40
3.0
 40
3.0
 40
3.0
 40
3.0
 10
119.6033799614186
 20
-150.2871229007963
 10
119.6033799614186
 20
-150.2871229007963
 10
120.2593261418102
 20
-150.676763200178
 10
120.2593261418102
 20
-150.676763200178
 10
120.2593261418102
 20
-150.676763200178
 10
120.2593261418102
 20
-150.2871229007963
 10
120.2593261418102
 20
-150.2871229007963
 10
120.2593261418102
 20
-150.2871229007963
 10
119.6033799614186
 20
-150.2871229007963
 10
119.6033799614186
 20
-150.2871229007963
 97
        0
 97
        1
330
C2
 92
        1
 93
        1
 72
     4
 94
        3
 73
     0
 74
     0
 95
       38
 96
       34
 40
0.0
 40
0.0
 40
0.0
 40
0.0
 40
1.0
 40
1.0
 40
1.0
 40
2.0
 40
2.0
 40
2.0
 40
3.0
 40
3.0
 40
3.0
 40
4.0
 40
4.0
 40
4.0
 40
5.0
 40
5.0
 40
5.0
 40
6.0
 40
6.0
 40
6.0
 40
7.0
 40
7.0
 40
7.0
 40
8.0
 40
8.0
 40
8.0
 40
9.0
 40
9.0
 40
9.0
 40
10.0
 40
10.0
 40
10.0
 40
11.0
 40
11.0
 40
11.0
 40
11.0
 10
120.4581081513091
 20
-150.1014322541413
 10
120.4581081513091
 20
-150.1014322541413
 10
120.8050292666737
 20
-150.1014322541413
 10
120.8050292666737
 20
-150.1014322541413
 10
120.8050292666737
 20
-150.1014322541413
 10
120.8050292666737
 20
-150.2871229007963
 10
120.8050292666737
 20
-150.2871229007963
 10
120.8050292666737
 20
-150.2871229007963
 10
120.4581081513091
 20
-150.2871229007963
 10
120.4581081513091
 20
-150.2871229007963
 10
120.4581081513091
 20
-150.2871229007963
 10
120.4581081513091
 20
-150.8462618980523
 10
120.4581081513091
 20
-150.8462618980523
 10
120.4581081513091
 20
-150.8462618980523
 10
120.2338324352193
 20
-150.8462618980523
 10
120.2338324352193
 20
-150.8462618980523
 10
120.2338324352193
 20
-150.8462618980523
 10
119.2605929606362
 20
-150.2674858565303
 10
119.2605929606362
 20
-150.2674858565303
 10
119.2605929606362
 20
-150.2674858565303
 10
119.2605929606362
 20
-150.1014322541413
 10
119.2605929606362
 20
-150.1014322541413
 10
119.2605929606362
 20
-150.1014322541413
 10
120.2593261418102
 20
-150.1014322541413
 10
120.2593261418102
 20
-150.1014322541413
 10
120.2593261418102
 20
-150.1014322541413
 10
120.2593261418102
 20
-149.924698855748
 10
120.2593261418102
 20
-149.924698855748
 10
120.2593261418102
 20
-149.924698855748
 10
120.4581081513091
 20
-149.924698855748
 10
120.4581081513091
 20
-149.924698855748
 10
120.4581081513091
 20
-149.924698855748
 10
120.4581081513091
 20
-150.1014322541413
 10
120.4581081513091
 20
-150.1014322541413
 97
        0
 97
        1
330
C3
 75
     2
 76
     1
 98
        1
 10
0.0
 20
0.0
450
        0
451
        0
460
0.0
461
0.0
452
        0
462
0.0
453
        0
470

  0
ENDBLK
  5
BC
330
B9
100
AcDbEntity
  8
0
100
AcDbBlockEnd
  0
BLOCK
  5
CB
330
C9
100
AcDbEntity
  8
0
100
AcDbBlockBegin
  2
Block_8
 70
     0
 10
0.0
 20
0.0
 30
0.0
  3
Block_8
  1

  0
INSERT
  5
CE
330
C9
100
AcDbEntity
  8
レイヤー 1
100
AcDbBlockReference
  2
Block_9
 10
0.0
 20
0.0
 30
0.0
  0
ENDBLK
  5
CC
330
C9
100
AcDbEntity
  8
0
100
AcDbBlockEnd
  0
BLOCK
  5
CF
330
CD
100
AcDbEntity
  8
0
100
AcDbBlockBegin
  2
Block_9
 70
     0
 10
0.0
 20
0.0
 30
0.0
  3
Block_9
  1

  0
SPLINE
  5
D1
330
CD
100
AcDbEntity
  8
レイヤー 1
100
AcDbSpline
210
0.0
220
0.0
230
1.0
 70
    11
 71
     3
 72
    26
 73
    22
 74
     0
 42
0.0000000001
 43
0.0000000001
 40
0.0
 40
0.0
 40
0.0
 40
0.0
 40
1.0
 40
1.0
 40
1.0
 40
2.0
 40
2.0
 40
2.0
 40
3.0
 40
3.0
 40
3.0
 40
4.0
 40
4.0
 40
4.0
 40
5.0
 40
5.0
 40
5.0
 40
6.0
 40
6.0
 40
6.0
 40
7.0
 40
7.0
 40
7.0
 40
7.0
 10
90.52195093223062
 20
-144.2809434318117
 30
0.0
 10
90.52195093223062
 20
-144.2809434318117
 30
0.0
 10
89.41779782920805
 20
-144.2809434318117
 30
0.0
 10
89.41779782920805
 20
-144.2809434318117
 30
0.0
 10
89.41779782920805
 20
-144.2809434318117
 30
0.0
 10
89.41779782920805
 20
-144.5624077329566
 30
0.0
 10
89.41779782920805
 20
-144.5624077329566
 30
0.0
 10
89.41779782920805
 20
-144.5624077329566
 30
0.0
 10
89.26965872334232
 20
-144.5624077329566
 30
0.0
 10
89.26965872334232
 20
-144.5624077329566
 30
0.0
 10
89.25484481275573
 20
-144.2792208840691
 30
0.0
 10
89.09189179630342
 20
-144.2396022859887
 30
0.0
 10
88.97751462619313
 20
-144.2144530889463
 30
0.0
 10
88.97751462619313
 20
-144.2144530889463
 30
0.0
 10
88.97751462619313
 20
-144.0897406323803
 30
0.0
 10
88.97751462619313
 20
-144.0897406323803
 30
0.0
 10
88.97751462619313
 20
-144.0897406323803
 30
0.0
 10
90.52195093223062
 20
-144.0897406323803
 30
0.0
 10
90.52195093223062
 20
-144.0897406323803
 30
0.0
 10
90.52195093223062
 20
-144.0897406323803
 30
0.0
 10
90.52195093223062
 20
-144.2809434318117
 30
0.0
 10
90.52195093223062
 20
-144.2809434318117
 30
0.0
  0
HATCH
  5
D2
330
CD
100
AcDbEntity
  8
レイヤー 1
 62
   250
420
  2299925
440
 33554687
100
AcDbHatch
 10
0.0
 20
0.0
 30
0.0
210
0.0
220
0.0
230
1.0
  2
SOLID
 70
     1
 71
     1
 91
        1
 92
        1
 93
        1
 72
     4
 94
        3
 73
     0
 74
     0
 95
       26
 96
       22
 40
0.0
 40
0.0
 40
0.0
 40
0.0
 40
1.0
 40
1.0
 40
1.0
 40
2.0
 40
2.0
 40
2.0
 40
3.0
 40
3.0
 40
3.0
 40
4.0
 40
4.0
 40
4.0
 40
5.0
 40
5.0
 40
5.0
 40
6.0
 40
6.0
 40
6.0
 40
7.0
 40
7.0
 40
7.0
 40
7.0
 10
90.52195093223062
 20
-144.2809434318117
 10
90.52195093223062
 20
-144.2809434318117
 10
89.41779782920805
 20
-144.2809434318117
 10
89.41779782920805
 20
-144.2809434318117
 10
89.41779782920805
 20
-144.2809434318117
 10
89.41779782920805
 20
-144.5624077329566
 10
89.41779782920805
 20
-144.5624077329566
 10
89.41779782920805
 20
-144.5624077329566
 10
89.26965872334232
 20
-144.5624077329566
 10
89.26965872334232
 20
-144.5624077329566
 10
89.25484481275573
 20
-144.2792208840691
 10
89.09189179630342
 20
-144.2396022859887
 10
88.97751462619313
 20
-144.2144530889463
 10
88.97751462619313
 20
-144.2144530889463
 10
88.97751462619313
 20
-144.0897406323803
 10
88.97751462619313
 20
-144.0897406323803
 10
88.97751462619313
 20
-144.0897406323803
 10
90.52195093223062
 20
-144.0897406323803
 10
90.52195093223062
 20
-144.0897406323803
 10
90.52195093223062
 20
-144.0897406323803
 10
90.52195093223062
 20
-144.2809434318117
 10
90.52195093223062
 20
-144.2809434318117
 97
        0
 97
        1
330
D1
 75
     2
 76
     1
 98
        1
 10
0.0
 20
0.0
450
        0
451
        0
460
0.0
461
0.0
452
        0
462
0.0
453
        0
470

  0
SPLINE
  5
D3
330
CD
100
AcDbEntity
  8
レイヤー 1
100
AcDbSpline
210
0.0
220
0.0
230
1.0
 70
    11
 71
     3
 72
    17
 73
    13
 74
     0
 42
0.0000000001
 43
0.0000000001
 40
0.0
 40
0.0
 40
0.0
 40
0.0
 40
1.0
 40
1.0
 40
1.0
 40
2.0
 40
2.0
 40
2.0
 40
3.0
 40
3.0
 40
3.0
 40
4.0
 40
4.0
 40
4.0
 40
4.0
 10
90.52195093223062
 20
-143.6129394172217
 30
0.0
 10
90.52195093223062
 20
-143.6129394172217
 30
0.0
 10
90.27011445225886
 20
-143.6129394172217
 30
0.0
 10
90.27011445225886
 20
-143.6129394172217
 30
0.0
 10
90.27011445225886
 20
-143.6129394172217
 30
0.0
 10
90.27011445225886
 20
-143.3983099684907
 30
0.0
 10
90.27011445225886
 20
-143.3983099684907
 30
0.0
 10
90.27011445225886
 20
-143.3983099684907
 30
0.0
 10
90.52195093223062
 20
-143.3983099684907
 30
0.0
 10
90.52195093223062
 20
-143.3983099684907
 30
0.0
 10
90.52195093223062
 20
-143.3983099684907
 30
0.0
 10
90.52195093223062
 20
-143.6129394172217
 30
0.0
 10
90.52195093223062
 20
-143.6129394172217
 30
0.0
  0
HATCH
  5
D4
330
CD
100
AcDbEntity
  8
レイヤー 1
 62
   250
420
  2299925
440
 33554687
100
AcDbHatch
 10
0.0
 20
0.0
 30
0.0
210
0.0
220
0.0
230
1.0
  2
SOLID
 70
     1
 71
     1
 91
        1
 92
        1
 93
        1
 72
     4
 94
        3
 73
     0
 74
     0
 95
       17
 96
       13
 40
0.0
 40
0.0
 40
0.0
 40
0.0
 40
1.0
 40
1.0
 40
1.0
 40
2.0
 40
2.0
 40
2.0
 40
3.0
 40
3.0
 40
3.0
 40
4.0
 40
4.0
 40
4.0
 40
4.0
 10
90.52195093223062
 20
-143.6129394172217
 10
90.52195093223062
 20
-143.6129394172217
 10
90.27011445225886
 20
-143.6129394172217
 10
90.27011445225886
 20
-143.6129394172217
 10
90.27011445225886
 20
-143.6129394172217
 10
90.27011445225886
 20
-143.3983099684907
 10
90.27011445225886
 20
-143.3983099684907
 10
90.27011445225886
 20
-143.3983099684907
 10
90.52195093223062
 20
-143.3983099684907
 10
90.52195093223062
 20
-143.3983099684907
 10
90.52195093223062
 20
-143.3983099684907
 10
90.52195093223062
 20
-143.6129394172217
 10
90.52195093223062
 20
-143.6129394172217
 97
        0
 97
        1
330
D3
 75
     2
 76
     1
 98
        1
 10
0.0
 20
0.0
450
        0
451
        0
460
0.0
461
0.0
452
        0
462
0.0
453
        0
470

  0
SPLINE
  5
D5
330
CD
100
AcDbEntity
  8
レイヤー 1
100
AcDbSpline
210
0.0
220
0.0
230
1.0
 70
     9
 71
     3
 72
    17
 73
    13
 74
     0
 42
0.0000000001
 43
0.0000000001
 40
0.0
 40
0.0
 40
0.0
 40
0.0
 40
1.0
 40
1.0
 40
1.0
 40
2.0
 40
2.0
 40
2.0
 40
3.0
 40
3.0
 40
3.0
 40
4.0
 40
4.0
 40
4.0
 40
4.0
 10
89.12151961747657
 20
-142.7709580806267
 30
0.0
 10
89.12151961747657
 20
-142.9838649816151
 30
0.0
 10
89.40505097591262
 20
-143.0234835796955
 30
0.0
 10
89.74990503398613
 20
-143.0234835796955
 30
0.0
 10
90.06926538546879
 20
-143.0234835796955
 30
0.0
 10
90.37794594094718
 20
-142.9928222298768
 30
0.0
 10
90.37794594094718
 20
-142.7709580806267
 30
0.0
 10
90.37794594094718
 20
-142.5597737273809
 30
0.0
 10
90.0968261493508
 20
-142.5184325815579
 30
0.0
 10
89.74990503398613
 20
-142.5184325815579
 30
0.0
 10
89.43020017295495
 20
-142.5184325815579
 30
0.0
 10
89.12151961747657
 20
-142.5508164791192
 30
0.0
 10
89.12151961747657
 20
-142.7709580806267
 30
0.0
  0
SPLINE
  5
D6
330
CD
100
AcDbEntity
  8
レイヤー 1
100
AcDbSpline
210
0.0
220
0.0
230
1.0
 70
     9
 71
     3
 72
    29
 73
    25
 74
     0
 42
0.0000000001
 43
0.0000000001
 40
0.0
 40
0.0
 40
0.0
 40
0.0
 40
1.0
 40
1.0
 40
1.0
 40
2.0
 40
2.0
 40
2.0
 40
3.0
 40
3.0
 40
3.0
 40
4.0
 40
4.0
 40
4.0
 40
5.0
 40
5.0
 40
5.0
 40
6.0
 40
6.0
 40
6.0
 40
7.0
 40
7.0
 40
7.0
 40
8.0
 40
8.0
 40
8.0
 40
8.0
 10
90.34418400519173
 20
-142.4319606848781
 30
0.0
 10
90.55364581069493
 20
-142.5239447343343
 30
0.0
 10
90.5725938358638
 20
-142.6717393306515
 30
0.0
 10
90.5725938358638
 20
-142.7709580806267
 30
0.0
 10
90.5725938358638
 20
-142.9080728809396
 30
0.0
 10
90.52608504681293
 20
-143.0286512229234
 30
0.0
 10
90.34418400519173
 20
-143.1099554763753
 30
0.0
 10
90.14953611027513
 20
-143.1981499207977
 30
0.0
 10
89.91251354088992
 20
-143.2146863791269
 30
0.0
 10
89.74990503398613
 20
-143.2146863791269
 30
0.0
 10
89.60590004270271
 20
-143.2146863791269
 30
0.0
 10
89.35406356273093
 20
-143.2002169780888
 30
0.0
 10
89.15528155323201
 20
-143.1099554763753
 30
0.0
 10
88.9523654291508
 20
-143.0179714269191
 30
0.0
 10
88.92893877985111
 20
-142.8808566266061
 30
0.0
 10
88.92893877985111
 20
-142.7709580806267
 30
0.0
 10
88.92893877985111
 20
-142.6355658280564
 30
0.0
 10
88.97338051161083
 20
-142.5129204287815
 30
0.0
 10
89.15528155323201
 20
-142.4319606848781
 30
0.0
 10
89.34786239085749
 20
-142.347211335941
 30
0.0
 10
89.57627222152956
 20
-142.3272297821265
 30
0.0
 10
89.74990503398613
 20
-142.3272297821265
 30
0.0
 10
89.92112627960306
 20
-142.3272297821265
 30
0.0
 10
90.15160316756626
 20
-142.3454887881983
 30
0.0
 10
90.34418400519173
 20
-142.4319606848781
 30
0.0
  0
HATCH
  5
D7
330
CD
100
AcDbEntity
  8
レイヤー 1
 62
   250
420
  2299925
440
 33554687
100
AcDbHatch
 10
0.0
 20
0.0
 30
0.0
210
0.0
220
0.0
230
1.0
  2
SOLID
 70
     1
 71
     1
 91
        2
 92
        1
 93
        1
 72
     4
 94
        3
 73
     0
 74
     0
 95
       17
 96
       13
 40
0.0
 40
0.0
 40
0.0
 40
0.0
 40
1.0
 40
1.0
 40
1.0
 40
2.0
 40
2.0
 40
2.0
 40
3.0
 40
3.0
 40
3.0
 40
4.0
 40
4.0
 40
4.0
 40
4.0
 10
89.12151961747657
 20
-142.7709580806267
 10
89.12151961747657
 20
-142.9838649816151
 10
89.40505097591262
 20
-143.0234835796955
 10
89.74990503398613
 20
-143.0234835796955
 10
90.06926538546879
 20
-143.0234835796955
 10
90.37794594094718
 20
-142.9928222298768
 10
90.37794594094718
 20
-142.7709580806267
 10
90.37794594094718
 20
-142.5597737273809
 10
90.0968261493508
 20
-142.5184325815579
 10
89.74990503398613
 20
-142.5184325815579
 10
89.43020017295495
 20
-142.5184325815579
 10
89.12151961747657
 20
-142.5508164791192
 10
89.12151961747657
 20
-142.7709580806267
 97
        0
 97
        1
330
D5
 92
        1
 93
        1
 72
     4
 94
        3
 73
     0
 74
     0
 95
       29
 96
       25
 40
0.0
 40
0.0
 40
0.0
 40
0.0
 40
1.0
 40
1.0
 40
1.0
 40
2.0
 40
2.0
 40
2.0
 40
3.0
 40
3.0
 40
3.0
 40
4.0
 40
4.0
 40
4.0
 40
5.0
 40
5.0
 40
5.0
 40
6.0
 40
6.0
 40
6.0
 40
7.0
 40
7.0
 40
7.0
 40
8.0
 40
8.0
 40
8.0
 40
8.0
 10
90.34418400519173
 20
-142.4319606848781
 10
90.55364581069493
 20
-142.5239447343343
 10
90.5725938358638
 20
-142.6717393306515
 10
90.5725938358638
 20
-142.7709580806267
 10
90.5725938358638
 20
-142.9080728809396
 10
90.52608504681293
 20
-143.0286512229234
 10
90.34418400519173
 20
-143.1099554763753
 10
90.14953611027513
 20
-143.1981499207977
 10
89.91251354088992
 20
-143.2146863791269
 10
89.74990503398613
 20
-143.2146863791269
 10
89.60590004270271
 20
-143.2146863791269
 10
89.35406356273093
 20
-143.2002169780888
 10
89.15528155323201
 20
-143.1099554763753
 10
88.9523654291508
 20
-143.0179714269191
 10
88.92893877985111
 20
-142.8808566266061
 10
88.92893877985111
 20
-142.7709580806267
 10
88.92893877985111
 20
-142.6355658280564
 10
88.97338051161083
 20
-142.5129204287815
 10
89.15528155323201
 20
-142.4319606848781
 10
89.34786239085749
 20
-142.347211335941
 10
89.57627222152956
 20
-142.3272297821265
 10
89.74990503398613
 20
-142.3272297821265
 10
89.92112627960306
 20
-142.3272297821265
 10
90.15160316756626
 20
-142.3454887881983
 10
90.34418400519173
 20
-142.4319606848781
 97
        0
 97
        1
330
D6
 75
     2
 76
     1
 98
        1
 10
0.0
 20
0.0
450
        0
451
        0
460
0.0
461
0.0
452
        0
462
0.0
453
        0
470

  0
ENDBLK
  5
D0
330
CD
100
AcDbEntity
  8
0
100
AcDbBlockEnd
  0
BLOCK
  5
DC
330
DA
100
AcDbEntity
  8
0
100
AcDbBlockBegin
  2
Block_10
 70
     0
 10
0.0
 20
0.0
 30
0.0
  3
Block_10
  1

  0
LINE
  5
DE
330
DA
100
AcDbEntity
  8
レイヤー 1
 62
    18
420
        0
370
     9
100
AcDbLine
 10
107.9131986060402
 20
-149.9843090599635
 30
0.0
 11
107.6463537481799
 21
-149.0205368266924
 31
0.0
  0
LINE
  5
DF
330
DA
100
AcDbEntity
  8
レイヤー 1
 62
    18
420
        0
370
     9
100
AcDbLine
 10
107.9131986060402
 20
-149.9843090599635
 30
0.0
 11
107.8787643986632
 21
-148.3703484971591
 31
0.0
  0
LINE
  5
E0
330
DA
100
AcDbEntity
  8
レイヤー 1
 62
    18
420
        0
370
     9
100
AcDbLine
 10
107.9131986060402
 20
-149.9843090599635
 30
0.0
 11
108.1640466835462
 21
-149.016128604576
 31
0.0
  0
ENDBLK
  5
DD
330
DA
100
AcDbEntity
  8
0
100
AcDbBlockEnd
  0
BLOCK
  5
E3
330
E1
100
AcDbEntity
  8
0
100
AcDbBlockBegin
  2
Block_11
 70
     0
 10
0.0
 20
0.0
 30
0.0
  3
Block_11
  1

  0
INSERT
  5
E6
330
E1
100
AcDbEntity
  8
レイヤー 1
100
AcDbBlockReference
  2
Block_12
 10
0.0
 20
0.0
 30
0.0
  0
ENDBLK
  5
E4
330
E1
100
AcDbEntity
  8
0
100
AcDbBlockEnd
  0
BLOCK
  5
E7
330
E5
100
AcDbEntity
  8
0
100
AcDbBlockBegin
  2
Block_12
 70
     0
 10
0.0
 20
0.0
 30
0.0
  3
Block_12
  1

  0
SPLINE
  5
E9
330
E5
100
AcDbEntity
  8
レイヤー 1
100
AcDbSpline
210
0.0
220
0.0
230
1.0
 70
     9
 71
     3
 72
    17
 73
    13
 74
     0
 42
0.0000000001
 43
0.0000000001
 40
0.0
 40
0.0
 40
0.0
 40
0.0
 40
1.0
 40
1.0
 40
1.0
 40
2.0
 40
2.0
 40
2.0
 40
3.0
 40
3.0
 40
3.0
 40
4.0
 40
4.0
 40
4.0
 40
4.0
 10
103.9271619748862
 20
-147.3040147201184
 30
0.0
 10
103.9101087522342
 20
-147.3334702865173
 30
0.0
 10
103.8594658486011
 20
-147.4266601193933
 30
0.0
 10
103.8487860525968
 20
-147.4456081445622
 30
0.0
 10
104.0391275781569
 20
-147.5048637869085
 30
0.0
 10
104.0603149153912
 20
-147.5112372135562
 30
0.0
 10
104.1323174110329
 20
-147.5387979774382
 30
0.0
 10
104.1872666840226
 20
-147.4519815712099
 30
0.0
 10
104.210521078548
 20
-147.377912018277
 30
0.0
 10
104.2253349891346
 20
-147.3040147201184
 30
0.0
 10
104.2253349891346
 20
-147.3040147201184
 30
0.0
 10
103.9271619748862
 20
-147.3040147201184
 30
0.0
 10
103.9271619748862
 20
-147.3040147201184
 30
0.0
  0
SPLINE
  5
EA
330
E5
100
AcDbEntity
  8
レイヤー 1
100
AcDbSpline
210
0.0
220
0.0
230
1.0
 70
    11
 71
     3
 72
    20
 73
    16
 74
     0
 42
0.0000000001
 43
0.0000000001
 40
0.0
 40
0.0
 40
0.0
 40
0.0
 40
1.0
 40
1.0
 40
1.0
 40
2.0
 40
2.0
 40
2.0
 40
3.0
 40
3.0
 40
3.0
 40
4.0
 40
4.0
 40
4.0
 40
5.0
 40
5.0
 40
5.0
 40
5.0
 10
103.8635999631834
 20
-146.4535928995845
 30
0.0
 10
103.8635999631834
 20
-146.4535928995845
 30
0.0
 10
103.8319050847191
 20
-146.4535928995845
 30
0.0
 10
103.8319050847191
 20
-146.4535928995845
 30
0.0
 10
103.87841387377
 20
-146.5529839043339
 30
0.0
 10
103.9101087522342
 20
-146.6332546291403
 30
0.0
 10
103.944042942764
 20
-146.7602063977717
 30
0.0
 10
103.944042942764
 20
-146.7602063977717
 30
0.0
 10
104.1512654362017
 20
-146.7602063977717
 30
0.0
 10
104.1512654362017
 20
-146.7602063977717
 30
0.0
 10
104.1831325694403
 20
-146.66718881967
 30
0.0
 10
104.2063869639658
 20
-146.5826117255071
 30
0.0
 10
104.2296413584912
 20
-146.4535928995845
 30
0.0
 10
104.2296413584912
 20
-146.4535928995845
 30
0.0
 10
103.8635999631834
 20
-146.4535928995845
 30
0.0
 10
103.8635999631834
 20
-146.4535928995845
 30
0.0
  0
SPLINE
  5
EB
330
E5
100
AcDbEntity
  8
レイヤー 1
100
AcDbSpline
210
0.0
220
0.0
230
1.0
 70
     9
 71
     3
 72
   242
 73
   238
 74
     0
 42
0.0000000001
 43
0.0000000001
 40
0.0
 40
0.0
 40
0.0
 40
0.0
 40
1.0
 40
1.0
 40
1.0
 40
2.0
 40
2.0
 40
2.0
 40
3.0
 40
3.0
 40
3.0
 40
4.0
 40
4.0
 40
4.0
 40
5.0
 40
5.0
 40
5.0
 40
6.0
 40
6.0
 40
6.0
 40
7.0
 40
7.0
 40
7.0
 40
8.0
 40
8.0
 40
8.0
 40
9.0
 40
9.0
 40
9.0
 40
10.0
 40
10.0
 40
10.0
 40
11.0
 40
11.0
 40
11.0
 40
12.0
 40
12.0
 40
12.0
 40
13.0
 40
13.0
 40
13.0
 40
14.0
 40
14.0
 40
14.0
 40
15.0
 40
15.0
 40
15.0
 40
16.0
 40
16.0
 40
16.0
 40
17.0
 40
17.0
 40
17.0
 40
18.0
 40
18.0
 40
18.0
 40
19.0
 40
19.0
 40
19.0
 40
20.0
 40
20.0
 40
20.0
 40
21.0
 40
21.0
 40
21.0
 40
22.0
 40
22.0
 40
22.0
 40
23.0
 40
23.0
 40
23.0
 40
24.0
 40
24.0
 40
24.0
 40
25.0
 40
25.0
 40
25.0
 40
26.0
 40
26.0
 40
26.0
 40
27.0
 40
27.0
 40
27.0
 40
28.0
 40
28.0
 40
28.0
 40
29.0
 40
29.0
 40
29.0
 40
30.0
 40
30.0
 40
30.0
 40
31.0
 40
31.0
 40
31.0
 40
32.0
 40
32.0
 40
32.0
 40
33.0
 40
33.0
 40
33.0
 40
34.0
 40
34.0
 40
34.0
 40
35.0
 40
35.0
 40
35.0
 40
36.0
 40
36.0
 40
36.0
 40
37.0
 40
37.0
 40
37.0
 40
38.0
 40
38.0
 40
38.0
 40
39.0
 40
39.0
 40
39.0
 40
40.0
 40
40.0
 40
40.0
 40
41.0
 40
41.0
 40
41.0
 40
42.0
 40
42.0
 40
42.0
 40
43.0
 40
43.0
 40
43.0
 40
44.0
 40
44.0
 40
44.0
 40
45.0
 40
45.0
 40
45.0
 40
46.0
 40
46.0
 40
46.0
 40
47.0
 40
47.0
 40
47.0
 40
48.0
 40
48.0
 40
48.0
 40
49.0
 40
49.0
 40
49.0
 40
50.0
 40
50.0
 40
50.0
 40
51.0
 40
51.0
 40
51.0
 40
52.0
 40
52.0
 40
52.0
 40
53.0
 40
53.0
 40
53.0
 40
54.0
 40
54.0
 40
54.0
 40
55.0
 40
55.0
 40
55.0
 40
56.0
 40
56.0
 40
56.0
 40
57.0
 40
57.0
 40
57.0
 40
58.0
 40
58.0
 40
58.0
 40
59.0
 40
59.0
 40
59.0
 40
60.0
 40
60.0
 40
60.0
 40
61.0
 40
61.0
 40
61.0
 40
62.0
 40
62.0
 40
62.0
 40
63.0
 40
63.0
 40
63.0
 40
64.0
 40
64.0
 40
64.0
 40
65.0
 40
65.0
 40
65.0
 40
66.0
 40
66.0
 40
66.0
 40
67.0
 40
67.0
 40
67.0
 40
68.0
 40
68.0
 40
68.0
 40
69.0
 40
69.0
 40
69.0
 40
70.0
 40
70.0
 40
70.0
 40
71.0
 40
71.0
 40
71.0
 40
72.0
 40
72.0
 40
72.0
 40
73.0
 40
73.0
 40
73.0
 40
74.0
 40
74.0
 40
74.0
 40
75.0
 40
75.0
 40
75.0
 40
76.0
 40
76.0
 40
76.0
 40
77.0
 40
77.0
 40
77.0
 40
78.0
 40
78.0
 40
78.0
 40
79.0
 40
79.0
 40
79.0
 40
79.0
 10
104.4919853796929
 20
-146.9188530448675
 30
0.0
 10
104.4919853796929
 20
-146.9188530448675
 30
0.0
 10
104.23808184243
 20
-146.9188530448675
 30
0.0
 10
104.23808184243
 20
-146.9188530448675
 30
0.0
 10
104.23808184243
 20
-146.9188530448675
 30
0.0
 10
103.9609239106417
 20
-146.9188530448675
 30
0.0
 10
103.9609239106417
 20
-146.9188530448675
 30
0.0
 10
103.9609239106417
 20
-146.9188530448675
 30
0.0
 10
104.0878756792732
 20
-146.9612277193361
 30
0.0
 10
104.0878756792732
 20
-146.9612277193361
 30
0.0
 10
104.0983832205031
 20
-146.9655340886926
 30
0.0
 10
104.1111300737986
 20
-146.9717352605661
 30
0.0
 10
104.1111300737986
 20
-146.9844821138615
 30
0.0
 10
104.1111300737986
 20
-147.0056694510958
 30
0.0
 10
104.0794351953343
 20
-147.0120428777435
 30
0.0
 10
104.0582478581
 20
-147.0161769923258
 30
0.0
 10
104.04774031687
 20
-147.0394313868512
 30
0.0
 10
104.0181124956969
 20
-147.1050604558452
 30
0.0
 10
103.9989922157537
 20
-147.149502187605
 30
0.0
 10
103.9989922157537
 20
-147.149502187605
 30
0.0
 10
104.2697767208943
 20
-147.149502187605
 30
0.0
 10
104.2697767208943
 20
-147.149502187605
 30
0.0
 10
104.3607272417049
 20
-147.149502187605
 30
0.0
 10
104.5574421939127
 20
-147.1451958182484
 30
0.0
 10
104.6992078731307
 20
-147.1367553343095
 30
0.0
 10
104.6992078731307
 20
-147.1367553343095
 30
0.0
 10
104.6992078731307
 20
-147.3145222613484
 30
0.0
 10
104.6992078731307
 20
-147.3145222613484
 30
0.0
 10
104.616697836259
 20
-147.3102158919919
 30
0.0
 10
104.5955104990247
 20
-147.3102158919919
 30
0.0
 10
104.4156765146947
 20
-147.3060817774095
 30
0.0
 10
104.3839816362304
 20
-147.4604220551488
 30
0.0
 10
104.3395399044706
 20
-147.5408650347293
 30
0.0
 10
104.2950981727109
 20
-147.6106282183057
 30
0.0
 10
104.4156765146947
 20
-147.669883860652
 30
0.0
 10
104.5216132008661
 20
-147.7375799869371
 30
0.0
 10
104.6251383201979
 20
-147.8200900238088
 30
0.0
 10
104.6251383201979
 20
-147.8200900238088
 30
0.0
 10
104.5067992902795
 20
-147.9871771548435
 30
0.0
 10
104.5067992902795
 20
-147.9871771548435
 30
0.0
 10
104.4835448957541
 20
-147.9682291296746
 30
0.0
 10
104.4707980424587
 20
-147.9597886457357
 30
0.0
 10
104.3586601844138
 20
-147.8750392967986
 30
0.0
 10
104.3099120832975
 20
-147.8369709916866
 30
0.0
 10
104.2508286957255
 20
-147.80114199864
 30
0.0
 10
104.1703857161449
 20
-147.7567002668803
 30
0.0
 10
103.9588568533506
 20
-147.942907677858
 30
0.0
 10
103.7535291624297
 20
-147.9661620723834
 30
0.0
 10
103.4637966321201
 20
-147.9957898935566
 30
0.0
 10
103.4637966321201
 20
-147.9957898935566
 30
0.0
 10
103.3600992580141
 20
-147.8159559092266
 30
0.0
 10
103.3600992580141
 20
-147.8159559092266
 30
0.0
 10
103.6773925522056
 20
-147.81164953987
 30
0.0
 10
103.8530924219534
 20
-147.7863280880534
 30
0.0
 10
104.0053656424014
 20
-147.6762572872997
 30
0.0
 10
103.8868543577088
 20
-147.6254421288922
 30
0.0
 10
103.7979708941894
 20
-147.5980536197845
 30
0.0
 10
103.7621419011428
 20
-147.5853067664891
 30
0.0
 10
103.7430216211996
 20
-147.6128675303711
 30
0.0
 10
103.7282077106131
 20
-147.6318155555399
 30
0.0
 10
103.7006469467311
 20
-147.6657497460696
 30
0.0
 10
103.7006469467311
 20
-147.6657497460696
 30
0.0
 10
103.5039319945233
 20
-147.5832397091979
 30
0.0
 10
103.5039319945233
 20
-147.5832397091979
 30
0.0
 10
103.586442031395
 20
-147.5027967296173
 30
0.0
 10
103.6477647310325
 20
-147.4075398394502
 30
0.0
 10
103.7049533160876
 20
-147.3060817774095
 30
0.0
 10
103.5146117905276
 20
-147.3102158919919
 30
0.0
 10
103.4934244532933
 20
-147.3102158919919
 30
0.0
 10
103.4109144164216
 20
-147.3145222613484
 30
0.0
 10
103.4109144164216
 20
-147.3145222613484
 30
0.0
 10
103.4109144164216
 20
-147.1367553343095
 30
0.0
 10
103.4109144164216
 20
-147.1367553343095
 30
0.0
 10
103.5504407835742
 20
-147.1431287609572
 30
0.0
 10
103.7599025890774
 20
-147.1474351303138
 30
0.0
 10
103.7853962956682
 20
-147.1474351303138
 30
0.0
 10
103.8022772635459
 20
-147.1135009397841
 30
0.0
 10
103.8572265365357
 20
-146.9929225978004
 30
0.0
 10
103.8763468164788
 20
-146.9188530448675
 30
0.0
 10
103.8572265365357
 20
-146.9188530448675
 30
0.0
 10
103.679631864271
 20
-146.9252264715152
 30
0.0
 10
103.4849839693544
 20
-146.9379733248106
 30
0.0
 10
103.4849839693544
 20
-146.9379733248106
 30
0.0
 10
103.4849839693544
 20
-147.0712985200898
 30
0.0
 10
103.4849839693544
 20
-147.0712985200898
 30
0.0
 10
103.4362358682382
 20
-147.0966199719064
 30
0.0
 10
103.3769802258919
 20
-147.1283148503707
 30
0.0
 10
103.2438272853869
 20
-147.1939439193647
 30
0.0
 10
103.2438272853869
 20
-147.1939439193647
 30
0.0
 10
103.2438272853869
 20
-147.339843713165
 30
0.0
 10
103.2438272853869
 20
-147.339843713165
 30
0.0
 10
103.2438272853869
 20
-147.339843713165
 30
0.0
 10
103.2438272853869
 20
-147.8075154252877
 30
0.0
 10
103.2438272853869
 20
-147.8075154252877
 30
0.0
 10
103.2438272853869
 20
-147.9342949391449
 30
0.0
 10
103.2078260375661
 20
-147.9935505814912
 30
0.0
 10
102.92429467913
 20
-147.9851100975523
 30
0.0
 10
102.92429467913
 20
-147.9851100975523
 30
0.0
 10
102.820597305024
 20
-147.7778876041145
 30
0.0
 10
102.820597305024
 20
-147.7778876041145
 30
0.0
 10
102.8841593167268
 20
-147.7904622026357
 30
0.0
 10
102.9327351630689
 20
-147.7947685719922
 30
0.0
 10
102.9730427802463
 20
-147.7947685719922
 30
0.0
 10
103.0491793904703
 20
-147.7947685719922
 30
0.0
 10
103.0596869317003
 20
-147.7715141774668
 30
0.0
 10
103.0596869317003
 20
-147.7058851084728
 30
0.0
 10
103.0596869317003
 20
-147.7058851084728
 30
0.0
 10
103.0596869317003
 20
-147.2764539562364
 30
0.0
 10
103.0596869317003
 20
-147.2764539562364
 30
0.0
 10
102.962362984242
 20
-147.3165893186396
 30
0.0
 10
102.9454820163643
 20
-147.3229627452873
 30
0.0
 10
102.8989732273134
 20
-147.3420830252304
 30
0.0
 10
102.8946668579569
 20
-147.3630981076905
 30
0.0
 10
102.8905327433746
 20
-147.3927259288636
 30
0.0
 10
102.8714124634314
 20
-147.3927259288636
 30
0.0
 10
102.8629719794926
 20
-147.3927259288636
 30
0.0
 10
102.8524644382626
 20
-147.3885918142813
 30
0.0
 10
102.8460910116149
 20
-147.3653374197558
 30
0.0
 10
102.8460910116149
 20
-147.3653374197558
 30
0.0
 10
102.7932087959163
 20
-147.1727565821304
 30
0.0
 10
102.7932087959163
 20
-147.1727565821304
 30
0.0
 10
102.9391085897166
 20
-147.1262477930795
 30
0.0
 10
103.0047376587106
 20
-147.1029933985541
 30
0.0
 10
103.0596869317003
 20
-147.0818060613198
 30
0.0
 10
103.0596869317003
 20
-147.0818060613198
 30
0.0
 10
103.0596869317003
 20
-146.6692558769611
 30
0.0
 10
103.0596869317003
 20
-146.6692558769611
 30
0.0
 10
103.0596869317003
 20
-146.6692558769611
 30
0.0
 10
103.0068047160018
 20
-146.6692558769611
 30
0.0
 10
103.0068047160018
 20
-146.6692558769611
 30
0.0
 10
103.0068047160018
 20
-146.6692558769611
 30
0.0
 10
102.9286010484866
 20
-146.6692558769611
 30
0.0
 10
102.9286010484866
 20
-146.6692558769611
 30
0.0
 10
102.8609049222014
 20
-146.6692558769611
 30
0.0
 10
102.8524644382626
 20
-146.6692558769611
 30
0.0
 10
102.8164631904417
 20
-146.6756293036088
 30
0.0
 10
102.8164631904417
 20
-146.6756293036088
 30
0.0
 10
102.8164631904417
 20
-146.4809814086922
 30
0.0
 10
102.8164631904417
 20
-146.4809814086922
 30
0.0
 10
102.8440239543237
 20
-146.4873548353399
 30
0.0
 10
102.8524644382626
 20
-146.4873548353399
 30
0.0
 10
102.9222276218389
 20
-146.4873548353399
 30
0.0
 10
102.9222276218389
 20
-146.4873548353399
 30
0.0
 10
103.055552817118
 20
-146.4873548353399
 30
0.0
 10
103.055552817118
 20
-146.4873548353399
 30
0.0
 10
103.055552817118
 20
-146.4175916517636
 30
0.0
 10
103.055552817118
 20
-146.3350816148919
 30
0.0
 10
103.0533135050526
 20
-146.3307752455353
 30
0.0
 10
103.0448730211138
 20
-146.1509412612053
 30
0.0
 10
103.0448730211138
 20
-146.1319932360364
 30
0.0
 10
103.0428059638226
 20
-146.0854844469856
 30
0.0
 10
103.0428059638226
 20
-146.0854844469856
 30
0.0
 10
103.2586411959735
 20
-146.0939249309244
 30
0.0
 10
103.2586411959735
 20
-146.0939249309244
 30
0.0
 10
103.2691487372035
 20
-146.0939249309244
 30
0.0
 10
103.2903360744378
 20
-146.0959919882156
 30
0.0
 10
103.2903360744378
 20
-146.1128729560933
 30
0.0
 10
103.2903360744378
 20
-146.1319932360364
 30
0.0
 10
103.2755221638512
 20
-146.1425007772664
 30
0.0
 10
103.2502007120347
 20
-146.1616210572096
 30
0.0
 10
103.2502007120347
 20
-146.2122639608427
 30
0.0
 10
103.2438272853869
 20
-146.4408460462891
 30
0.0
 10
103.2458943426781
 20
-146.4873548353399
 30
0.0
 10
103.3749131686007
 20
-146.4873548353399
 30
0.0
 10
103.3876600218961
 20
-146.4873548353399
 30
0.0
 10
103.4849839693544
 20
-146.4789143514011
 30
0.0
 10
103.4849839693544
 20
-146.4789143514011
 30
0.0
 10
103.4849839693544
 20
-146.6735622463177
 30
0.0
 10
103.4849839693544
 20
-146.6735622463177
 30
0.0
 10
103.4469156642424
 20
-146.6713229342523
 30
0.0
 10
103.3792195379573
 20
-146.66718881967
 30
0.0
 10
103.2438272853869
 20
-146.6692558769611
 30
0.0
 10
103.2438272853869
 20
-146.6692558769611
 30
0.0
 10
103.2438272853869
 20
-147.0077365083869
 30
0.0
 10
103.2438272853869
 20
-147.0077365083869
 30
0.0
 10
103.2987765583767
 20
-146.9844821138615
 30
0.0
 10
103.3644056273707
 20
-146.9569213499795
 30
0.0
 10
103.4129814737127
 20
-146.9336669554541
 30
0.0
 10
103.4129814737127
 20
-146.9336669554541
 30
0.0
 10
103.4129814737127
 20
-146.7560722831894
 30
0.0
 10
103.4129814737127
 20
-146.7560722831894
 30
0.0
 10
103.5271863890487
 20
-146.7686468817106
 30
0.0
 10
103.6456976737413
 20
-146.7686468817106
 30
0.0
 10
103.7621419011428
 20
-146.7686468817106
 30
0.0
 10
103.7387152518431
 20
-146.6735622463177
 30
0.0
 10
103.7113267427353
 20
-146.591052209446
 30
0.0
 10
103.6477647310325
 20
-146.4577270141668
 30
0.0
 10
103.6033229992728
 20
-146.4597940714579
 30
0.0
 10
103.5209852171753
 20
-146.4641004408145
 30
0.0
 10
103.482744657289
 20
-146.4661674981057
 30
0.0
 10
103.482744657289
 20
-146.4661674981057
 30
0.0
 10
103.482744657289
 20
-146.2863335137756
 30
0.0
 10
103.482744657289
 20
-146.2863335137756
 30
0.0
 10
103.6076293686293
 20
-146.2947739977145
 30
0.0
 10
103.7810899263116
 20
-146.299080367071
 30
0.0
 10
103.8635999631834
 20
-146.299080367071
 30
0.0
 10
103.8635999631834
 20
-146.299080367071
 30
0.0
 10
103.9461100000551
 20
-146.299080367071
 30
0.0
 10
103.9461100000551
 20
-146.299080367071
 30
0.0
 10
103.9461100000551
 20
-146.1361273506187
 30
0.0
 10
103.9461100000551
 20
-146.1256198093887
 30
0.0
 10
103.944042942764
 20
-146.070670536399
 30
0.0
 10
103.944042942764
 20
-146.070670536399
 30
0.0
 10
104.1683186588537
 20
-146.0959919882156
 30
0.0
 10
104.1683186588537
 20
-146.0959919882156
 30
0.0
 10
104.172452773436
 20
-146.0959919882156
 30
0.0
 10
104.1936401106703
 20
-146.0980590455067
 30
0.0
 10
104.1936401106703
 20
-146.1149400133844
 30
0.0
 10
104.1936401106703
 20
-146.129753923971
 30
0.0
 10
104.1831325694403
 20
-146.1383666626842
 30
0.0
 10
104.1555718055583
 20
-146.1531805732707
 30
0.0
 10
104.1491983789106
 20
-146.2186373874905
 30
0.0
 10
104.1471313216195
 20
-146.2398247247247
 30
0.0
 10
104.1471313216195
 20
-146.299080367071
 30
0.0
 10
104.1471313216195
 20
-146.299080367071
 30
0.0
 10
104.2422159570123
 20
-146.299080367071
 30
0.0
 10
104.2422159570123
 20
-146.299080367071
 30
0.0
 10
104.3247259938841
 20
-146.299080367071
 30
0.0
 10
104.4981865515664
 20
-146.2947739977145
 30
0.0
 10
104.6230712629067
 20
-146.2863335137756
 30
0.0
 10
104.6230712629067
 20
-146.2863335137756
 30
0.0
 10
104.6230712629067
 20
-146.4661674981057
 30
0.0
 10
104.6230712629067
 20
-146.4661674981057
 30
0.0
 10
104.5934434417336
 20
-146.4641004408145
 30
0.0
 10
104.474932157041
 20
-146.4597940714579
 30
0.0
 10
104.4347967946378
 20
-146.4577270141668
 30
0.0
 10
104.4199828840512
 20
-146.5085421725742
 30
0.0
 10
104.3862209482958
 20
-146.6206800306191
 30
0.0
 10
104.3205918793018
 20
-146.7602063977717
 30
0.0
 10
104.3627942989961
 20
-146.7602063977717
 30
0.0
 10
104.6399522307844
 20
-146.7412583726028
 30
0.0
 10
104.7012749304219
 20
-146.7390190605375
 30
0.0
 10
104.7012749304219
 20
-146.7390190605375
 30
0.0
 10
104.7012749304219
 20
-146.923159414224
 30
0.0
 10
104.7012749304219
 20
-146.923159414224
 30
0.0
 10
104.671819364023
 20
-146.923159414224
 30
0.0
 10
104.654766141371
 20
-146.9188530448675
 30
0.0
 10
104.4919853796929
 20
-146.9188530448675
 30
0.0
  0
HATCH
  5
EC
330
E5
100
AcDbEntity
  8
レイヤー 1
 62
    18
420
        0
440
 33554687
100
AcDbHatch
 10
0.0
 20
0.0
 30
0.0
210
0.0
220
0.0
230
1.0
  2
SOLID
 70
     1
 71
     1
 91
        3
 92
        1
 93
        1
 72
     4
 94
        3
 73
     0
 74
     0
 95
       17
 96
       13
 40
0.0
 40
0.0
 40
0.0
 40
0.0
 40
1.0
 40
1.0
 40
1.0
 40
2.0
 40
2.0
 40
2.0
 40
3.0
 40
3.0
 40
3.0
 40
4.0
 40
4.0
 40
4.0
 40
4.0
 10
103.9271619748862
 20
-147.3040147201184
 10
103.9101087522342
 20
-147.3334702865173
 10
103.8594658486011
 20
-147.4266601193933
 10
103.8487860525968
 20
-147.4456081445622
 10
104.0391275781569
 20
-147.5048637869085
 10
104.0603149153912
 20
-147.5112372135562
 10
104.1323174110329
 20
-147.5387979774382
 10
104.1872666840226
 20
-147.4519815712099
 10
104.210521078548
 20
-147.377912018277
 10
104.2253349891346
 20
-147.3040147201184
 10
104.2253349891346
 20
-147.3040147201184
 10
103.9271619748862
 20
-147.3040147201184
 10
103.9271619748862
 20
-147.3040147201184
 97
        0
 97
        1
330
E9
 92
        1
 93
        1
 72
     4
 94
        3
 73
     0
 74
     0
 95
       20
 96
       16
 40
0.0
 40
0.0
 40
0.0
 40
0.0
 40
1.0
 40
1.0
 40
1.0
 40
2.0
 40
2.0
 40
2.0
 40
3.0
 40
3.0
 40
3.0
 40
4.0
 40
4.0
 40
4.0
 40
5.0
 40
5.0
 40
5.0
 40
5.0
 10
103.8635999631834
 20
-146.4535928995845
 10
103.8635999631834
 20
-146.4535928995845
 10
103.8319050847191
 20
-146.4535928995845
 10
103.8319050847191
 20
-146.4535928995845
 10
103.87841387377
 20
-146.5529839043339
 10
103.9101087522342
 20
-146.6332546291403
 10
103.944042942764
 20
-146.7602063977717
 10
103.944042942764
 20
-146.7602063977717
 10
104.1512654362017
 20
-146.7602063977717
 10
104.1512654362017
 20
-146.7602063977717
 10
104.1831325694403
 20
-146.66718881967
 10
104.2063869639658
 20
-146.5826117255071
 10
104.2296413584912
 20
-146.4535928995845
 10
104.2296413584912
 20
-146.4535928995845
 10
103.8635999631834
 20
-146.4535928995845
 10
103.8635999631834
 20
-146.4535928995845
 97
        0
 97
        1
330
EA
 92
        1
 93
        1
 72
     4
 94
        3
 73
     0
 74
     0
 95
      242
 96
      238
 40
0.0
 40
0.0
 40
0.0
 40
0.0
 40
1.0
 40
1.0
 40
1.0
 40
2.0
 40
2.0
 40
2.0
 40
3.0
 40
3.0
 40
3.0
 40
4.0
 40
4.0
 40
4.0
 40
5.0
 40
5.0
 40
5.0
 40
6.0
 40
6.0
 40
6.0
 40
7.0
 40
7.0
 40
7.0
 40
8.0
 40
8.0
 40
8.0
 40
9.0
 40
9.0
 40
9.0
 40
10.0
 40
10.0
 40
10.0
 40
11.0
 40
11.0
 40
11.0
 40
12.0
 40
12.0
 40
12.0
 40
13.0
 40
13.0
 40
13.0
 40
14.0
 40
14.0
 40
14.0
 40
15.0
 40
15.0
 40
15.0
 40
16.0
 40
16.0
 40
16.0
 40
17.0
 40
17.0
 40
17.0
 40
18.0
 40
18.0
 40
18.0
 40
19.0
 40
19.0
 40
19.0
 40
20.0
 40
20.0
 40
20.0
 40
21.0
 40
21.0
 40
21.0
 40
22.0
 40
22.0
 40
22.0
 40
23.0
 40
23.0
 40
23.0
 40
24.0
 40
24.0
 40
24.0
 40
25.0
 40
25.0
 40
25.0
 40
26.0
 40
26.0
 40
26.0
 40
27.0
 40
27.0
 40
27.0
 40
28.0
 40
28.0
 40
28.0
 40
29.0
 40
29.0
 40
29.0
 40
30.0
 40
30.0
 40
30.0
 40
31.0
 40
31.0
 40
31.0
 40
32.0
 40
32.0
 40
32.0
 40
33.0
 40
33.0
 40
33.0
 40
34.0
 40
34.0
 40
34.0
 40
35.0
 40
35.0
 40
35.0
 40
36.0
 40
36.0
 40
36.0
 40
37.0
 40
37.0
 40
37.0
 40
38.0
 40
38.0
 40
38.0
 40
39.0
 40
39.0
 40
39.0
 40
40.0
 40
40.0
 40
40.0
 40
41.0
 40
41.0
 40
41.0
 40
42.0
 40
42.0
 40
42.0
 40
43.0
 40
43.0
 40
43.0
 40
44.0
 40
44.0
 40
44.0
 40
45.0
 40
45.0
 40
45.0
 40
46.0
 40
46.0
 40
46.0
 40
47.0
 40
47.0
 40
47.0
 40
48.0
 40
48.0
 40
48.0
 40
49.0
 40
49.0
 40
49.0
 40
50.0
 40
50.0
 40
50.0
 40
51.0
 40
51.0
 40
51.0
 40
52.0
 40
52.0
 40
52.0
 40
53.0
 40
53.0
 40
53.0
 40
54.0
 40
54.0
 40
54.0
 40
55.0
 40
55.0
 40
55.0
 40
56.0
 40
56.0
 40
56.0
 40
57.0
 40
57.0
 40
57.0
 40
58.0
 40
58.0
 40
58.0
 40
59.0
 40
59.0
 40
59.0
 40
60.0
 40
60.0
 40
60.0
 40
61.0
 40
61.0
 40
61.0
 40
62.0
 40
62.0
 40
62.0
 40
63.0
 40
63.0
 40
63.0
 40
64.0
 40
64.0
 40
64.0
 40
65.0
 40
65.0
 40
65.0
 40
66.0
 40
66.0
 40
66.0
 40
67.0
 40
67.0
 40
67.0
 40
68.0
 40
68.0
 40
68.0
 40
69.0
 40
69.0
 40
69.0
 40
70.0
 40
70.0
 40
70.0
 40
71.0
 40
71.0
 40
71.0
 40
72.0
 40
72.0
 40
72.0
 40
73.0
 40
73.0
 40
73.0
 40
74.0
 40
74.0
 40
74.0
 40
75.0
 40
75.0
 40
75.0
 40
76.0
 40
76.0
 40
76.0
 40
77.0
 40
77.0
 40
77.0
 40
78.0
 40
78.0
 40
78.0
 40
79.0
 40
79.0
 40
79.0
 40
79.0
 10
104.4919853796929
 20
-146.9188530448675
 10
104.4919853796929
 20
-146.9188530448675
 10
104.23808184243
 20
-146.9188530448675
 10
104.23808184243
 20
-146.9188530448675
 10
104.23808184243
 20
-146.9188530448675
 10
103.9609239106417
 20
-146.9188530448675
 10
103.9609239106417
 20
-146.9188530448675
 10
103.9609239106417
 20
-146.9188530448675
 10
104.0878756792732
 20
-146.9612277193361
 10
104.0878756792732
 20
-146.9612277193361
 10
104.0983832205031
 20
-146.9655340886926
 10
104.1111300737986
 20
-146.9717352605661
 10
104.1111300737986
 20
-146.9844821138615
 10
104.1111300737986
 20
-147.0056694510958
 10
104.0794351953343
 20
-147.0120428777435
 10
104.0582478581
 20
-147.0161769923258
 10
104.04774031687
 20
-147.0394313868512
 10
104.0181124956969
 20
-147.1050604558452
 10
103.9989922157537
 20
-147.149502187605
 10
103.9989922157537
 20
-147.149502187605
 10
104.2697767208943
 20
-147.149502187605
 10
104.2697767208943
 20
-147.149502187605
 10
104.3607272417049
 20
-147.149502187605
 10
104.5574421939127
 20
-147.1451958182484
 10
104.6992078731307
 20
-147.1367553343095
 10
104.6992078731307
 20
-147.1367553343095
 10
104.6992078731307
 20
-147.3145222613484
 10
104.6992078731307
 20
-147.3145222613484
 10
104.616697836259
 20
-147.3102158919919
 10
104.5955104990247
 20
-147.3102158919919
 10
104.4156765146947
 20
-147.3060817774095
 10
104.3839816362304
 20
-147.4604220551488
 10
104.3395399044706
 20
-147.5408650347293
 10
104.2950981727109
 20
-147.6106282183057
 10
104.4156765146947
 20
-147.669883860652
 10
104.5216132008661
 20
-147.7375799869371
 10
104.6251383201979
 20
-147.8200900238088
 10
104.6251383201979
 20
-147.8200900238088
 10
104.5067992902795
 20
-147.9871771548435
 10
104.5067992902795
 20
-147.9871771548435
 10
104.4835448957541
 20
-147.9682291296746
 10
104.4707980424587
 20
-147.9597886457357
 10
104.3586601844138
 20
-147.8750392967986
 10
104.3099120832975
 20
-147.8369709916866
 10
104.2508286957255
 20
-147.80114199864
 10
104.1703857161449
 20
-147.7567002668803
 10
103.9588568533506
 20
-147.942907677858
 10
103.7535291624297
 20
-147.9661620723834
 10
103.4637966321201
 20
-147.9957898935566
 10
103.4637966321201
 20
-147.9957898935566
 10
103.3600992580141
 20
-147.8159559092266
 10
103.3600992580141
 20
-147.8159559092266
 10
103.6773925522056
 20
-147.81164953987
 10
103.8530924219534
 20
-147.7863280880534
 10
104.0053656424014
 20
-147.6762572872997
 10
103.8868543577088
 20
-147.6254421288922
 10
103.7979708941894
 20
-147.5980536197845
 10
103.7621419011428
 20
-147.5853067664891
 10
103.7430216211996
 20
-147.6128675303711
 10
103.7282077106131
 20
-147.6318155555399
 10
103.7006469467311
 20
-147.6657497460696
 10
103.7006469467311
 20
-147.6657497460696
 10
103.5039319945233
 20
-147.5832397091979
 10
103.5039319945233
 20
-147.5832397091979
 10
103.586442031395
 20
-147.5027967296173
 10
103.6477647310325
 20
-147.4075398394502
 10
103.7049533160876
 20
-147.3060817774095
 10
103.5146117905276
 20
-147.3102158919919
 10
103.4934244532933
 20
-147.3102158919919
 10
103.4109144164216
 20
-147.3145222613484
 10
103.4109144164216
 20
-147.3145222613484
 10
103.4109144164216
 20
-147.1367553343095
 10
103.4109144164216
 20
-147.1367553343095
 10
103.5504407835742
 20
-147.1431287609572
 10
103.7599025890774
 20
-147.1474351303138
 10
103.7853962956682
 20
-147.1474351303138
 10
103.8022772635459
 20
-147.1135009397841
 10
103.8572265365357
 20
-146.9929225978004
 10
103.8763468164788
 20
-146.9188530448675
 10
103.8572265365357
 20
-146.9188530448675
 10
103.679631864271
 20
-146.9252264715152
 10
103.4849839693544
 20
-146.9379733248106
 10
103.4849839693544
 20
-146.9379733248106
 10
103.4849839693544
 20
-147.0712985200898
 10
103.4849839693544
 20
-147.0712985200898
 10
103.4362358682382
 20
-147.0966199719064
 10
103.3769802258919
 20
-147.1283148503707
 10
103.2438272853869
 20
-147.1939439193647
 10
103.2438272853869
 20
-147.1939439193647
 10
103.2438272853869
 20
-147.339843713165
 10
103.2438272853869
 20
-147.339843713165
 10
103.2438272853869
 20
-147.339843713165
 10
103.2438272853869
 20
-147.8075154252877
 10
103.2438272853869
 20
-147.8075154252877
 10
103.2438272853869
 20
-147.9342949391449
 10
103.2078260375661
 20
-147.9935505814912
 10
102.92429467913
 20
-147.9851100975523
 10
102.92429467913
 20
-147.9851100975523
 10
102.820597305024
 20
-147.7778876041145
 10
102.820597305024
 20
-147.7778876041145
 10
102.8841593167268
 20
-147.7904622026357
 10
102.9327351630689
 20
-147.7947685719922
 10
102.9730427802463
 20
-147.7947685719922
 10
103.0491793904703
 20
-147.7947685719922
 10
103.0596869317003
 20
-147.7715141774668
 10
103.0596869317003
 20
-147.7058851084728
 10
103.0596869317003
 20
-147.7058851084728
 10
103.0596869317003
 20
-147.2764539562364
 10
103.0596869317003
 20
-147.2764539562364
 10
102.962362984242
 20
-147.3165893186396
 10
102.9454820163643
 20
-147.3229627452873
 10
102.8989732273134
 20
-147.3420830252304
 10
102.8946668579569
 20
-147.3630981076905
 10
102.8905327433746
 20
-147.3927259288636
 10
102.8714124634314
 20
-147.3927259288636
 10
102.8629719794926
 20
-147.3927259288636
 10
102.8524644382626
 20
-147.3885918142813
 10
102.8460910116149
 20
-147.3653374197558
 10
102.8460910116149
 20
-147.3653374197558
 10
102.7932087959163
 20
-147.1727565821304
 10
102.7932087959163
 20
-147.1727565821304
 10
102.9391085897166
 20
-147.1262477930795
 10
103.0047376587106
 20
-147.1029933985541
 10
103.0596869317003
 20
-147.0818060613198
 10
103.0596869317003
 20
-147.0818060613198
 10
103.0596869317003
 20
-146.6692558769611
 10
103.0596869317003
 20
-146.6692558769611
 10
103.0596869317003
 20
-146.6692558769611
 10
103.0068047160018
 20
-146.6692558769611
 10
103.0068047160018
 20
-146.6692558769611
 10
103.0068047160018
 20
-146.6692558769611
 10
102.9286010484866
 20
-146.6692558769611
 10
102.9286010484866
 20
-146.6692558769611
 10
102.8609049222014
 20
-146.6692558769611
 10
102.8524644382626
 20
-146.6692558769611
 10
102.8164631904417
 20
-146.6756293036088
 10
102.8164631904417
 20
-146.6756293036088
 10
102.8164631904417
 20
-146.4809814086922
 10
102.8164631904417
 20
-146.4809814086922
 10
102.8440239543237
 20
-146.4873548353399
 10
102.8524644382626
 20
-146.4873548353399
 10
102.9222276218389
 20
-146.4873548353399
 10
102.9222276218389
 20
-146.4873548353399
 10
103.055552817118
 20
-146.4873548353399
 10
103.055552817118
 20
-146.4873548353399
 10
103.055552817118
 20
-146.4175916517636
 10
103.055552817118
 20
-146.3350816148919
 10
103.0533135050526
 20
-146.3307752455353
 10
103.0448730211138
 20
-146.1509412612053
 10
103.0448730211138
 20
-146.1319932360364
 10
103.0428059638226
 20
-146.0854844469856
 10
103.0428059638226
 20
-146.0854844469856
 10
103.2586411959735
 20
-146.0939249309244
 10
103.2586411959735
 20
-146.0939249309244
 10
103.2691487372035
 20
-146.0939249309244
 10
103.2903360744378
 20
-146.0959919882156
 10
103.2903360744378
 20
-146.1128729560933
 10
103.2903360744378
 20
-146.1319932360364
 10
103.2755221638512
 20
-146.1425007772664
 10
103.2502007120347
 20
-146.1616210572096
 10
103.2502007120347
 20
-146.2122639608427
 10
103.2438272853869
 20
-146.4408460462891
 10
103.2458943426781
 20
-146.4873548353399
 10
103.3749131686007
 20
-146.4873548353399
 10
103.3876600218961
 20
-146.4873548353399
 10
103.4849839693544
 20
-146.4789143514011
 10
103.4849839693544
 20
-146.4789143514011
 10
103.4849839693544
 20
-146.6735622463177
 10
103.4849839693544
 20
-146.6735622463177
 10
103.4469156642424
 20
-146.6713229342523
 10
103.3792195379573
 20
-146.66718881967
 10
103.2438272853869
 20
-146.6692558769611
 10
103.2438272853869
 20
-146.6692558769611
 10
103.2438272853869
 20
-147.0077365083869
 10
103.2438272853869
 20
-147.0077365083869
 10
103.2987765583767
 20
-146.9844821138615
 10
103.3644056273707
 20
-146.9569213499795
 10
103.4129814737127
 20
-146.9336669554541
 10
103.4129814737127
 20
-146.9336669554541
 10
103.4129814737127
 20
-146.7560722831894
 10
103.4129814737127
 20
-146.7560722831894
 10
103.5271863890487
 20
-146.7686468817106
 10
103.6456976737413
 20
-146.7686468817106
 10
103.7621419011428
 20
-146.7686468817106
 10
103.7387152518431
 20
-146.6735622463177
 10
103.7113267427353
 20
-146.591052209446
 10
103.6477647310325
 20
-146.4577270141668
 10
103.6033229992728
 20
-146.4597940714579
 10
103.5209852171753
 20
-146.4641004408145
 10
103.482744657289
 20
-146.4661674981057
 10
103.482744657289
 20
-146.4661674981057
 10
103.482744657289
 20
-146.2863335137756
 10
103.482744657289
 20
-146.2863335137756
 10
103.6076293686293
 20
-146.2947739977145
 10
103.7810899263116
 20
-146.299080367071
 10
103.8635999631834
 20
-146.299080367071
 10
103.8635999631834
 20
-146.299080367071
 10
103.9461100000551
 20
-146.299080367071
 10
103.9461100000551
 20
-146.299080367071
 10
103.9461100000551
 20
-146.1361273506187
 10
103.9461100000551
 20
-146.1256198093887
 10
103.944042942764
 20
-146.070670536399
 10
103.944042942764
 20
-146.070670536399
 10
104.1683186588537
 20
-146.0959919882156
 10
104.1683186588537
 20
-146.0959919882156
 10
104.172452773436
 20
-146.0959919882156
 10
104.1936401106703
 20
-146.0980590455067
 10
104.1936401106703
 20
-146.1149400133844
 10
104.1936401106703
 20
-146.129753923971
 10
104.1831325694403
 20
-146.1383666626842
 10
104.1555718055583
 20
-146.1531805732707
 10
104.1491983789106
 20
-146.2186373874905
 10
104.1471313216195
 20
-146.2398247247247
 10
104.1471313216195
 20
-146.299080367071
 10
104.1471313216195
 20
-146.299080367071
 10
104.2422159570123
 20
-146.299080367071
 10
104.2422159570123
 20
-146.299080367071
 10
104.3247259938841
 20
-146.299080367071
 10
104.4981865515664
 20
-146.2947739977145
 10
104.6230712629067
 20
-146.2863335137756
 10
104.6230712629067
 20
-146.2863335137756
 10
104.6230712629067
 20
-146.4661674981057
 10
104.6230712629067
 20
-146.4661674981057
 10
104.5934434417336
 20
-146.4641004408145
 10
104.474932157041
 20
-146.4597940714579
 10
104.4347967946378
 20
-146.4577270141668
 10
104.4199828840512
 20
-146.5085421725742
 10
104.3862209482958
 20
-146.6206800306191
 10
104.3205918793018
 20
-146.7602063977717
 10
104.3627942989961
 20
-146.7602063977717
 10
104.6399522307844
 20
-146.7412583726028
 10
104.7012749304219
 20
-146.7390190605375
 10
104.7012749304219
 20
-146.7390190605375
 10
104.7012749304219
 20
-146.923159414224
 10
104.7012749304219
 20
-146.923159414224
 10
104.671819364023
 20
-146.923159414224
 10
104.654766141371
 20
-146.9188530448675
 10
104.4919853796929
 20
-146.9188530448675
 97
        0
 97
        1
330
EB
 75
     2
 76
     1
 98
        1
 10
0.0
 20
0.0
450
        0
451
        0
460
0.0
461
0.0
452
        0
462
0.0
453
        0
470

  0
SPLINE
  5
ED
330
E5
100
AcDbEntity
  8
レイヤー 1
100
AcDbSpline
210
0.0
220
0.0
230
1.0
 70
    11
 71
     3
 72
    17
 73
    13
 74
     0
 42
0.0000000001
 43
0.0000000001
 40
0.0
 40
0.0
 40
0.0
 40
0.0
 40
1.0
 40
1.0
 40
1.0
 40
2.0
 40
2.0
 40
2.0
 40
3.0
 40
3.0
 40
3.0
 40
4.0
 40
4.0
 40
4.0
 40
4.0
 10
106.3483750819198
 20
-147.7186319617682
 30
0.0
 10
106.3483750819198
 20
-147.7186319617682
 30
0.0
 10
105.6417859978951
 20
-147.7186319617682
 30
0.0
 10
105.6417859978951
 20
-147.7186319617682
 30
0.0
 10
105.6417859978951
 20
-147.7186319617682
 30
0.0
 10
105.6417859978951
 20
-147.8328368771043
 30
0.0
 10
105.6417859978951
 20
-147.8328368771043
 30
0.0
 10
105.6417859978951
 20
-147.8328368771043
 30
0.0
 10
106.3483750819198
 20
-147.8328368771043
 30
0.0
 10
106.3483750819198
 20
-147.8328368771043
 30
0.0
 10
106.3483750819198
 20
-147.8328368771043
 30
0.0
 10
106.3483750819198
 20
-147.7186319617682
 30
0.0
 10
106.3483750819198
 20
-147.7186319617682
 30
0.0
  0
SPLINE
  5
EE
330
E5
100
AcDbEntity
  8
レイヤー 1
100
AcDbSpline
210
0.0
220
0.0
230
1.0
 70
    11
 71
     3
 72
    17
 73
    13
 74
     0
 42
0.0000000001
 43
0.0000000001
 40
0.0
 40
0.0
 40
0.0
 40
0.0
 40
1.0
 40
1.0
 40
1.0
 40
2.0
 40
2.0
 40
2.0
 40
3.0
 40
3.0
 40
3.0
 40
4.0
 40
4.0
 40
4.0
 40
4.0
 10
106.3483750819198
 20
-147.4752359657353
 30
0.0
 10
106.3483750819198
 20
-147.4752359657353
 30
0.0
 10
105.6417859978951
 20
-147.4752359657353
 30
0.0
 10
105.6417859978951
 20
-147.4752359657353
 30
0.0
 10
105.6417859978951
 20
-147.4752359657353
 30
0.0
 10
105.6417859978951
 20
-147.5896131358456
 30
0.0
 10
105.6417859978951
 20
-147.5896131358456
 30
0.0
 10
105.6417859978951
 20
-147.5896131358456
 30
0.0
 10
106.3483750819198
 20
-147.5896131358456
 30
0.0
 10
106.3483750819198
 20
-147.5896131358456
 30
0.0
 10
106.3483750819198
 20
-147.5896131358456
 30
0.0
 10
106.3483750819198
 20
-147.4752359657353
 30
0.0
 10
106.3483750819198
 20
-147.4752359657353
 30
0.0
  0
SPLINE
  5
EF
330
E5
100
AcDbEntity
  8
レイヤー 1
100
AcDbSpline
210
0.0
220
0.0
230
1.0
 70
    11
 71
     3
 72
    17
 73
    13
 74
     0
 42
0.0000000001
 43
0.0000000001
 40
0.0
 40
0.0
 40
0.0
 40
0.0
 40
1.0
 40
1.0
 40
1.0
 40
2.0
 40
2.0
 40
2.0
 40
3.0
 40
3.0
 40
3.0
 40
4.0
 40
4.0
 40
4.0
 40
4.0
 10
106.3483750819198
 20
-147.2425197657067
 30
0.0
 10
106.3483750819198
 20
-147.2425197657067
 30
0.0
 10
105.6417859978951
 20
-147.2425197657067
 30
0.0
 10
105.6417859978951
 20
-147.2425197657067
 30
0.0
 10
105.6417859978951
 20
-147.2425197657067
 30
0.0
 10
105.6417859978951
 20
-147.3505235091693
 30
0.0
 10
105.6417859978951
 20
-147.3505235091693
 30
0.0
 10
105.6417859978951
 20
-147.3505235091693
 30
0.0
 10
106.3483750819198
 20
-147.3505235091693
 30
0.0
 10
106.3483750819198
 20
-147.3505235091693
 30
0.0
 10
106.3483750819198
 20
-147.3505235091693
 30
0.0
 10
106.3483750819198
 20
-147.2425197657067
 30
0.0
 10
106.3483750819198
 20
-147.2425197657067
 30
0.0
  0
SPLINE
  5
F0
330
E5
100
AcDbEntity
  8
レイヤー 1
100
AcDbSpline
210
0.0
220
0.0
230
1.0
 70
     9
 71
     3
 72
   203
 73
   199
 74
     0
 42
0.0000000001
 43
0.0000000001
 40
0.0
 40
0.0
 40
0.0
 40
0.0
 40
1.0
 40
1.0
 40
1.0
 40
2.0
 40
2.0
 40
2.0
 40
3.0
 40
3.0
 40
3.0
 40
4.0
 40
4.0
 40
4.0
 40
5.0
 40
5.0
 40
5.0
 40
6.0
 40
6.0
 40
6.0
 40
7.0
 40
7.0
 40
7.0
 40
8.0
 40
8.0
 40
8.0
 40
9.0
 40
9.0
 40
9.0
 40
10.0
 40
10.0
 40
10.0
 40
11.0
 40
11.0
 40
11.0
 40
12.0
 40
12.0
 40
12.0
 40
13.0
 40
13.0
 40
13.0
 40
14.0
 40
14.0
 40
14.0
 40
15.0
 40
15.0
 40
15.0
 40
16.0
 40
16.0
 40
16.0
 40
17.0
 40
17.0
 40
17.0
 40
18.0
 40
18.0
 40
18.0
 40
19.0
 40
19.0
 40
19.0
 40
20.0
 40
20.0
 40
20.0
 40
21.0
 40
21.0
 40
21.0
 40
22.0
 40
22.0
 40
22.0
 40
23.0
 40
23.0
 40
23.0
 40
24.0
 40
24.0
 40
24.0
 40
25.0
 40
25.0
 40
25.0
 40
26.0
 40
26.0
 40
26.0
 40
27.0
 40
27.0
 40
27.0
 40
28.0
 40
28.0
 40
28.0
 40
29.0
 40
29.0
 40
29.0
 40
30.0
 40
30.0
 40
30.0
 40
31.0
 40
31.0
 40
31.0
 40
32.0
 40
32.0
 40
32.0
 40
33.0
 40
33.0
 40
33.0
 40
34.0
 40
34.0
 40
34.0
 40
35.0
 40
35.0
 40
35.0
 40
36.0
 40
36.0
 40
36.0
 40
37.0
 40
37.0
 40
37.0
 40
38.0
 40
38.0
 40
38.0
 40
39.0
 40
39.0
 40
39.0
 40
40.0
 40
40.0
 40
40.0
 40
41.0
 40
41.0
 40
41.0
 40
42.0
 40
42.0
 40
42.0
 40
43.0
 40
43.0
 40
43.0
 40
44.0
 40
44.0
 40
44.0
 40
45.0
 40
45.0
 40
45.0
 40
46.0
 40
46.0
 40
46.0
 40
47.0
 40
47.0
 40
47.0
 40
48.0
 40
48.0
 40
48.0
 40
49.0
 40
49.0
 40
49.0
 40
50.0
 40
50.0
 40
50.0
 40
51.0
 40
51.0
 40
51.0
 40
52.0
 40
52.0
 40
52.0
 40
53.0
 40
53.0
 40
53.0
 40
54.0
 40
54.0
 40
54.0
 40
55.0
 40
55.0
 40
55.0
 40
56.0
 40
56.0
 40
56.0
 40
57.0
 40
57.0
 40
57.0
 40
58.0
 40
58.0
 40
58.0
 40
59.0
 40
59.0
 40
59.0
 40
60.0
 40
60.0
 40
60.0
 40
61.0
 40
61.0
 40
61.0
 40
62.0
 40
62.0
 40
62.0
 40
63.0
 40
63.0
 40
63.0
 40
64.0
 40
64.0
 40
64.0
 40
65.0
 40
65.0
 40
65.0
 40
66.0
 40
66.0
 40
66.0
 40
66.0
 10
106.1833550081764
 20
-146.9865491711527
 30
0.0
 10
106.1833550081764
 20
-146.9865491711527
 30
0.0
 10
105.6249050300174
 20
-146.9865491711527
 30
0.0
 10
105.6249050300174
 20
-146.9865491711527
 30
0.0
 10
105.6142252340131
 20
-147.0309909029124
 30
0.0
 10
105.6056124953
 20
-147.0626857813767
 30
0.0
 10
105.5932101515531
 20
-147.1009263412629
 30
0.0
 10
105.6183593485954
 20
-147.1009263412629
 30
0.0
 10
105.633173259182
 20
-147.1029933985541
 30
0.0
 10
105.6397189406039
 20
-147.1029933985541
 30
0.0
 10
105.6397189406039
 20
-147.1029933985541
 30
0.0
 10
105.8278211540986
 20
-147.1029933985541
 30
0.0
 10
105.8278211540986
 20
-147.1029933985541
 30
0.0
 10
105.8278211540986
 20
-147.1029933985541
 30
0.0
 10
106.2023030333452
 20
-147.1029933985541
 30
0.0
 10
106.2023030333452
 20
-147.1029933985541
 30
0.0
 10
106.2529459369784
 20
-147.1029933985541
 30
0.0
 10
106.5364772954145
 20
-147.0902465452587
 30
0.0
 10
106.5681721738788
 20
-147.0902465452587
 30
0.0
 10
106.5661051165876
 20
-147.1178073091406
 30
0.0
 10
106.5640380592965
 20
-147.1367553343095
 30
0.0
 10
106.5640380592965
 20
-147.1663831554827
 30
0.0
 10
106.5619710020053
 20
-147.198078033947
 30
0.0
 10
106.5619710020053
 20
-147.3334702865173
 30
0.0
 10
106.5619710020053
 20
-147.3610310503993
 30
0.0
 10
106.5619710020053
 20
-147.3610310503993
 30
0.0
 10
106.5619710020053
 20
-147.6064941037233
 30
0.0
 10
106.5619710020053
 20
-147.6064941037233
 30
0.0
 10
106.5619710020053
 20
-147.6509358354831
 30
0.0
 10
106.5661051165876
 20
-147.8476507876908
 30
0.0
 10
106.5705837407185
 20
-147.9999240081389
 30
0.0
 10
106.5705837407185
 20
-147.9999240081389
 30
0.0
 10
106.343896457789
 20
-147.9999240081389
 30
0.0
 10
106.343896457789
 20
-147.9999240081389
 30
0.0
 10
106.343896457789
 20
-147.9999240081389
 30
0.0
 10
106.3463080246287
 20
-147.9661620723834
 30
0.0
 10
106.3463080246287
 20
-147.9661620723834
 30
0.0
 10
106.3463080246287
 20
-147.9661620723834
 30
0.0
 10
105.6438530551862
 20
-147.9661620723834
 30
0.0
 10
105.6438530551862
 20
-147.9661620723834
 30
0.0
 10
105.6438530551862
 20
-147.9661620723834
 30
0.0
 10
105.6459201124774
 20
-147.9999240081389
 30
0.0
 10
105.6459201124774
 20
-147.9999240081389
 30
0.0
 10
105.6459201124774
 20
-147.9999240081389
 30
0.0
 10
105.4281900778096
 20
-147.9999240081389
 30
0.0
 10
105.4281900778096
 20
-147.9999240081389
 30
0.0
 10
105.4323241923919
 20
-147.9449747351492
 30
0.0
 10
105.4323241923919
 20
-147.9322278818537
 30
0.0
 10
105.4386976190396
 20
-147.8180229665177
 30
0.0
 10
105.4407646763308
 20
-147.7904622026357
 30
0.0
 10
105.4430039883962
 20
-147.6573092621308
 30
0.0
 10
105.4430039883962
 20
-147.6381889821877
 30
0.0
 10
105.4430039883962
 20
-147.6381889821877
 30
0.0
 10
105.4430039883962
 20
-147.4351006033322
 30
0.0
 10
105.4430039883962
 20
-147.4351006033322
 30
0.0
 10
105.3033053664693
 20
-147.6846977712385
 30
0.0
 10
105.1341511781435
 20
-147.8159559092266
 30
0.0
 10
105.0283867467463
 20
-147.8814127234463
 30
0.0
 10
105.0283867467463
 20
-147.8814127234463
 30
0.0
 10
104.8547539342898
 20
-147.7418863562937
 30
0.0
 10
104.8547539342898
 20
-147.7418863562937
 30
0.0
 10
104.9436373978092
 20
-147.6910711978862
 30
0.0
 10
105.0874701343184
 20
-147.604254791658
 30
0.0
 10
105.2251016989541
 20
-147.4097791515156
 30
0.0
 10
105.3160522197647
 20
-147.2828273828841
 30
0.0
 10
105.3816812887587
 20
-147.138994646375
 30
0.0
 10
105.4154432245142
 20
-146.9865491711527
 30
0.0
 10
105.1870333938421
 20
-146.988788483218
 30
0.0
 10
105.0071994095121
 20
-146.9951619098658
 30
0.0
 10
104.9119425193449
 20
-146.9972289671569
 30
0.0
 10
104.9119425193449
 20
-146.9972289671569
 30
0.0
 10
104.9119425193449
 20
-146.819462040118
 30
0.0
 10
104.9119425193449
 20
-146.819462040118
 30
0.0
 10
105.1086574715527
 20
-146.8258354667657
 30
0.0
 10
105.3921888299887
 20
-146.8301418361223
 30
0.0
 10
105.5422227383714
 20
-146.8301418361223
 30
0.0
 10
105.5422227383714
 20
-146.8301418361223
 30
0.0
 10
105.7558186584569
 20
-146.8301418361223
 30
0.0
 10
105.7558186584569
 20
-146.8301418361223
 30
0.0
 10
105.7558186584569
 20
-146.8301418361223
 30
0.0
 10
105.7558186584569
 20
-146.7221380926597
 30
0.0
 10
105.7558186584569
 20
-146.7221380926597
 30
0.0
 10
105.7558186584569
 20
-146.7221380926597
 30
0.0
 10
105.6100911194308
 20
-146.7221380926597
 30
0.0
 10
105.6100911194308
 20
-146.7221380926597
 30
0.0
 10
105.4407646763308
 20
-146.7221380926597
 30
0.0
 10
105.271610488005
 20
-146.7264444620163
 30
0.0
 10
105.1045233569704
 20
-146.732817888664
 30
0.0
 10
105.1045233569704
 20
-146.732817888664
 30
0.0
 10
105.1045233569704
 20
-146.5614243882728
 30
0.0
 10
105.1045233569704
 20
-146.5614243882728
 30
0.0
 10
105.2588636347096
 20
-146.5719319295028
 30
0.0
 10
105.4450710456873
 20
-146.5719319295028
 30
0.0
 10
105.6100911194308
 20
-146.5719319295028
 30
0.0
 10
105.6100911194308
 20
-146.5719319295028
 30
0.0
 10
105.7558186584569
 20
-146.5719319295028
 30
0.0
 10
105.7558186584569
 20
-146.5719319295028
 30
0.0
 10
105.7558186584569
 20
-146.5719319295028
 30
0.0
 10
105.7558186584569
 20
-146.4535928995845
 30
0.0
 10
105.7558186584569
 20
-146.4535928995845
 30
0.0
 10
105.7558186584569
 20
-146.4535928995845
 30
0.0
 10
105.6249050300174
 20
-146.4535928995845
 30
0.0
 10
105.6249050300174
 20
-146.4535928995845
 30
0.0
 10
105.5783962409665
 20
-146.4535928995845
 30
0.0
 10
105.375307862111
 20
-146.4620333835234
 30
0.0
 10
105.3329331876424
 20
-146.4620333835234
 30
0.0
 10
105.1298448087869
 20
-146.4661674981057
 30
0.0
 10
105.0537081985629
 20
-146.4682345553968
 30
0.0
 10
104.9755045310478
 20
-146.4704738674622
 30
0.0
 10
104.9755045310478
 20
-146.4704738674622
 30
0.0
 10
104.9755045310478
 20
-146.2863335137756
 30
0.0
 10
104.9755045310478
 20
-146.2863335137756
 30
0.0
 10
105.0897094463838
 20
-146.2947739977145
 30
0.0
 10
105.1341511781435
 20
-146.2947739977145
 30
0.0
 10
105.517073541329
 20
-146.3033867364276
 30
0.0
 10
105.4535115296262
 20
-146.2081298462605
 30
0.0
 10
105.4259507657442
 20
-146.1805690823784
 30
0.0
 10
105.3901217726976
 20
-146.1445678345576
 30
0.0
 10
105.3901217726976
 20
-146.1445678345576
 30
0.0
 10
105.5656493876711
 20
-146.0620577976858
 30
0.0
 10
105.5656493876711
 20
-146.0620577976858
 30
0.0
 10
105.6056124953
 20
-146.0980590455067
 30
0.0
 10
105.6500542270597
 20
-146.1404337199753
 30
0.0
 10
105.7241237799926
 20
-146.2503322659548
 30
0.0
 10
105.7241237799926
 20
-146.2503322659548
 30
0.0
 10
105.6100911194308
 20
-146.3054537937187
 30
0.0
 10
105.6100911194308
 20
-146.3054537937187
 30
0.0
 10
105.6100911194308
 20
-146.3054537937187
 30
0.0
 10
105.6204264058865
 20
-146.3054537937187
 30
0.0
 10
105.6204264058865
 20
-146.3054537937187
 30
0.0
 10
105.6204264058865
 20
-146.3054537937187
 30
0.0
 10
106.1430473909989
 20
-146.3054537937187
 30
0.0
 10
106.1430473909989
 20
-146.3054537937187
 30
0.0
 10
106.1430473909989
 20
-146.3054537937187
 30
0.0
 10
106.047962755606
 20
-146.261012061959
 30
0.0
 10
106.047962755606
 20
-146.261012061959
 30
0.0
 10
106.0755235194881
 20
-146.222943756847
 30
0.0
 10
106.1323675949947
 20
-146.1425007772664
 30
0.0
 10
106.1471815055812
 20
-146.0684312243335
 30
0.0
 10
106.1471815055812
 20
-146.0684312243335
 30
0.0
 10
106.3611219352152
 20
-146.1319932360364
 30
0.0
 10
106.3611219352152
 20
-146.1319932360364
 30
0.0
 10
106.3693901643798
 20
-146.1340602933276
 30
0.0
 10
106.3907497563884
 20
-146.1445678345576
 30
0.0
 10
106.3907497563884
 20
-146.1657551717919
 30
0.0
 10
106.3907497563884
 20
-146.2038234769039
 30
0.0
 10
106.3249484326201
 20
-146.2038234769039
 30
0.0
 10
106.3060004074513
 20
-146.2038234769039
 30
0.0
 10
106.295320611447
 20
-146.222943756847
 30
0.0
 10
106.2722384716958
 20
-146.2630791192502
 30
0.0
 10
106.2426106505227
 20
-146.3033867364276
 30
0.0
 10
106.6422417268116
 20
-146.2970133097799
 30
0.0
 10
106.6718695479848
 20
-146.2947739977145
 30
0.0
 10
106.7480061582088
 20
-146.288572825841
 30
0.0
 10
106.7480061582088
 20
-146.288572825841
 30
0.0
 10
106.7480061582088
 20
-146.4704738674622
 30
0.0
 10
106.7480061582088
 20
-146.4704738674622
 30
0.0
 10
106.7290581330399
 20
-146.4704738674622
 30
0.0
 10
106.7035644264491
 20
-146.4682345553968
 30
0.0
 10
106.4837673344901
 20
-146.4597940714579
 30
0.0
 10
106.4327799213085
 20
-146.4577270141668
 30
0.0
 10
106.2129828293495
 20
-146.4535928995845
 30
0.0
 10
106.1685410975898
 20
-146.4535928995845
 30
0.0
 10
106.1685410975898
 20
-146.4535928995845
 30
0.0
 10
105.9525336106646
 20
-146.4535928995845
 30
0.0
 10
105.9525336106646
 20
-146.4535928995845
 30
0.0
 10
105.9525336106646
 20
-146.4535928995845
 30
0.0
 10
105.9525336106646
 20
-146.5719319295028
 30
0.0
 10
105.9525336106646
 20
-146.5719319295028
 30
0.0
 10
105.9525336106646
 20
-146.5719319295028
 30
0.0
 10
106.1261664231212
 20
-146.5719319295028
 30
0.0
 10
106.1261664231212
 20
-146.5719319295028
 30
0.0
 10
106.2891194395735
 20
-146.5719319295028
 30
0.0
 10
106.4792887103593
 20
-146.5719319295028
 30
0.0
 10
106.6360405549382
 20
-146.5614243882728
 30
0.0
 10
106.6360405549382
 20
-146.5614243882728
 30
0.0
 10
106.6360405549382
 20
-146.732817888664
 30
0.0
 10
106.6360405549382
 20
-146.732817888664
 30
0.0
 10
106.426578749435
 20
-146.7243774047251
 30
0.0
 10
106.2298637972272
 20
-146.7221380926597
 30
0.0
 10
106.1261664231212
 20
-146.7221380926597
 30
0.0
 10
106.1261664231212
 20
-146.7221380926597
 30
0.0
 10
105.9525336106646
 20
-146.7221380926597
 30
0.0
 10
105.9525336106646
 20
-146.7221380926597
 30
0.0
 10
105.9525336106646
 20
-146.7221380926597
 30
0.0
 10
105.9525336106646
 20
-146.8301418361223
 30
0.0
 10
105.9525336106646
 20
-146.8301418361223
 30
0.0
 10
105.9525336106646
 20
-146.8301418361223
 30
0.0
 10
106.1833550081764
 20
-146.8301418361223
 30
0.0
 10
106.1833550081764
 20
-146.8301418361223
 30
0.0
 10
106.3166802034555
 20
-146.8301418361223
 30
0.0
 10
106.6043456764739
 20
-146.8258354667657
 30
0.0
 10
106.8138074819771
 20
-146.819462040118
 30
0.0
 10
106.8138074819771
 20
-146.819462040118
 30
0.0
 10
106.8138074819771
 20
-146.9972289671569
 30
0.0
 10
106.8138074819771
 20
-146.9972289671569
 30
0.0
 10
106.6212266443516
 20
-146.9908555405092
 30
0.0
 10
106.3080674647424
 20
-146.9865491711527
 30
0.0
 10
106.1833550081764
 20
-146.9865491711527
 30
0.0
  0
HATCH
  5
F1
330
E5
100
AcDbEntity
  8
レイヤー 1
 62
    18
420
        0
440
 33554687
100
AcDbHatch
 10
0.0
 20
0.0
 30
0.0
210
0.0
220
0.0
230
1.0
  2
SOLID
 70
     1
 71
     1
 91
        4
 92
        1
 93
        1
 72
     4
 94
        3
 73
     0
 74
     0
 95
       17
 96
       13
 40
0.0
 40
0.0
 40
0.0
 40
0.0
 40
1.0
 40
1.0
 40
1.0
 40
2.0
 40
2.0
 40
2.0
 40
3.0
 40
3.0
 40
3.0
 40
4.0
 40
4.0
 40
4.0
 40
4.0
 10
106.3483750819198
 20
-147.7186319617682
 10
106.3483750819198
 20
-147.7186319617682
 10
105.6417859978951
 20
-147.7186319617682
 10
105.6417859978951
 20
-147.7186319617682
 10
105.6417859978951
 20
-147.7186319617682
 10
105.6417859978951
 20
-147.8328368771043
 10
105.6417859978951
 20
-147.8328368771043
 10
105.6417859978951
 20
-147.8328368771043
 10
106.3483750819198
 20
-147.8328368771043
 10
106.3483750819198
 20
-147.8328368771043
 10
106.3483750819198
 20
-147.8328368771043
 10
106.3483750819198
 20
-147.7186319617682
 10
106.3483750819198
 20
-147.7186319617682
 97
        0
 97
        1
330
ED
 92
        1
 93
        1
 72
     4
 94
        3
 73
     0
 74
     0
 95
       17
 96
       13
 40
0.0
 40
0.0
 40
0.0
 40
0.0
 40
1.0
 40
1.0
 40
1.0
 40
2.0
 40
2.0
 40
2.0
 40
3.0
 40
3.0
 40
3.0
 40
4.0
 40
4.0
 40
4.0
 40
4.0
 10
106.3483750819198
 20
-147.4752359657353
 10
106.3483750819198
 20
-147.4752359657353
 10
105.6417859978951
 20
-147.4752359657353
 10
105.6417859978951
 20
-147.4752359657353
 10
105.6417859978951
 20
-147.4752359657353
 10
105.6417859978951
 20
-147.5896131358456
 10
105.6417859978951
 20
-147.5896131358456
 10
105.6417859978951
 20
-147.5896131358456
 10
106.3483750819198
 20
-147.5896131358456
 10
106.3483750819198
 20
-147.5896131358456
 10
106.3483750819198
 20
-147.5896131358456
 10
106.3483750819198
 20
-147.4752359657353
 10
106.3483750819198
 20
-147.4752359657353
 97
        0
 97
        1
330
EE
 92
        1
 93
        1
 72
     4
 94
        3
 73
     0
 74
     0
 95
       17
 96
       13
 40
0.0
 40
0.0
 40
0.0
 40
0.0
 40
1.0
 40
1.0
 40
1.0
 40
2.0
 40
2.0
 40
2.0
 40
3.0
 40
3.0
 40
3.0
 40
4.0
 40
4.0
 40
4.0
 40
4.0
 10
106.3483750819198
 20
-147.2425197657067
 10
106.3483750819198
 20
-147.2425197657067
 10
105.6417859978951
 20
-147.2425197657067
 10
105.6417859978951
 20
-147.2425197657067
 10
105.6417859978951
 20
-147.2425197657067
 10
105.6417859978951
 20
-147.3505235091693
 10
105.6417859978951
 20
-147.3505235091693
 10
105.6417859978951
 20
-147.3505235091693
 10
106.3483750819198
 20
-147.3505235091693
 10
106.3483750819198
 20
-147.3505235091693
 10
106.3483750819198
 20
-147.3505235091693
 10
106.3483750819198
 20
-147.2425197657067
 10
106.3483750819198
 20
-147.2425197657067
 97
        0
 97
        1
330
EF
 92
        1
 93
        1
 72
     4
 94
        3
 73
     0
 74
     0
 95
      203
 96
      199
 40
0.0
 40
0.0
 40
0.0
 40
0.0
 40
1.0
 40
1.0
 40
1.0
 40
2.0
 40
2.0
 40
2.0
 40
3.0
 40
3.0
 40
3.0
 40
4.0
 40
4.0
 40
4.0
 40
5.0
 40
5.0
 40
5.0
 40
6.0
 40
6.0
 40
6.0
 40
7.0
 40
7.0
 40
7.0
 40
8.0
 40
8.0
 40
8.0
 40
9.0
 40
9.0
 40
9.0
 40
10.0
 40
10.0
 40
10.0
 40
11.0
 40
11.0
 40
11.0
 40
12.0
 40
12.0
 40
12.0
 40
13.0
 40
13.0
 40
13.0
 40
14.0
 40
14.0
 40
14.0
 40
15.0
 40
15.0
 40
15.0
 40
16.0
 40
16.0
 40
16.0
 40
17.0
 40
17.0
 40
17.0
 40
18.0
 40
18.0
 40
18.0
 40
19.0
 40
19.0
 40
19.0
 40
20.0
 40
20.0
 40
20.0
 40
21.0
 40
21.0
 40
21.0
 40
22.0
 40
22.0
 40
22.0
 40
23.0
 40
23.0
 40
23.0
 40
24.0
 40
24.0
 40
24.0
 40
25.0
 40
25.0
 40
25.0
 40
26.0
 40
26.0
 40
26.0
 40
27.0
 40
27.0
 40
27.0
 40
28.0
 40
28.0
 40
28.0
 40
29.0
 40
29.0
 40
29.0
 40
30.0
 40
30.0
 40
30.0
 40
31.0
 40
31.0
 40
31.0
 40
32.0
 40
32.0
 40
32.0
 40
33.0
 40
33.0
 40
33.0
 40
34.0
 40
34.0
 40
34.0
 40
35.0
 40
35.0
 40
35.0
 40
36.0
 40
36.0
 40
36.0
 40
37.0
 40
37.0
 40
37.0
 40
38.0
 40
38.0
 40
38.0
 40
39.0
 40
39.0
 40
39.0
 40
40.0
 40
40.0
 40
40.0
 40
41.0
 40
41.0
 40
41.0
 40
42.0
 40
42.0
 40
42.0
 40
43.0
 40
43.0
 40
43.0
 40
44.0
 40
44.0
 40
44.0
 40
45.0
 40
45.0
 40
45.0
 40
46.0
 40
46.0
 40
46.0
 40
47.0
 40
47.0
 40
47.0
 40
48.0
 40
48.0
 40
48.0
 40
49.0
 40
49.0
 40
49.0
 40
50.0
 40
50.0
 40
50.0
 40
51.0
 40
51.0
 40
51.0
 40
52.0
 40
52.0
 40
52.0
 40
53.0
 40
53.0
 40
53.0
 40
54.0
 40
54.0
 40
54.0
 40
55.0
 40
55.0
 40
55.0
 40
56.0
 40
56.0
 40
56.0
 40
57.0
 40
57.0
 40
57.0
 40
58.0
 40
58.0
 40
58.0
 40
59.0
 40
59.0
 40
59.0
 40
60.0
 40
60.0
 40
60.0
 40
61.0
 40
61.0
 40
61.0
 40
62.0
 40
62.0
 40
62.0
 40
63.0
 40
63.0
 40
63.0
 40
64.0
 40
64.0
 40
64.0
 40
65.0
 40
65.0
 40
65.0
 40
66.0
 40
66.0
 40
66.0
 40
66.0
 10
106.1833550081764
 20
-146.9865491711527
 10
106.1833550081764
 20
-146.9865491711527
 10
105.6249050300174
 20
-146.9865491711527
 10
105.6249050300174
 20
-146.9865491711527
 10
105.6142252340131
 20
-147.0309909029124
 10
105.6056124953
 20
-147.0626857813767
 10
105.5932101515531
 20
-147.1009263412629
 10
105.6183593485954
 20
-147.1009263412629
 10
105.633173259182
 20
-147.1029933985541
 10
105.6397189406039
 20
-147.1029933985541
 10
105.6397189406039
 20
-147.1029933985541
 10
105.8278211540986
 20
-147.1029933985541
 10
105.8278211540986
 20
-147.1029933985541
 10
105.8278211540986
 20
-147.1029933985541
 10
106.2023030333452
 20
-147.1029933985541
 10
106.2023030333452
 20
-147.1029933985541
 10
106.2529459369784
 20
-147.1029933985541
 10
106.5364772954145
 20
-147.0902465452587
 10
106.5681721738788
 20
-147.0902465452587
 10
106.5661051165876
 20
-147.1178073091406
 10
106.5640380592965
 20
-147.1367553343095
 10
106.5640380592965
 20
-147.1663831554827
 10
106.5619710020053
 20
-147.198078033947
 10
106.5619710020053
 20
-147.3334702865173
 10
106.5619710020053
 20
-147.3610310503993
 10
106.5619710020053
 20
-147.3610310503993
 10
106.5619710020053
 20
-147.6064941037233
 10
106.5619710020053
 20
-147.6064941037233
 10
106.5619710020053
 20
-147.6509358354831
 10
106.5661051165876
 20
-147.8476507876908
 10
106.5705837407185
 20
-147.9999240081389
 10
106.5705837407185
 20
-147.9999240081389
 10
106.343896457789
 20
-147.9999240081389
 10
106.343896457789
 20
-147.9999240081389
 10
106.343896457789
 20
-147.9999240081389
 10
106.3463080246287
 20
-147.9661620723834
 10
106.3463080246287
 20
-147.9661620723834
 10
106.3463080246287
 20
-147.9661620723834
 10
105.6438530551862
 20
-147.9661620723834
 10
105.6438530551862
 20
-147.9661620723834
 10
105.6438530551862
 20
-147.9661620723834
 10
105.6459201124774
 20
-147.9999240081389
 10
105.6459201124774
 20
-147.9999240081389
 10
105.6459201124774
 20
-147.9999240081389
 10
105.4281900778096
 20
-147.9999240081389
 10
105.4281900778096
 20
-147.9999240081389
 10
105.4323241923919
 20
-147.9449747351492
 10
105.4323241923919
 20
-147.9322278818537
 10
105.4386976190396
 20
-147.8180229665177
 10
105.4407646763308
 20
-147.7904622026357
 10
105.4430039883962
 20
-147.6573092621308
 10
105.4430039883962
 20
-147.6381889821877
 10
105.4430039883962
 20
-147.6381889821877
 10
105.4430039883962
 20
-147.4351006033322
 10
105.4430039883962
 20
-147.4351006033322
 10
105.3033053664693
 20
-147.6846977712385
 10
105.1341511781435
 20
-147.8159559092266
 10
105.0283867467463
 20
-147.8814127234463
 10
105.0283867467463
 20
-147.8814127234463
 10
104.8547539342898
 20
-147.7418863562937
 10
104.8547539342898
 20
-147.7418863562937
 10
104.9436373978092
 20
-147.6910711978862
 10
105.0874701343184
 20
-147.604254791658
 10
105.2251016989541
 20
-147.4097791515156
 10
105.3160522197647
 20
-147.2828273828841
 10
105.3816812887587
 20
-147.138994646375
 10
105.4154432245142
 20
-146.9865491711527
 10
105.1870333938421
 20
-146.988788483218
 10
105.0071994095121
 20
-146.9951619098658
 10
104.9119425193449
 20
-146.9972289671569
 10
104.9119425193449
 20
-146.9972289671569
 10
104.9119425193449
 20
-146.819462040118
 10
104.9119425193449
 20
-146.819462040118
 10
105.1086574715527
 20
-146.8258354667657
 10
105.3921888299887
 20
-146.8301418361223
 10
105.5422227383714
 20
-146.8301418361223
 10
105.5422227383714
 20
-146.8301418361223
 10
105.7558186584569
 20
-146.8301418361223
 10
105.7558186584569
 20
-146.8301418361223
 10
105.7558186584569
 20
-146.8301418361223
 10
105.7558186584569
 20
-146.7221380926597
 10
105.7558186584569
 20
-146.7221380926597
 10
105.7558186584569
 20
-146.7221380926597
 10
105.6100911194308
 20
-146.7221380926597
 10
105.6100911194308
 20
-146.7221380926597
 10
105.4407646763308
 20
-146.7221380926597
 10
105.271610488005
 20
-146.7264444620163
 10
105.1045233569704
 20
-146.732817888664
 10
105.1045233569704
 20
-146.732817888664
 10
105.1045233569704
 20
-146.5614243882728
 10
105.1045233569704
 20
-146.5614243882728
 10
105.2588636347096
 20
-146.5719319295028
 10
105.4450710456873
 20
-146.5719319295028
 10
105.6100911194308
 20
-146.5719319295028
 10
105.6100911194308
 20
-146.5719319295028
 10
105.7558186584569
 20
-146.5719319295028
 10
105.7558186584569
 20
-146.5719319295028
 10
105.7558186584569
 20
-146.5719319295028
 10
105.7558186584569
 20
-146.4535928995845
 10
105.7558186584569
 20
-146.4535928995845
 10
105.7558186584569
 20
-146.4535928995845
 10
105.6249050300174
 20
-146.4535928995845
 10
105.6249050300174
 20
-146.4535928995845
 10
105.5783962409665
 20
-146.4535928995845
 10
105.375307862111
 20
-146.4620333835234
 10
105.3329331876424
 20
-146.4620333835234
 10
105.1298448087869
 20
-146.4661674981057
 10
105.0537081985629
 20
-146.4682345553968
 10
104.9755045310478
 20
-146.4704738674622
 10
104.9755045310478
 20
-146.4704738674622
 10
104.9755045310478
 20
-146.2863335137756
 10
104.9755045310478
 20
-146.2863335137756
 10
105.0897094463838
 20
-146.2947739977145
 10
105.1341511781435
 20
-146.2947739977145
 10
105.517073541329
 20
-146.3033867364276
 10
105.4535115296262
 20
-146.2081298462605
 10
105.4259507657442
 20
-146.1805690823784
 10
105.3901217726976
 20
-146.1445678345576
 10
105.3901217726976
 20
-146.1445678345576
 10
105.5656493876711
 20
-146.0620577976858
 10
105.5656493876711
 20
-146.0620577976858
 10
105.6056124953
 20
-146.0980590455067
 10
105.6500542270597
 20
-146.1404337199753
 10
105.7241237799926
 20
-146.2503322659548
 10
105.7241237799926
 20
-146.2503322659548
 10
105.6100911194308
 20
-146.3054537937187
 10
105.6100911194308
 20
-146.3054537937187
 10
105.6100911194308
 20
-146.3054537937187
 10
105.6204264058865
 20
-146.3054537937187
 10
105.6204264058865
 20
-146.3054537937187
 10
105.6204264058865
 20
-146.3054537937187
 10
106.1430473909989
 20
-146.3054537937187
 10
106.1430473909989
 20
-146.3054537937187
 10
106.1430473909989
 20
-146.3054537937187
 10
106.047962755606
 20
-146.261012061959
 10
106.047962755606
 20
-146.261012061959
 10
106.0755235194881
 20
-146.222943756847
 10
106.1323675949947
 20
-146.1425007772664
 10
106.1471815055812
 20
-146.0684312243335
 10
106.1471815055812
 20
-146.0684312243335
 10
106.3611219352152
 20
-146.1319932360364
 10
106.3611219352152
 20
-146.1319932360364
 10
106.3693901643798
 20
-146.1340602933276
 10
106.3907497563884
 20
-146.1445678345576
 10
106.3907497563884
 20
-146.1657551717919
 10
106.3907497563884
 20
-146.2038234769039
 10
106.3249484326201
 20
-146.2038234769039
 10
106.3060004074513
 20
-146.2038234769039
 10
106.295320611447
 20
-146.222943756847
 10
106.2722384716958
 20
-146.2630791192502
 10
106.2426106505227
 20
-146.3033867364276
 10
106.6422417268116
 20
-146.2970133097799
 10
106.6718695479848
 20
-146.2947739977145
 10
106.7480061582088
 20
-146.288572825841
 10
106.7480061582088
 20
-146.288572825841
 10
106.7480061582088
 20
-146.4704738674622
 10
106.7480061582088
 20
-146.4704738674622
 10
106.7290581330399
 20
-146.4704738674622
 10
106.7035644264491
 20
-146.4682345553968
 10
106.4837673344901
 20
-146.4597940714579
 10
106.4327799213085
 20
-146.4577270141668
 10
106.2129828293495
 20
-146.4535928995845
 10
106.1685410975898
 20
-146.4535928995845
 10
106.1685410975898
 20
-146.4535928995845
 10
105.9525336106646
 20
-146.4535928995845
 10
105.9525336106646
 20
-146.4535928995845
 10
105.9525336106646
 20
-146.4535928995845
 10
105.9525336106646
 20
-146.5719319295028
 10
105.9525336106646
 20
-146.5719319295028
 10
105.9525336106646
 20
-146.5719319295028
 10
106.1261664231212
 20
-146.5719319295028
 10
106.1261664231212
 20
-146.5719319295028
 10
106.2891194395735
 20
-146.5719319295028
 10
106.4792887103593
 20
-146.5719319295028
 10
106.6360405549382
 20
-146.5614243882728
 10
106.6360405549382
 20
-146.5614243882728
 10
106.6360405549382
 20
-146.732817888664
 10
106.6360405549382
 20
-146.732817888664
 10
106.426578749435
 20
-146.7243774047251
 10
106.2298637972272
 20
-146.7221380926597
 10
106.1261664231212
 20
-146.7221380926597
 10
106.1261664231212
 20
-146.7221380926597
 10
105.9525336106646
 20
-146.7221380926597
 10
105.9525336106646
 20
-146.7221380926597
 10
105.9525336106646
 20
-146.7221380926597
 10
105.9525336106646
 20
-146.8301418361223
 10
105.9525336106646
 20
-146.8301418361223
 10
105.9525336106646
 20
-146.8301418361223
 10
106.1833550081764
 20
-146.8301418361223
 10
106.1833550081764
 20
-146.8301418361223
 10
106.3166802034555
 20
-146.8301418361223
 10
106.6043456764739
 20
-146.8258354667657
 10
106.8138074819771
 20
-146.819462040118
 10
106.8138074819771
 20
-146.819462040118
 10
106.8138074819771
 20
-146.9972289671569
 10
106.8138074819771
 20
-146.9972289671569
 10
106.6212266443516
 20
-146.9908555405092
 10
106.3080674647424
 20
-146.9865491711527
 10
106.1833550081764
 20
-146.9865491711527
 97
        0
 97
        1
330
F0
 75
     2
 76
     1
 98
        1
 10
0.0
 20
0.0
450
        0
451
        0
460
0.0
461
0.0
452
        0
462
0.0
453
        0
470

  0
SPLINE
  5
F2
330
E5
100
AcDbEntity
  8
レイヤー 1
100
AcDbSpline
210
0.0
220
0.0
230
1.0
 70
     9
 71
     3
 72
    29
 73
    25
 74
     0
 42
0.0000000001
 43
0.0000000001
 40
0.0
 40
0.0
 40
0.0
 40
0.0
 40
1.0
 40
1.0
 40
1.0
 40
2.0
 40
2.0
 40
2.0
 40
3.0
 40
3.0
 40
3.0
 40
4.0
 40
4.0
 40
4.0
 40
5.0
 40
5.0
 40
5.0
 40
6.0
 40
6.0
 40
6.0
 40
7.0
 40
7.0
 40
7.0
 40
8.0
 40
8.0
 40
8.0
 40
8.0
 10
108.0588649903464
 20
-146.4344726196413
 30
0.0
 10
108.0588649903464
 20
-146.4344726196413
 30
0.0
 10
107.7053981935597
 20
-146.4344726196413
 30
0.0
 10
107.7053981935597
 20
-146.4344726196413
 30
0.0
 10
107.5934325902891
 20
-146.4344726196413
 30
0.0
 10
107.4539062231365
 20
-146.4408460462891
 30
0.0
 10
107.3457302248997
 20
-146.4535928995845
 30
0.0
 10
107.3457302248997
 20
-146.4535928995845
 30
0.0
 10
107.3457302248997
 20
-146.2186373874905
 30
0.0
 10
107.3457302248997
 20
-146.2186373874905
 30
0.0
 10
107.4642415095923
 20
-146.233451298077
 30
0.0
 10
107.6482096085046
 20
-146.2377576674336
 30
0.0
 10
107.7053981935597
 20
-146.2377576674336
 30
0.0
 10
107.7053981935597
 20
-146.2377576674336
 30
0.0
 10
108.0588649903464
 20
-146.2377576674336
 30
0.0
 10
108.0588649903464
 20
-146.2377576674336
 30
0.0
 10
108.0778130155152
 20
-146.2377576674336
 30
0.0
 10
108.281073649145
 20
-146.2377576674336
 30
0.0
 10
108.4226670735888
 20
-146.2186373874905
 30
0.0
 10
108.4226670735888
 20
-146.2186373874905
 30
0.0
 10
108.4226670735888
 20
-146.4535928995845
 30
0.0
 10
108.4226670735888
 20
-146.4535928995845
 30
0.0
 10
108.2662597385584
 20
-146.4344726196413
 30
0.0
 10
108.0757459582241
 20
-146.4344726196413
 30
0.0
 10
108.0588649903464
 20
-146.4344726196413
 30
0.0
  0
SPLINE
  5
F3
330
E5
100
AcDbEntity
  8
レイヤー 1
100
AcDbSpline
210
0.0
220
0.0
230
1.0
 70
     9
 71
     3
 72
    47
 73
    43
 74
     0
 42
0.0000000001
 43
0.0000000001
 40
0.0
 40
0.0
 40
0.0
 40
0.0
 40
1.0
 40
1.0
 40
1.0
 40
2.0
 40
2.0
 40
2.0
 40
3.0
 40
3.0
 40
3.0
 40
4.0
 40
4.0
 40
4.0
 40
5.0
 40
5.0
 40
5.0
 40
6.0
 40
6.0
 40
6.0
 40
7.0
 40
7.0
 40
7.0
 40
8.0
 40
8.0
 40
8.0
 40
9.0
 40
9.0
 40
9.0
 40
10.0
 40
10.0
 40
10.0
 40
11.0
 40
11.0
 40
11.0
 40
12.0
 40
12.0
 40
12.0
 40
13.0
 40
13.0
 40
13.0
 40
14.0
 40
14.0
 40
14.0
 40
14.0
 10
108.1601507976127
 20
-146.9632947766272
 30
0.0
 10
108.1601507976127
 20
-146.9632947766272
 30
0.0
 10
108.0588649903464
 20
-146.9632947766272
 30
0.0
 10
108.0588649903464
 20
-146.9632947766272
 30
0.0
 10
108.0588649903464
 20
-147.0501111828555
 30
0.0
 10
108.0375053983378
 20
-147.4394069726888
 30
0.0
 10
107.8407904461301
 20
-147.6593763194219
 30
0.0
 10
107.688517225682
 20
-147.8285305077477
 30
0.0
 10
107.48112247747
 20
-147.8984659460983
 30
0.0
 10
107.3967176380814
 20
-147.925854455206
 30
0.0
 10
107.3967176380814
 20
-147.925854455206
 30
0.0
 10
107.2020697431647
 20
-147.7587673241714
 30
0.0
 10
107.2020697431647
 20
-147.7587673241714
 30
0.0
 10
107.2992214358488
 20
-147.746020470876
 30
0.0
 10
107.4749213055965
 20
-147.7227660763505
 30
0.0
 10
107.6630235190912
 20
-147.5344916080816
 30
0.0
 10
107.737093072024
 20
-147.4626613672142
 30
0.0
 10
107.8407904461301
 20
-147.3229627452873
 30
0.0
 10
107.8407904461301
 20
-146.9632947766272
 30
0.0
 10
107.8407904461301
 20
-146.9632947766272
 30
0.0
 10
107.6103135581668
 20
-146.9632947766272
 30
0.0
 10
107.6103135581668
 20
-146.9632947766272
 30
0.0
 10
107.4242784019634
 20
-146.9632947766272
 30
0.0
 10
107.2378987362113
 20
-146.9676011459838
 30
0.0
 10
107.0518635800079
 20
-146.9824150565703
 30
0.0
 10
107.0518635800079
 20
-146.9824150565703
 30
0.0
 10
107.0518635800079
 20
-146.7624457098372
 30
0.0
 10
107.0518635800079
 20
-146.7624457098372
 30
0.0
 10
107.2399657935025
 20
-146.7772596204237
 30
0.0
 10
107.5255642092297
 20
-146.781393735006
 30
0.0
 10
107.6103135581668
 20
-146.781393735006
 30
0.0
 10
107.6103135581668
 20
-146.781393735006
 30
0.0
 10
108.1601507976127
 20
-146.781393735006
 30
0.0
 10
108.1601507976127
 20
-146.781393735006
 30
0.0
 10
108.1794433323301
 20
-146.781393735006
 30
0.0
 10
108.4967366265216
 20
-146.781393735006
 30
0.0
 10
108.7251464571937
 20
-146.7624457098372
 30
0.0
 10
108.7251464571937
 20
-146.7624457098372
 30
0.0
 10
108.7251464571937
 20
-146.9824150565703
 30
0.0
 10
108.7251464571937
 20
-146.9824150565703
 30
0.0
 10
108.537044243699
 20
-146.9676011459838
 30
0.0
 10
108.3485975206559
 20
-146.9632947766272
 30
0.0
 10
108.1601507976127
 20
-146.9632947766272
 30
0.0
  0
HATCH
  5
F4
330
E5
100
AcDbEntity
  8
レイヤー 1
 62
    18
420
        0
440
 33554687
100
AcDbHatch
 10
0.0
 20
0.0
 30
0.0
210
0.0
220
0.0
230
1.0
  2
SOLID
 70
     1
 71
     1
 91
        2
 92
        1
 93
        1
 72
     4
 94
        3
 73
     0
 74
     0
 95
       29
 96
       25
 40
0.0
 40
0.0
 40
0.0
 40
0.0
 40
1.0
 40
1.0
 40
1.0
 40
2.0
 40
2.0
 40
2.0
 40
3.0
 40
3.0
 40
3.0
 40
4.0
 40
4.0
 40
4.0
 40
5.0
 40
5.0
 40
5.0
 40
6.0
 40
6.0
 40
6.0
 40
7.0
 40
7.0
 40
7.0
 40
8.0
 40
8.0
 40
8.0
 40
8.0
 10
108.0588649903464
 20
-146.4344726196413
 10
108.0588649903464
 20
-146.4344726196413
 10
107.7053981935597
 20
-146.4344726196413
 10
107.7053981935597
 20
-146.4344726196413
 10
107.5934325902891
 20
-146.4344726196413
 10
107.4539062231365
 20
-146.4408460462891
 10
107.3457302248997
 20
-146.4535928995845
 10
107.3457302248997
 20
-146.4535928995845
 10
107.3457302248997
 20
-146.2186373874905
 10
107.3457302248997
 20
-146.2186373874905
 10
107.4642415095923
 20
-146.233451298077
 10
107.6482096085046
 20
-146.2377576674336
 10
107.7053981935597
 20
-146.2377576674336
 10
107.7053981935597
 20
-146.2377576674336
 10
108.0588649903464
 20
-146.2377576674336
 10
108.0588649903464
 20
-146.2377576674336
 10
108.0778130155152
 20
-146.2377576674336
 10
108.281073649145
 20
-146.2377576674336
 10
108.4226670735888
 20
-146.2186373874905
 10
108.4226670735888
 20
-146.2186373874905
 10
108.4226670735888
 20
-146.4535928995845
 10
108.4226670735888
 20
-146.4535928995845
 10
108.2662597385584
 20
-146.4344726196413
 10
108.0757459582241
 20
-146.4344726196413
 10
108.0588649903464
 20
-146.4344726196413
 97
        0
 97
        1
330
F2
 92
        1
 93
        1
 72
     4
 94
        3
 73
     0
 74
     0
 95
       47
 96
       43
 40
0.0
 40
0.0
 40
0.0
 40
0.0
 40
1.0
 40
1.0
 40
1.0
 40
2.0
 40
2.0
 40
2.0
 40
3.0
 40
3.0
 40
3.0
 40
4.0
 40
4.0
 40
4.0
 40
5.0
 40
5.0
 40
5.0
 40
6.0
 40
6.0
 40
6.0
 40
7.0
 40
7.0
 40
7.0
 40
8.0
 40
8.0
 40
8.0
 40
9.0
 40
9.0
 40
9.0
 40
10.0
 40
10.0
 40
10.0
 40
11.0
 40
11.0
 40
11.0
 40
12.0
 40
12.0
 40
12.0
 40
13.0
 40
13.0
 40
13.0
 40
14.0
 40
14.0
 40
14.0
 40
14.0
 10
108.1601507976127
 20
-146.9632947766272
 10
108.1601507976127
 20
-146.9632947766272
 10
108.0588649903464
 20
-146.9632947766272
 10
108.0588649903464
 20
-146.9632947766272
 10
108.0588649903464
 20
-147.0501111828555
 10
108.0375053983378
 20
-147.4394069726888
 10
107.8407904461301
 20
-147.6593763194219
 10
107.688517225682
 20
-147.8285305077477
 10
107.48112247747
 20
-147.8984659460983
 10
107.3967176380814
 20
-147.925854455206
 10
107.3967176380814
 20
-147.925854455206
 10
107.2020697431647
 20
-147.7587673241714
 10
107.2020697431647
 20
-147.7587673241714
 10
107.2992214358488
 20
-147.746020470876
 10
107.4749213055965
 20
-147.7227660763505
 10
107.6630235190912
 20
-147.5344916080816
 10
107.737093072024
 20
-147.4626613672142
 10
107.8407904461301
 20
-147.3229627452873
 10
107.8407904461301
 20
-146.9632947766272
 10
107.8407904461301
 20
-146.9632947766272
 10
107.6103135581668
 20
-146.9632947766272
 10
107.6103135581668
 20
-146.9632947766272
 10
107.4242784019634
 20
-146.9632947766272
 10
107.2378987362113
 20
-146.9676011459838
 10
107.0518635800079
 20
-146.9824150565703
 10
107.0518635800079
 20
-146.9824150565703
 10
107.0518635800079
 20
-146.7624457098372
 10
107.0518635800079
 20
-146.7624457098372
 10
107.2399657935025
 20
-146.7772596204237
 10
107.5255642092297
 20
-146.781393735006
 10
107.6103135581668
 20
-146.781393735006
 10
107.6103135581668
 20
-146.781393735006
 10
108.1601507976127
 20
-146.781393735006
 10
108.1601507976127
 20
-146.781393735006
 10
108.1794433323301
 20
-146.781393735006
 10
108.4967366265216
 20
-146.781393735006
 10
108.7251464571937
 20
-146.7624457098372
 10
108.7251464571937
 20
-146.7624457098372
 10
108.7251464571937
 20
-146.9824150565703
 10
108.7251464571937
 20
-146.9824150565703
 10
108.537044243699
 20
-146.9676011459838
 10
108.3485975206559
 20
-146.9632947766272
 10
108.1601507976127
 20
-146.9632947766272
 97
        0
 97
        1
330
F3
 75
     2
 76
     1
 98
        1
 10
0.0
 20
0.0
450
        0
451
        0
460
0.0
461
0.0
452
        0
462
0.0
453
        0
470

  0
SPLINE
  5
F5
330
E5
100
AcDbEntity
  8
レイヤー 1
100
AcDbSpline
210
0.0
220
0.0
230
1.0
 70
     9
 71
     3
 72
    29
 73
    25
 74
     0
 42
0.0000000001
 43
0.0000000001
 40
0.0
 40
0.0
 40
0.0
 40
0.0
 40
1.0
 40
1.0
 40
1.0
 40
2.0
 40
2.0
 40
2.0
 40
3.0
 40
3.0
 40
3.0
 40
4.0
 40
4.0
 40
4.0
 40
5.0
 40
5.0
 40
5.0
 40
6.0
 40
6.0
 40
6.0
 40
7.0
 40
7.0
 40
7.0
 40
8.0
 40
8.0
 40
8.0
 40
8.0
 10
110.0060329586096
 20
-147.1262477930795
 30
0.0
 10
110.0060329586096
 20
-147.1262477930795
 30
0.0
 10
109.5216525333835
 20
-147.1262477930795
 30
0.0
 10
109.5216525333835
 20
-147.1262477930795
 30
0.0
 10
109.4940917695015
 20
-147.1262477930795
 30
0.0
 10
109.1767984753099
 20
-147.1262477930795
 30
0.0
 10
108.9652696125156
 20
-147.1515692448961
 30
0.0
 10
108.9652696125156
 20
-147.1515692448961
 30
0.0
 10
108.9652696125156
 20
-146.9210923569329
 30
0.0
 10
108.9652696125156
 20
-146.9210923569329
 30
0.0
 10
109.1240885143856
 20
-146.9443467514583
 30
0.0
 10
109.3142577851714
 20
-146.9464138087495
 30
0.0
 10
109.5216525333835
 20
-146.9464138087495
 30
0.0
 10
109.5216525333835
 20
-146.9464138087495
 30
0.0
 10
110.0060329586096
 20
-146.9464138087495
 30
0.0
 10
110.0060329586096
 20
-146.9464138087495
 30
0.0
 10
110.1924126243616
 20
-146.9464138087495
 30
0.0
 10
110.3784477805651
 20
-146.9443467514583
 30
0.0
 10
110.5624158794774
 20
-146.9210923569329
 30
0.0
 10
110.5624158794774
 20
-146.9210923569329
 30
0.0
 10
110.5624158794774
 20
-147.1515692448961
 30
0.0
 10
110.5624158794774
 20
-147.1515692448961
 30
0.0
 10
110.3784477805651
 20
-147.1283148503707
 30
0.0
 10
110.1310899247242
 20
-147.1262477930795
 30
0.0
 10
110.0060329586096
 20
-147.1262477930795
 30
0.0
  0
HATCH
  5
F6
330
E5
100
AcDbEntity
  8
レイヤー 1
 62
    18
420
        0
440
 33554687
100
AcDbHatch
 10
0.0
 20
0.0
 30
0.0
210
0.0
220
0.0
230
1.0
  2
SOLID
 70
     1
 71
     1
 91
        1
 92
        1
 93
        1
 72
     4
 94
        3
 73
     0
 74
     0
 95
       29
 96
       25
 40
0.0
 40
0.0
 40
0.0
 40
0.0
 40
1.0
 40
1.0
 40
1.0
 40
2.0
 40
2.0
 40
2.0
 40
3.0
 40
3.0
 40
3.0
 40
4.0
 40
4.0
 40
4.0
 40
5.0
 40
5.0
 40
5.0
 40
6.0
 40
6.0
 40
6.0
 40
7.0
 40
7.0
 40
7.0
 40
8.0
 40
8.0
 40
8.0
 40
8.0
 10
110.0060329586096
 20
-147.1262477930795
 10
110.0060329586096
 20
-147.1262477930795
 10
109.5216525333835
 20
-147.1262477930795
 10
109.5216525333835
 20
-147.1262477930795
 10
109.4940917695015
 20
-147.1262477930795
 10
109.1767984753099
 20
-147.1262477930795
 10
108.9652696125156
 20
-147.1515692448961
 10
108.9652696125156
 20
-147.1515692448961
 10
108.9652696125156
 20
-146.9210923569329
 10
108.9652696125156
 20
-146.9210923569329
 10
109.1240885143856
 20
-146.9443467514583
 10
109.3142577851714
 20
-146.9464138087495
 10
109.5216525333835
 20
-146.9464138087495
 10
109.5216525333835
 20
-146.9464138087495
 10
110.0060329586096
 20
-146.9464138087495
 10
110.0060329586096
 20
-146.9464138087495
 10
110.1924126243616
 20
-146.9464138087495
 10
110.3784477805651
 20
-146.9443467514583
 10
110.5624158794774
 20
-146.9210923569329
 10
110.5624158794774
 20
-146.9210923569329
 10
110.5624158794774
 20
-147.1515692448961
 10
110.5624158794774
 20
-147.1515692448961
 10
110.3784477805651
 20
-147.1283148503707
 10
110.1310899247242
 20
-147.1262477930795
 10
110.0060329586096
 20
-147.1262477930795
 97
        0
 97
        1
330
F5
 75
     2
 76
     1
 98
        1
 10
0.0
 20
0.0
450
        0
451
        0
460
0.0
461
0.0
452
        0
462
0.0
453
        0
470

  0
SPLINE
  5
F7
330
E5
100
AcDbEntity
  8
レイヤー 1
100
AcDbSpline
210
0.0
220
0.0
230
1.0
 70
     9
 71
     3
 72
    47
 73
    43
 74
     0
 42
0.0000000001
 43
0.0000000001
 40
0.0
 40
0.0
 40
0.0
 40
0.0
 40
1.0
 40
1.0
 40
1.0
 40
2.0
 40
2.0
 40
2.0
 40
3.0
 40
3.0
 40
3.0
 40
4.0
 40
4.0
 40
4.0
 40
5.0
 40
5.0
 40
5.0
 40
6.0
 40
6.0
 40
6.0
 40
7.0
 40
7.0
 40
7.0
 40
8.0
 40
8.0
 40
8.0
 40
9.0
 40
9.0
 40
9.0
 40
10.0
 40
10.0
 40
10.0
 40
11.0
 40
11.0
 40
11.0
 40
12.0
 40
12.0
 40
12.0
 40
13.0
 40
13.0
 40
13.0
 40
14.0
 40
14.0
 40
14.0
 40
14.0
 10
112.2263969988531
 20
-146.5317965670997
 30
0.0
 10
112.1564615605025
 20
-146.8110215561791
 30
0.0
 10
112.0803249502785
 20
-147.1157402518495
 30
0.0
 10
111.7671657706693
 20
-147.4478474566276
 30
0.0
 10
111.5301432012841
 20
-147.697444624534
 30
0.0
 10
111.2848524027343
 20
-147.7968356292834
 30
0.0
 10
111.1790879713371
 20
-147.839210303752
 30
0.0
 10
111.1790879713371
 20
-147.839210303752
 30
0.0
 10
110.9844400764205
 20
-147.6573092621308
 30
0.0
 10
110.9844400764205
 20
-147.6573092621308
 30
0.0
 10
111.170475232624
 20
-147.6106282183057
 30
0.0
 10
111.5325547681238
 20
-147.5176106402039
 30
0.0
 10
111.8284884703067
 20
-147.0225504189735
 30
0.0
 10
111.9893744294679
 20
-146.7560722831894
 30
0.0
 10
112.0021212827633
 20
-146.5826117255071
 30
0.0
 10
112.0103895119279
 20
-146.4916612046965
 30
0.0
 10
112.0103895119279
 20
-146.4916612046965
 30
0.0
 10
111.5049940042418
 20
-146.4916612046965
 30
0.0
 10
111.5049940042418
 20
-146.4916612046965
 30
0.0
 10
111.3864827195492
 20
-146.4916612046965
 30
0.0
 10
110.9654920512517
 20
-146.5106092298654
 30
0.0
 10
110.8132188308036
 20
-146.5211167710954
 30
0.0
 10
110.8132188308036
 20
-146.5211167710954
 30
0.0
 10
110.8132188308036
 20
-146.3118272203665
 30
0.0
 10
110.8132188308036
 20
-146.3118272203665
 30
0.0
 10
110.9548122552474
 20
-146.3244018188876
 30
0.0
 10
111.23214244181
 20
-146.3287081882442
 30
0.0
 10
111.3482421596629
 20
-146.3287081882442
 30
0.0
 10
111.3482421596629
 20
-146.3287081882442
 30
0.0
 10
111.7037760137407
 20
-146.3287081882442
 30
0.0
 10
111.7037760137407
 20
-146.3287081882442
 30
0.0
 10
111.7313367776227
 20
-146.3287081882442
 30
0.0
 10
111.8918782272353
 20
-146.3266411309531
 30
0.0
 10
112.0021212827633
 20
-146.3118272203665
 30
0.0
 10
112.0593098678185
 20
-146.3054537937187
 30
0.0
 10
112.0761908356962
 20
-146.2863335137756
 30
0.0
 10
112.0992729754474
 20
-146.2630791192502
 30
0.0
 10
112.0992729754474
 20
-146.2630791192502
 30
0.0
 10
112.2877196984906
 20
-146.4132852824071
 30
0.0
 10
112.2877196984906
 20
-146.4132852824071
 30
0.0
 10
112.272905787904
 20
-146.4429131035802
 30
0.0
 10
112.2622259918997
 20
-146.4620333835234
 30
0.0
 10
112.2263969988531
 20
-146.5317965670997
 30
0.0
  0
HATCH
  5
F8
330
E5
100
AcDbEntity
  8
レイヤー 1
 62
    18
420
        0
440
 33554687
100
AcDbHatch
 10
0.0
 20
0.0
 30
0.0
210
0.0
220
0.0
230
1.0
  2
SOLID
 70
     1
 71
     1
 91
        1
 92
        1
 93
        1
 72
     4
 94
        3
 73
     0
 74
     0
 95
       47
 96
       43
 40
0.0
 40
0.0
 40
0.0
 40
0.0
 40
1.0
 40
1.0
 40
1.0
 40
2.0
 40
2.0
 40
2.0
 40
3.0
 40
3.0
 40
3.0
 40
4.0
 40
4.0
 40
4.0
 40
5.0
 40
5.0
 40
5.0
 40
6.0
 40
6.0
 40
6.0
 40
7.0
 40
7.0
 40
7.0
 40
8.0
 40
8.0
 40
8.0
 40
9.0
 40
9.0
 40
9.0
 40
10.0
 40
10.0
 40
10.0
 40
11.0
 40
11.0
 40
11.0
 40
12.0
 40
12.0
 40
12.0
 40
13.0
 40
13.0
 40
13.0
 40
14.0
 40
14.0
 40
14.0
 40
14.0
 10
112.2263969988531
 20
-146.5317965670997
 10
112.1564615605025
 20
-146.8110215561791
 10
112.0803249502785
 20
-147.1157402518495
 10
111.7671657706693
 20
-147.4478474566276
 10
111.5301432012841
 20
-147.697444624534
 10
111.2848524027343
 20
-147.7968356292834
 10
111.1790879713371
 20
-147.839210303752
 10
111.1790879713371
 20
-147.839210303752
 10
110.9844400764205
 20
-147.6573092621308
 10
110.9844400764205
 20
-147.6573092621308
 10
111.170475232624
 20
-147.6106282183057
 10
111.5325547681238
 20
-147.5176106402039
 10
111.8284884703067
 20
-147.0225504189735
 10
111.9893744294679
 20
-146.7560722831894
 10
112.0021212827633
 20
-146.5826117255071
 10
112.0103895119279
 20
-146.4916612046965
 10
112.0103895119279
 20
-146.4916612046965
 10
111.5049940042418
 20
-146.4916612046965
 10
111.5049940042418
 20
-146.4916612046965
 10
111.3864827195492
 20
-146.4916612046965
 10
110.9654920512517
 20
-146.5106092298654
 10
110.8132188308036
 20
-146.5211167710954
 10
110.8132188308036
 20
-146.5211167710954
 10
110.8132188308036
 20
-146.3118272203665
 10
110.8132188308036
 20
-146.3118272203665
 10
110.9548122552474
 20
-146.3244018188876
 10
111.23214244181
 20
-146.3287081882442
 10
111.3482421596629
 20
-146.3287081882442
 10
111.3482421596629
 20
-146.3287081882442
 10
111.7037760137407
 20
-146.3287081882442
 10
111.7037760137407
 20
-146.3287081882442
 10
111.7313367776227
 20
-146.3287081882442
 10
111.8918782272353
 20
-146.3266411309531
 10
112.0021212827633
 20
-146.3118272203665
 10
112.0593098678185
 20
-146.3054537937187
 10
112.0761908356962
 20
-146.2863335137756
 10
112.0992729754474
 20
-146.2630791192502
 10
112.0992729754474
 20
-146.2630791192502
 10
112.2877196984906
 20
-146.4132852824071
 10
112.2877196984906
 20
-146.4132852824071
 10
112.272905787904
 20
-146.4429131035802
 10
112.2622259918997
 20
-146.4620333835234
 10
112.2263969988531
 20
-146.5317965670997
 97
        0
 97
        1
330
F7
 75
     2
 76
     1
 98
        1
 10
0.0
 20
0.0
450
        0
451
        0
460
0.0
461
0.0
452
        0
462
0.0
453
        0
470

  0
SPLINE
  5
F9
330
E5
100
AcDbEntity
  8
レイヤー 1
100
AcDbSpline
210
0.0
220
0.0
230
1.0
 70
    11
 71
     3
 72
    17
 73
    13
 74
     0
 42
0.0000000001
 43
0.0000000001
 40
0.0
 40
0.0
 40
0.0
 40
0.0
 40
1.0
 40
1.0
 40
1.0
 40
2.0
 40
2.0
 40
2.0
 40
3.0
 40
3.0
 40
3.0
 40
4.0
 40
4.0
 40
4.0
 40
4.0
 10
112.6167263173319
 20
-146.3138942776576
 30
0.0
 10
112.6167263173319
 20
-146.3731499200039
 30
0.0
 10
112.6632351063828
 20
-146.4196587090548
 30
0.0
 10
112.7224907487291
 20
-146.4196587090548
 30
0.0
 10
112.7817463910754
 20
-146.4196587090548
 30
0.0
 10
112.8303222374174
 20
-146.3731499200039
 30
0.0
 10
112.8303222374174
 20
-146.3138942776576
 30
0.0
 10
112.8303222374174
 20
-146.2546386353113
 30
0.0
 10
112.7817463910754
 20
-146.2060627889693
 30
0.0
 10
112.7224907487291
 20
-146.2060627889693
 30
0.0
 10
112.6632351063828
 20
-146.2060627889693
 30
0.0
 10
112.6167263173319
 20
-146.2546386353113
 30
0.0
 10
112.6167263173319
 20
-146.3138942776576
 30
0.0
  0
SPLINE
  5
FA
330
E5
100
AcDbEntity
  8
レイヤー 1
100
AcDbSpline
210
0.0
220
0.0
230
1.0
 70
     9
 71
     3
 72
    17
 73
    13
 74
     0
 42
0.0000000001
 43
0.0000000001
 40
0.0
 40
0.0
 40
0.0
 40
0.0
 40
1.0
 40
1.0
 40
1.0
 40
2.0
 40
2.0
 40
2.0
 40
3.0
 40
3.0
 40
3.0
 40
4.0
 40
4.0
 40
4.0
 40
4.0
 10
112.9316080446837
 20
-146.3138942776576
 30
0.0
 10
112.9316080446837
 20
-146.4280991929936
 30
0.0
 10
112.838590466582
 20
-146.5233560831608
 30
0.0
 10
112.7224907487291
 20
-146.5233560831608
 30
0.0
 10
112.6081135786188
 20
-146.5233560831608
 30
0.0
 10
112.5130289432259
 20
-146.4280991929936
 30
0.0
 10
112.5130289432259
 20
-146.3138942776576
 30
0.0
 10
112.5130289432259
 20
-146.1974500502562
 30
0.0
 10
112.6081135786188
 20
-146.1044324721544
 30
0.0
 10
112.7224907487291
 20
-146.1044324721544
 30
0.0
 10
112.8365234092909
 20
-146.1044324721544
 30
0.0
 10
112.9316080446837
 20
-146.1974500502562
 30
0.0
 10
112.9316080446837
 20
-146.3138942776576
 30
0.0
  0
HATCH
  5
FB
330
E5
100
AcDbEntity
  8
レイヤー 1
 62
    18
420
        0
440
 33554687
100
AcDbHatch
 10
0.0
 20
0.0
 30
0.0
210
0.0
220
0.0
230
1.0
  2
SOLID
 70
     1
 71
     1
 91
        2
 92
        1
 93
        1
 72
     4
 94
        3
 73
     0
 74
     0
 95
       17
 96
       13
 40
0.0
 40
0.0
 40
0.0
 40
0.0
 40
1.0
 40
1.0
 40
1.0
 40
2.0
 40
2.0
 40
2.0
 40
3.0
 40
3.0
 40
3.0
 40
4.0
 40
4.0
 40
4.0
 40
4.0
 10
112.6167263173319
 20
-146.3138942776576
 10
112.6167263173319
 20
-146.3731499200039
 10
112.6632351063828
 20
-146.4196587090548
 10
112.7224907487291
 20
-146.4196587090548
 10
112.7817463910754
 20
-146.4196587090548
 10
112.8303222374174
 20
-146.3731499200039
 10
112.8303222374174
 20
-146.3138942776576
 10
112.8303222374174
 20
-146.2546386353113
 10
112.7817463910754
 20
-146.2060627889693
 10
112.7224907487291
 20
-146.2060627889693
 10
112.6632351063828
 20
-146.2060627889693
 10
112.6167263173319
 20
-146.2546386353113
 10
112.6167263173319
 20
-146.3138942776576
 97
        0
 97
        1
330
F9
 92
        1
 93
        1
 72
     4
 94
        3
 73
     0
 74
     0
 95
       17
 96
       13
 40
0.0
 40
0.0
 40
0.0
 40
0.0
 40
1.0
 40
1.0
 40
1.0
 40
2.0
 40
2.0
 40
2.0
 40
3.0
 40
3.0
 40
3.0
 40
4.0
 40
4.0
 40
4.0
 40
4.0
 10
112.9316080446837
 20
-146.3138942776576
 10
112.9316080446837
 20
-146.4280991929936
 10
112.838590466582
 20
-146.5233560831608
 10
112.7224907487291
 20
-146.5233560831608
 10
112.6081135786188
 20
-146.5233560831608
 10
112.5130289432259
 20
-146.4280991929936
 10
112.5130289432259
 20
-146.3138942776576
 10
112.5130289432259
 20
-146.1974500502562
 10
112.6081135786188
 20
-146.1044324721544
 10
112.7224907487291
 20
-146.1044324721544
 10
112.8365234092909
 20
-146.1044324721544
 10
112.9316080446837
 20
-146.1974500502562
 10
112.9316080446837
 20
-146.3138942776576
 97
        0
 97
        1
330
FA
 75
     2
 76
     1
 98
        1
 10
0.0
 20
0.0
450
        0
451
        0
460
0.0
461
0.0
452
        0
462
0.0
453
        0
470

  0
ENDBLK
  5
E8
330
E5
100
AcDbEntity
  8
0
100
AcDbBlockEnd
  0
ENDSEC
  0
SECTION
  2
ENTITIES
  0
INSERT
  5
7A
330
70
100
AcDbEntity
  8
レイヤー 1
100
AcDbBlockReference
  2
Block_0
 10
0.0
 20
0.0
 30
0.0
  0
LINE
  5
D8
330
70
100
AcDbEntity
  8
レイヤー 1
  6
AI-Linetype-0
 62
   154
420
    23468
370
    25
100
AcDbLine
 10
103.2177181244857
 20
-150.1903867234909
 30
0.0
 11
113.1520754315348
 21
-150.1903867234909
 31
0.0
  0
INSERT
  5
DB
330
70
100
AcDbEntity
  8
レイヤー 1
100
AcDbBlockReference
  2
Block_10
 10
0.0
 20
0.0
 30
0.0
  0
INSERT
  5
E2
330
70
100
AcDbEntity
  8
レイヤー 1
100
AcDbBlockReference
  2
Block_11
 10
0.0
 20
0.0
 30
0.0
  0
ENDSEC
  0
SECTION
  2
OBJECTS
  0
DICTIONARY
  5
C
330
0
100
AcDbDictionary
281
     1
  3
ACAD_COLOR
350
63
  3
ACAD_DETAILVIEWSTYLE
350
6A
  3
ACAD_GROUP
350
D
  3
ACAD_LAYOUT
350
62
  3
ACAD_MATERIAL
350
10
  3
ACAD_MLEADERSTYLE
350
66
  3
ACAD_MLINESTYLE
350
5F
  3
ACAD_PLOTSETTINGS
350
61
  3
ACAD_PLOTSTYLENAME
350
E
  3
ACAD_SCALELIST
350
42
  3
ACAD_SECTIONVIEWSTYLE
350
68
  3
ACAD_TABLESTYLE
350
64
  3
ACAD_VISUALSTYLE
350
29
  3
ACDB_RECOMPOSE_DATA
350
104
  3
AcDbVariableDictionary
350
FC
  0
DICTIONARY
  5
63
102
{ACAD_REACTORS
330
C
102
}
330
C
100
AcDbDictionary
281
     1
  0
DICTIONARY
  5
6A
102
{ACAD_REACTORS
330
C
102
}
330
C
100
AcDbDictionary
281
     1
  3
Imperial24
350
6B
  0
DICTIONARY
  5
D
102
{ACAD_REACTORS
330
C
102
}
330
C
100
AcDbDictionary
281
     1
  0
DICTIONARY
  5
62
102
{ACAD_REACTORS
330
C
102
}
330
C
100
AcDbDictionary
281
     1
  3
Layout1
350
6F
  3
Layout2
350
77
  3
Model
350
73
  0
DICTIONARY
  5
10
102
{ACAD_REACTORS
330
C
102
}
330
C
100
AcDbDictionary
281
     1
  3
ByBlock
350
19
  3
ByLayer
350
11
  3
Global
350
21
  0
DICTIONARY
  5
66
102
{ACAD_REACTORS
330
C
102
}
330
C
100
AcDbDictionary
281
     1
  3
Standard
350
67
  0
DICTIONARY
  5
5F
102
{ACAD_REACTORS
330
C
102
}
330
C
100
AcDbDictionary
281
     1
  3
Standard
350
60
  0
DICTIONARY
  5
61
102
{ACAD_REACTORS
330
C
102
}
330
C
100
AcDbDictionary
281
     1
  0
ACDBDICTIONARYWDFLT
  5
E
102
{ACAD_REACTORS
330
C
102
}
330
C
100
AcDbDictionary
281
     1
  3
Normal
350
F
100
AcDbDictionaryWithDefault
340
F
  0
DICTIONARY
  5
42
102
{ACAD_REACTORS
330
C
102
}
330
C
100
AcDbDictionary
281
     1
  3
A0
350
43
  3
A1
350
44
  3
A2
350
45
  3
A3
350
46
  3
A4
350
47
  3
A5
350
48
  3
A6
350
49
  3
A7
350
4A
  3
A8
350
4B
  3
A9
350
4C
  3
B0
350
4D
  3
B1
350
4E
  3
B2
350
4F
  3
B3
350
50
  3
B4
350
51
  3
B5
350
52
  3
B6
350
53
  0
DICTIONARY
  5
68
102
{ACAD_REACTORS
330
C
102
}
330
C
100
AcDbDictionary
281
     1
  3
Imperial24
350
69
  0
DICTIONARY
  5
64
102
{ACAD_REACTORS
330
C
102
}
330
C
100
AcDbDictionary
281
     1
  3
Standard
350
65
  0
DICTIONARY
  5
29
102
{ACAD_REACTORS
330
C
102
}
330
C
100
AcDbDictionary
281
     1
  3
2dWireframe
350
2F
  3
Basic
350
2E
  3
Brighten
350
35
  3
ColorChange
350
39
  3
Conceptual
350
32
  3
Dim
350
34
  3
EdgeColorOff
350
41
  3
Facepattern
350
38
  3
Flat
350
2A
  3
FlatWithEdges
350
2B
  3
Gouraud
350
2C
  3
GouraudWithEdges
350
2D
  3
Hidden
350
31
  3
JitterOff
350
3F
  3
Linepattern
350
37
  3
OverhangOff
350
40
  3
Realistic
350
33
  3
Shaded
350
3E
  3
Shaded with edges
350
3D
  3
Shades of Gray
350
3A
  3
Sketchy
350
3B
  3
Thicken
350
36
  3
Wireframe
350
30
  3
X-Ray
350
3C
  0
XRECORD
  5
104
102
{ACAD_REACTORS
330
C
102
}
330
C
100
AcDbXrecord
280
     1
 90
        1
330
65
  0
DICTIONARY
  5
FC
102
{ACAD_REACTORS
330
C
102
}
330
C
100
AcDbDictionary
281
     1
  3
CANNOSCALE
350
101
  3
CMLEADERSTYLE
350
FE
  3
CTABLESTYLE
350
FD
  3
CVIEWDETAILSTYLE
350
FF
  3
CVIEWSECTIONSTYLE
350
100
  0
ACDBDETAILVIEWSTYLE
  5
6B
102
{ACAD_XDICTIONARY
360
139
102
}
102
{ACAD_REACTORS
330
6A
102
}
330
6A
100
AcDbModelDocViewStyle
 70
     0
  3
Imperial24
290
     0
100
AcDbDetailViewStyle
 70
     0
 71
     0
 90
        3
 71
     1
340
55
 62
   256
 40
0.24
340
0
 62
   256
 40
0.24
300

 40
0.36
280
     3
 71
     2
340
5D
 90
       25
 62
   256
 71
     3
340
55
 62
   256
 40
0.24
 90
        1
 40
0.75
 90
        1
300
%<\AcVar ViewType \f "%tc1">% %<\AcVar ViewDetailId>%\PSCALE %<\AcVar ViewScale \f "%sn">%
 71
     4
340
5D
 90
       25
 62
   256
340
5D
 90
       25
 62
   256
280
     0
  0
LAYOUT
  5
6F
102
{ACAD_REACTORS
330
62
102
}
330
62
100
AcDbPlotSettings
  1

  2

  4

  6

 40
0.0
 41
0.0
 42
0.0
 43
0.0
 44
0.0
 45
0.0
 46
0.0
 47
0.0
 48
0.0
 49
0.0
140
0.0
141
0.0
142
1.0
143
1.0
 70
   688
 72
     0
 73
     0
 74
     5
  7

 75
    16
147
1.0
 76
     0
 77
     2
 78
   300
148
0.0
149
0.0
100
AcDbLayout
  1
Layout1
 70
     1
 71
     1
 10
0.0
 20
0.0
 11
12.0
 21
9.0
 12
0.0
 22
0.0
 32
0.0
 14
0.0
 24
0.0
 34
0.0
 15
0.0
 25
0.0
 35
0.0
146
0.0
 13
0.0
 23
0.0
 33
0.0
 16
1.0
 26
0.0
 36
0.0
 17
0.0
 27
1.0
 37
0.0
 76
     0
330
6C
  0
LAYOUT
  5
77
102
{ACAD_REACTORS
330
62
102
}
330
62
100
AcDbPlotSettings
  1

  2

  4

  6

 40
0.0
 41
0.0
 42
0.0
 43
0.0
 44
0.0
 45
0.0
 46
0.0
 47
0.0
 48
0.0
 49
0.0
140
0.0
141
0.0
142
1.0
143
1.0
 70
   688
 72
     0
 73
     0
 74
     5
  7

 75
    16
147
1.0
 76
     0
 77
     2
 78
   300
148
0.0
149
0.0
100
AcDbLayout
  1
Layout2
 70
     1
 71
     2
 10
0.0
 20
0.0
 11
12.0
 21
9.0
 12
0.0
 22
0.0
 32
0.0
 14
0.0
 24
0.0
 34
0.0
 15
0.0
 25
0.0
 35
0.0
146
0.0
 13
0.0
 23
0.0
 33
0.0
 16
1.0
 26
0.0
 36
0.0
 17
0.0
 27
1.0
 37
0.0
 76
     0
330
74
  0
LAYOUT
  5
73
102
{ACAD_REACTORS
330
62
102
}
330
62
100
AcDbPlotSettings
  1

  2

  4

  6

 40
0.0
 41
0.0
 42
0.0
 43
0.0
 44
0.0
 45
0.0
 46
0.0
 47
0.0
 48
0.0
 49
0.0
140
0.0
141
0.0
142
1.0
143
1.0
 70
  1712
 72
     0
 73
     0
 74
     0
  7

 75
     0
147
1.0
 76
     0
 77
     2
 78
   300
148
0.0
149
0.0
100
AcDbLayout
  1
Model
 70
     1
 71
     0
 10
0.0
 20
0.0
 11
12.0
 21
9.0
 12
0.0
 22
0.0
 32
0.0
 14
0.0
 24
0.0
 34
0.0
 15
0.0
 25
0.0
 35
0.0
146
0.0
 13
0.0
 23
0.0
 33
0.0
 16
1.0
 26
0.0
 36
0.0
 17
0.0
 27
1.0
 37
0.0
 76
     0
330
70
  0
MATERIAL
  5
19
102
{ACAD_XDICTIONARY
360
1A
102
}
102
{ACAD_REACTORS
330
10
102
}
330
10
100
AcDbMaterial
  1
ByBlock
 72
     0
 43
0.0208333333333333
 43
0.0
 43
0.0
 43
0.0
 43
0.0
 43
0.0208333333333333
 43
0.0
 43
0.0
 43
0.0
 43
0.0
 43
1.0
 43
0.0
 43
0.0
 43
0.0
 43
0.0
 43
1.0
 77
     0
 47
0.0208333333333333
 47
0.0
 47
0.0
 47
0.0
 47
0.0
 47
0.0208333333333333
 47
0.0
 47
0.0
 47
0.0
 47
0.0
 47
1.0
 47
0.0
 47
0.0
 47
0.0
 47
0.0
 47
1.0
171
     0
 49
0.0208333333333333
 49
0.0
 49
0.0
 49
0.0
 49
0.0
 49
0.0208333333333333
 49
0.0
 49
0.0
 49
0.0
 49
0.0
 49
1.0
 49
0.0
 49
0.0
 49
0.0
 49
0.0
 49
1.0
175
     0
142
0.0208333333333333
142
0.0
142
0.0
142
0.0
142
0.0
142
0.0208333333333333
142
0.0
142
0.0
142
0.0
142
0.0
142
1.0
142
0.0
142
0.0
142
0.0
142
0.0
142
1.0
179
     0
144
0.0208333333333333
144
0.0
144
0.0
144
0.0
144
0.0
144
0.0208333333333333
144
0.0
144
0.0
144
0.0
144
0.0
144
1.0
144
0.0
144
0.0
144
0.0
144
0.0
144
1.0
147
0.0208333333333333
147
0.0
147
0.0
147
0.0
147
0.0
147
0.0208333333333333
147
0.0
147
0.0
147
0.0
147
0.0
147
1.0
147
0.0
147
0.0
147
0.0
147
0.0
147
1.0
  0
MATERIAL
  5
11
102
{ACAD_XDICTIONARY
360
12
102
}
102
{ACAD_REACTORS
330
10
102
}
330
10
100
AcDbMaterial
  1
ByLayer
 72
     0
 43
0.0208333333333333
 43
0.0
 43
0.0
 43
0.0
 43
0.0
 43
0.0208333333333333
 43
0.0
 43
0.0
 43
0.0
 43
0.0
 43
1.0
 43
0.0
 43
0.0
 43
0.0
 43
0.0
 43
1.0
 77
     0
 47
0.0208333333333333
 47
0.0
 47
0.0
 47
0.0
 47
0.0
 47
0.0208333333333333
 47
0.0
 47
0.0
 47
0.0
 47
0.0
 47
1.0
 47
0.0
 47
0.0
 47
0.0
 47
0.0
 47
1.0
171
     0
 49
0.0208333333333333
 49
0.0
 49
0.0
 49
0.0
 49
0.0
 49
0.0208333333333333
 49
0.0
 49
0.0
 49
0.0
 49
0.0
 49
1.0
 49
0.0
 49
0.0
 49
0.0
 49
0.0
 49
1.0
175
     0
142
0.0208333333333333
142
0.0
142
0.0
142
0.0
142
0.0
142
0.0208333333333333
142
0.0
142
0.0
142
0.0
142
0.0
142
1.0
142
0.0
142
0.0
142
0.0
142
0.0
142
1.0
179
     0
144
0.0208333333333333
144
0.0
144
0.0
144
0.0
144
0.0
144
0.0208333333333333
144
0.0
144
0.0
144
0.0
144
0.0
144
1.0
144
0.0
144
0.0
144
0.0
144
0.0
144
1.0
147
0.0208333333333333
147
0.0
147
0.0
147
0.0
147
0.0
147
0.0208333333333333
147
0.0
147
0.0
147
0.0
147
0.0
147
1.0
147
0.0
147
0.0
147
0.0
147
0.0
147
1.0
  0
MATERIAL
  5
21
102
{ACAD_XDICTIONARY
360
22
102
}
102
{ACAD_REACTORS
330
10
102
}
330
10
100
AcDbMaterial
  1
Global
 72
     0
 43
0.0208333333333333
 43
0.0
 43
0.0
 43
0.0
 43
0.0
 43
0.0208333333333333
 43
0.0
 43
0.0
 43
0.0
 43
0.0
 43
1.0
 43
0.0
 43
0.0
 43
0.0
 43
0.0
 43
1.0
 77
     0
 47
0.0208333333333333
 47
0.0
 47
0.0
 47
0.0
 47
0.0
 47
0.0208333333333333
 47
0.0
 47
0.0
 47
0.0
 47
0.0
 47
1.0
 47
0.0
 47
0.0
 47
0.0
 47
0.0
 47
1.0
171
     0
 49
0.0208333333333333
 49
0.0
 49
0.0
 49
0.0
 49
0.0
 49
0.0208333333333333
 49
0.0
 49
0.0
 49
0.0
 49
0.0
 49
1.0
 49
0.0
 49
0.0
 49
0.0
 49
0.0
 49
1.0
175
     0
142
0.0208333333333333
142
0.0
142
0.0
142
0.0
142
0.0
142
0.0208333333333333
142
0.0
142
0.0
142
0.0
142
0.0
142
1.0
142
0.0
142
0.0
142
0.0
142
0.0
142
1.0
179
     0
144
0.0208333333333333
144
0.0
144
0.0
144
0.0
144
0.0
144
0.0208333333333333
144
0.0
144
0.0
144
0.0
144
0.0
144
1.0
144
0.0
144
0.0
144
0.0
144
0.0
144
1.0
147
0.0208333333333333
147
0.0
147
0.0
147
0.0
147
0.0
147
0.0208333333333333
147
0.0
147
0.0
147
0.0
147
0.0
147
1.0
147
0.0
147
0.0
147
0.0
147
0.0
147
1.0
  0
MLEADERSTYLE
  5
67
102
{ACAD_XDICTIONARY
360
135
102
}
102
{ACAD_REACTORS
330
66
102
}
330
66
100
AcDbMLeaderStyle
179
     2
170
     2
171
     1
172
     0
 90
        2
 40
0.0
 41
0.0
173
     1
 91
-1056964608
340
5B
 92
       -2
290
     1
 42
0.09
291
     1
 43
0.36
  3
Standard
 44
0.18
300

342
55
174
     1
178
     6
175
     1
176
     0
 93
-1056964608
 45
0.18
292
     0
297
     0
 46
0.18
 94
-1056964608
 47
1.0
 49
1.0
140
1.0
293
     1
141
0.0
294
     1
177
     0
142
1.0
295
     0
296
     0
143
0.125
271
     0
272
     9
273
     9
  0
MLINESTYLE
  5
60
102
{ACAD_REACTORS
330
5F
102
}
330
5F
100
AcDbMlineStyle
  2
STANDARD
 70
     0
  3

 62
   256
 51
90.0
 52
90.0
 71
     2
 49
0.5
 62
   256
  6
BYLAYER
 49
-0.5
 62
   256
  6
BYLAYER
  0
ACDBPLACEHOLDER
  5
F
102
{ACAD_REACTORS
330
E
102
}
330
E
  0
SCALE
  5
43
102
{ACAD_REACTORS
330
42
102
}
330
42
100
AcDbScale
 70
     0
300
1:1
140
1.0
141
1.0
290
     1
  0
SCALE
  5
44
102
{ACAD_REACTORS
330
42
102
}
330
42
100
AcDbScale
 70
     0
300
1/128" = 1'-0"
140
0.0078125
141
12.0
290
     0
  0
SCALE
  5
45
102
{ACAD_REACTORS
330
42
102
}
330
42
100
AcDbScale
 70
     0
300
1/64" = 1'-0"
140
0.015625
141
12.0
290
     0
  0
SCALE
  5
46
102
{ACAD_REACTORS
330
42
102
}
330
42
100
AcDbScale
 70
     0
300
1/32" = 1'-0"
140
0.03125
141
12.0
290
     0
  0
SCALE
  5
47
102
{ACAD_REACTORS
330
42
102
}
330
42
100
AcDbScale
 70
     0
300
1/16" = 1'-0"
140
0.0625
141
12.0
290
     0
  0
SCALE
  5
48
102
{ACAD_REACTORS
330
42
102
}
330
42
100
AcDbScale
 70
     0
300
3/32" = 1'-0"
140
0.09375
141
12.0
290
     0
  0
SCALE
  5
49
102
{ACAD_REACTORS
330
42
102
}
330
42
100
AcDbScale
 70
     0
300
1/8" = 1'-0"
140
0.125
141
12.0
290
     0
  0
SCALE
  5
4A
102
{ACAD_REACTORS
330
42
102
}
330
42
100
AcDbScale
 70
     0
300
3/16" = 1'-0"
140
0.1875
141
12.0
290
     0
  0
SCALE
  5
4B
102
{ACAD_REACTORS
330
42
102
}
330
42
100
AcDbScale
 70
     0
300
1/4" = 1'-0"
140
0.25
141
12.0
290
     0
  0
SCALE
  5
4C
102
{ACAD_REACTORS
330
42
102
}
330
42
100
AcDbScale
 70
     0
300
3/8" = 1'-0"
140
0.375
141
12.0
290
     0
  0
SCALE
  5
4D
102
{ACAD_REACTORS
330
42
102
}
330
42
100
AcDbScale
 70
     0
300
1/2" = 1'-0"
140
0.5
141
12.0
290
     0
  0
SCALE
  5
4E
102
{ACAD_REACTORS
330
42
102
}
330
42
100
AcDbScale
 70
     0
300
3/4" = 1'-0"
140
0.75
141
12.0
290
     0
  0
SCALE
  5
4F
102
{ACAD_REACTORS
330
42
102
}
330
42
100
AcDbScale
 70
     0
300
1" = 1'-0"
140
1.0
141
12.0
290
     0
  0
SCALE
  5
50
102
{ACAD_REACTORS
330
42
102
}
330
42
100
AcDbScale
 70
     0
300
1-1/2" = 1'-0"
140
1.5
141
12.0
290
     0
  0
SCALE
  5
51
102
{ACAD_REACTORS
330
42
102
}
330
42
100
AcDbScale
 70
     0
300
3" = 1'-0"
140
3.0
141
12.0
290
     0
  0
SCALE
  5
52
102
{ACAD_REACTORS
330
42
102
}
330
42
100
AcDbScale
 70
     0
300
6" = 1'-0"
140
6.0
141
12.0
290
     0
  0
SCALE
  5
53
102
{ACAD_REACTORS
330
42
102
}
330
42
100
AcDbScale
 70
     0
300
1'-0" = 1'-0"
140
12.0
141
12.0
290
     0
  0
ACDBSECTIONVIEWSTYLE
  5
69
102
{ACAD_XDICTIONARY
360
137
102
}
102
{ACAD_REACTORS
330
68
102
}
330
68
100
AcDbModelDocViewStyle
 70
     0
  3
Imperial24
290
     0
100
AcDbSectionViewStyle
 70
     0
 71
     0
 90
       78
 71
     1
340
55
 62
   256
 40
0.24
340
0
340
0
 62
   256
 40
0.24
300
I, O, Q, S, X, Z
 40
0.48
 90
        3
 40
0.18
 90
        1
 71
     2
340
5D
 90
       25
 62
   256
340
5D
 90
       50
 62
   256
 40
0.24
 40
0.0
 40
0.24
 71
     3
340
55
 62
   256
 40
0.24
 90
        1
 40
0.75
 90
        1
300
%<\AcVar ViewType \f "%tc1">% %<\AcVar ViewSectionStartId>%-%<\AcVar ViewSectionEndId>%\PSCALE %<\AcVar ViewScale \f "%sn">%
 71
     4
 62
   256
 62
   257
300
ANSI31
 40
1.0
 90
        0
290
     0
290
     0
 90
        6
 40
0.0
 40
1.570796326794896
 40
0.2617993877991494
 40
1.308996938995747
 40
-0.2617993877991494
 40
1.832595714594046
  0
TABLESTYLE
  5
65
102
{ACAD_XDICTIONARY
360
102
102
}
102
{ACAD_REACTORS
330
64
102
}
330
64
100
AcDbTableStyle
280
     0
  3
Standard
 70
     0
 71
     0
 40
0.06
 41
0.06
280
     0
281
     0
  7
Standard
140
0.18
170
     2
 62
     0
 63
     7
283
     0
 90
      512
 91
        0
  1

274
    -2
284
     1
 64
     0
275
    -2
285
     1
 65
     0
276
    -2
286
     1
 66
     0
277
    -2
287
     1
 67
     0
278
    -2
288
     1
 68
     0
279
    -2
289
     1
 69
     0
  7
Standard
140
0.25
170
     5
 62
     0
 63
     7
283
     0
 90
      512
 91
        0
  1

274
    -2
284
     1
 64
     0
275
    -2
285
     1
 65
     0
276
    -2
286
     1
 66
     0
277
    -2
287
     1
 67
     0
278
    -2
288
     1
 68
     0
279
    -2
289
     1
 69
     0
  7
Standard
140
0.18
170
     5
 62
     0
 63
     7
283
     0
 90
      512
 91
        0
  1

274
    -2
284
     1
 64
     0
275
    -2
285
     1
 65
     0
276
    -2
286
     1
 66
     0
277
    -2
287
     1
 67
     0
278
    -2
288
     1
 68
     0
279
    -2
289
     1
 69
     0
  0
VISUALSTYLE
  5
2F
102
{ACAD_XDICTIONARY
360
10F
102
}
102
{ACAD_REACTORS
330
29
102
}
330
29
100
AcDbVisualStyle
  2
2dWireframe
 70
     4
177
     2
291
     0
 71
     0
176
     1
 72
     2
176
     1
 73
     0
176
     1
 90
        0
176
     1
 40
0.6
176
     1
 41
30.0
176
     1
 63
     7
421
 16777215
176
     1
 74
     1
176
     1
 91
        4
176
     1
 64
     7
176
     1
 65
   257
176
     1
 75
     1
176
     1
175
     1
176
     1
 42
1.0
176
     1
 92
        0
176
     1
 66
   257
176
     1
 43
1.0
176
     1
 76
     1
176
     1
 77
     6
176
     1
 78
     2
176
     1
 67
     7
176
     1
 79
     5
176
     1
170
     0
176
     1
171
     0
176
     1
290
     0
176
     1
 93
        1
176
     1
 44
0.0
176
     1
173
     0
176
     1
1001
ACAD
1000
AcDbSavedByObjectVersion
1070
     0
  0
VISUALSTYLE
  5
2E
102
{ACAD_XDICTIONARY
360
10D
102
}
102
{ACAD_REACTORS
330
29
102
}
330
29
100
AcDbVisualStyle
  2
Basic
 70
     7
177
     2
291
     1
 71
     1
176
     1
 72
     0
176
     1
 73
     1
176
     1
 90
        0
176
     1
 40
0.6
176
     1
 41
30.0
176
     1
 63
     7
421
 16777215
176
     1
 74
     0
176
     1
 91
        4
176
     1
 64
     7
176
     1
 65
   257
176
     1
 75
     1
176
     1
175
     1
176
     1
 42
1.0
176
     1
 92
        8
176
     1
 66
     7
176
     1
 43
1.0
176
     1
 76
     1
176
     1
 77
     6
176
     1
 78
     2
176
     1
 67
     7
176
     1
 79
     5
176
     1
170
     0
176
     1
171
     0
176
     1
290
     0
176
     1
 93
        1
176
     1
 44
0.0
176
     1
173
     0
176
     1
1001
ACAD
1000
AcDbSavedByObjectVersion
1070
     0
  0
VISUALSTYLE
  5
35
102
{ACAD_XDICTIONARY
360
11B
102
}
102
{ACAD_REACTORS
330
29
102
}
330
29
100
AcDbVisualStyle
  2
Brighten
 70
    12
177
     2
291
     1
 71
     2
176
     1
 72
     2
176
     1
 73
     0
176
     1
 90
        0
176
     1
 40
0.6
176
     1
 41
30.0
176
     1
 63
     7
421
 16777215
176
     1
 74
     1
176
     1
 91
        4
176
     1
 64
     7
176
     1
 65
   257
176
     1
 75
     1
176
     1
175
     1
176
     1
 42
1.0
176
     1
 92
        8
176
     1
 66
     7
176
     1
 43
1.0
176
     1
 76
     1
176
     1
 77
     6
176
     1
 78
     2
176
     1
 67
     7
176
     1
 79
     5
176
     1
170
     0
176
     1
171
     0
176
     1
290
     0
176
     1
 93
        1
176
     1
 44
50.0
176
     1
173
     0
176
     1
1001
ACAD
1000
AcDbSavedByObjectVersion
1070
     0
  0
VISUALSTYLE
  5
39
102
{ACAD_XDICTIONARY
360
123
102
}
102
{ACAD_REACTORS
330
29
102
}
330
29
100
AcDbVisualStyle
  2
ColorChange
 70
    16
177
     2
291
     1
 71
     2
176
     1
 72
     2
176
     1
 73
     3
176
     1
 90
        0
176
     1
 40
0.6
176
     1
 41
30.0
176
     1
 63
     8
421
  8421504
176
     1
 74
     1
176
     1
 91
        4
176
     1
 64
     7
176
     1
 65
   257
176
     1
 75
     1
176
     1
175
     1
176
     1
 42
1.0
176
     1
 92
        8
176
     1
 66
     8
424
  8421504
176
     1
 43
1.0
176
     1
 76
     1
176
     1
 77
     6
176
     1
 78
     2
176
     1
 67
     7
176
     1
 79
     5
176
     1
170
     0
176
     1
171
     0
176
     1
290
     0
176
     1
 93
        1
176
     1
 44
0.0
176
     1
173
     0
176
     1
1001
ACAD
1000
AcDbSavedByObjectVersion
1070
     0
  0
VISUALSTYLE
  5
32
102
{ACAD_XDICTIONARY
360
115
102
}
102
{ACAD_REACTORS
330
29
102
}
330
29
100
AcDbVisualStyle
  2
Conceptual
 70
     9
177
     2
291
     0
 71
     3
176
     1
 72
     2
176
     1
 73
     0
176
     1
 90
        0
176
     1
 40
0.6
176
     1
 41
30.0
176
     1
 63
     7
421
 16777215
176
     1
 74
     2
176
     1
 91
        2
176
     1
 64
     7
176
     1
 65
   257
176
     1
 75
     1
176
     1
175
     1
176
     1
 42
179.0
176
     1
 92
        8
176
     1
 66
     7
176
     1
 43
1.0
176
     1
 76
     1
176
     1
 77
     6
176
     1
 78
     2
176
     1
 67
     7
176
     1
 79
     3
176
     1
170
     0
176
     1
171
     0
176
     1
290
     0
176
     1
 93
        1
176
     1
 44
0.0
176
     1
173
     0
176
     1
1001
ACAD
1000
AcDbSavedByObjectVersion
1070
     0
  0
VISUALSTYLE
  5
34
102
{ACAD_XDICTIONARY
360
119
102
}
102
{ACAD_REACTORS
330
29
102
}
330
29
100
AcDbVisualStyle
  2
Dim
 70
    11
177
     2
291
     1
 71
     2
176
     1
 72
     2
176
     1
 73
     0
176
     1
 90
        0
176
     1
 40
0.6
176
     1
 41
30.0
176
     1
 63
     7
421
 16777215
176
     1
 74
     1
176
     1
 91
        4
176
     1
 64
     7
176
     1
 65
   257
176
     1
 75
     1
176
     1
175
     1
176
     1
 42
1.0
176
     1
 92
        8
176
     1
 66
     7
176
     1
 43
1.0
176
     1
 76
     1
176
     1
 77
     6
176
     1
 78
     2
176
     1
 67
     7
176
     1
 79
     5
176
     1
170
     0
176
     1
171
     0
176
     1
290
     0
176
     1
 93
        1
176
     1
 44
-50.0
176
     1
173
     0
176
     1
1001
ACAD
1000
AcDbSavedByObjectVersion
1070
     0
  0
VISUALSTYLE
  5
41
102
{ACAD_XDICTIONARY
360
133
102
}
102
{ACAD_REACTORS
330
29
102
}
330
29
100
AcDbVisualStyle
  2
EdgeColorOff
 70
    22
177
     2
291
     1
 71
     2
176
     0
 72
     2
176
     0
 73
     0
176
     0
 90
        0
176
     0
 40
0.6
176
     0
 41
30.0
176
     0
 63
     7
421
 16777215
176
     0
 74
     1
176
     0
 91
        4
176
     0
 64
     7
176
     0
 65
   257
176
     0
 75
     1
176
     0
175
     1
176
     0
 42
1.0
176
     0
 92
        8
176
     2
 66
     7
176
     0
 43
1.0
176
     0
 76
     1
176
     0
 77
     6
176
     0
 78
     2
176
     0
 67
     7
176
     0
 79
     5
176
     0
170
     0
176
     0
171
     0
176
     0
290
     0
176
     0
 93
        1
176
     0
 44
0.0
176
     0
173
     0
176
     0
1001
ACAD
1000
AcDbSavedByObjectVersion
1070
     0
  0
VISUALSTYLE
  5
38
102
{ACAD_XDICTIONARY
360
121
102
}
102
{ACAD_REACTORS
330
29
102
}
330
29
100
AcDbVisualStyle
  2
Facepattern
 70
    15
177
     2
291
     1
 71
     2
176
     1
 72
     2
176
     1
 73
     0
176
     1
 90
        0
176
     1
 40
0.6
176
     1
 41
30.0
176
     1
 63
     7
421
 16777215
176
     1
 74
     1
176
     1
 91
        4
176
     1
 64
     7
176
     1
 65
   257
176
     1
 75
     1
176
     1
175
     1
176
     1
 42
1.0
176
     1
 92
        8
176
     1
 66
     7
176
     1
 43
1.0
176
     1
 76
     1
176
     1
 77
     6
176
     1
 78
     2
176
     1
 67
     7
176
     1
 79
     5
176
     1
170
     0
176
     1
171
     0
176
     1
290
     0
176
     1
 93
        1
176
     1
 44
0.0
176
     1
173
     0
176
     1
1001
ACAD
1000
AcDbSavedByObjectVersion
1070
     0
  0
VISUALSTYLE
  5
2A
102
{ACAD_XDICTIONARY
360
105
102
}
102
{ACAD_REACTORS
330
29
102
}
330
29
100
AcDbVisualStyle
  2
Flat
 70
     0
177
     2
291
     1
 71
     2
176
     1
 72
     1
176
     1
 73
     1
176
     1
 90
        2
176
     1
 40
0.6
176
     1
 41
30.0
176
     1
 63
     7
421
 16777215
176
     1
 74
     0
176
     1
 91
        0
176
     1
 64
     7
176
     1
 65
   257
176
     1
 75
     1
176
     1
175
     1
176
     1
 42
1.0
176
     1
 92
        8
176
     1
 66
     7
176
     1
 43
1.0
176
     1
 76
     1
176
     1
 77
     6
176
     1
 78
     2
176
     1
 67
     7
176
     1
 79
     5
176
     1
170
     0
176
     1
171
     0
176
     1
290
     0
176
     1
 93
       13
176
     1
 44
0.0
176
     1
173
     0
176
     1
1001
ACAD
1000
AcDbSavedByObjectVersion
1070
     0
  0
VISUALSTYLE
  5
2B
102
{ACAD_XDICTIONARY
360
107
102
}
102
{ACAD_REACTORS
330
29
102
}
330
29
100
AcDbVisualStyle
  2
FlatWithEdges
 70
     1
177
     2
291
     1
 71
     2
176
     1
 72
     1
176
     1
 73
     1
176
     1
 90
        2
176
     1
 40
0.6
176
     1
 41
30.0
176
     1
 63
     7
421
 16777215
176
     1
 74
     1
176
     1
 91
        0
176
     1
 64
     7
176
     1
 65
   257
176
     1
 75
     1
176
     1
175
     1
176
     1
 42
1.0
176
     1
 92
        0
176
     1
 66
   257
176
     1
 43
1.0
176
     1
 76
     1
176
     1
 77
     6
176
     1
 78
     2
176
     1
 67
     7
176
     1
 79
     5
176
     1
170
     0
176
     1
171
     0
176
     1
290
     0
176
     1
 93
       13
176
     1
 44
0.0
176
     1
173
     0
176
     1
1001
ACAD
1000
AcDbSavedByObjectVersion
1070
     0
  0
VISUALSTYLE
  5
2C
102
{ACAD_XDICTIONARY
360
109
102
}
102
{ACAD_REACTORS
330
29
102
}
330
29
100
AcDbVisualStyle
  2
Gouraud
 70
     2
177
     2
291
     1
 71
     2
176
     1
 72
     2
176
     1
 73
     1
176
     1
 90
        2
176
     1
 40
0.6
176
     1
 41
30.0
176
     1
 63
     7
421
 16777215
176
     1
 74
     0
176
     1
 91
        0
176
     1
 64
     7
176
     1
 65
   257
176
     1
 75
     1
176
     1
175
     1
176
     1
 42
1.0
176
     1
 92
        0
176
     1
 66
     7
176
     1
 43
1.0
176
     1
 76
     1
176
     1
 77
     6
176
     1
 78
     2
176
     1
 67
     7
176
     1
 79
     5
176
     1
170
     0
176
     1
171
     0
176
     1
290
     0
176
     1
 93
       13
176
     1
 44
0.0
176
     1
173
     0
176
     1
1001
ACAD
1000
AcDbSavedByObjectVersion
1070
     0
  0
VISUALSTYLE
  5
2D
102
{ACAD_XDICTIONARY
360
10B
102
}
102
{ACAD_REACTORS
330
29
102
}
330
29
100
AcDbVisualStyle
  2
GouraudWithEdges
 70
     3
177
     2
291
     1
 71
     2
176
     1
 72
     2
176
     1
 73
     1
176
     1
 90
        2
176
     1
 40
0.6
176
     1
 41
30.0
176
     1
 63
     7
421
 16777215
176
     1
 74
     1
176
     1
 91
        0
176
     1
 64
     7
176
     1
 65
   257
176
     1
 75
     1
176
     1
175
     1
176
     1
 42
1.0
176
     1
 92
        0
176
     1
 66
   257
176
     1
 43
1.0
176
     1
 76
     1
176
     1
 77
     6
176
     1
 78
     2
176
     1
 67
     7
176
     1
 79
     5
176
     1
170
     0
176
     1
171
     0
176
     1
290
     0
176
     1
 93
       13
176
     1
 44
0.0
176
     1
173
     0
176
     1
1001
ACAD
1000
AcDbSavedByObjectVersion
1070
     0
  0
VISUALSTYLE
  5
31
102
{ACAD_XDICTIONARY
360
113
102
}
102
{ACAD_REACTORS
330
29
102
}
330
29
100
AcDbVisualStyle
  2
Hidden
 70
     6
177
     2
291
     0
 71
     1
176
     1
 72
     2
176
     1
 73
     2
176
     1
 90
        0
176
     1
 40
0.6
176
     1
 41
30.0
176
     1
 63
     7
421
 16777215
176
     1
 74
     2
176
     1
 91
        2
176
     1
 64
     7
176
     1
 65
   257
176
     1
 75
     2
176
     1
175
     1
176
     1
 42
40.0
176
     1
 92
        0
176
     1
 66
   257
176
     1
 43
1.0
176
     1
 76
     1
176
     1
 77
     6
176
     1
 78
     2
176
     1
 67
     7
176
     1
 79
     3
176
     1
170
     0
176
     1
171
     0
176
     1
290
     0
176
     1
 93
        1
176
     1
 44
0.0
176
     1
173
     0
176
     1
1001
ACAD
1000
AcDbSavedByObjectVersion
1070
     0
  0
VISUALSTYLE
  5
3F
102
{ACAD_XDICTIONARY
360
12F
102
}
102
{ACAD_REACTORS
330
29
102
}
330
29
100
AcDbVisualStyle
  2
JitterOff
 70
    20
177
     2
291
     1
 71
     2
176
     0
 72
     2
176
     0
 73
     0
176
     0
 90
        0
176
     0
 40
0.6
176
     0
 41
30.0
176
     0
 63
     7
421
 16777215
176
     0
 74
     1
176
     0
 91
        4
176
     0
 64
     7
176
     0
 65
   257
176
     0
 75
     1
176
     0
175
     1
176
     0
 42
1.0
176
     0
 92
       10
176
     2
 66
     7
176
     0
 43
1.0
176
     0
 76
     1
176
     0
 77
     6
176
     0
 78
     2
176
     0
 67
     7
176
     0
 79
     5
176
     0
170
     0
176
     0
171
     0
176
     0
290
     0
176
     0
 93
        1
176
     0
 44
0.0
176
     0
173
     0
176
     0
1001
ACAD
1000
AcDbSavedByObjectVersion
1070
     0
  0
VISUALSTYLE
  5
37
102
{ACAD_XDICTIONARY
360
11F
102
}
102
{ACAD_REACTORS
330
29
102
}
330
29
100
AcDbVisualStyle
  2
Linepattern
 70
    14
177
     2
291
     1
 71
     2
176
     1
 72
     2
176
     1
 73
     0
176
     1
 90
        0
176
     1
 40
0.6
176
     1
 41
30.0
176
     1
 63
     7
421
 16777215
176
     1
 74
     1
176
     1
 91
        4
176
     1
 64
     7
176
     1
 65
   257
176
     1
 75
     7
176
     1
175
     7
176
     1
 42
1.0
176
     1
 92
        8
176
     1
 66
     7
176
     1
 43
1.0
176
     1
 76
     1
176
     1
 77
     6
176
     1
 78
     2
176
     1
 67
     7
176
     1
 79
     5
176
     1
170
     0
176
     1
171
     0
176
     1
290
     0
176
     1
 93
        1
176
     1
 44
0.0
176
     1
173
     0
176
     1
1001
ACAD
1000
AcDbSavedByObjectVersion
1070
     0
  0
VISUALSTYLE
  5
40
102
{ACAD_XDICTIONARY
360
131
102
}
102
{ACAD_REACTORS
330
29
102
}
330
29
100
AcDbVisualStyle
  2
OverhangOff
 70
    21
177
     2
291
     1
 71
     2
176
     0
 72
     2
176
     0
 73
     0
176
     0
 90
        0
176
     0
 40
0.6
176
     0
 41
30.0
176
     0
 63
     7
421
 16777215
176
     0
 74
     1
176
     0
 91
        4
176
     0
 64
     7
176
     0
 65
   257
176
     0
 75
     1
176
     0
175
     1
176
     0
 42
1.0
176
     0
 92
        9
176
     2
 66
     7
176
     0
 43
1.0
176
     0
 76
     1
176
     0
 77
     6
176
     0
 78
     2
176
     0
 67
     7
176
     0
 79
     5
176
     0
170
     0
176
     0
171
     0
176
     0
290
     0
176
     0
 93
        1
176
     0
 44
0.0
176
     0
173
     0
176
     0
1001
ACAD
1000
AcDbSavedByObjectVersion
1070
     0
  0
VISUALSTYLE
  5
33
102
{ACAD_XDICTIONARY
360
117
102
}
102
{ACAD_REACTORS
330
29
102
}
330
29
100
AcDbVisualStyle
  2
Realistic
 70
     8
177
     2
291
     0
 71
     2
176
     1
 72
     3
176
     1
 73
     0
176
     1
 90
        2
176
     1
 40
0.6
176
     1
 41
30.0
176
     1
 63
     7
421
 16777215
176
     1
 74
     0
176
     1
 91
        0
176
     1
 64
     7
176
     1
 65
   257
176
     1
 75
     1
176
     1
175
     1
176
     1
 42
1.0
176
     1
 92
        8
176
     1
 66
   257
176
     1
 43
1.0
176
     1
 76
     1
176
     1
 77
     6
176
     1
 78
     2
176
     1
 67
     7
176
     1
 79
     3
176
     1
170
     0
176
     1
171
     0
176
     1
290
     0
176
     1
 93
       13
176
     1
 44
0.0
176
     1
173
     0
176
     1
1001
ACAD
1000
AcDbSavedByObjectVersion
1070
     0
  0
VISUALSTYLE
  5
3E
102
{ACAD_XDICTIONARY
360
12D
102
}
102
{ACAD_REACTORS
330
29
102
}
330
29
100
AcDbVisualStyle
  2
Shaded
 70
    27
177
     2
291
     0
 71
     2
176
     1
 72
     2
176
     1
 73
     1
176
     1
 90
        2
176
     1
 40
0.6
176
     1
 41
30.0
176
     1
 63
     7
421
 16777215
176
     1
 74
     0
176
     1
 91
        4
176
     1
 64
     7
176
     1
 65
   257
176
     1
 75
     1
176
     1
175
     1
176
     1
 42
1.0
176
     1
 92
        8
176
     1
 66
   257
176
     1
 43
1.0
176
     1
 76
     1
176
     1
 77
     6
176
     1
 78
     2
176
     1
 67
     8
425
  7895160
176
     1
 79
     3
176
     1
170
     0
176
     1
171
     0
176
     1
290
     0
176
     1
 93
        5
176
     1
 44
0.0
176
     1
173
     0
176
     1
1001
ACAD
1000
AcDbSavedByObjectVersion
1070
     0
  0
VISUALSTYLE
  5
3D
102
{ACAD_XDICTIONARY
360
12B
102
}
102
{ACAD_REACTORS
330
29
102
}
330
29
100
AcDbVisualStyle
  2
Shaded with edges
 70
    26
177
     2
291
     0
 71
     2
176
     1
 72
     2
176
     1
 73
     1
176
     1
 90
        2
176
     1
 40
0.6
176
     1
 41
30.0
176
     1
 63
     7
421
 16777215
176
     1
 74
     1
176
     1
 91
        2
176
     1
 64
     7
176
     1
 65
   257
176
     1
 75
     2
176
     1
175
     1
176
     1
 42
1.0
176
     1
 92
        8
176
     1
 66
   257
176
     1
 43
1.0
176
     1
 76
     1
176
     1
 77
     6
176
     1
 78
     2
176
     1
 67
     7
176
     1
 79
     3
176
     1
170
     0
176
     1
171
     0
176
     1
290
     0
176
     1
 93
        5
176
     1
 44
0.0
176
     1
173
     0
176
     1
1001
ACAD
1000
AcDbSavedByObjectVersion
1070
     0
  0
VISUALSTYLE
  5
3A
102
{ACAD_XDICTIONARY
360
125
102
}
102
{ACAD_REACTORS
330
29
102
}
330
29
100
AcDbVisualStyle
  2
Shades of Gray
 70
    23
177
     2
291
     0
 71
     2
176
     1
 72
     2
176
     1
 73
     3
176
     1
 90
        0
176
     1
 40
0.6
176
     1
 41
30.0
176
     1
 63
     7
421
 16777215
176
     1
 74
     2
176
     1
 91
        2
176
     1
 64
     7
176
     1
 65
     7
176
     1
 75
     1
176
     1
175
     1
176
     1
 42
40.0
176
     1
 92
        8
176
     1
 66
     7
176
     1
 43
1.0
176
     1
 76
     1
176
     1
 77
     6
176
     1
 78
     2
176
     1
 67
     7
176
     1
 79
     3
176
     1
170
     0
176
     1
171
     0
176
     1
290
     0
176
     1
 93
        1
176
     1
 44
0.0
176
     1
173
     0
176
     1
1001
ACAD
1000
AcDbSavedByObjectVersion
1070
     0
  0
VISUALSTYLE
  5
3B
102
{ACAD_XDICTIONARY
360
127
102
}
102
{ACAD_REACTORS
330
29
102
}
330
29
100
AcDbVisualStyle
  2
Sketchy
 70
    24
177
     2
291
     0
 71
     1
176
     1
 72
     2
176
     1
 73
     2
176
     1
 90
        0
176
     1
 40
0.6
176
     1
 41
30.0
176
     1
 63
     7
421
 16777215
176
     1
 74
     2
176
     1
 91
        2
176
     1
 64
     7
176
     1
 65
     7
176
     1
 75
     1
176
     1
175
     1
176
     1
 42
40.0
176
     1
 92
       11
176
     1
 66
     7
176
     1
 43
1.0
176
     1
 76
     1
176
     1
 77
     6
176
     1
 78
     2
176
     1
 67
     7
176
     1
 79
     6
176
     1
170
     0
176
     1
171
     0
176
     1
290
     0
176
     1
 93
        1
176
     1
 44
0.0
176
     1
173
     0
176
     1
1001
ACAD
1000
AcDbSavedByObjectVersion
1070
     0
  0
VISUALSTYLE
  5
36
102
{ACAD_XDICTIONARY
360
11D
102
}
102
{ACAD_REACTORS
330
29
102
}
330
29
100
AcDbVisualStyle
  2
Thicken
 70
    13
177
     2
291
     1
 71
     2
176
     1
 72
     2
176
     1
 73
     0
176
     1
 90
        0
176
     1
 40
0.6
176
     1
 41
30.0
176
     1
 63
     7
421
 16777215
176
     1
 74
     1
176
     1
 91
        4
176
     1
 64
     7
176
     1
 65
   257
176
     1
 75
     1
176
     1
175
     1
176
     1
 42
1.0
176
     1
 92
       12
176
     1
 66
     7
176
     1
 43
1.0
176
     1
 76
     1
176
     1
 77
     6
176
     1
 78
     2
176
     1
 67
     7
176
     1
 79
     5
176
     1
170
     0
176
     1
171
     0
176
     1
290
     0
176
     1
 93
        1
176
     1
 44
0.0
176
     1
173
     0
176
     1
1001
ACAD
1000
AcDbSavedByObjectVersion
1070
     0
  0
VISUALSTYLE
  5
30
102
{ACAD_XDICTIONARY
360
111
102
}
102
{ACAD_REACTORS
330
29
102
}
330
29
100
AcDbVisualStyle
  2
Wireframe
 70
     5
177
     2
291
     0
 71
     0
176
     1
 72
     2
176
     1
 73
     0
176
     1
 90
        0
176
     1
 40
0.6
176
     1
 41
30.0
176
     1
 63
     7
421
 16777215
176
     1
 74
     1
176
     1
 91
        4
176
     1
 64
     7
176
     1
 65
   257
176
     1
 75
     1
176
     1
175
     1
176
     1
 42
1.0
176
     1
 92
        0
176
     1
 66
   257
176
     1
 43
1.0
176
     1
 76
     1
176
     1
 77
     6
176
     1
 78
     2
176
     1
 67
     7
176
     1
 79
     3
176
     1
170
     0
176
     1
171
     0
176
     1
290
     0
176
     1
 93
        1
176
     1
 44
0.0
176
     1
173
     0
176
     1
1001
ACAD
1000
AcDbSavedByObjectVersion
1070
     0
  0
VISUALSTYLE
  5
3C
102
{ACAD_XDICTIONARY
360
129
102
}
102
{ACAD_REACTORS
330
29
102
}
330
29
100
AcDbVisualStyle
  2
X-Ray
 70
    25
177
     2
291
     0
 71
     2
176
     1
 72
     2
176
     1
 73
     1
176
     1
 90
        1
176
     1
 40
0.5
176
     1
 41
30.0
176
     1
 63
     7
421
 16777215
176
     1
 74
     1
176
     1
 91
        0
176
     1
 64
     7
176
     1
 65
   257
176
     1
 75
     1
176
     1
175
     1
176
     1
 42
1.0
176
     1
 92
        8
176
     1
 66
     7
176
     1
 43
1.0
176
     1
 76
     1
176
     1
 77
     6
176
     1
 78
     2
176
     1
 67
     7
176
     1
 79
     3
176
     1
170
     0
176
     1
171
     0
176
     1
290
     0
176
     1
 93
       13
176
     1
 44
0.0
176
     1
173
     0
176
     1
1001
ACAD
1000
AcDbSavedByObjectVersion
1070
     0
  0
DICTIONARYVAR
  5
101
102
{ACAD_REACTORS
330
FC
102
}
330
FC
100
DictionaryVariables
280
     0
  1
1:1
  0
DICTIONARYVAR
  5
FE
102
{ACAD_REACTORS
330
FC
102
}
330
FC
100
DictionaryVariables
280
     0
  1
STANDARD
  0
DICTIONARYVAR
  5
FD
102
{ACAD_REACTORS
330
FC
102
}
330
FC
100
DictionaryVariables
280
     0
  1
STANDARD
  0
DICTIONARYVAR
  5
FF
102
{ACAD_REACTORS
330
FC
102
}
330
FC
100
DictionaryVariables
280
     0
  1
Imperial24
  0
DICTIONARYVAR
  5
100
102
{ACAD_REACTORS
330
FC
102
}
330
FC
100
DictionaryVariables
280
     0
  1
Imperial24
  0
DICTIONARY
  5
139
330
6B
100
AcDbDictionary
280
     1
281
     1
  3
ACAD_XREC_ROUNDTRIP
360
13A
  0
DICTIONARY
  5
1A
330
19
100
AcDbDictionary
280
     1
281
     1
  3
BUMPTILE
360
1C
  3
DIFFUSETILE
360
1B
  3
OPACITYTILE
360
1F
  3
REFLECTIONTILE
360
1E
  3
REFRACTIONTILE
360
20
  3
SPECULARTILE
360
1D
  0
DICTIONARY
  5
12
330
11
100
AcDbDictionary
280
     1
281
     1
  3
BUMPTILE
360
14
  3
DIFFUSETILE
360
13
  3
OPACITYTILE
360
17
  3
REFLECTIONTILE
360
16
  3
REFRACTIONTILE
360
18
  3
SPECULARTILE
360
15
  0
DICTIONARY
  5
22
330
21
100
AcDbDictionary
280
     1
281
     1
  3
BUMPTILE
360
24
  3
DIFFUSETILE
360
23
  3
OPACITYTILE
360
27
  3
REFLECTIONTILE
360
26
  3
REFRACTIONTILE
360
28
  3
SPECULARTILE
360
25
  0
DICTIONARY
  5
135
330
67
100
AcDbDictionary
280
     1
281
     1
  3
ACAD_XREC_ROUNDTRIP
360
136
  0
DICTIONARY
  5
137
330
69
100
AcDbDictionary
280
     1
281
     1
  3
ACAD_XREC_ROUNDTRIP
360
138
  0
DICTIONARY
  5
102
330
65
100
AcDbDictionary
280
     1
281
     1
  3
ACAD_ROUNDTRIP_2008_TABLESTYLE_CELLSTYLEMAP
360
103
  0
DICTIONARY
  5
10F
330
2F
100
AcDbDictionary
280
     1
281
     1
  3
ACAD_XREC_ROUNDTRIP
360
110
  0
DICTIONARY
  5
10D
330
2E
100
AcDbDictionary
280
     1
281
     1
  3
ACAD_XREC_ROUNDTRIP
360
10E
  0
DICTIONARY
  5
11B
330
35
100
AcDbDictionary
280
     1
281
     1
  3
ACAD_XREC_ROUNDTRIP
360
11C
  0
DICTIONARY
  5
123
330
39
100
AcDbDictionary
280
     1
281
     1
  3
ACAD_XREC_ROUNDTRIP
360
124
  0
DICTIONARY
  5
115
330
32
100
AcDbDictionary
280
     1
281
     1
  3
ACAD_XREC_ROUNDTRIP
360
116
  0
DICTIONARY
  5
119
330
34
100
AcDbDictionary
280
     1
281
     1
  3
ACAD_XREC_ROUNDTRIP
360
11A
  0
DICTIONARY
  5
133
330
41
100
AcDbDictionary
280
     1
281
     1
  3
ACAD_XREC_ROUNDTRIP
360
134
  0
DICTIONARY
  5
121
330
38
100
AcDbDictionary
280
     1
281
     1
  3
ACAD_XREC_ROUNDTRIP
360
122
  0
DICTIONARY
  5
105
330
2A
100
AcDbDictionary
280
     1
281
     1
  3
ACAD_XREC_ROUNDTRIP
360
106
  0
DICTIONARY
  5
107
330
2B
100
AcDbDictionary
280
     1
281
     1
  3
ACAD_XREC_ROUNDTRIP
360
108
  0
DICTIONARY
  5
109
330
2C
100
AcDbDictionary
280
     1
281
     1
  3
ACAD_XREC_ROUNDTRIP
360
10A
  0
DICTIONARY
  5
10B
330
2D
100
AcDbDictionary
280
     1
281
     1
  3
ACAD_XREC_ROUNDTRIP
360
10C
  0
DICTIONARY
  5
113
330
31
100
AcDbDictionary
280
     1
281
     1
  3
ACAD_XREC_ROUNDTRIP
360
114
  0
DICTIONARY
  5
12F
330
3F
100
AcDbDictionary
280
     1
281
     1
  3
ACAD_XREC_ROUNDTRIP
360
130
  0
DICTIONARY
  5
11F
330
37
100
AcDbDictionary
280
     1
281
     1
  3
ACAD_XREC_ROUNDTRIP
360
120
  0
DICTIONARY
  5
131
330
40
100
AcDbDictionary
280
     1
281
     1
  3
ACAD_XREC_ROUNDTRIP
360
132
  0
DICTIONARY
  5
117
330
33
100
AcDbDictionary
280
     1
281
     1
  3
ACAD_XREC_ROUNDTRIP
360
118
  0
DICTIONARY
  5
12D
330
3E
100
AcDbDictionary
280
     1
281
     1
  3
ACAD_XREC_ROUNDTRIP
360
12E
  0
DICTIONARY
  5
12B
330
3D
100
AcDbDictionary
280
     1
281
     1
  3
ACAD_XREC_ROUNDTRIP
360
12C
  0
DICTIONARY
  5
125
330
3A
100
AcDbDictionary
280
     1
281
     1
  3
ACAD_XREC_ROUNDTRIP
360
126
  0
DICTIONARY
  5
127
330
3B
100
AcDbDictionary
280
     1
281
     1
  3
ACAD_XREC_ROUNDTRIP
360
128
  0
DICTIONARY
  5
11D
330
36
100
AcDbDictionary
280
     1
281
     1
  3
ACAD_XREC_ROUNDTRIP
360
11E
  0
DICTIONARY
  5
111
330
30
100
AcDbDictionary
280
     1
281
     1
  3
ACAD_XREC_ROUNDTRIP
360
112
  0
DICTIONARY
  5
129
330
3C
100
AcDbDictionary
280
     1
281
     1
  3
ACAD_XREC_ROUNDTRIP
360
12A
  0
XRECORD
  5
13A
102
{ACAD_REACTORS
330
139
102
}
330
139
100
AcDbXrecord
280
     1
102
DISPLAYNAME
  1
Imperial24
102
FLAGS
 90
        0
  0
XRECORD
  5
1C
102
{ACAD_REACTORS
330
1A
102
}
330
1A
100
AcDbXrecord
280
     1
270
     1
271
     1
  0
XRECORD
  5
1B
102
{ACAD_REACTORS
330
1A
102
}
330
1A
100
AcDbXrecord
280
     1
270
     1
271
     1
  0
XRECORD
  5
1F
102
{ACAD_REACTORS
330
1A
102
}
330
1A
100
AcDbXrecord
280
     1
270
     1
271
     1
  0
XRECORD
  5
1E
102
{ACAD_REACTORS
330
1A
102
}
330
1A
100
AcDbXrecord
280
     1
270
     1
271
     1
  0
XRECORD
  5
20
102
{ACAD_REACTORS
330
1A
102
}
330
1A
100
AcDbXrecord
280
     1
270
     1
271
     1
  0
XRECORD
  5
1D
102
{ACAD_REACTORS
330
1A
102
}
330
1A
100
AcDbXrecord
280
     1
270
     1
271
     1
  0
XRECORD
  5
14
102
{ACAD_REACTORS
330
12
102
}
330
12
100
AcDbXrecord
280
     1
270
     1
271
     1
  0
XRECORD
  5
13
102
{ACAD_REACTORS
330
12
102
}
330
12
100
AcDbXrecord
280
     1
270
     1
271
     1
  0
XRECORD
  5
17
102
{ACAD_REACTORS
330
12
102
}
330
12
100
AcDbXrecord
280
     1
270
     1
271
     1
  0
XRECORD
  5
16
102
{ACAD_REACTORS
330
12
102
}
330
12
100
AcDbXrecord
280
     1
270
     1
271
     1
  0
XRECORD
  5
18
102
{ACAD_REACTORS
330
12
102
}
330
12
100
AcDbXrecord
280
     1
270
     1
271
     1
  0
XRECORD
  5
15
102
{ACAD_REACTORS
330
12
102
}
330
12
100
AcDbXrecord
280
     1
270
     1
271
     1
  0
XRECORD
  5
24
102
{ACAD_REACTORS
330
22
102
}
330
22
100
AcDbXrecord
280
     1
270
     1
271
     1
  0
XRECORD
  5
23
102
{ACAD_REACTORS
330
22
102
}
330
22
100
AcDbXrecord
280
     1
270
     1
271
     1
  0
XRECORD
  5
27
102
{ACAD_REACTORS
330
22
102
}
330
22
100
AcDbXrecord
280
     1
270
     1
271
     1
  0
XRECORD
  5
26
102
{ACAD_REACTORS
330
22
102
}
330
22
100
AcDbXrecord
280
     1
270
     1
271
     1
  0
XRECORD
  5
28
102
{ACAD_REACTORS
330
22
102
}
330
22
100
AcDbXrecord
280
     1
270
     1
271
     1
  0
XRECORD
  5
25
102
{ACAD_REACTORS
330
22
102
}
330
22
100
AcDbXrecord
280
     1
270
     1
271
     1
  0
XRECORD
  5
136
102
{ACAD_REACTORS
330
135
102
}
330
135
100
AcDbXrecord
280
     1
102
ACAD_ROUNDTRIP_2012_MLEADER_STYLE
298
     1
  0
XRECORD
  5
138
102
{ACAD_REACTORS
330
137
102
}
330
137
100
AcDbXrecord
280
     1
102
DISPLAYNAME
  1
Imperial24
102
FLAGS
 90
        0
  0
CELLSTYLEMAP
  5
103
102
{ACAD_REACTORS
330
102
102
}
330
102
100
AcDbCellStyleMap
 90
        3
300
CELLSTYLE
  1
TABLEFORMAT_BEGIN
 90
        5
170
     1
 91
        0
 92
    32768
 62
   257
 93
        1
300
CONTENTFORMAT
  1
CONTENTFORMAT_BEGIN
 90
        0
 91
        0
 92
      512
 93
        0
300

 40
0.0
140
1.0
 94
        5
 62
     0
340
55
144
0.25
309
CONTENTFORMAT_END
171
     0
 94
        0
309
TABLEFORMAT_END
  1
CELLSTYLE_BEGIN
 90
        1
 91
        1
300
_TITLE
309
CELLSTYLE_END
300
CELLSTYLE
  1
TABLEFORMAT_BEGIN
 90
        5
170
     1
 91
        0
 92
        0
 62
   257
 93
        1
300
CONTENTFORMAT
  1
CONTENTFORMAT_BEGIN
 90
        0
 91
        0
 92
      512
 93
        0
300

 40
0.0
140
1.0
 94
        5
 62
     0
340
55
144
0.18
309
CONTENTFORMAT_END
171
     0
 94
        0
309
TABLEFORMAT_END
  1
CELLSTYLE_BEGIN
 90
        2
 91
        1
300
_HEADER
309
CELLSTYLE_END
300
CELLSTYLE
  1
TABLEFORMAT_BEGIN
 90
        5
170
     1
 91
        0
 92
        0
 62
   257
 93
        1
300
CONTENTFORMAT
  1
CONTENTFORMAT_BEGIN
 90
        0
 91
        0
 92
      512
 93
        0
300

 40
0.0
140
1.0
 94
        2
 62
     0
340
55
144
0.18
309
CONTENTFORMAT_END
171
     0
 94
        0
309
TABLEFORMAT_END
  1
CELLSTYLE_BEGIN
 90
        3
 91
        2
300
_DATA
309
CELLSTYLE_END
  0
XRECORD
  5
110
102
{ACAD_REACTORS
330
10F
102
}
330
10F
100
AcDbXrecord
280
     1
102
RTVSPost2010Prop28
280
     1
102
RTVSPost2010PropOp28
 70
     1
102
RTVSPost2010Prop29
280
     1
102
RTVSPost2010PropOp29
 70
     1
102
RTVSPost2010Prop30
280
     0
102
RTVSPost2010PropOp30
 70
     1
102
RTVSPost2010Prop31
280
     0
102
RTVSPost2010PropOp31
 70
     1
102
RTVSPost2010Prop32
280
     0
102
RTVSPost2010PropOp32
 70
     1
102
RTVSPost2010Prop33
280
     0
102
RTVSPost2010PropOp33
 70
     1
102
RTVSPost2010Prop34
280
     0
102
RTVSPost2010PropOp34
 70
     1
102
RTVSPost2010Prop35
280
     0
102
RTVSPost2010PropOp35
 70
     1
102
RTVSPost2010Prop36
280
     0
102
RTVSPost2010PropOp36
 70
     1
102
RTVSPost2010Prop37
 90
       50
102
RTVSPost2010PropOp37
 70
     1
102
RTVSPost2010Prop38
140
0.0
102
RTVSPost2010PropOp38
 70
     1
102
RTVSPost2010Prop39
140
1.0
102
RTVSPost2010PropOp39
 70
     1
102
RTVSPost2010Prop40
 90
        0
102
RTVSPost2010PropOp40
 70
     1
102
RTVSPost2010Prop41ColorIndex
 90
       18
102
RTVSPost2010Prop41ColorRGB
 90
        0
102
RTVSPost2010PropOp41
 70
     1
102
RTVSPost2010Prop42
 90
       50
102
RTVSPost2010PropOp42
 70
     1
102
RTVSPost2010Prop43
 90
        3
102
RTVSPost2010PropOp43
 70
     1
102
RTVSPost2010Prop44ColorIndex
 90
        5
102
RTVSPost2010Prop44ColorRGB
 90
      255
102
RTVSPost2010PropOp44
 70
     1
102
RTVSPost2010Prop45
280
     0
102
RTVSPost2010PropOp45
 70
     1
102
RTVSPost2010Prop46
 90
       50
102
RTVSPost2010PropOp46
 70
     1
102
RTVSPost2010Prop47
 90
       50
102
RTVSPost2010PropOp47
 70
     1
102
RTVSPost2010Prop48
 90
       50
102
RTVSPost2010PropOp48
 70
     1
102
RTVSPost2010Prop49
280
     0
102
RTVSPost2010PropOp49
 70
     1
102
RTVSPost2010Prop50
 90
       50
102
RTVSPost2010PropOp50
 70
     1
102
RTVSPost2010Prop51ColorIndex
 90
      256
102
RTVSPost2010Prop51ColorRGB
 90
-16777216
102
RTVSPost2010PropOp51
 70
     0
102
RTVSPost2010Prop52
140
1.0
102
RTVSPost2010PropOp52
 70
     0
102
RTVSPost2010Prop53
 90
        2
102
RTVSPost2010PropOp53
 70
     1
102
RTVSPost2010Prop54
  1
strokes_ogs.tif
102
RTVSPost2010PropOp54
 70
     1
102
RTVSPost2010Prop55
280
     0
102
RTVSPost2010PropOp55
 70
     1
102
RTVSPost2010Prop56
140
1.0
102
RTVSPost2010PropOp56
 70
     1
102
RTVSPost2010Prop57
140
1.0
102
RTVSPost2010PropOp57
 70
     1
  0
XRECORD
  5
10E
102
{ACAD_REACTORS
330
10D
102
}
330
10D
100
AcDbXrecord
280
     1
102
RTVSPost2010Prop28
280
     0
102
RTVSPost2010PropOp28
 70
     1
102
RTVSPost2010Prop29
280
     1
102
RTVSPost2010PropOp29
 70
     1
102
RTVSPost2010Prop30
280
     1
102
RTVSPost2010PropOp30
 70
     1
102
RTVSPost2010Prop31
280
     0
102
RTVSPost2010PropOp31
 70
     1
102
RTVSPost2010Prop32
280
     0
102
RTVSPost2010PropOp32
 70
     1
102
RTVSPost2010Prop33
280
     0
102
RTVSPost2010PropOp33
 70
     1
102
RTVSPost2010Prop34
280
     0
102
RTVSPost2010PropOp34
 70
     1
102
RTVSPost2010Prop35
280
     0
102
RTVSPost2010PropOp35
 70
     1
102
RTVSPost2010Prop36
280
     0
102
RTVSPost2010PropOp36
 70
     1
102
RTVSPost2010Prop37
 90
       50
102
RTVSPost2010PropOp37
 70
     1
102
RTVSPost2010Prop38
140
0.0
102
RTVSPost2010PropOp38
 70
     1
102
RTVSPost2010Prop39
140
1.0
102
RTVSPost2010PropOp39
 70
     1
102
RTVSPost2010Prop40
 90
        0
102
RTVSPost2010PropOp40
 70
     1
102
RTVSPost2010Prop41ColorIndex
 90
       18
102
RTVSPost2010Prop41ColorRGB
 90
        0
102
RTVSPost2010PropOp41
 70
     1
102
RTVSPost2010Prop42
 90
       50
102
RTVSPost2010PropOp42
 70
     1
102
RTVSPost2010Prop43
 90
        3
102
RTVSPost2010PropOp43
 70
     1
102
RTVSPost2010Prop44ColorIndex
 90
        5
102
RTVSPost2010Prop44ColorRGB
 90
      255
102
RTVSPost2010PropOp44
 70
     1
102
RTVSPost2010Prop45
280
     0
102
RTVSPost2010PropOp45
 70
     1
102
RTVSPost2010Prop46
 90
       50
102
RTVSPost2010PropOp46
 70
     1
102
RTVSPost2010Prop47
 90
       50
102
RTVSPost2010PropOp47
 70
     1
102
RTVSPost2010Prop48
 90
       50
102
RTVSPost2010PropOp48
 70
     1
102
RTVSPost2010Prop49
280
     0
102
RTVSPost2010PropOp49
 70
     1
102
RTVSPost2010Prop50
 90
       50
102
RTVSPost2010PropOp50
 70
     1
102
RTVSPost2010Prop51ColorIndex
 90
      256
102
RTVSPost2010Prop51ColorRGB
 90
-16777216
102
RTVSPost2010PropOp51
 70
     0
102
RTVSPost2010Prop52
140
1.0
102
RTVSPost2010PropOp52
 70
     0
102
RTVSPost2010Prop53
 90
        2
102
RTVSPost2010PropOp53
 70
     1
102
RTVSPost2010Prop54
  1
strokes_ogs.tif
102
RTVSPost2010PropOp54
 70
     1
102
RTVSPost2010Prop55
280
     0
102
RTVSPost2010PropOp55
 70
     1
102
RTVSPost2010Prop56
140
1.0
102
RTVSPost2010PropOp56
 70
     1
102
RTVSPost2010Prop57
140
1.0
102
RTVSPost2010PropOp57
 70
     1
  0
XRECORD
  5
11C
102
{ACAD_REACTORS
330
11B
102
}
330
11B
100
AcDbXrecord
280
     1
102
RTVSPost2010Prop28
280
     0
102
RTVSPost2010PropOp28
 70
     1
102
RTVSPost2010Prop29
280
     1
102
RTVSPost2010PropOp29
 70
     1
102
RTVSPost2010Prop30
280
     1
102
RTVSPost2010PropOp30
 70
     1
102
RTVSPost2010Prop31
280
     0
102
RTVSPost2010PropOp31
 70
     1
102
RTVSPost2010Prop32
280
     0
102
RTVSPost2010PropOp32
 70
     1
102
RTVSPost2010Prop33
280
     0
102
RTVSPost2010PropOp33
 70
     1
102
RTVSPost2010Prop34
280
     0
102
RTVSPost2010PropOp34
 70
     1
102
RTVSPost2010Prop35
280
     0
102
RTVSPost2010PropOp35
 70
     1
102
RTVSPost2010Prop36
280
     0
102
RTVSPost2010PropOp36
 70
     1
102
RTVSPost2010Prop37
 90
       50
102
RTVSPost2010PropOp37
 70
     1
102
RTVSPost2010Prop38
140
0.0
102
RTVSPost2010PropOp38
 70
     1
102
RTVSPost2010Prop39
140
1.0
102
RTVSPost2010PropOp39
 70
     1
102
RTVSPost2010Prop40
 90
        0
102
RTVSPost2010PropOp40
 70
     1
102
RTVSPost2010Prop41ColorIndex
 90
       18
102
RTVSPost2010Prop41ColorRGB
 90
        0
102
RTVSPost2010PropOp41
 70
     1
102
RTVSPost2010Prop42
 90
       50
102
RTVSPost2010PropOp42
 70
     1
102
RTVSPost2010Prop43
 90
        3
102
RTVSPost2010PropOp43
 70
     1
102
RTVSPost2010Prop44ColorIndex
 90
        5
102
RTVSPost2010Prop44ColorRGB
 90
      255
102
RTVSPost2010PropOp44
 70
     1
102
RTVSPost2010Prop45
280
     0
102
RTVSPost2010PropOp45
 70
     1
102
RTVSPost2010Prop46
 90
       50
102
RTVSPost2010PropOp46
 70
     1
102
RTVSPost2010Prop47
 90
       50
102
RTVSPost2010PropOp47
 70
     1
102
RTVSPost2010Prop48
 90
       50
102
RTVSPost2010PropOp48
 70
     1
102
RTVSPost2010Prop49
280
     0
102
RTVSPost2010PropOp49
 70
     1
102
RTVSPost2010Prop50
 90
       50
102
RTVSPost2010PropOp50
 70
     1
102
RTVSPost2010Prop51ColorIndex
 90
      256
102
RTVSPost2010Prop51ColorRGB
 90
-16777216
102
RTVSPost2010PropOp51
 70
     0
102
RTVSPost2010Prop52
140
1.0
102
RTVSPost2010PropOp52
 70
     0
102
RTVSPost2010Prop53
 90
        2
102
RTVSPost2010PropOp53
 70
     1
102
RTVSPost2010Prop54
  1
strokes_ogs.tif
102
RTVSPost2010PropOp54
 70
     1
102
RTVSPost2010Prop55
280
     0
102
RTVSPost2010PropOp55
 70
     1
102
RTVSPost2010Prop56
140
1.0
102
RTVSPost2010PropOp56
 70
     1
102
RTVSPost2010Prop57
140
1.0
102
RTVSPost2010PropOp57
 70
     1
  0
XRECORD
  5
124
102
{ACAD_REACTORS
330
123
102
}
330
123
100
AcDbXrecord
280
     1
102
RTVSPost2010Prop28
280
     0
102
RTVSPost2010PropOp28
 70
     1
102
RTVSPost2010Prop29
280
     1
102
RTVSPost2010PropOp29
 70
     1
102
RTVSPost2010Prop30
280
     1
102
RTVSPost2010PropOp30
 70
     1
102
RTVSPost2010Prop31
280
     0
102
RTVSPost2010PropOp31
 70
     1
102
RTVSPost2010Prop32
280
     0
102
RTVSPost2010PropOp32
 70
     1
102
RTVSPost2010Prop33
280
     0
102
RTVSPost2010PropOp33
 70
     1
102
RTVSPost2010Prop34
280
     0
102
RTVSPost2010PropOp34
 70
     1
102
RTVSPost2010Prop35
280
     0
102
RTVSPost2010PropOp35
 70
     1
102
RTVSPost2010Prop36
280
     0
102
RTVSPost2010PropOp36
 70
     1
102
RTVSPost2010Prop37
 90
       50
102
RTVSPost2010PropOp37
 70
     1
102
RTVSPost2010Prop38
140
0.0
102
RTVSPost2010PropOp38
 70
     1
102
RTVSPost2010Prop39
140
1.0
102
RTVSPost2010PropOp39
 70
     1
102
RTVSPost2010Prop40
 90
        0
102
RTVSPost2010PropOp40
 70
     1
102
RTVSPost2010Prop41ColorIndex
 90
       18
102
RTVSPost2010Prop41ColorRGB
 90
        0
102
RTVSPost2010PropOp41
 70
     1
102
RTVSPost2010Prop42
 90
       50
102
RTVSPost2010PropOp42
 70
     1
102
RTVSPost2010Prop43
 90
        3
102
RTVSPost2010PropOp43
 70
     1
102
RTVSPost2010Prop44ColorIndex
 90
        5
102
RTVSPost2010Prop44ColorRGB
 90
      255
102
RTVSPost2010PropOp44
 70
     1
102
RTVSPost2010Prop45
280
     0
102
RTVSPost2010PropOp45
 70
     1
102
RTVSPost2010Prop46
 90
       50
102
RTVSPost2010PropOp46
 70
     1
102
RTVSPost2010Prop47
 90
       50
102
RTVSPost2010PropOp47
 70
     1
102
RTVSPost2010Prop48
 90
       50
102
RTVSPost2010PropOp48
 70
     1
102
RTVSPost2010Prop49
280
     0
102
RTVSPost2010PropOp49
 70
     1
102
RTVSPost2010Prop50
 90
       50
102
RTVSPost2010PropOp50
 70
     1
102
RTVSPost2010Prop51ColorIndex
 90
      256
102
RTVSPost2010Prop51ColorRGB
 90
-16777216
102
RTVSPost2010PropOp51
 70
     0
102
RTVSPost2010Prop52
140
1.0
102
RTVSPost2010PropOp52
 70
     0
102
RTVSPost2010Prop53
 90
        2
102
RTVSPost2010PropOp53
 70
     1
102
RTVSPost2010Prop54
  1
strokes_ogs.tif
102
RTVSPost2010PropOp54
 70
     1
102
RTVSPost2010Prop55
280
     0
102
RTVSPost2010PropOp55
 70
     1
102
RTVSPost2010Prop56
140
1.0
102
RTVSPost2010PropOp56
 70
     1
102
RTVSPost2010Prop57
140
1.0
102
RTVSPost2010PropOp57
 70
     1
  0
XRECORD
  5
116
102
{ACAD_REACTORS
330
115
102
}
330
115
100
AcDbXrecord
280
     1
102
RTVSPost2010Prop28
280
     0
102
RTVSPost2010PropOp28
 70
     1
102
RTVSPost2010Prop29
280
     1
102
RTVSPost2010PropOp29
 70
     1
102
RTVSPost2010Prop30
280
     1
102
RTVSPost2010PropOp30
 70
     1
102
RTVSPost2010Prop31
280
     0
102
RTVSPost2010PropOp31
 70
     1
102
RTVSPost2010Prop32
280
     0
102
RTVSPost2010PropOp32
 70
     1
102
RTVSPost2010Prop33
280
     0
102
RTVSPost2010PropOp33
 70
     1
102
RTVSPost2010Prop34
280
     0
102
RTVSPost2010PropOp34
 70
     1
102
RTVSPost2010Prop35
280
     0
102
RTVSPost2010PropOp35
 70
     1
102
RTVSPost2010Prop36
280
     0
102
RTVSPost2010PropOp36
 70
     1
102
RTVSPost2010Prop37
 90
       50
102
RTVSPost2010PropOp37
 70
     1
102
RTVSPost2010Prop38
140
0.0
102
RTVSPost2010PropOp38
 70
     1
102
RTVSPost2010Prop39
140
1.0
102
RTVSPost2010PropOp39
 70
     1
102
RTVSPost2010Prop40
 90
        0
102
RTVSPost2010PropOp40
 70
     1
102
RTVSPost2010Prop41ColorIndex
 90
       18
102
RTVSPost2010Prop41ColorRGB
 90
        0
102
RTVSPost2010PropOp41
 70
     1
102
RTVSPost2010Prop42
 90
       50
102
RTVSPost2010PropOp42
 70
     1
102
RTVSPost2010Prop43
 90
        3
102
RTVSPost2010PropOp43
 70
     1
102
RTVSPost2010Prop44ColorIndex
 90
        5
102
RTVSPost2010Prop44ColorRGB
 90
      255
102
RTVSPost2010PropOp44
 70
     1
102
RTVSPost2010Prop45
280
     0
102
RTVSPost2010PropOp45
 70
     1
102
RTVSPost2010Prop46
 90
       50
102
RTVSPost2010PropOp46
 70
     1
102
RTVSPost2010Prop47
 90
       50
102
RTVSPost2010PropOp47
 70
     1
102
RTVSPost2010Prop48
 90
       50
102
RTVSPost2010PropOp48
 70
     1
102
RTVSPost2010Prop49
280
     0
102
RTVSPost2010PropOp49
 70
     1
102
RTVSPost2010Prop50
 90
       50
102
RTVSPost2010PropOp50
 70
     1
102
RTVSPost2010Prop51ColorIndex
 90
      256
102
RTVSPost2010Prop51ColorRGB
 90
-16777216
102
RTVSPost2010PropOp51
 70
     0
102
RTVSPost2010Prop52
140
1.0
102
RTVSPost2010PropOp52
 70
     0
102
RTVSPost2010Prop53
 90
        2
102
RTVSPost2010PropOp53
 70
     1
102
RTVSPost2010Prop54
  1
strokes_ogs.tif
102
RTVSPost2010PropOp54
 70
     1
102
RTVSPost2010Prop55
280
     0
102
RTVSPost2010PropOp55
 70
     1
102
RTVSPost2010Prop56
140
1.0
102
RTVSPost2010PropOp56
 70
     1
102
RTVSPost2010Prop57
140
1.0
102
RTVSPost2010PropOp57
 70
     1
  0
XRECORD
  5
11A
102
{ACAD_REACTORS
330
119
102
}
330
119
100
AcDbXrecord
280
     1
102
RTVSPost2010Prop28
280
     0
102
RTVSPost2010PropOp28
 70
     1
102
RTVSPost2010Prop29
280
     1
102
RTVSPost2010PropOp29
 70
     1
102
RTVSPost2010Prop30
280
     1
102
RTVSPost2010PropOp30
 70
     1
102
RTVSPost2010Prop31
280
     0
102
RTVSPost2010PropOp31
 70
     1
102
RTVSPost2010Prop32
280
     0
102
RTVSPost2010PropOp32
 70
     1
102
RTVSPost2010Prop33
280
     0
102
RTVSPost2010PropOp33
 70
     1
102
RTVSPost2010Prop34
280
     0
102
RTVSPost2010PropOp34
 70
     1
102
RTVSPost2010Prop35
280
     0
102
RTVSPost2010PropOp35
 70
     1
102
RTVSPost2010Prop36
280
     0
102
RTVSPost2010PropOp36
 70
     1
102
RTVSPost2010Prop37
 90
       50
102
RTVSPost2010PropOp37
 70
     1
102
RTVSPost2010Prop38
140
0.0
102
RTVSPost2010PropOp38
 70
     1
102
RTVSPost2010Prop39
140
1.0
102
RTVSPost2010PropOp39
 70
     1
102
RTVSPost2010Prop40
 90
        0
102
RTVSPost2010PropOp40
 70
     1
102
RTVSPost2010Prop41ColorIndex
 90
       18
102
RTVSPost2010Prop41ColorRGB
 90
        0
102
RTVSPost2010PropOp41
 70
     1
102
RTVSPost2010Prop42
 90
       50
102
RTVSPost2010PropOp42
 70
     1
102
RTVSPost2010Prop43
 90
        3
102
RTVSPost2010PropOp43
 70
     1
102
RTVSPost2010Prop44ColorIndex
 90
        5
102
RTVSPost2010Prop44ColorRGB
 90
      255
102
RTVSPost2010PropOp44
 70
     1
102
RTVSPost2010Prop45
280
     0
102
RTVSPost2010PropOp45
 70
     1
102
RTVSPost2010Prop46
 90
       50
102
RTVSPost2010PropOp46
 70
     1
102
RTVSPost2010Prop47
 90
       50
102
RTVSPost2010PropOp47
 70
     1
102
RTVSPost2010Prop48
 90
       50
102
RTVSPost2010PropOp48
 70
     1
102
RTVSPost2010Prop49
280
     0
102
RTVSPost2010PropOp49
 70
     1
102
RTVSPost2010Prop50
 90
       50
102
RTVSPost2010PropOp50
 70
     1
102
RTVSPost2010Prop51ColorIndex
 90
      256
102
RTVSPost2010Prop51ColorRGB
 90
-16777216
102
RTVSPost2010PropOp51
 70
     0
102
RTVSPost2010Prop52
140
1.0
102
RTVSPost2010PropOp52
 70
     0
102
RTVSPost2010Prop53
 90
        2
102
RTVSPost2010PropOp53
 70
     1
102
RTVSPost2010Prop54
  1
strokes_ogs.tif
102
RTVSPost2010PropOp54
 70
     1
102
RTVSPost2010Prop55
280
     0
102
RTVSPost2010PropOp55
 70
     1
102
RTVSPost2010Prop56
140
1.0
102
RTVSPost2010PropOp56
 70
     1
102
RTVSPost2010Prop57
140
1.0
102
RTVSPost2010PropOp57
 70
     1
  0
XRECORD
  5
134
102
{ACAD_REACTORS
330
133
102
}
330
133
100
AcDbXrecord
280
     1
102
RTVSPost2010Prop28
280
     0
102
RTVSPost2010PropOp28
 70
     0
102
RTVSPost2010Prop29
280
     1
102
RTVSPost2010PropOp29
 70
     0
102
RTVSPost2010Prop30
280
     1
102
RTVSPost2010PropOp30
 70
     0
102
RTVSPost2010Prop31
280
     0
102
RTVSPost2010PropOp31
 70
     0
102
RTVSPost2010Prop32
280
     0
102
RTVSPost2010PropOp32
 70
     0
102
RTVSPost2010Prop33
280
     0
102
RTVSPost2010PropOp33
 70
     0
102
RTVSPost2010Prop34
280
     0
102
RTVSPost2010PropOp34
 70
     0
102
RTVSPost2010Prop35
280
     0
102
RTVSPost2010PropOp35
 70
     0
102
RTVSPost2010Prop36
280
     0
102
RTVSPost2010PropOp36
 70
     0
102
RTVSPost2010Prop37
 90
       50
102
RTVSPost2010PropOp37
 70
     0
102
RTVSPost2010Prop38
140
0.0
102
RTVSPost2010PropOp38
 70
     0
102
RTVSPost2010Prop39
140
1.0
102
RTVSPost2010PropOp39
 70
     0
102
RTVSPost2010Prop40
 90
        0
102
RTVSPost2010PropOp40
 70
     0
102
RTVSPost2010Prop41ColorIndex
 90
       18
102
RTVSPost2010Prop41ColorRGB
 90
        0
102
RTVSPost2010PropOp41
 70
     0
102
RTVSPost2010Prop42
 90
       50
102
RTVSPost2010PropOp42
 70
     0
102
RTVSPost2010Prop43
 90
        3
102
RTVSPost2010PropOp43
 70
     0
102
RTVSPost2010Prop44ColorIndex
 90
        5
102
RTVSPost2010Prop44ColorRGB
 90
      255
102
RTVSPost2010PropOp44
 70
     0
102
RTVSPost2010Prop45
280
     0
102
RTVSPost2010PropOp45
 70
     0
102
RTVSPost2010Prop46
 90
       50
102
RTVSPost2010PropOp46
 70
     0
102
RTVSPost2010Prop47
 90
       50
102
RTVSPost2010PropOp47
 70
     0
102
RTVSPost2010Prop48
 90
       50
102
RTVSPost2010PropOp48
 70
     0
102
RTVSPost2010Prop49
280
     0
102
RTVSPost2010PropOp49
 70
     0
102
RTVSPost2010Prop50
 90
       50
102
RTVSPost2010PropOp50
 70
     0
102
RTVSPost2010Prop51ColorIndex
 90
      256
102
RTVSPost2010Prop51ColorRGB
 90
-16777216
102
RTVSPost2010PropOp51
 70
     0
102
RTVSPost2010Prop52
140
1.0
102
RTVSPost2010PropOp52
 70
     0
102
RTVSPost2010Prop53
 90
        2
102
RTVSPost2010PropOp53
 70
     0
102
RTVSPost2010Prop54
  1
strokes_ogs.tif
102
RTVSPost2010PropOp54
 70
     0
102
RTVSPost2010Prop55
280
     0
102
RTVSPost2010PropOp55
 70
     0
102
RTVSPost2010Prop56
140
1.0
102
RTVSPost2010PropOp56
 70
     0
102
RTVSPost2010Prop57
140
1.0
102
RTVSPost2010PropOp57
 70
     0
  0
XRECORD
  5
122
102
{ACAD_REACTORS
330
121
102
}
330
121
100
AcDbXrecord
280
     1
102
RTVSPost2010Prop28
280
     0
102
RTVSPost2010PropOp28
 70
     1
102
RTVSPost2010Prop29
280
     1
102
RTVSPost2010PropOp29
 70
     1
102
RTVSPost2010Prop30
280
     1
102
RTVSPost2010PropOp30
 70
     1
102
RTVSPost2010Prop31
280
     0
102
RTVSPost2010PropOp31
 70
     1
102
RTVSPost2010Prop32
280
     0
102
RTVSPost2010PropOp32
 70
     1
102
RTVSPost2010Prop33
280
     0
102
RTVSPost2010PropOp33
 70
     1
102
RTVSPost2010Prop34
280
     0
102
RTVSPost2010PropOp34
 70
     1
102
RTVSPost2010Prop35
280
     0
102
RTVSPost2010PropOp35
 70
     1
102
RTVSPost2010Prop36
280
     0
102
RTVSPost2010PropOp36
 70
     1
102
RTVSPost2010Prop37
 90
       50
102
RTVSPost2010PropOp37
 70
     1
102
RTVSPost2010Prop38
140
0.0
102
RTVSPost2010PropOp38
 70
     1
102
RTVSPost2010Prop39
140
1.0
102
RTVSPost2010PropOp39
 70
     1
102
RTVSPost2010Prop40
 90
        0
102
RTVSPost2010PropOp40
 70
     1
102
RTVSPost2010Prop41ColorIndex
 90
       18
102
RTVSPost2010Prop41ColorRGB
 90
        0
102
RTVSPost2010PropOp41
 70
     1
102
RTVSPost2010Prop42
 90
       50
102
RTVSPost2010PropOp42
 70
     1
102
RTVSPost2010Prop43
 90
        3
102
RTVSPost2010PropOp43
 70
     1
102
RTVSPost2010Prop44ColorIndex
 90
        5
102
RTVSPost2010Prop44ColorRGB
 90
      255
102
RTVSPost2010PropOp44
 70
     1
102
RTVSPost2010Prop45
280
     0
102
RTVSPost2010PropOp45
 70
     1
102
RTVSPost2010Prop46
 90
       50
102
RTVSPost2010PropOp46
 70
     1
102
RTVSPost2010Prop47
 90
       50
102
RTVSPost2010PropOp47
 70
     1
102
RTVSPost2010Prop48
 90
       50
102
RTVSPost2010PropOp48
 70
     1
102
RTVSPost2010Prop49
280
     0
102
RTVSPost2010PropOp49
 70
     1
102
RTVSPost2010Prop50
 90
       50
102
RTVSPost2010PropOp50
 70
     1
102
RTVSPost2010Prop51ColorIndex
 90
      256
102
RTVSPost2010Prop51ColorRGB
 90
-16777216
102
RTVSPost2010PropOp51
 70
     0
102
RTVSPost2010Prop52
140
1.0
102
RTVSPost2010PropOp52
 70
     0
102
RTVSPost2010Prop53
 90
        2
102
RTVSPost2010PropOp53
 70
     1
102
RTVSPost2010Prop54
  1
strokes_ogs.tif
102
RTVSPost2010PropOp54
 70
     1
102
RTVSPost2010Prop55
280
     0
102
RTVSPost2010PropOp55
 70
     1
102
RTVSPost2010Prop56
140
1.0
102
RTVSPost2010PropOp56
 70
     1
102
RTVSPost2010Prop57
140
1.0
102
RTVSPost2010PropOp57
 70
     1
  0
XRECORD
  5
106
102
{ACAD_REACTORS
330
105
102
}
330
105
100
AcDbXrecord
280
     1
102
RTVSPost2010Prop28
280
     0
102
RTVSPost2010PropOp28
 70
     1
102
RTVSPost2010Prop29
280
     1
102
RTVSPost2010PropOp29
 70
     1
102
RTVSPost2010Prop30
280
     1
102
RTVSPost2010PropOp30
 70
     1
102
RTVSPost2010Prop31
280
     0
102
RTVSPost2010PropOp31
 70
     1
102
RTVSPost2010Prop32
280
     0
102
RTVSPost2010PropOp32
 70
     1
102
RTVSPost2010Prop33
280
     0
102
RTVSPost2010PropOp33
 70
     1
102
RTVSPost2010Prop34
280
     0
102
RTVSPost2010PropOp34
 70
     1
102
RTVSPost2010Prop35
280
     0
102
RTVSPost2010PropOp35
 70
     1
102
RTVSPost2010Prop36
280
     0
102
RTVSPost2010PropOp36
 70
     1
102
RTVSPost2010Prop37
 90
       50
102
RTVSPost2010PropOp37
 70
     1
102
RTVSPost2010Prop38
140
0.0
102
RTVSPost2010PropOp38
 70
     1
102
RTVSPost2010Prop39
140
1.0
102
RTVSPost2010PropOp39
 70
     1
102
RTVSPost2010Prop40
 90
        0
102
RTVSPost2010PropOp40
 70
     1
102
RTVSPost2010Prop41ColorIndex
 90
       18
102
RTVSPost2010Prop41ColorRGB
 90
        0
102
RTVSPost2010PropOp41
 70
     1
102
RTVSPost2010Prop42
 90
       50
102
RTVSPost2010PropOp42
 70
     1
102
RTVSPost2010Prop43
 90
        3
102
RTVSPost2010PropOp43
 70
     1
102
RTVSPost2010Prop44ColorIndex
 90
        5
102
RTVSPost2010Prop44ColorRGB
 90
      255
102
RTVSPost2010PropOp44
 70
     1
102
RTVSPost2010Prop45
280
     0
102
RTVSPost2010PropOp45
 70
     1
102
RTVSPost2010Prop46
 90
       50
102
RTVSPost2010PropOp46
 70
     1
102
RTVSPost2010Prop47
 90
       50
102
RTVSPost2010PropOp47
 70
     1
102
RTVSPost2010Prop48
 90
       50
102
RTVSPost2010PropOp48
 70
     1
102
RTVSPost2010Prop49
280
     0
102
RTVSPost2010PropOp49
 70
     1
102
RTVSPost2010Prop50
 90
       50
102
RTVSPost2010PropOp50
 70
     1
102
RTVSPost2010Prop51ColorIndex
 90
      256
102
RTVSPost2010Prop51ColorRGB
 90
-16777216
102
RTVSPost2010PropOp51
 70
     0
102
RTVSPost2010Prop52
140
1.0
102
RTVSPost2010PropOp52
 70
     0
102
RTVSPost2010Prop53
 90
        2
102
RTVSPost2010PropOp53
 70
     1
102
RTVSPost2010Prop54
  1
strokes_ogs.tif
102
RTVSPost2010PropOp54
 70
     1
102
RTVSPost2010Prop55
280
     0
102
RTVSPost2010PropOp55
 70
     1
102
RTVSPost2010Prop56
140
1.0
102
RTVSPost2010PropOp56
 70
     1
102
RTVSPost2010Prop57
140
1.0
102
RTVSPost2010PropOp57
 70
     1
  0
XRECORD
  5
108
102
{ACAD_REACTORS
330
107
102
}
330
107
100
AcDbXrecord
280
     1
102
RTVSPost2010Prop28
280
     0
102
RTVSPost2010PropOp28
 70
     1
102
RTVSPost2010Prop29
280
     1
102
RTVSPost2010PropOp29
 70
     1
102
RTVSPost2010Prop30
280
     1
102
RTVSPost2010PropOp30
 70
     1
102
RTVSPost2010Prop31
280
     0
102
RTVSPost2010PropOp31
 70
     1
102
RTVSPost2010Prop32
280
     0
102
RTVSPost2010PropOp32
 70
     1
102
RTVSPost2010Prop33
280
     0
102
RTVSPost2010PropOp33
 70
     1
102
RTVSPost2010Prop34
280
     0
102
RTVSPost2010PropOp34
 70
     1
102
RTVSPost2010Prop35
280
     0
102
RTVSPost2010PropOp35
 70
     1
102
RTVSPost2010Prop36
280
     0
102
RTVSPost2010PropOp36
 70
     1
102
RTVSPost2010Prop37
 90
       50
102
RTVSPost2010PropOp37
 70
     1
102
RTVSPost2010Prop38
140
0.0
102
RTVSPost2010PropOp38
 70
     1
102
RTVSPost2010Prop39
140
1.0
102
RTVSPost2010PropOp39
 70
     1
102
RTVSPost2010Prop40
 90
        0
102
RTVSPost2010PropOp40
 70
     1
102
RTVSPost2010Prop41ColorIndex
 90
       18
102
RTVSPost2010Prop41ColorRGB
 90
        0
102
RTVSPost2010PropOp41
 70
     1
102
RTVSPost2010Prop42
 90
       50
102
RTVSPost2010PropOp42
 70
     1
102
RTVSPost2010Prop43
 90
        3
102
RTVSPost2010PropOp43
 70
     1
102
RTVSPost2010Prop44ColorIndex
 90
        5
102
RTVSPost2010Prop44ColorRGB
 90
      255
102
RTVSPost2010PropOp44
 70
     1
102
RTVSPost2010Prop45
280
     0
102
RTVSPost2010PropOp45
 70
     1
102
RTVSPost2010Prop46
 90
       50
102
RTVSPost2010PropOp46
 70
     1
102
RTVSPost2010Prop47
 90
       50
102
RTVSPost2010PropOp47
 70
     1
102
RTVSPost2010Prop48
 90
       50
102
RTVSPost2010PropOp48
 70
     1
102
RTVSPost2010Prop49
280
     0
102
RTVSPost2010PropOp49
 70
     1
102
RTVSPost2010Prop50
 90
       50
102
RTVSPost2010PropOp50
 70
     1
102
RTVSPost2010Prop51ColorIndex
 90
      256
102
RTVSPost2010Prop51ColorRGB
 90
-16777216
102
RTVSPost2010PropOp51
 70
     0
102
RTVSPost2010Prop52
140
1.0
102
RTVSPost2010PropOp52
 70
     0
102
RTVSPost2010Prop53
 90
        2
102
RTVSPost2010PropOp53
 70
     1
102
RTVSPost2010Prop54
  1
strokes_ogs.tif
102
RTVSPost2010PropOp54
 70
     1
102
RTVSPost2010Prop55
280
     0
102
RTVSPost2010PropOp55
 70
     1
102
RTVSPost2010Prop56
140
1.0
102
RTVSPost2010PropOp56
 70
     1
102
RTVSPost2010Prop57
140
1.0
102
RTVSPost2010PropOp57
 70
     1
  0
XRECORD
  5
10A
102
{ACAD_REACTORS
330
109
102
}
330
109
100
AcDbXrecord
280
     1
102
RTVSPost2010Prop28
280
     0
102
RTVSPost2010PropOp28
 70
     1
102
RTVSPost2010Prop29
280
     1
102
RTVSPost2010PropOp29
 70
     1
102
RTVSPost2010Prop30
280
     1
102
RTVSPost2010PropOp30
 70
     1
102
RTVSPost2010Prop31
280
     0
102
RTVSPost2010PropOp31
 70
     1
102
RTVSPost2010Prop32
280
     0
102
RTVSPost2010PropOp32
 70
     1
102
RTVSPost2010Prop33
280
     0
102
RTVSPost2010PropOp33
 70
     1
102
RTVSPost2010Prop34
280
     0
102
RTVSPost2010PropOp34
 70
     1
102
RTVSPost2010Prop35
280
     0
102
RTVSPost2010PropOp35
 70
     1
102
RTVSPost2010Prop36
280
     0
102
RTVSPost2010PropOp36
 70
     1
102
RTVSPost2010Prop37
 90
       50
102
RTVSPost2010PropOp37
 70
     1
102
RTVSPost2010Prop38
140
0.0
102
RTVSPost2010PropOp38
 70
     1
102
RTVSPost2010Prop39
140
1.0
102
RTVSPost2010PropOp39
 70
     1
102
RTVSPost2010Prop40
 90
        0
102
RTVSPost2010PropOp40
 70
     1
102
RTVSPost2010Prop41ColorIndex
 90
       18
102
RTVSPost2010Prop41ColorRGB
 90
        0
102
RTVSPost2010PropOp41
 70
     1
102
RTVSPost2010Prop42
 90
       50
102
RTVSPost2010PropOp42
 70
     1
102
RTVSPost2010Prop43
 90
        3
102
RTVSPost2010PropOp43
 70
     1
102
RTVSPost2010Prop44ColorIndex
 90
        5
102
RTVSPost2010Prop44ColorRGB
 90
      255
102
RTVSPost2010PropOp44
 70
     1
102
RTVSPost2010Prop45
280
     0
102
RTVSPost2010PropOp45
 70
     1
102
RTVSPost2010Prop46
 90
       50
102
RTVSPost2010PropOp46
 70
     1
102
RTVSPost2010Prop47
 90
       50
102
RTVSPost2010PropOp47
 70
     1
102
RTVSPost2010Prop48
 90
       50
102
RTVSPost2010PropOp48
 70
     1
102
RTVSPost2010Prop49
280
     0
102
RTVSPost2010PropOp49
 70
     1
102
RTVSPost2010Prop50
 90
       50
102
RTVSPost2010PropOp50
 70
     1
102
RTVSPost2010Prop51ColorIndex
 90
      256
102
RTVSPost2010Prop51ColorRGB
 90
-16777216
102
RTVSPost2010PropOp51
 70
     0
102
RTVSPost2010Prop52
140
1.0
102
RTVSPost2010PropOp52
 70
     0
102
RTVSPost2010Prop53
 90
        2
102
RTVSPost2010PropOp53
 70
     1
102
RTVSPost2010Prop54
  1
strokes_ogs.tif
102
RTVSPost2010PropOp54
 70
     1
102
RTVSPost2010Prop55
280
     0
102
RTVSPost2010PropOp55
 70
     1
102
RTVSPost2010Prop56
140
1.0
102
RTVSPost2010PropOp56
 70
     1
102
RTVSPost2010Prop57
140
1.0
102
RTVSPost2010PropOp57
 70
     1
  0
XRECORD
  5
10C
102
{ACAD_REACTORS
330
10B
102
}
330
10B
100
AcDbXrecord
280
     1
102
RTVSPost2010Prop28
280
     0
102
RTVSPost2010PropOp28
 70
     1
102
RTVSPost2010Prop29
280
     1
102
RTVSPost2010PropOp29
 70
     1
102
RTVSPost2010Prop30
280
     1
102
RTVSPost2010PropOp30
 70
     1
102
RTVSPost2010Prop31
280
     0
102
RTVSPost2010PropOp31
 70
     1
102
RTVSPost2010Prop32
280
     0
102
RTVSPost2010PropOp32
 70
     1
102
RTVSPost2010Prop33
280
     0
102
RTVSPost2010PropOp33
 70
     1
102
RTVSPost2010Prop34
280
     0
102
RTVSPost2010PropOp34
 70
     1
102
RTVSPost2010Prop35
280
     0
102
RTVSPost2010PropOp35
 70
     1
102
RTVSPost2010Prop36
280
     0
102
RTVSPost2010PropOp36
 70
     1
102
RTVSPost2010Prop37
 90
       50
102
RTVSPost2010PropOp37
 70
     1
102
RTVSPost2010Prop38
140
0.0
102
RTVSPost2010PropOp38
 70
     1
102
RTVSPost2010Prop39
140
1.0
102
RTVSPost2010PropOp39
 70
     1
102
RTVSPost2010Prop40
 90
        0
102
RTVSPost2010PropOp40
 70
     1
102
RTVSPost2010Prop41ColorIndex
 90
       18
102
RTVSPost2010Prop41ColorRGB
 90
        0
102
RTVSPost2010PropOp41
 70
     1
102
RTVSPost2010Prop42
 90
       50
102
RTVSPost2010PropOp42
 70
     1
102
RTVSPost2010Prop43
 90
        3
102
RTVSPost2010PropOp43
 70
     1
102
RTVSPost2010Prop44ColorIndex
 90
        5
102
RTVSPost2010Prop44ColorRGB
 90
      255
102
RTVSPost2010PropOp44
 70
     1
102
RTVSPost2010Prop45
280
     0
102
RTVSPost2010PropOp45
 70
     1
102
RTVSPost2010Prop46
 90
       50
102
RTVSPost2010PropOp46
 70
     1
102
RTVSPost2010Prop47
 90
       50
102
RTVSPost2010PropOp47
 70
     1
102
RTVSPost2010Prop48
 90
       50
102
RTVSPost2010PropOp48
 70
     1
102
RTVSPost2010Prop49
280
     0
102
RTVSPost2010PropOp49
 70
     1
102
RTVSPost2010Prop50
 90
       50
102
RTVSPost2010PropOp50
 70
     1
102
RTVSPost2010Prop51ColorIndex
 90
      256
102
RTVSPost2010Prop51ColorRGB
 90
-16777216
102
RTVSPost2010PropOp51
 70
     0
102
RTVSPost2010Prop52
140
1.0
102
RTVSPost2010PropOp52
 70
     0
102
RTVSPost2010Prop53
 90
        2
102
RTVSPost2010PropOp53
 70
     1
102
RTVSPost2010Prop54
  1
strokes_ogs.tif
102
RTVSPost2010PropOp54
 70
     1
102
RTVSPost2010Prop55
280
     0
102
RTVSPost2010PropOp55
 70
     1
102
RTVSPost2010Prop56
140
1.0
102
RTVSPost2010PropOp56
 70
     1
102
RTVSPost2010Prop57
140
1.0
102
RTVSPost2010PropOp57
 70
     1
  0
XRECORD
  5
114
102
{ACAD_REACTORS
330
113
102
}
330
113
100
AcDbXrecord
280
     1
102
RTVSPost2010Prop28
280
     0
102
RTVSPost2010PropOp28
 70
     1
102
RTVSPost2010Prop29
280
     1
102
RTVSPost2010PropOp29
 70
     1
102
RTVSPost2010Prop30
280
     1
102
RTVSPost2010PropOp30
 70
     1
102
RTVSPost2010Prop31
280
     0
102
RTVSPost2010PropOp31
 70
     1
102
RTVSPost2010Prop32
280
     0
102
RTVSPost2010PropOp32
 70
     1
102
RTVSPost2010Prop33
280
     0
102
RTVSPost2010PropOp33
 70
     1
102
RTVSPost2010Prop34
280
     0
102
RTVSPost2010PropOp34
 70
     1
102
RTVSPost2010Prop35
280
     0
102
RTVSPost2010PropOp35
 70
     1
102
RTVSPost2010Prop36
280
     0
102
RTVSPost2010PropOp36
 70
     1
102
RTVSPost2010Prop37
 90
       50
102
RTVSPost2010PropOp37
 70
     1
102
RTVSPost2010Prop38
140
0.0
102
RTVSPost2010PropOp38
 70
     1
102
RTVSPost2010Prop39
140
1.0
102
RTVSPost2010PropOp39
 70
     1
102
RTVSPost2010Prop40
 90
        0
102
RTVSPost2010PropOp40
 70
     1
102
RTVSPost2010Prop41ColorIndex
 90
       18
102
RTVSPost2010Prop41ColorRGB
 90
        0
102
RTVSPost2010PropOp41
 70
     1
102
RTVSPost2010Prop42
 90
       50
102
RTVSPost2010PropOp42
 70
     1
102
RTVSPost2010Prop43
 90
        3
102
RTVSPost2010PropOp43
 70
     1
102
RTVSPost2010Prop44ColorIndex
 90
        5
102
RTVSPost2010Prop44ColorRGB
 90
      255
102
RTVSPost2010PropOp44
 70
     1
102
RTVSPost2010Prop45
280
     0
102
RTVSPost2010PropOp45
 70
     1
102
RTVSPost2010Prop46
 90
       50
102
RTVSPost2010PropOp46
 70
     1
102
RTVSPost2010Prop47
 90
       50
102
RTVSPost2010PropOp47
 70
     1
102
RTVSPost2010Prop48
 90
       50
102
RTVSPost2010PropOp48
 70
     1
102
RTVSPost2010Prop49
280
     0
102
RTVSPost2010PropOp49
 70
     1
102
RTVSPost2010Prop50
 90
       50
102
RTVSPost2010PropOp50
 70
     1
102
RTVSPost2010Prop51ColorIndex
 90
      256
102
RTVSPost2010Prop51ColorRGB
 90
-16777216
102
RTVSPost2010PropOp51
 70
     0
102
RTVSPost2010Prop52
140
1.0
102
RTVSPost2010PropOp52
 70
     0
102
RTVSPost2010Prop53
 90
        2
102
RTVSPost2010PropOp53
 70
     1
102
RTVSPost2010Prop54
  1
strokes_ogs.tif
102
RTVSPost2010PropOp54
 70
     1
102
RTVSPost2010Prop55
280
     0
102
RTVSPost2010PropOp55
 70
     1
102
RTVSPost2010Prop56
140
1.0
102
RTVSPost2010PropOp56
 70
     1
102
RTVSPost2010Prop57
140
1.0
102
RTVSPost2010PropOp57
 70
     1
  0
XRECORD
  5
130
102
{ACAD_REACTORS
330
12F
102
}
330
12F
100
AcDbXrecord
280
     1
102
RTVSPost2010Prop28
280
     0
102
RTVSPost2010PropOp28
 70
     0
102
RTVSPost2010Prop29
280
     1
102
RTVSPost2010PropOp29
 70
     0
102
RTVSPost2010Prop30
280
     1
102
RTVSPost2010PropOp30
 70
     0
102
RTVSPost2010Prop31
280
     0
102
RTVSPost2010PropOp31
 70
     0
102
RTVSPost2010Prop32
280
     0
102
RTVSPost2010PropOp32
 70
     0
102
RTVSPost2010Prop33
280
     0
102
RTVSPost2010PropOp33
 70
     0
102
RTVSPost2010Prop34
280
     0
102
RTVSPost2010PropOp34
 70
     0
102
RTVSPost2010Prop35
280
     0
102
RTVSPost2010PropOp35
 70
     0
102
RTVSPost2010Prop36
280
     0
102
RTVSPost2010PropOp36
 70
     0
102
RTVSPost2010Prop37
 90
       50
102
RTVSPost2010PropOp37
 70
     0
102
RTVSPost2010Prop38
140
0.0
102
RTVSPost2010PropOp38
 70
     0
102
RTVSPost2010Prop39
140
1.0
102
RTVSPost2010PropOp39
 70
     0
102
RTVSPost2010Prop40
 90
        0
102
RTVSPost2010PropOp40
 70
     0
102
RTVSPost2010Prop41ColorIndex
 90
       18
102
RTVSPost2010Prop41ColorRGB
 90
        0
102
RTVSPost2010PropOp41
 70
     0
102
RTVSPost2010Prop42
 90
       50
102
RTVSPost2010PropOp42
 70
     0
102
RTVSPost2010Prop43
 90
        3
102
RTVSPost2010PropOp43
 70
     0
102
RTVSPost2010Prop44ColorIndex
 90
        5
102
RTVSPost2010Prop44ColorRGB
 90
      255
102
RTVSPost2010PropOp44
 70
     0
102
RTVSPost2010Prop45
280
     0
102
RTVSPost2010PropOp45
 70
     0
102
RTVSPost2010Prop46
 90
       50
102
RTVSPost2010PropOp46
 70
     0
102
RTVSPost2010Prop47
 90
       50
102
RTVSPost2010PropOp47
 70
     0
102
RTVSPost2010Prop48
 90
       50
102
RTVSPost2010PropOp48
 70
     0
102
RTVSPost2010Prop49
280
     0
102
RTVSPost2010PropOp49
 70
     0
102
RTVSPost2010Prop50
 90
       50
102
RTVSPost2010PropOp50
 70
     0
102
RTVSPost2010Prop51ColorIndex
 90
      256
102
RTVSPost2010Prop51ColorRGB
 90
-16777216
102
RTVSPost2010PropOp51
 70
     0
102
RTVSPost2010Prop52
140
1.0
102
RTVSPost2010PropOp52
 70
     0
102
RTVSPost2010Prop53
 90
        2
102
RTVSPost2010PropOp53
 70
     0
102
RTVSPost2010Prop54
  1
strokes_ogs.tif
102
RTVSPost2010PropOp54
 70
     0
102
RTVSPost2010Prop55
280
     0
102
RTVSPost2010PropOp55
 70
     0
102
RTVSPost2010Prop56
140
1.0
102
RTVSPost2010PropOp56
 70
     0
102
RTVSPost2010Prop57
140
1.0
102
RTVSPost2010PropOp57
 70
     0
  0
XRECORD
  5
120
102
{ACAD_REACTORS
330
11F
102
}
330
11F
100
AcDbXrecord
280
     1
102
RTVSPost2010Prop28
280
     0
102
RTVSPost2010PropOp28
 70
     1
102
RTVSPost2010Prop29
280
     1
102
RTVSPost2010PropOp29
 70
     1
102
RTVSPost2010Prop30
280
     1
102
RTVSPost2010PropOp30
 70
     1
102
RTVSPost2010Prop31
280
     0
102
RTVSPost2010PropOp31
 70
     1
102
RTVSPost2010Prop32
280
     0
102
RTVSPost2010PropOp32
 70
     1
102
RTVSPost2010Prop33
280
     0
102
RTVSPost2010PropOp33
 70
     1
102
RTVSPost2010Prop34
280
     0
102
RTVSPost2010PropOp34
 70
     1
102
RTVSPost2010Prop35
280
     0
102
RTVSPost2010PropOp35
 70
     1
102
RTVSPost2010Prop36
280
     0
102
RTVSPost2010PropOp36
 70
     1
102
RTVSPost2010Prop37
 90
       50
102
RTVSPost2010PropOp37
 70
     1
102
RTVSPost2010Prop38
140
0.0
102
RTVSPost2010PropOp38
 70
     1
102
RTVSPost2010Prop39
140
1.0
102
RTVSPost2010PropOp39
 70
     1
102
RTVSPost2010Prop40
 90
        0
102
RTVSPost2010PropOp40
 70
     1
102
RTVSPost2010Prop41ColorIndex
 90
       18
102
RTVSPost2010Prop41ColorRGB
 90
        0
102
RTVSPost2010PropOp41
 70
     1
102
RTVSPost2010Prop42
 90
       50
102
RTVSPost2010PropOp42
 70
     1
102
RTVSPost2010Prop43
 90
        3
102
RTVSPost2010PropOp43
 70
     1
102
RTVSPost2010Prop44ColorIndex
 90
        5
102
RTVSPost2010Prop44ColorRGB
 90
      255
102
RTVSPost2010PropOp44
 70
     1
102
RTVSPost2010Prop45
280
     0
102
RTVSPost2010PropOp45
 70
     1
102
RTVSPost2010Prop46
 90
       50
102
RTVSPost2010PropOp46
 70
     1
102
RTVSPost2010Prop47
 90
       50
102
RTVSPost2010PropOp47
 70
     1
102
RTVSPost2010Prop48
 90
       50
102
RTVSPost2010PropOp48
 70
     1
102
RTVSPost2010Prop49
280
     0
102
RTVSPost2010PropOp49
 70
     1
102
RTVSPost2010Prop50
 90
       50
102
RTVSPost2010PropOp50
 70
     1
102
RTVSPost2010Prop51ColorIndex
 90
      256
102
RTVSPost2010Prop51ColorRGB
 90
-16777216
102
RTVSPost2010PropOp51
 70
     0
102
RTVSPost2010Prop52
140
1.0
102
RTVSPost2010PropOp52
 70
     0
102
RTVSPost2010Prop53
 90
        2
102
RTVSPost2010PropOp53
 70
     1
102
RTVSPost2010Prop54
  1
strokes_ogs.tif
102
RTVSPost2010PropOp54
 70
     1
102
RTVSPost2010Prop55
280
     0
102
RTVSPost2010PropOp55
 70
     1
102
RTVSPost2010Prop56
140
1.0
102
RTVSPost2010PropOp56
 70
     1
102
RTVSPost2010Prop57
140
1.0
102
RTVSPost2010PropOp57
 70
     1
  0
XRECORD
  5
132
102
{ACAD_REACTORS
330
131
102
}
330
131
100
AcDbXrecord
280
     1
102
RTVSPost2010Prop28
280
     0
102
RTVSPost2010PropOp28
 70
     0
102
RTVSPost2010Prop29
280
     1
102
RTVSPost2010PropOp29
 70
     0
102
RTVSPost2010Prop30
280
     1
102
RTVSPost2010PropOp30
 70
     0
102
RTVSPost2010Prop31
280
     0
102
RTVSPost2010PropOp31
 70
     0
102
RTVSPost2010Prop32
280
     0
102
RTVSPost2010PropOp32
 70
     0
102
RTVSPost2010Prop33
280
     0
102
RTVSPost2010PropOp33
 70
     0
102
RTVSPost2010Prop34
280
     0
102
RTVSPost2010PropOp34
 70
     0
102
RTVSPost2010Prop35
280
     0
102
RTVSPost2010PropOp35
 70
     0
102
RTVSPost2010Prop36
280
     0
102
RTVSPost2010PropOp36
 70
     0
102
RTVSPost2010Prop37
 90
       50
102
RTVSPost2010PropOp37
 70
     0
102
RTVSPost2010Prop38
140
0.0
102
RTVSPost2010PropOp38
 70
     0
102
RTVSPost2010Prop39
140
1.0
102
RTVSPost2010PropOp39
 70
     0
102
RTVSPost2010Prop40
 90
        0
102
RTVSPost2010PropOp40
 70
     0
102
RTVSPost2010Prop41ColorIndex
 90
       18
102
RTVSPost2010Prop41ColorRGB
 90
        0
102
RTVSPost2010PropOp41
 70
     0
102
RTVSPost2010Prop42
 90
       50
102
RTVSPost2010PropOp42
 70
     0
102
RTVSPost2010Prop43
 90
        3
102
RTVSPost2010PropOp43
 70
     0
102
RTVSPost2010Prop44ColorIndex
 90
        5
102
RTVSPost2010Prop44ColorRGB
 90
      255
102
RTVSPost2010PropOp44
 70
     0
102
RTVSPost2010Prop45
280
     0
102
RTVSPost2010PropOp45
 70
     0
102
RTVSPost2010Prop46
 90
       50
102
RTVSPost2010PropOp46
 70
     0
102
RTVSPost2010Prop47
 90
       50
102
RTVSPost2010PropOp47
 70
     0
102
RTVSPost2010Prop48
 90
       50
102
RTVSPost2010PropOp48
 70
     0
102
RTVSPost2010Prop49
280
     0
102
RTVSPost2010PropOp49
 70
     0
102
RTVSPost2010Prop50
 90
       50
102
RTVSPost2010PropOp50
 70
     0
102
RTVSPost2010Prop51ColorIndex
 90
      256
102
RTVSPost2010Prop51ColorRGB
 90
-16777216
102
RTVSPost2010PropOp51
 70
     0
102
RTVSPost2010Prop52
140
1.0
102
RTVSPost2010PropOp52
 70
     0
102
RTVSPost2010Prop53
 90
        2
102
RTVSPost2010PropOp53
 70
     0
102
RTVSPost2010Prop54
  1
strokes_ogs.tif
102
RTVSPost2010PropOp54
 70
     0
102
RTVSPost2010Prop55
280
     0
102
RTVSPost2010PropOp55
 70
     0
102
RTVSPost2010Prop56
140
1.0
102
RTVSPost2010PropOp56
 70
     0
102
RTVSPost2010Prop57
140
1.0
102
RTVSPost2010PropOp57
 70
     0
  0
XRECORD
  5
118
102
{ACAD_REACTORS
330
117
102
}
330
117
100
AcDbXrecord
280
     1
102
RTVSPost2010Prop28
280
     0
102
RTVSPost2010PropOp28
 70
     1
102
RTVSPost2010Prop29
280
     1
102
RTVSPost2010PropOp29
 70
     1
102
RTVSPost2010Prop30
280
     1
102
RTVSPost2010PropOp30
 70
     1
102
RTVSPost2010Prop31
280
     0
102
RTVSPost2010PropOp31
 70
     1
102
RTVSPost2010Prop32
280
     0
102
RTVSPost2010PropOp32
 70
     1
102
RTVSPost2010Prop33
280
     0
102
RTVSPost2010PropOp33
 70
     1
102
RTVSPost2010Prop34
280
     0
102
RTVSPost2010PropOp34
 70
     1
102
RTVSPost2010Prop35
280
     0
102
RTVSPost2010PropOp35
 70
     1
102
RTVSPost2010Prop36
280
     0
102
RTVSPost2010PropOp36
 70
     1
102
RTVSPost2010Prop37
 90
       50
102
RTVSPost2010PropOp37
 70
     1
102
RTVSPost2010Prop38
140
0.0
102
RTVSPost2010PropOp38
 70
     1
102
RTVSPost2010Prop39
140
1.0
102
RTVSPost2010PropOp39
 70
     1
102
RTVSPost2010Prop40
 90
        0
102
RTVSPost2010PropOp40
 70
     1
102
RTVSPost2010Prop41ColorIndex
 90
       18
102
RTVSPost2010Prop41ColorRGB
 90
        0
102
RTVSPost2010PropOp41
 70
     1
102
RTVSPost2010Prop42
 90
       50
102
RTVSPost2010PropOp42
 70
     1
102
RTVSPost2010Prop43
 90
        3
102
RTVSPost2010PropOp43
 70
     1
102
RTVSPost2010Prop44ColorIndex
 90
        5
102
RTVSPost2010Prop44ColorRGB
 90
      255
102
RTVSPost2010PropOp44
 70
     1
102
RTVSPost2010Prop45
280
     0
102
RTVSPost2010PropOp45
 70
     1
102
RTVSPost2010Prop46
 90
       50
102
RTVSPost2010PropOp46
 70
     1
102
RTVSPost2010Prop47
 90
       50
102
RTVSPost2010PropOp47
 70
     1
102
RTVSPost2010Prop48
 90
       50
102
RTVSPost2010PropOp48
 70
     1
102
RTVSPost2010Prop49
280
     0
102
RTVSPost2010PropOp49
 70
     1
102
RTVSPost2010Prop50
 90
       50
102
RTVSPost2010PropOp50
 70
     1
102
RTVSPost2010Prop51ColorIndex
 90
      256
102
RTVSPost2010Prop51ColorRGB
 90
-16777216
102
RTVSPost2010PropOp51
 70
     0
102
RTVSPost2010Prop52
140
1.0
102
RTVSPost2010PropOp52
 70
     0
102
RTVSPost2010Prop53
 90
        2
102
RTVSPost2010PropOp53
 70
     1
102
RTVSPost2010Prop54
  1
strokes_ogs.tif
102
RTVSPost2010PropOp54
 70
     1
102
RTVSPost2010Prop55
280
     0
102
RTVSPost2010PropOp55
 70
     1
102
RTVSPost2010Prop56
140
1.0
102
RTVSPost2010PropOp56
 70
     1
102
RTVSPost2010Prop57
140
1.0
102
RTVSPost2010PropOp57
 70
     1
  0
XRECORD
  5
12E
102
{ACAD_REACTORS
330
12D
102
}
330
12D
100
AcDbXrecord
280
     1
102
RTVSPost2010Prop28
280
     0
102
RTVSPost2010PropOp28
 70
     1
102
RTVSPost2010Prop29
280
     1
102
RTVSPost2010PropOp29
 70
     1
102
RTVSPost2010Prop30
280
     1
102
RTVSPost2010PropOp30
 70
     1
102
RTVSPost2010Prop31
280
     0
102
RTVSPost2010PropOp31
 70
     1
102
RTVSPost2010Prop32
280
     0
102
RTVSPost2010PropOp32
 70
     1
102
RTVSPost2010Prop33
280
     0
102
RTVSPost2010PropOp33
 70
     1
102
RTVSPost2010Prop34
280
     0
102
RTVSPost2010PropOp34
 70
     1
102
RTVSPost2010Prop35
280
     0
102
RTVSPost2010PropOp35
 70
     1
102
RTVSPost2010Prop36
280
     0
102
RTVSPost2010PropOp36
 70
     1
102
RTVSPost2010Prop37
 90
       50
102
RTVSPost2010PropOp37
 70
     1
102
RTVSPost2010Prop38
140
0.0
102
RTVSPost2010PropOp38
 70
     1
102
RTVSPost2010Prop39
140
1.0
102
RTVSPost2010PropOp39
 70
     1
102
RTVSPost2010Prop40
 90
        0
102
RTVSPost2010PropOp40
 70
     1
102
RTVSPost2010Prop41ColorIndex
 90
       18
102
RTVSPost2010Prop41ColorRGB
 90
        0
102
RTVSPost2010PropOp41
 70
     1
102
RTVSPost2010Prop42
 90
       50
102
RTVSPost2010PropOp42
 70
     1
102
RTVSPost2010Prop43
 90
        3
102
RTVSPost2010PropOp43
 70
     1
102
RTVSPost2010Prop44ColorIndex
 90
        5
102
RTVSPost2010Prop44ColorRGB
 90
      255
102
RTVSPost2010PropOp44
 70
     1
102
RTVSPost2010Prop45
280
     0
102
RTVSPost2010PropOp45
 70
     1
102
RTVSPost2010Prop46
 90
       50
102
RTVSPost2010PropOp46
 70
     1
102
RTVSPost2010Prop47
 90
       50
102
RTVSPost2010PropOp47
 70
     1
102
RTVSPost2010Prop48
 90
       50
102
RTVSPost2010PropOp48
 70
     1
102
RTVSPost2010Prop49
280
     0
102
RTVSPost2010PropOp49
 70
     1
102
RTVSPost2010Prop50
 90
       50
102
RTVSPost2010PropOp50
 70
     1
102
RTVSPost2010Prop51ColorIndex
 90
      256
102
RTVSPost2010Prop51ColorRGB
 90
-16777216
102
RTVSPost2010PropOp51
 70
     0
102
RTVSPost2010Prop52
140
1.0
102
RTVSPost2010PropOp52
 70
     0
102
RTVSPost2010Prop53
 90
        2
102
RTVSPost2010PropOp53
 70
     1
102
RTVSPost2010Prop54
  1
strokes_ogs.tif
102
RTVSPost2010PropOp54
 70
     1
102
RTVSPost2010Prop55
280
     0
102
RTVSPost2010PropOp55
 70
     1
102
RTVSPost2010Prop56
140
1.0
102
RTVSPost2010PropOp56
 70
     1
102
RTVSPost2010Prop57
140
1.0
102
RTVSPost2010PropOp57
 70
     1
  0
XRECORD
  5
12C
102
{ACAD_REACTORS
330
12B
102
}
330
12B
100
AcDbXrecord
280
     1
102
RTVSPost2010Prop28
280
     0
102
RTVSPost2010PropOp28
 70
     1
102
RTVSPost2010Prop29
280
     1
102
RTVSPost2010PropOp29
 70
     1
102
RTVSPost2010Prop30
280
     1
102
RTVSPost2010PropOp30
 70
     1
102
RTVSPost2010Prop31
280
     0
102
RTVSPost2010PropOp31
 70
     1
102
RTVSPost2010Prop32
280
     0
102
RTVSPost2010PropOp32
 70
     1
102
RTVSPost2010Prop33
280
     0
102
RTVSPost2010PropOp33
 70
     1
102
RTVSPost2010Prop34
280
     0
102
RTVSPost2010PropOp34
 70
     1
102
RTVSPost2010Prop35
280
     0
102
RTVSPost2010PropOp35
 70
     1
102
RTVSPost2010Prop36
280
     0
102
RTVSPost2010PropOp36
 70
     1
102
RTVSPost2010Prop37
 90
       50
102
RTVSPost2010PropOp37
 70
     1
102
RTVSPost2010Prop38
140
0.0
102
RTVSPost2010PropOp38
 70
     1
102
RTVSPost2010Prop39
140
1.0
102
RTVSPost2010PropOp39
 70
     1
102
RTVSPost2010Prop40
 90
        0
102
RTVSPost2010PropOp40
 70
     1
102
RTVSPost2010Prop41ColorIndex
 90
       18
102
RTVSPost2010Prop41ColorRGB
 90
        0
102
RTVSPost2010PropOp41
 70
     1
102
RTVSPost2010Prop42
 90
       50
102
RTVSPost2010PropOp42
 70
     1
102
RTVSPost2010Prop43
 90
        3
102
RTVSPost2010PropOp43
 70
     1
102
RTVSPost2010Prop44ColorIndex
 90
        5
102
RTVSPost2010Prop44ColorRGB
 90
      255
102
RTVSPost2010PropOp44
 70
     1
102
RTVSPost2010Prop45
280
     0
102
RTVSPost2010PropOp45
 70
     1
102
RTVSPost2010Prop46
 90
       50
102
RTVSPost2010PropOp46
 70
     1
102
RTVSPost2010Prop47
 90
       50
102
RTVSPost2010PropOp47
 70
     1
102
RTVSPost2010Prop48
 90
       50
102
RTVSPost2010PropOp48
 70
     1
102
RTVSPost2010Prop49
280
     0
102
RTVSPost2010PropOp49
 70
     1
102
RTVSPost2010Prop50
 90
       50
102
RTVSPost2010PropOp50
 70
     1
102
RTVSPost2010Prop51ColorIndex
 90
      256
102
RTVSPost2010Prop51ColorRGB
 90
-16777216
102
RTVSPost2010PropOp51
 70
     0
102
RTVSPost2010Prop52
140
1.0
102
RTVSPost2010PropOp52
 70
     0
102
RTVSPost2010Prop53
 90
        2
102
RTVSPost2010PropOp53
 70
     1
102
RTVSPost2010Prop54
  1
strokes_ogs.tif
102
RTVSPost2010PropOp54
 70
     1
102
RTVSPost2010Prop55
280
     0
102
RTVSPost2010PropOp55
 70
     1
102
RTVSPost2010Prop56
140
1.0
102
RTVSPost2010PropOp56
 70
     1
102
RTVSPost2010Prop57
140
1.0
102
RTVSPost2010PropOp57
 70
     1
  0
XRECORD
  5
126
102
{ACAD_REACTORS
330
125
102
}
330
125
100
AcDbXrecord
280
     1
102
RTVSPost2010Prop28
280
     0
102
RTVSPost2010PropOp28
 70
     1
102
RTVSPost2010Prop29
280
     1
102
RTVSPost2010PropOp29
 70
     1
102
RTVSPost2010Prop30
280
     1
102
RTVSPost2010PropOp30
 70
     1
102
RTVSPost2010Prop31
280
     0
102
RTVSPost2010PropOp31
 70
     1
102
RTVSPost2010Prop32
280
     0
102
RTVSPost2010PropOp32
 70
     1
102
RTVSPost2010Prop33
280
     0
102
RTVSPost2010PropOp33
 70
     1
102
RTVSPost2010Prop34
280
     0
102
RTVSPost2010PropOp34
 70
     1
102
RTVSPost2010Prop35
280
     0
102
RTVSPost2010PropOp35
 70
     1
102
RTVSPost2010Prop36
280
     0
102
RTVSPost2010PropOp36
 70
     1
102
RTVSPost2010Prop37
 90
       50
102
RTVSPost2010PropOp37
 70
     1
102
RTVSPost2010Prop38
140
0.0
102
RTVSPost2010PropOp38
 70
     1
102
RTVSPost2010Prop39
140
1.0
102
RTVSPost2010PropOp39
 70
     1
102
RTVSPost2010Prop40
 90
        0
102
RTVSPost2010PropOp40
 70
     1
102
RTVSPost2010Prop41ColorIndex
 90
       18
102
RTVSPost2010Prop41ColorRGB
 90
        0
102
RTVSPost2010PropOp41
 70
     1
102
RTVSPost2010Prop42
 90
       50
102
RTVSPost2010PropOp42
 70
     1
102
RTVSPost2010Prop43
 90
        3
102
RTVSPost2010PropOp43
 70
     1
102
RTVSPost2010Prop44ColorIndex
 90
        5
102
RTVSPost2010Prop44ColorRGB
 90
      255
102
RTVSPost2010PropOp44
 70
     1
102
RTVSPost2010Prop45
280
     0
102
RTVSPost2010PropOp45
 70
     1
102
RTVSPost2010Prop46
 90
       50
102
RTVSPost2010PropOp46
 70
     1
102
RTVSPost2010Prop47
 90
       50
102
RTVSPost2010PropOp47
 70
     1
102
RTVSPost2010Prop48
 90
       50
102
RTVSPost2010PropOp48
 70
     1
102
RTVSPost2010Prop49
280
     0
102
RTVSPost2010PropOp49
 70
     1
102
RTVSPost2010Prop50
 90
       50
102
RTVSPost2010PropOp50
 70
     1
102
RTVSPost2010Prop51ColorIndex
 90
      256
102
RTVSPost2010Prop51ColorRGB
 90
-16777216
102
RTVSPost2010PropOp51
 70
     0
102
RTVSPost2010Prop52
140
1.0
102
RTVSPost2010PropOp52
 70
     0
102
RTVSPost2010Prop53
 90
        2
102
RTVSPost2010PropOp53
 70
     1
102
RTVSPost2010Prop54
  1
strokes_ogs.tif
102
RTVSPost2010PropOp54
 70
     1
102
RTVSPost2010Prop55
280
     0
102
RTVSPost2010PropOp55
 70
     1
102
RTVSPost2010Prop56
140
1.0
102
RTVSPost2010PropOp56
 70
     1
102
RTVSPost2010Prop57
140
1.0
102
RTVSPost2010PropOp57
 70
     1
  0
XRECORD
  5
128
102
{ACAD_REACTORS
330
127
102
}
330
127
100
AcDbXrecord
280
     1
102
RTVSPost2010Prop28
280
     0
102
RTVSPost2010PropOp28
 70
     1
102
RTVSPost2010Prop29
280
     1
102
RTVSPost2010PropOp29
 70
     1
102
RTVSPost2010Prop30
280
     1
102
RTVSPost2010PropOp30
 70
     1
102
RTVSPost2010Prop31
280
     0
102
RTVSPost2010PropOp31
 70
     1
102
RTVSPost2010Prop32
280
     0
102
RTVSPost2010PropOp32
 70
     1
102
RTVSPost2010Prop33
280
     0
102
RTVSPost2010PropOp33
 70
     1
102
RTVSPost2010Prop34
280
     0
102
RTVSPost2010PropOp34
 70
     1
102
RTVSPost2010Prop35
280
     0
102
RTVSPost2010PropOp35
 70
     1
102
RTVSPost2010Prop36
280
     0
102
RTVSPost2010PropOp36
 70
     1
102
RTVSPost2010Prop37
 90
       50
102
RTVSPost2010PropOp37
 70
     1
102
RTVSPost2010Prop38
140
0.0
102
RTVSPost2010PropOp38
 70
     1
102
RTVSPost2010Prop39
140
1.0
102
RTVSPost2010PropOp39
 70
     1
102
RTVSPost2010Prop40
 90
        0
102
RTVSPost2010PropOp40
 70
     1
102
RTVSPost2010Prop41ColorIndex
 90
       18
102
RTVSPost2010Prop41ColorRGB
 90
        0
102
RTVSPost2010PropOp41
 70
     1
102
RTVSPost2010Prop42
 90
       50
102
RTVSPost2010PropOp42
 70
     1
102
RTVSPost2010Prop43
 90
        3
102
RTVSPost2010PropOp43
 70
     1
102
RTVSPost2010Prop44ColorIndex
 90
        5
102
RTVSPost2010Prop44ColorRGB
 90
      255
102
RTVSPost2010PropOp44
 70
     1
102
RTVSPost2010Prop45
280
     0
102
RTVSPost2010PropOp45
 70
     1
102
RTVSPost2010Prop46
 90
       50
102
RTVSPost2010PropOp46
 70
     1
102
RTVSPost2010Prop47
 90
       50
102
RTVSPost2010PropOp47
 70
     1
102
RTVSPost2010Prop48
 90
       50
102
RTVSPost2010PropOp48
 70
     1
102
RTVSPost2010Prop49
280
     0
102
RTVSPost2010PropOp49
 70
     1
102
RTVSPost2010Prop50
 90
       50
102
RTVSPost2010PropOp50
 70
     1
102
RTVSPost2010Prop51ColorIndex
 90
      256
102
RTVSPost2010Prop51ColorRGB
 90
-16777216
102
RTVSPost2010PropOp51
 70
     0
102
RTVSPost2010Prop52
140
1.0
102
RTVSPost2010PropOp52
 70
     0
102
RTVSPost2010Prop53
 90
        2
102
RTVSPost2010PropOp53
 70
     1
102
RTVSPost2010Prop54
  1
strokes_ogs.tif
102
RTVSPost2010PropOp54
 70
     1
102
RTVSPost2010Prop55
280
     0
102
RTVSPost2010PropOp55
 70
     1
102
RTVSPost2010Prop56
140
1.0
102
RTVSPost2010PropOp56
 70
     1
102
RTVSPost2010Prop57
140
1.0
102
RTVSPost2010PropOp57
 70
     1
  0
XRECORD
  5
11E
102
{ACAD_REACTORS
330
11D
102
}
330
11D
100
AcDbXrecord
280
     1
102
RTVSPost2010Prop28
280
     0
102
RTVSPost2010PropOp28
 70
     1
102
RTVSPost2010Prop29
280
     1
102
RTVSPost2010PropOp29
 70
     1
102
RTVSPost2010Prop30
280
     1
102
RTVSPost2010PropOp30
 70
     1
102
RTVSPost2010Prop31
280
     0
102
RTVSPost2010PropOp31
 70
     1
102
RTVSPost2010Prop32
280
     0
102
RTVSPost2010PropOp32
 70
     1
102
RTVSPost2010Prop33
280
     0
102
RTVSPost2010PropOp33
 70
     1
102
RTVSPost2010Prop34
280
     0
102
RTVSPost2010PropOp34
 70
     1
102
RTVSPost2010Prop35
280
     0
102
RTVSPost2010PropOp35
 70
     1
102
RTVSPost2010Prop36
280
     0
102
RTVSPost2010PropOp36
 70
     1
102
RTVSPost2010Prop37
 90
       50
102
RTVSPost2010PropOp37
 70
     1
102
RTVSPost2010Prop38
140
0.0
102
RTVSPost2010PropOp38
 70
     1
102
RTVSPost2010Prop39
140
1.0
102
RTVSPost2010PropOp39
 70
     1
102
RTVSPost2010Prop40
 90
        0
102
RTVSPost2010PropOp40
 70
     1
102
RTVSPost2010Prop41ColorIndex
 90
       18
102
RTVSPost2010Prop41ColorRGB
 90
        0
102
RTVSPost2010PropOp41
 70
     1
102
RTVSPost2010Prop42
 90
       50
102
RTVSPost2010PropOp42
 70
     1
102
RTVSPost2010Prop43
 90
        3
102
RTVSPost2010PropOp43
 70
     1
102
RTVSPost2010Prop44ColorIndex
 90
        5
102
RTVSPost2010Prop44ColorRGB
 90
      255
102
RTVSPost2010PropOp44
 70
     1
102
RTVSPost2010Prop45
280
     0
102
RTVSPost2010PropOp45
 70
     1
102
RTVSPost2010Prop46
 90
       50
102
RTVSPost2010PropOp46
 70
     1
102
RTVSPost2010Prop47
 90
       50
102
RTVSPost2010PropOp47
 70
     1
102
RTVSPost2010Prop48
 90
       50
102
RTVSPost2010PropOp48
 70
     1
102
RTVSPost2010Prop49
280
     0
102
RTVSPost2010PropOp49
 70
     1
102
RTVSPost2010Prop50
 90
       50
102
RTVSPost2010PropOp50
 70
     1
102
RTVSPost2010Prop51ColorIndex
 90
      256
102
RTVSPost2010Prop51ColorRGB
 90
-16777216
102
RTVSPost2010PropOp51
 70
     0
102
RTVSPost2010Prop52
140
1.0
102
RTVSPost2010PropOp52
 70
     0
102
RTVSPost2010Prop53
 90
        2
102
RTVSPost2010PropOp53
 70
     1
102
RTVSPost2010Prop54
  1
strokes_ogs.tif
102
RTVSPost2010PropOp54
 70
     1
102
RTVSPost2010Prop55
280
     0
102
RTVSPost2010PropOp55
 70
     1
102
RTVSPost2010Prop56
140
1.0
102
RTVSPost2010PropOp56
 70
     1
102
RTVSPost2010Prop57
140
1.0
102
RTVSPost2010PropOp57
 70
     1
  0
XRECORD
  5
112
102
{ACAD_REACTORS
330
111
102
}
330
111
100
AcDbXrecord
280
     1
102
RTVSPost2010Prop28
280
     0
102
RTVSPost2010PropOp28
 70
     1
102
RTVSPost2010Prop29
280
     1
102
RTVSPost2010PropOp29
 70
     1
102
RTVSPost2010Prop30
280
     1
102
RTVSPost2010PropOp30
 70
     1
102
RTVSPost2010Prop31
280
     0
102
RTVSPost2010PropOp31
 70
     1
102
RTVSPost2010Prop32
280
     0
102
RTVSPost2010PropOp32
 70
     1
102
RTVSPost2010Prop33
280
     0
102
RTVSPost2010PropOp33
 70
     1
102
RTVSPost2010Prop34
280
     0
102
RTVSPost2010PropOp34
 70
     1
102
RTVSPost2010Prop35
280
     0
102
RTVSPost2010PropOp35
 70
     1
102
RTVSPost2010Prop36
280
     0
102
RTVSPost2010PropOp36
 70
     1
102
RTVSPost2010Prop37
 90
       50
102
RTVSPost2010PropOp37
 70
     1
102
RTVSPost2010Prop38
140
0.0
102
RTVSPost2010PropOp38
 70
     1
102
RTVSPost2010Prop39
140
1.0
102
RTVSPost2010PropOp39
 70
     1
102
RTVSPost2010Prop40
 90
        0
102
RTVSPost2010PropOp40
 70
     1
102
RTVSPost2010Prop41ColorIndex
 90
       18
102
RTVSPost2010Prop41ColorRGB
 90
        0
102
RTVSPost2010PropOp41
 70
     1
102
RTVSPost2010Prop42
 90
       50
102
RTVSPost2010PropOp42
 70
     1
102
RTVSPost2010Prop43
 90
        3
102
RTVSPost2010PropOp43
 70
     1
102
RTVSPost2010Prop44ColorIndex
 90
        5
102
RTVSPost2010Prop44ColorRGB
 90
      255
102
RTVSPost2010PropOp44
 70
     1
102
RTVSPost2010Prop45
280
     0
102
RTVSPost2010PropOp45
 70
     1
102
RTVSPost2010Prop46
 90
       50
102
RTVSPost2010PropOp46
 70
     1
102
RTVSPost2010Prop47
 90
       50
102
RTVSPost2010PropOp47
 70
     1
102
RTVSPost2010Prop48
 90
       50
102
RTVSPost2010PropOp48
 70
     1
102
RTVSPost2010Prop49
280
     0
102
RTVSPost2010PropOp49
 70
     1
102
RTVSPost2010Prop50
 90
       50
102
RTVSPost2010PropOp50
 70
     1
102
RTVSPost2010Prop51ColorIndex
 90
      256
102
RTVSPost2010Prop51ColorRGB
 90
-16777216
102
RTVSPost2010PropOp51
 70
     0
102
RTVSPost2010Prop52
140
1.0
102
RTVSPost2010PropOp52
 70
     0
102
RTVSPost2010Prop53
 90
        2
102
RTVSPost2010PropOp53
 70
     1
102
RTVSPost2010Prop54
  1
strokes_ogs.tif
102
RTVSPost2010PropOp54
 70
     1
102
RTVSPost2010Prop55
280
     0
102
RTVSPost2010PropOp55
 70
     1
102
RTVSPost2010Prop56
140
1.0
102
RTVSPost2010PropOp56
 70
     1
102
RTVSPost2010Prop57
140
1.0
102
RTVSPost2010PropOp57
 70
     1
  0
XRECORD
  5
12A
102
{ACAD_REACTORS
330
129
102
}
330
129
100
AcDbXrecord
280
     1
102
RTVSPost2010Prop28
280
     0
102
RTVSPost2010PropOp28
 70
     1
102
RTVSPost2010Prop29
280
     1
102
RTVSPost2010PropOp29
 70
     1
102
RTVSPost2010Prop30
280
     1
102
RTVSPost2010PropOp30
 70
     1
102
RTVSPost2010Prop31
280
     0
102
RTVSPost2010PropOp31
 70
     1
102
RTVSPost2010Prop32
280
     0
102
RTVSPost2010PropOp32
 70
     1
102
RTVSPost2010Prop33
280
     0
102
RTVSPost2010PropOp33
 70
     1
102
RTVSPost2010Prop34
280
     0
102
RTVSPost2010PropOp34
 70
     1
102
RTVSPost2010Prop35
280
     0
102
RTVSPost2010PropOp35
 70
     1
102
RTVSPost2010Prop36
280
     0
102
RTVSPost2010PropOp36
 70
     1
102
RTVSPost2010Prop37
 90
       50
102
RTVSPost2010PropOp37
 70
     1
102
RTVSPost2010Prop38
140
0.0
102
RTVSPost2010PropOp38
 70
     1
102
RTVSPost2010Prop39
140
1.0
102
RTVSPost2010PropOp39
 70
     1
102
RTVSPost2010Prop40
 90
        0
102
RTVSPost2010PropOp40
 70
     1
102
RTVSPost2010Prop41ColorIndex
 90
       18
102
RTVSPost2010Prop41ColorRGB
 90
        0
102
RTVSPost2010PropOp41
 70
     1
102
RTVSPost2010Prop42
 90
       50
102
RTVSPost2010PropOp42
 70
     1
102
RTVSPost2010Prop43
 90
        3
102
RTVSPost2010PropOp43
 70
     1
102
RTVSPost2010Prop44ColorIndex
 90
        5
102
RTVSPost2010Prop44ColorRGB
 90
      255
102
RTVSPost2010PropOp44
 70
     1
102
RTVSPost2010Prop45
280
     0
102
RTVSPost2010PropOp45
 70
     1
102
RTVSPost2010Prop46
 90
       50
102
RTVSPost2010PropOp46
 70
     1
102
RTVSPost2010Prop47
 90
       50
102
RTVSPost2010PropOp47
 70
     1
102
RTVSPost2010Prop48
 90
       50
102
RTVSPost2010PropOp48
 70
     1
102
RTVSPost2010Prop49
280
     0
102
RTVSPost2010PropOp49
 70
     1
102
RTVSPost2010Prop50
 90
       50
102
RTVSPost2010PropOp50
 70
     1
102
RTVSPost2010Prop51ColorIndex
 90
      256
102
RTVSPost2010Prop51ColorRGB
 90
-16777216
102
RTVSPost2010PropOp51
 70
     0
102
RTVSPost2010Prop52
140
1.0
102
RTVSPost2010PropOp52
 70
     0
102
RTVSPost2010Prop53
 90
        2
102
RTVSPost2010PropOp53
 70
     1
102
RTVSPost2010Prop54
  1
strokes_ogs.tif
102
RTVSPost2010PropOp54
 70
     1
102
RTVSPost2010Prop55
280
     0
102
RTVSPost2010PropOp55
 70
     1
102
RTVSPost2010Prop56
140
1.0
102
RTVSPost2010PropOp56
 70
     1
102
RTVSPost2010Prop57
140
1.0
102
RTVSPost2010PropOp57
 70
     1
  0
ENDSEC
  0
EOF
