  0
SECTION
  2
HEADER
  9
$ACADVER
  1
AC1024
  9
$ACADMAINTVER
 70
   226
  9
$DWGCODEPAGE
  3
ANSI_932
  9
$INSBASE
 10
0.0
 20
0.0
 30
0.0
  9
$EXTMIN
 10
1.000000000000000E+20
 20
1.000000000000000E+20
 30
1.000000000000000E+20
  9
$EXTMAX
 10
-1.000000000000000E+20
 20
-1.000000000000000E+20
 30
-1.000000000000000E+20
  9
$LIMMIN
 10
0.0
 20
0.0
  9
$LIMMAX
 10
12.0
 20
9.0
  9
$ORTHOMODE
 70
     0
  9
$REGENMODE
 70
     1
  9
$FILLMODE
 70
     1
  9
$QTEXTMODE
 70
     0
  9
$MIRRTEXT
 70
     0
  9
$LTSCALE
 40
1.0
  9
$ATTMODE
 70
     1
  9
$TEXTSIZE
 40
0.2
  9
$TRACEWID
 40
0.05
  9
$TEXTSTYLE
  7
Standard
  9
$CLAYER
  8
0
  9
$CELTYPE
  6
ByLayer
  9
$CECOLOR
 62
   256
  9
$CELTSCALE
 40
1.0
  9
$DISPSILH
 70
     0
  9
$DIMSCALE
 40
1.0
  9
$DIMASZ
 40
0.18
  9
$DIMEXO
 40
0.0625
  9
$DIMDLI
 40
0.38
  9
$DIMRND
 40
0.0
  9
$DIMDLE
 40
0.0
  9
$DIMEXE
 40
0.18
  9
$DIMTP
 40
0.0
  9
$DIMTM
 40
0.0
  9
$DIMTXT
 40
0.18
  9
$DIMCEN
 40
0.09
  9
$DIMTSZ
 40
0.0
  9
$DIMTOL
 70
     0
  9
$DIMLIM
 70
     0
  9
$DIMTIH
 70
     1
  9
$DIMTOH
 70
     1
  9
$DIMSE1
 70
     0
  9
$DIMSE2
 70
     0
  9
$DIMTAD
 70
     0
  9
$DIMZIN
 70
     0
  9
$DIMBLK
  1

  9
$DIMASO
 70
     1
  9
$DIMSHO
 70
     1
  9
$DIMPOST
  1

  9
$DIMAPOST
  1

  9
$DIMALT
 70
     0
  9
$DIMALTD
 70
     2
  9
$DIMALTF
 40
25.4
  9
$DIMLFAC
 40
1.0
  9
$DIMTOFL
 70
     0
  9
$DIMTVP
 40
0.0
  9
$DIMTIX
 70
     0
  9
$DIMSOXD
 70
     0
  9
$DIMSAH
 70
     0
  9
$DIMBLK1
  1

  9
$DIMBLK2
  1

  9
$DIMSTYLE
  2
Standard
  9
$DIMCLRD
 70
     0
  9
$DIMCLRE
 70
     0
  9
$DIMCLRT
 70
     0
  9
$DIMTFAC
 40
1.0
  9
$DIMGAP
 40
0.09
  9
$DIMJUST
 70
     0
  9
$DIMSD1
 70
     0
  9
$DIMSD2
 70
     0
  9
$DIMTOLJ
 70
     1
  9
$DIMTZIN
 70
     0
  9
$DIMALTZ
 70
     0
  9
$DIMALTTZ
 70
     0
  9
$DIMUPT
 70
     0
  9
$DIMDEC
 70
     4
  9
$DIMTDEC
 70
     4
  9
$DIMALTU
 70
     2
  9
$DIMALTTD
 70
     2
  9
$DIMTXSTY
  7
Standard
  9
$DIMAUNIT
 70
     0
  9
$DIMADEC
 70
     0
  9
$DIMALTRND
 40
0.0
  9
$DIMAZIN
 70
     0
  9
$DIMDSEP
 70
    46
  9
$DIMATFIT
 70
     3
  9
$DIMFRAC
 70
     0
  9
$DIMLDRBLK
  1

  9
$DIMLUNIT
 70
     2
  9
$DIMLWD
 70
    -2
  9
$DIMLWE
 70
    -2
  9
$DIMTMOVE
 70
     0
  9
$DIMFXL
 40
1.0
  9
$DIMFXLON
 70
     0
  9
$DIMJOGANG
 40
0.7853981633974483
  9
$DIMTFILL
 70
     0
  9
$DIMTFILLCLR
 70
     0
  9
$DIMARCSYM
 70
     0
  9
$DIMLTYPE
  6

  9
$DIMLTEX1
  6

  9
$DIMLTEX2
  6

  9
$DIMTXTDIRECTION
 70
     0
  9
$LUNITS
 70
     2
  9
$LUPREC
 70
     4
  9
$SKETCHINC
 40
0.1
  9
$FILLETRAD
 40
0.0
  9
$AUNITS
 70
     0
  9
$AUPREC
 70
     0
  9
$MENU
  1
.
  9
$ELEVATION
 40
0.0
  9
$PELEVATION
 40
0.0
  9
$THICKNESS
 40
0.0
  9
$LIMCHECK
 70
     0
  9
$CHAMFERA
 40
0.0
  9
$CHAMFERB
 40
0.0
  9
$CHAMFERC
 40
0.0
  9
$CHAMFERD
 40
0.0
  9
$SKPOLY
 70
     0
  9
$TDCREATE
 40
2459676.430254630
  9
$TDUCREATE
 40
2459676.055254630
  9
$TDUPDATE
 40
2459676.430254630
  9
$TDUUPDATE
 40
2459676.055254630
  9
$TDINDWG
 40
0.0000000000
  9
$TDUSRTIMER
 40
0.0000000000
  9
$USRTIMER
 70
     1
  9
$ANGBASE
 50
0.0
  9
$ANGDIR
 70
     0
  9
$PDMODE
 70
     0
  9
$PDSIZE
 40
0.0
  9
$PLINEWID
 40
0.0
  9
$SPLFRAME
 70
     0
  9
$SPLINETYPE
 70
     6
  9
$SPLINESEGS
 70
     8
  9
$HANDSEED
  5
146
  9
$SURFTAB1
 70
     6
  9
$SURFTAB2
 70
     6
  9
$SURFTYPE
 70
     6
  9
$SURFU
 70
     6
  9
$SURFV
 70
     6
  9
$UCSBASE
  2

  9
$UCSNAME
  2

  9
$UCSORG
 10
0.0
 20
0.0
 30
0.0
  9
$UCSXDIR
 10
1.0
 20
0.0
 30
0.0
  9
$UCSYDIR
 10
0.0
 20
1.0
 30
0.0
  9
$UCSORTHOREF
  2

  9
$UCSORTHOVIEW
 70
     0
  9
$UCSORGTOP
 10
0.0
 20
0.0
 30
0.0
  9
$UCSORGBOTTOM
 10
0.0
 20
0.0
 30
0.0
  9
$UCSORGLEFT
 10
0.0
 20
0.0
 30
0.0
  9
$UCSORGRIGHT
 10
0.0
 20
0.0
 30
0.0
  9
$UCSORGFRONT
 10
0.0
 20
0.0
 30
0.0
  9
$UCSORGBACK
 10
0.0
 20
0.0
 30
0.0
  9
$PUCSBASE
  2

  9
$PUCSNAME
  2

  9
$PUCSORG
 10
0.0
 20
0.0
 30
0.0
  9
$PUCSXDIR
 10
1.0
 20
0.0
 30
0.0
  9
$PUCSYDIR
 10
0.0
 20
1.0
 30
0.0
  9
$PUCSORTHOREF
  2

  9
$PUCSORTHOVIEW
 70
     0
  9
$PUCSORGTOP
 10
0.0
 20
0.0
 30
0.0
  9
$PUCSORGBOTTOM
 10
0.0
 20
0.0
 30
0.0
  9
$PUCSORGLEFT
 10
0.0
 20
0.0
 30
0.0
  9
$PUCSORGRIGHT
 10
0.0
 20
0.0
 30
0.0
  9
$PUCSORGFRONT
 10
0.0
 20
0.0
 30
0.0
  9
$PUCSORGBACK
 10
0.0
 20
0.0
 30
0.0
  9
$USERI1
 70
     0
  9
$USERI2
 70
     0
  9
$USERI3
 70
     0
  9
$USERI4
 70
     0
  9
$USERI5
 70
     0
  9
$USERR1
 40
0.0
  9
$USERR2
 40
0.0
  9
$USERR3
 40
0.0
  9
$USERR4
 40
0.0
  9
$USERR5
 40
0.0
  9
$WORLDVIEW
 70
     1
  9
$SHADEDGE
 70
     3
  9
$SHADEDIF
 70
    70
  9
$TILEMODE
 70
     1
  9
$MAXACTVP
 70
    64
  9
$PINSBASE
 10
0.0
 20
0.0
 30
0.0
  9
$PLIMCHECK
 70
     0
  9
$PEXTMIN
 10
1.000000000000000E+20
 20
1.000000000000000E+20
 30
1.000000000000000E+20
  9
$PEXTMAX
 10
-1.000000000000000E+20
 20
-1.000000000000000E+20
 30
-1.000000000000000E+20
  9
$PLIMMIN
 10
0.0
 20
0.0
  9
$PLIMMAX
 10
12.0
 20
9.0
  9
$UNITMODE
 70
     0
  9
$VISRETAIN
 70
     1
  9
$PLINEGEN
 70
     0
  9
$PSLTSCALE
 70
     1
  9
$TREEDEPTH
 70
  3020
  9
$CMLSTYLE
  2
Standard
  9
$CMLJUST
 70
     0
  9
$CMLSCALE
 40
1.0
  9
$PROXYGRAPHICS
 70
     1
  9
$MEASUREMENT
 70
     0
  9
$CELWEIGHT
370
    -1
  9
$ENDCAPS
280
     0
  9
$JOINSTYLE
280
     0
  9
$LWDISPLAY
290
     1
  9
$INSUNITS
 70
     4
  9
$HYPERLINKBASE
  1

  9
$STYLESHEET
  1

  9
$XEDIT
290
     1
  9
$CEPSNTYPE
380
     0
  9
$PSTYLEMODE
290
     1
  9
$FINGERPRINTGUID
  2
{C493374D-7143-0845-AED4-D7949929D79E}
  9
$VERSIONGUID
  2
{E7707DDB-3620-C742-B1F9-0FE74F13C9D7}
  9
$EXTNAMES
290
     1
  9
$PSVPSCALE
 40
0.0
  9
$OLESTARTUP
290
     0
  9
$SORTENTS
280
   127
  9
$INDEXCTL
280
     0
  9
$HIDETEXT
280
     1
  9
$XCLIPFRAME
280
     2
  9
$HALOGAP
280
     0
  9
$OBSCOLOR
 70
   257
  9
$OBSLTYPE
280
     0
  9
$INTERSECTIONDISPLAY
280
     0
  9
$INTERSECTIONCOLOR
 70
   257
  9
$DIMASSOC
280
     2
  9
$PROJECTNAME
  1

  9
$CAMERADISPLAY
290
     0
  9
$LENSLENGTH
 40
50.0
  9
$CAMERAHEIGHT
 40
0.0
  9
$STEPSPERSEC
 40
2.0
  9
$STEPSIZE
 40
6.0
  9
$3DDWFPREC
 40
2.0
  9
$PSOLWIDTH
 40
0.25
  9
$PSOLHEIGHT
 40
4.0
  9
$LOFTANG1
 40
1.570796326794896
  9
$LOFTANG2
 40
1.570796326794896
  9
$LOFTMAG1
 40
0.0
  9
$LOFTMAG2
 40
0.0
  9
$LOFTPARAM
 70
     7
  9
$LOFTNORMALS
280
     1
  9
$LATITUDE
 40
37.795
  9
$LONGITUDE
 40
-122.394
  9
$NORTHDIRECTION
 40
0.0
  9
$TIMEZONE
 70
 -8000
  9
$LIGHTGLYPHDISPLAY
280
     1
  9
$TILEMODELIGHTSYNCH
280
     1
  9
$CMATERIAL
347
11
  9
$SOLIDHIST
280
     0
  9
$SHOWHIST
280
     1
  9
$DWFFRAME
280
     2
  9
$DGNFRAME
280
     0
  9
$REALWORLDSCALE
290
     1
  9
$INTERFERECOLOR
 62
     1
  9
$INTERFEREOBJVS
345
33
  9
$INTERFEREVPVS
346
30
  9
$CSHADOW
280
     0
  9
$SHADOWPLANELOCATION
 40
0.0
  0
ENDSEC
  0
SECTION
  2
CLASSES
  0
CLASS
  1
ACDBDICTIONARYWDFLT
  2
AcDbDictionaryWithDefault
  3
ObjectDBX Classes
 90
        0
 91
        1
280
     0
281
     0
  0
CLASS
  1
MATERIAL
  2
AcDbMaterial
  3
ObjectDBX Classes
 90
     1153
 91
        3
280
     0
281
     0
  0
CLASS
  1
VISUALSTYLE
  2
AcDbVisualStyle
  3
ObjectDBX Classes
 90
     4095
 91
       24
280
     0
281
     0
  0
CLASS
  1
SCALE
  2
AcDbScale
  3
ObjectDBX Classes
 90
     1153
 91
       17
280
     0
281
     0
  0
CLASS
  1
TABLESTYLE
  2
AcDbTableStyle
  3
ObjectDBX Classes
 90
     4095
 91
        1
280
     0
281
     0
  0
CLASS
  1
MLEADERSTYLE
  2
AcDbMLeaderStyle
  3
ACDB_MLEADERSTYLE_CLASS
 90
     4095
 91
        1
280
     0
281
     0
  0
CLASS
  1
ACDBSECTIONVIEWSTYLE
  2
AcDbSectionViewStyle
  3
ObjectDBX Classes
 90
     1025
 91
        1
280
     0
281
     0
  0
CLASS
  1
ACDBDETAILVIEWSTYLE
  2
AcDbDetailViewStyle
  3
ObjectDBX Classes
 90
     1025
 91
        1
280
     0
281
     0
  0
CLASS
  1
DICTIONARYVAR
  2
AcDbDictionaryVar
  3
ObjectDBX Classes
 90
        0
 91
        5
280
     0
281
     0
  0
CLASS
  1
CELLSTYLEMAP
  2
AcDbCellStyleMap
  3
ObjectDBX Classes
 90
     1152
 91
        1
280
     0
281
     0
  0
ENDSEC
  0
SECTION
  2
TABLES
  0
TABLE
  2
VPORT
  5
8
330
0
100
AcDbSymbolTable
 70
     1
  0
VPORT
  5
57
330
8
100
AcDbSymbolTableRecord
100
AcDbViewportTableRecord
  2
*Active
 70
     0
 10
0.0
 20
0.0
 11
1.0
 21
1.0
 12
0.0
 22
0.0
 13
0.0
 23
0.0
 14
1.0
 24
1.0
 15
0.0
 25
0.0
 16
0.0
 26
0.0
 36
1.0
 17
104.9999999737534
 27
-148.4999999628701
 37
0.0
 40
302.939999924255
 41
0.7070707070707534
 42
50.0
 43
0.0
 44
0.0
 50
0.0
 51
0.0
 71
     0
 72
   100
 73
     1
 74
     0
 75
     1
 76
     0
 77
     0
 78
     0
281
     0
 65
     1
110
0.0
120
0.0
130
0.0
111
1.0
121
0.0
131
0.0
112
0.0
122
1.0
132
0.0
 79
     0
146
0.0
 60
     3
 61
     5
292
     1
282
     1
141
0.0
142
0.0
 63
   250
421
  3355443
  0
ENDTAB
  0
TABLE
  2
LTYPE
  5
5
330
0
100
AcDbSymbolTable
 70
     2
  0
LTYPE
  5
5B
330
5
100
AcDbSymbolTableRecord
100
AcDbLinetypeTableRecord
  2
ByBlock
 70
     0
  3

 72
    65
 73
     0
 40
0.0
  0
LTYPE
  5
5C
330
5
100
AcDbSymbolTableRecord
100
AcDbLinetypeTableRecord
  2
ByLayer
 70
     0
  3

 72
    65
 73
     0
 40
0.0
  0
LTYPE
  5
5D
330
5
100
AcDbSymbolTableRecord
100
AcDbLinetypeTableRecord
  2
Continuous
 70
     0
  3
Solid line
 72
    65
 73
     0
 40
0.0
  0
LTYPE
  5
7E
330
5
100
AcDbSymbolTableRecord
100
AcDbLinetypeTableRecord
  2
AI-Linetype-0
 70
     0
  3
Adobe Illustrator Linetype No. 0
 72
    65
 73
     2
 40
1.411111110758333
 49
0.7055555553791667
 74
     0
 49
-0.7055555553791667
 74
     0
  0
ENDTAB
  0
TABLE
  2
LAYER
  5
2
330
0
100
AcDbSymbolTable
 70
     2
  0
LAYER
  5
54
330
2
100
AcDbSymbolTableRecord
100
AcDbLayerTableRecord
  2
0
 70
     0
 62
     7
  6
Continuous
370
    -3
390
F
347
21
  0
LAYER
  5
78
330
2
100
AcDbSymbolTableRecord
100
AcDbLayerTableRecord
  2
レイヤー 1
 70
     0
 62
     7
  6
Continuous
370
     0
390
F
347
21
  0
ENDTAB
  0
TABLE
  2
STYLE
  5
3
330
0
100
AcDbSymbolTable
 70
     2
  0
STYLE
  5
55
330
3
100
AcDbSymbolTableRecord
100
AcDbTextStyleTableRecord
  2
Standard
 70
     0
 40
0.0
 41
1.0
 50
0.0
 71
     0
 42
0.2
  3
txt
  4

  0
STYLE
  5
5A
330
3
100
AcDbSymbolTableRecord
100
AcDbTextStyleTableRecord
  2
Annotative
 70
     0
 40
0.0
 41
1.0
 50
0.0
 71
     0
 42
0.2
  3
txt
  4

1001
AcadAnnotative
1000
AnnotativeData
1002
{
1070
     1
1070
     1
1002
}
  0
ENDTAB
  0
TABLE
  2
VIEW
  5
6
330
0
100
AcDbSymbolTable
 70
     0
  0
ENDTAB
  0
TABLE
  2
UCS
  5
7
330
0
100
AcDbSymbolTable
 70
     0
  0
ENDTAB
  0
TABLE
  2
APPID
  5
9
330
0
100
AcDbSymbolTable
 70
     2
  0
APPID
  5
56
330
9
100
AcDbSymbolTableRecord
100
AcDbRegAppTableRecord
  2
ACAD
 70
     0
  0
APPID
  5
5E
330
9
100
AcDbSymbolTableRecord
100
AcDbRegAppTableRecord
  2
AcadAnnotative
 70
     0
  0
ENDTAB
  0
TABLE
  2
DIMSTYLE
  5
A
330
0
100
AcDbSymbolTable
 70
     2
100
AcDbDimStyleTable
 71
     0
  0
DIMSTYLE
105
58
330
A
100
AcDbSymbolTableRecord
100
AcDbDimStyleTableRecord
  2
Standard
 70
     0
340
55
  0
DIMSTYLE
105
59
330
A
100
AcDbSymbolTableRecord
100
AcDbDimStyleTableRecord
  2
Annotative
 70
     0
340
55
1001
AcadAnnotative
1000
AnnotativeData
1002
{
1070
     1
1070
     1
1002
}
  0
ENDTAB
  0
TABLE
  2
BLOCK_RECORD
  5
1
330
0
100
AcDbSymbolTable
 70
    15
  0
BLOCK_RECORD
  5
70
330
1
100
AcDbSymbolTableRecord
100
AcDbBlockTableRecord
  2
*Model_Space
340
73
 70
     0
280
     1
281
     0
  0
BLOCK_RECORD
  5
6C
330
1
100
AcDbSymbolTableRecord
100
AcDbBlockTableRecord
  2
*Paper_Space
340
6F
 70
     0
280
     1
281
     0
  0
BLOCK_RECORD
  5
74
330
1
100
AcDbSymbolTableRecord
100
AcDbBlockTableRecord
  2
*Paper_Space0
340
77
 70
     0
280
     1
281
     0
  0
BLOCK_RECORD
  5
79
330
1
100
AcDbSymbolTableRecord
100
AcDbBlockTableRecord
  2
Block_0
340
0
102
{BLKREFS
331
7A
102
}
 70
     0
280
     1
281
     0
  0
BLOCK_RECORD
  5
7F
330
1
100
AcDbSymbolTableRecord
100
AcDbBlockTableRecord
  2
Block_1
340
0
102
{BLKREFS
331
80
102
}
 70
     0
280
     1
281
     0
  0
BLOCK_RECORD
  5
86
330
1
100
AcDbSymbolTableRecord
100
AcDbBlockTableRecord
  2
Block_2
340
0
102
{BLKREFS
331
87
102
}
 70
     0
280
     1
281
     0
  0
BLOCK_RECORD
  5
8A
330
1
100
AcDbSymbolTableRecord
100
AcDbBlockTableRecord
  2
Block_3
340
0
102
{BLKREFS
331
8B
102
}
 70
     0
280
     1
281
     0
  0
BLOCK_RECORD
  5
B7
330
1
100
AcDbSymbolTableRecord
100
AcDbBlockTableRecord
  2
Block_4
340
0
102
{BLKREFS
331
B8
102
}
 70
     0
280
     1
281
     0
  0
BLOCK_RECORD
  5
BB
330
1
100
AcDbSymbolTableRecord
100
AcDbBlockTableRecord
  2
Block_5
340
0
102
{BLKREFS
331
BC
102
}
 70
     0
280
     1
281
     0
  0
BLOCK_RECORD
  5
CB
330
1
100
AcDbSymbolTableRecord
100
AcDbBlockTableRecord
  2
Block_6
340
0
102
{BLKREFS
331
CC
102
}
 70
     0
280
     1
281
     0
  0
BLOCK_RECORD
  5
CF
330
1
100
AcDbSymbolTableRecord
100
AcDbBlockTableRecord
  2
Block_7
340
0
102
{BLKREFS
331
D0
102
}
 70
     0
280
     1
281
     0
  0
BLOCK_RECORD
  5
DB
330
1
100
AcDbSymbolTableRecord
100
AcDbBlockTableRecord
  2
Block_8
340
0
102
{BLKREFS
331
DC
102
}
 70
     0
280
     1
281
     0
  0
BLOCK_RECORD
  5
DF
330
1
100
AcDbSymbolTableRecord
100
AcDbBlockTableRecord
  2
Block_9
340
0
102
{BLKREFS
331
E0
102
}
 70
     0
280
     1
281
     0
  0
BLOCK_RECORD
  5
EE
330
1
100
AcDbSymbolTableRecord
100
AcDbBlockTableRecord
  2
Block_10
340
0
102
{BLKREFS
331
EF
102
}
 70
     0
280
     1
281
     0
  0
BLOCK_RECORD
  5
F2
330
1
100
AcDbSymbolTableRecord
100
AcDbBlockTableRecord
  2
Block_11
340
0
102
{BLKREFS
331
F3
102
}
 70
     0
280
     1
281
     0
  0
BLOCK_RECORD
  5
FA
330
1
100
AcDbSymbolTableRecord
100
AcDbBlockTableRecord
  2
Block_12
340
0
102
{BLKREFS
331
FB
102
}
 70
     0
280
     1
281
     0
  0
BLOCK_RECORD
  5
FE
330
1
100
AcDbSymbolTableRecord
100
AcDbBlockTableRecord
  2
Block_13
340
0
102
{BLKREFS
331
FF
102
}
 70
     0
280
     1
281
     0
  0
ENDTAB
  0
ENDSEC
  0
SECTION
  2
BLOCKS
  0
BLOCK
  5
71
330
70
100
AcDbEntity
  8
0
100
AcDbBlockBegin
  2
*Model_Space
 70
     0
 10
0.0
 20
0.0
 30
0.0
  3
*Model_Space
  1

  0
ENDBLK
  5
72
330
70
100
AcDbEntity
  8
0
100
AcDbBlockEnd
  0
BLOCK
  5
6D
330
6C
100
AcDbEntity
 67
     1
  8
0
100
AcDbBlockBegin
  2
*Paper_Space
 70
     0
 10
0.0
 20
0.0
 30
0.0
  3
*Paper_Space
  1

  0
ENDBLK
  5
6E
330
6C
100
AcDbEntity
 67
     1
  8
0
100
AcDbBlockEnd
  0
BLOCK
  5
75
330
74
100
AcDbEntity
 67
     1
  8
0
100
AcDbBlockBegin
  2
*Paper_Space0
 70
     0
 10
0.0
 20
0.0
 30
0.0
  3
*Paper_Space0
  1

  0
ENDBLK
  5
76
330
74
100
AcDbEntity
 67
     1
  8
0
100
AcDbBlockEnd
  0
BLOCK
  5
7B
330
79
100
AcDbEntity
  8
0
100
AcDbBlockBegin
  2
Block_0
 70
     0
 10
0.0
 20
0.0
 30
0.0
  3
Block_0
  1

  0
LINE
  5
7D
330
79
100
AcDbEntity
  8
レイヤー 1
  6
AI-Linetype-0
 62
   154
420
    23468
370
    25
100
AcDbLine
 10
107.1251599031243
 20
-151.188095880311
 30
0.0
 11
117.1710142789342
 21
-151.188095880311
 31
0.0
  0
INSERT
  5
80
330
79
100
AcDbEntity
  8
レイヤー 1
100
AcDbBlockReference
  2
Block_1
 10
0.0
 20
0.0
 30
0.0
  0
INSERT
  5
87
330
79
100
AcDbEntity
  8
レイヤー 1
100
AcDbBlockReference
  2
Block_2
 10
0.0
 20
0.0
 30
0.0
  0
ENDBLK
  5
7C
330
79
100
AcDbEntity
  8
0
100
AcDbBlockEnd
  0
BLOCK
  5
81
330
7F
100
AcDbEntity
  8
0
100
AcDbBlockBegin
  2
Block_1
 70
     0
 10
0.0
 20
0.0
 30
0.0
  3
Block_1
  1

  0
LINE
  5
83
330
7F
100
AcDbEntity
  8
レイヤー 1
 62
    18
420
        0
370
     9
100
AcDbLine
 10
111.9321374534397
 20
-150.9820182167836
 30
0.0
 11
111.6652925955793
 21
-150.0182459835125
 31
0.0
  0
LINE
  5
84
330
7F
100
AcDbEntity
  8
レイヤー 1
 62
    18
420
        0
370
     9
100
AcDbLine
 10
111.9321374534397
 20
-150.9820182167836
 30
0.0
 11
111.8977032460626
 21
-149.3680576539788
 31
0.0
  0
LINE
  5
85
330
7F
100
AcDbEntity
  8
レイヤー 1
 62
    18
420
        0
370
     9
100
AcDbLine
 10
111.9321374534397
 20
-150.9820182167836
 30
0.0
 11
112.1829855309456
 21
-150.0138377613961
 31
0.0
  0
ENDBLK
  5
82
330
7F
100
AcDbEntity
  8
0
100
AcDbBlockEnd
  0
BLOCK
  5
88
330
86
100
AcDbEntity
  8
0
100
AcDbBlockBegin
  2
Block_2
 70
     0
 10
0.0
 20
0.0
 30
0.0
  3
Block_2
  1

  0
INSERT
  5
8B
330
86
100
AcDbEntity
  8
レイヤー 1
100
AcDbBlockReference
  2
Block_3
 10
0.0
 20
0.0
 30
0.0
  0
ENDBLK
  5
89
330
86
100
AcDbEntity
  8
0
100
AcDbBlockEnd
  0
BLOCK
  5
8C
330
8A
100
AcDbEntity
  8
0
100
AcDbBlockBegin
  2
Block_3
 70
     0
 10
0.0
 20
0.0
 30
0.0
  3
Block_3
  1

  0
SPLINE
  5
8E
330
8A
100
AcDbEntity
  8
レイヤー 1
100
AcDbSpline
210
0.0
220
0.0
230
1.0
 70
     9
 71
     3
 72
    17
 73
    13
 74
     0
 42
0.0000000001
 43
0.0000000001
 40
0.0
 40
0.0
 40
0.0
 40
0.0
 40
1.0
 40
1.0
 40
1.0
 40
2.0
 40
2.0
 40
2.0
 40
3.0
 40
3.0
 40
3.0
 40
4.0
 40
4.0
 40
4.0
 40
4.0
 10
107.9462103679787
 20
-148.3017143726468
 30
0.0
 10
107.9289848905525
 20
-148.3311699390457
 30
0.0
 10
107.8783419869193
 20
-148.4243597719217
 30
0.0
 10
107.867662190915
 20
-148.4433077970905
 30
0.0
 10
108.0581759712493
 20
-148.5025634394368
 30
0.0
 10
108.0791910537094
 20
-148.5089368660846
 30
0.0
 10
108.1511935493511
 20
-148.5364976299666
 30
0.0
 10
108.2063150771151
 20
-148.4496812237383
 30
0.0
 10
108.2293972168662
 20
-148.3756116708054
 30
0.0
 10
108.2442111274528
 20
-148.3017143726468
 30
0.0
 10
108.2442111274528
 20
-148.3017143726468
 30
0.0
 10
107.9462103679787
 20
-148.3017143726468
 30
0.0
 10
107.9462103679787
 20
-148.3017143726468
 30
0.0
  0
SPLINE
  5
8F
330
8A
100
AcDbEntity
  8
レイヤー 1
100
AcDbSpline
210
0.0
220
0.0
230
1.0
 70
    11
 71
     3
 72
    20
 73
    16
 74
     0
 42
0.0000000001
 43
0.0000000001
 40
0.0
 40
0.0
 40
0.0
 40
0.0
 40
1.0
 40
1.0
 40
1.0
 40
2.0
 40
2.0
 40
2.0
 40
3.0
 40
3.0
 40
3.0
 40
4.0
 40
4.0
 40
4.0
 40
5.0
 40
5.0
 40
5.0
 40
5.0
 10
107.8824761015016
 20
-147.4512925521128
 30
0.0
 10
107.8824761015016
 20
-147.4512925521128
 30
0.0
 10
107.8507812230373
 20
-147.4512925521128
 30
0.0
 10
107.8507812230373
 20
-147.4512925521128
 30
0.0
 10
107.8972900120882
 20
-147.5506835568623
 30
0.0
 10
107.9289848905525
 20
-147.6309542816686
 30
0.0
 10
107.9630913358564
 20
-147.7579060503001
 30
0.0
 10
107.9630913358564
 20
-147.7579060503001
 30
0.0
 10
108.17014157452
 20
-147.7579060503001
 30
0.0
 10
108.17014157452
 20
-147.7579060503001
 30
0.0
 10
108.2021809625328
 20
-147.6648884721983
 30
0.0
 10
108.2252631022839
 20
-147.5803113780354
 30
0.0
 10
108.2486897515837
 20
-147.4512925521128
 30
0.0
 10
108.2486897515837
 20
-147.4512925521128
 30
0.0
 10
107.8824761015016
 20
-147.4512925521128
 30
0.0
 10
107.8824761015016
 20
-147.4512925521128
 30
0.0
  0
SPLINE
  5
90
330
8A
100
AcDbEntity
  8
レイヤー 1
100
AcDbSpline
210
0.0
220
0.0
230
1.0
 70
     9
 71
     3
 72
   242
 73
   238
 74
     0
 42
0.0000000001
 43
0.0000000001
 40
0.0
 40
0.0
 40
0.0
 40
0.0
 40
1.0
 40
1.0
 40
1.0
 40
2.0
 40
2.0
 40
2.0
 40
3.0
 40
3.0
 40
3.0
 40
4.0
 40
4.0
 40
4.0
 40
5.0
 40
5.0
 40
5.0
 40
6.0
 40
6.0
 40
6.0
 40
7.0
 40
7.0
 40
7.0
 40
8.0
 40
8.0
 40
8.0
 40
9.0
 40
9.0
 40
9.0
 40
10.0
 40
10.0
 40
10.0
 40
11.0
 40
11.0
 40
11.0
 40
12.0
 40
12.0
 40
12.0
 40
13.0
 40
13.0
 40
13.0
 40
14.0
 40
14.0
 40
14.0
 40
15.0
 40
15.0
 40
15.0
 40
16.0
 40
16.0
 40
16.0
 40
17.0
 40
17.0
 40
17.0
 40
18.0
 40
18.0
 40
18.0
 40
19.0
 40
19.0
 40
19.0
 40
20.0
 40
20.0
 40
20.0
 40
21.0
 40
21.0
 40
21.0
 40
22.0
 40
22.0
 40
22.0
 40
23.0
 40
23.0
 40
23.0
 40
24.0
 40
24.0
 40
24.0
 40
25.0
 40
25.0
 40
25.0
 40
26.0
 40
26.0
 40
26.0
 40
27.0
 40
27.0
 40
27.0
 40
28.0
 40
28.0
 40
28.0
 40
29.0
 40
29.0
 40
29.0
 40
30.0
 40
30.0
 40
30.0
 40
31.0
 40
31.0
 40
31.0
 40
32.0
 40
32.0
 40
32.0
 40
33.0
 40
33.0
 40
33.0
 40
34.0
 40
34.0
 40
34.0
 40
35.0
 40
35.0
 40
35.0
 40
36.0
 40
36.0
 40
36.0
 40
37.0
 40
37.0
 40
37.0
 40
38.0
 40
38.0
 40
38.0
 40
39.0
 40
39.0
 40
39.0
 40
40.0
 40
40.0
 40
40.0
 40
41.0
 40
41.0
 40
41.0
 40
42.0
 40
42.0
 40
42.0
 40
43.0
 40
43.0
 40
43.0
 40
44.0
 40
44.0
 40
44.0
 40
45.0
 40
45.0
 40
45.0
 40
46.0
 40
46.0
 40
46.0
 40
47.0
 40
47.0
 40
47.0
 40
48.0
 40
48.0
 40
48.0
 40
49.0
 40
49.0
 40
49.0
 40
50.0
 40
50.0
 40
50.0
 40
51.0
 40
51.0
 40
51.0
 40
52.0
 40
52.0
 40
52.0
 40
53.0
 40
53.0
 40
53.0
 40
54.0
 40
54.0
 40
54.0
 40
55.0
 40
55.0
 40
55.0
 40
56.0
 40
56.0
 40
56.0
 40
57.0
 40
57.0
 40
57.0
 40
58.0
 40
58.0
 40
58.0
 40
59.0
 40
59.0
 40
59.0
 40
60.0
 40
60.0
 40
60.0
 40
61.0
 40
61.0
 40
61.0
 40
62.0
 40
62.0
 40
62.0
 40
63.0
 40
63.0
 40
63.0
 40
64.0
 40
64.0
 40
64.0
 40
65.0
 40
65.0
 40
65.0
 40
66.0
 40
66.0
 40
66.0
 40
67.0
 40
67.0
 40
67.0
 40
68.0
 40
68.0
 40
68.0
 40
69.0
 40
69.0
 40
69.0
 40
70.0
 40
70.0
 40
70.0
 40
71.0
 40
71.0
 40
71.0
 40
72.0
 40
72.0
 40
72.0
 40
73.0
 40
73.0
 40
73.0
 40
74.0
 40
74.0
 40
74.0
 40
75.0
 40
75.0
 40
75.0
 40
76.0
 40
76.0
 40
76.0
 40
77.0
 40
77.0
 40
77.0
 40
78.0
 40
78.0
 40
78.0
 40
79.0
 40
79.0
 40
79.0
 40
79.0
 10
108.5108615180112
 20
-147.9165526973958
 30
0.0
 10
108.5108615180112
 20
-147.9165526973958
 30
0.0
 10
108.2569579807483
 20
-147.9165526973958
 30
0.0
 10
108.2569579807483
 20
-147.9165526973958
 30
0.0
 10
108.2569579807483
 20
-147.9165526973958
 30
0.0
 10
107.9799723037341
 20
-147.9165526973958
 30
0.0
 10
107.9799723037341
 20
-147.9165526973958
 30
0.0
 10
107.9799723037341
 20
-147.9165526973958
 30
0.0
 10
108.1067518175913
 20
-147.9589273718644
 30
0.0
 10
108.1067518175913
 20
-147.9589273718644
 30
0.0
 10
108.1174316135956
 20
-147.963233741221
 30
0.0
 10
108.1301784668911
 20
-147.9694349130944
 30
0.0
 10
108.1301784668911
 20
-147.9821817663899
 30
0.0
 10
108.1301784668911
 20
-148.0033691036241
 30
0.0
 10
108.0984835884267
 20
-148.0097425302718
 30
0.0
 10
108.0771239964182
 20
-148.0138766448542
 30
0.0
 10
108.0667887099625
 20
-148.0371310393796
 30
0.0
 10
108.0371608887893
 20
-148.1027601083736
 30
0.0
 10
108.0178683540719
 20
-148.1472018401333
 30
0.0
 10
108.0178683540719
 20
-148.1472018401333
 30
0.0
 10
108.2886528592125
 20
-148.1472018401333
 30
0.0
 10
108.2886528592125
 20
-148.1472018401333
 30
0.0
 10
108.3796033800231
 20
-148.1472018401333
 30
0.0
 10
108.5763183322309
 20
-148.1428954707768
 30
0.0
 10
108.7182562662232
 20
-148.1344549868379
 30
0.0
 10
108.7182562662232
 20
-148.1344549868379
 30
0.0
 10
108.7182562662232
 20
-148.3122219138768
 30
0.0
 10
108.7182562662232
 20
-148.3122219138768
 30
0.0
 10
108.6355739745772
 20
-148.3079155445202
 30
0.0
 10
108.6145588921172
 20
-148.3079155445202
 30
0.0
 10
108.4347249077871
 20
-148.3037814299379
 30
0.0
 10
108.4030300293228
 20
-148.4581217076771
 30
0.0
 10
108.3585882975631
 20
-148.5385646872577
 30
0.0
 10
108.3141465658034
 20
-148.608327870834
 30
0.0
 10
108.4347249077871
 20
-148.6675835131803
 30
0.0
 10
108.5404893391843
 20
-148.7352796394655
 30
0.0
 10
108.6441867132903
 20
-148.8177896763372
 30
0.0
 10
108.6441867132903
 20
-148.8177896763372
 30
0.0
 10
108.5256754285977
 20
-148.9848768073718
 30
0.0
 10
108.5256754285977
 20
-148.9848768073718
 30
0.0
 10
108.5025932888466
 20
-148.965928782203
 30
0.0
 10
108.4898464355511
 20
-148.9576605530384
 30
0.0
 10
108.377536322732
 20
-148.8729112041012
 30
0.0
 10
108.32896047639
 20
-148.8346706442149
 30
0.0
 10
108.2697048340437
 20
-148.7988416511683
 30
0.0
 10
108.1894341092374
 20
-148.7543999194086
 30
0.0
 10
107.977905246443
 20
-148.9407795851606
 30
0.0
 10
107.7725775555221
 20
-148.9638617249118
 30
0.0
 10
107.4828450252126
 20
-148.9934895460849
 30
0.0
 10
107.4828450252126
 20
-148.9934895460849
 30
0.0
 10
107.3791476511066
 20
-148.8136555617549
 30
0.0
 10
107.3791476511066
 20
-148.8136555617549
 30
0.0
 10
107.6964409452981
 20
-148.8093491923983
 30
0.0
 10
107.8721408150458
 20
-148.7840277405818
 30
0.0
 10
108.0244140354939
 20
-148.673956939828
 30
0.0
 10
107.9059027508013
 20
-148.6231417814206
 30
0.0
 10
107.8170192872818
 20
-148.5957532723128
 30
0.0
 10
107.7811902942352
 20
-148.5830064190174
 30
0.0
 10
107.7618977595178
 20
-148.6105671828994
 30
0.0
 10
107.7470838489313
 20
-148.6295152080683
 30
0.0
 10
107.7195230850493
 20
-148.663449398598
 30
0.0
 10
107.7195230850493
 20
-148.663449398598
 30
0.0
 10
107.5228081328415
 20
-148.5809393617263
 30
0.0
 10
107.5228081328415
 20
-148.5809393617263
 30
0.0
 10
107.6054904244875
 20
-148.5004963821457
 30
0.0
 10
107.666813124125
 20
-148.4052394919785
 30
0.0
 10
107.7240017091801
 20
-148.3037814299379
 30
0.0
 10
107.5334879288458
 20
-148.3079155445202
 30
0.0
 10
107.5124728463858
 20
-148.3079155445202
 30
0.0
 10
107.4297905547398
 20
-148.3122219138768
 30
0.0
 10
107.4297905547398
 20
-148.3122219138768
 30
0.0
 10
107.4297905547398
 20
-148.1344549868379
 30
0.0
 10
107.4297905547398
 20
-148.1344549868379
 30
0.0
 10
107.5693169218924
 20
-148.1408284134856
 30
0.0
 10
107.7787787273956
 20
-148.1451347828422
 30
0.0
 10
107.8042724339864
 20
-148.1451347828422
 30
0.0
 10
107.8211534018642
 20
-148.1112005923125
 30
0.0
 10
107.8762749296281
 20
-147.9906222503287
 30
0.0
 10
107.895222954797
 20
-147.9165526973958
 30
0.0
 10
107.8762749296281
 20
-147.9165526973958
 30
0.0
 10
107.6985080025892
 20
-147.9229261240436
 30
0.0
 10
107.5038601076726
 20
-147.935672977339
 30
0.0
 10
107.5038601076726
 20
-147.935672977339
 30
0.0
 10
107.5038601076726
 20
-148.0689981726181
 30
0.0
 10
107.5038601076726
 20
-148.0689981726181
 30
0.0
 10
107.4552842613306
 20
-148.0943196244347
 30
0.0
 10
107.3960286189843
 20
-148.126014502899
 30
0.0
 10
107.2627034237051
 20
-148.1916435718931
 30
0.0
 10
107.2627034237051
 20
-148.1916435718931
 30
0.0
 10
107.2627034237051
 20
-148.3375433656934
 30
0.0
 10
107.2627034237051
 20
-148.3375433656934
 30
0.0
 10
107.2627034237051
 20
-148.3375433656934
 30
0.0
 10
107.2627034237051
 20
-148.805215077816
 30
0.0
 10
107.2627034237051
 20
-148.805215077816
 30
0.0
 10
107.2627034237051
 20
-148.9321668464475
 30
0.0
 10
107.2268744306585
 20
-148.9914224887938
 30
0.0
 10
106.9433430722225
 20
-148.9828097500807
 30
0.0
 10
106.9433430722225
 20
-148.9828097500807
 30
0.0
 10
106.8396456981165
 20
-148.7755872566429
 30
0.0
 10
106.8396456981165
 20
-148.7755872566429
 30
0.0
 10
106.9030354550451
 20
-148.788161855164
 30
0.0
 10
106.9516113013871
 20
-148.7924682245206
 30
0.0
 10
106.9919189185645
 20
-148.7924682245206
 30
0.0
 10
107.0680555287885
 20
-148.7924682245206
 30
0.0
 10
107.0787353247928
 20
-148.7692138299952
 30
0.0
 10
107.0787353247928
 20
-148.7035847610012
 30
0.0
 10
107.0787353247928
 20
-148.7035847610012
 30
0.0
 10
107.0787353247928
 20
-148.2741536087648
 30
0.0
 10
107.0787353247928
 20
-148.2741536087648
 30
0.0
 10
106.9812391225602
 20
-148.3142889711679
 30
0.0
 10
106.9643581546825
 20
-148.3206623978157
 30
0.0
 10
106.9178493656316
 20
-148.3397826777588
 30
0.0
 10
106.9137152510493
 20
-148.3607977602188
 30
0.0
 10
106.909581136467
 20
-148.390425581392
 30
0.0
 10
106.8902886017496
 20
-148.390425581392
 30
0.0
 10
106.882020372585
 20
-148.390425581392
 30
0.0
 10
106.8713405765808
 20
-148.3862914668097
 30
0.0
 10
106.8651394047073
 20
-148.3630370722842
 30
0.0
 10
106.8651394047073
 20
-148.3630370722842
 30
0.0
 10
106.8120849342345
 20
-148.1704562346588
 30
0.0
 10
106.8120849342345
 20
-148.1704562346588
 30
0.0
 10
106.9581569828091
 20
-148.1239474456079
 30
0.0
 10
107.0236137970288
 20
-148.1006930510824
 30
0.0
 10
107.0787353247928
 20
-148.0795057138482
 30
0.0
 10
107.0787353247928
 20
-148.0795057138482
 30
0.0
 10
107.0787353247928
 20
-147.6669555294895
 30
0.0
 10
107.0787353247928
 20
-147.6669555294895
 30
0.0
 10
107.0787353247928
 20
-147.6669555294895
 30
0.0
 10
107.02568085432
 20
-147.6669555294895
 30
0.0
 10
107.02568085432
 20
-147.6669555294895
 30
0.0
 10
107.02568085432
 20
-147.6669555294895
 30
0.0
 10
106.9474771868048
 20
-147.6669555294895
 30
0.0
 10
106.9474771868048
 20
-147.6669555294895
 30
0.0
 10
106.8799533152939
 20
-147.6669555294895
 30
0.0
 10
106.8713405765808
 20
-147.6669555294895
 30
0.0
 10
106.8355115835342
 20
-147.6733289561372
 30
0.0
 10
106.8355115835342
 20
-147.6733289561372
 30
0.0
 10
106.8355115835342
 20
-147.4786810612206
 30
0.0
 10
106.8355115835342
 20
-147.4786810612206
 30
0.0
 10
106.8630723474162
 20
-147.4850544878683
 30
0.0
 10
106.8713405765808
 20
-147.4850544878683
 30
0.0
 10
106.9412760149313
 20
-147.4850544878683
 30
0.0
 10
106.9412760149313
 20
-147.4850544878683
 30
0.0
 10
107.0746012102105
 20
-147.4850544878683
 30
0.0
 10
107.0746012102105
 20
-147.4850544878683
 30
0.0
 10
107.0746012102105
 20
-147.415291304292
 30
0.0
 10
107.0746012102105
 20
-147.3327812674202
 30
0.0
 10
107.0721896433708
 20
-147.3284748980637
 30
0.0
 10
107.0639214142062
 20
-147.1486409137337
 30
0.0
 10
107.0639214142062
 20
-147.1296928885648
 30
0.0
 10
107.0618543569151
 20
-147.0831840995139
 30
0.0
 10
107.0618543569151
 20
-147.0831840995139
 30
0.0
 10
107.2775173342917
 20
-147.0916245834528
 30
0.0
 10
107.2775173342917
 20
-147.0916245834528
 30
0.0
 10
107.288197130296
 20
-147.0916245834528
 30
0.0
 10
107.309212212756
 20
-147.0936916407439
 30
0.0
 10
107.309212212756
 20
-147.1105726086217
 30
0.0
 10
107.309212212756
 20
-147.1296928885648
 30
0.0
 10
107.2943983021694
 20
-147.1402004297948
 30
0.0
 10
107.2692491051271
 20
-147.1593207097379
 30
0.0
 10
107.2692491051271
 20
-147.2099636133711
 30
0.0
 10
107.2627034237051
 20
-147.4385456988174
 30
0.0
 10
107.2647704809963
 20
-147.4850544878683
 30
0.0
 10
107.3939615616932
 20
-147.4850544878683
 30
0.0
 10
107.4067084149886
 20
-147.4850544878683
 30
0.0
 10
107.5038601076726
 20
-147.4766140039294
 30
0.0
 10
107.5038601076726
 20
-147.4766140039294
 30
0.0
 10
107.5038601076726
 20
-147.671261898846
 30
0.0
 10
107.5038601076726
 20
-147.671261898846
 30
0.0
 10
107.4659640573349
 20
-147.6690225867806
 30
0.0
 10
107.3980956762754
 20
-147.6648884721983
 30
0.0
 10
107.2627034237051
 20
-147.6669555294895
 30
0.0
 10
107.2627034237051
 20
-147.6669555294895
 30
0.0
 10
107.2627034237051
 20
-148.0054361609153
 30
0.0
 10
107.2627034237051
 20
-148.0054361609153
 30
0.0
 10
107.3178249514691
 20
-147.9821817663899
 30
0.0
 10
107.3832817656889
 20
-147.9546210025079
 30
0.0
 10
107.4318576120309
 20
-147.9313666079824
 30
0.0
 10
107.4318576120309
 20
-147.9313666079824
 30
0.0
 10
107.4318576120309
 20
-147.7537719357178
 30
0.0
 10
107.4318576120309
 20
-147.7537719357178
 30
0.0
 10
107.5462347821412
 20
-147.766346534239
 30
0.0
 10
107.6647460668338
 20
-147.766346534239
 30
0.0
 10
107.7811902942352
 20
-147.766346534239
 30
0.0
 10
107.7577636449355
 20
-147.671261898846
 30
0.0
 10
107.7302028810535
 20
-147.5887518619743
 30
0.0
 10
107.666813124125
 20
-147.4554266666952
 30
0.0
 10
107.6223713923652
 20
-147.4574937239863
 30
0.0
 10
107.5400336102678
 20
-147.4618000933429
 30
0.0
 10
107.5017930503815
 20
-147.463867150634
 30
0.0
 10
107.5017930503815
 20
-147.463867150634
 30
0.0
 10
107.5017930503815
 20
-147.284033166304
 30
0.0
 10
107.5017930503815
 20
-147.284033166304
 30
0.0
 10
107.6265055069475
 20
-147.2924736502428
 30
0.0
 10
107.8001383194041
 20
-147.2967800195994
 30
0.0
 10
107.8824761015016
 20
-147.2967800195994
 30
0.0
 10
107.8824761015016
 20
-147.2967800195994
 30
0.0
 10
107.9651583931476
 20
-147.2967800195994
 30
0.0
 10
107.9651583931476
 20
-147.2967800195994
 30
0.0
 10
107.9651583931476
 20
-147.1338270031471
 30
0.0
 10
107.9651583931476
 20
-147.1233194619171
 30
0.0
 10
107.9630913358564
 20
-147.0683701889273
 30
0.0
 10
107.9630913358564
 20
-147.0683701889273
 30
0.0
 10
108.1873670519462
 20
-147.0936916407439
 30
0.0
 10
108.1873670519462
 20
-147.0936916407439
 30
0.0
 10
108.1915011665285
 20
-147.0936916407439
 30
0.0
 10
108.2125162489885
 20
-147.0957586980351
 30
0.0
 10
108.2125162489885
 20
-147.1126396659128
 30
0.0
 10
108.2125162489885
 20
-147.1274535764994
 30
0.0
 10
108.2021809625328
 20
-147.1360663152125
 30
0.0
 10
108.1746201986508
 20
-147.1508802257991
 30
0.0
 10
108.1680745172288
 20
-147.2163370400188
 30
0.0
 10
108.1660074599376
 20
-147.2375243772531
 30
0.0
 10
108.1660074599376
 20
-147.2967800195994
 30
0.0
 10
108.1660074599376
 20
-147.2967800195994
 30
0.0
 10
108.2610920953305
 20
-147.2967800195994
 30
0.0
 10
108.2610920953305
 20
-147.2967800195994
 30
0.0
 10
108.3437743869765
 20
-147.2967800195994
 30
0.0
 10
108.5170626898846
 20
-147.2924736502428
 30
0.0
 10
108.6421196559992
 20
-147.284033166304
 30
0.0
 10
108.6421196559992
 20
-147.284033166304
 30
0.0
 10
108.6421196559992
 20
-147.463867150634
 30
0.0
 10
108.6421196559992
 20
-147.463867150634
 30
0.0
 10
108.612491834826
 20
-147.4618000933429
 30
0.0
 10
108.4939805501334
 20
-147.4574937239863
 30
0.0
 10
108.453672932956
 20
-147.4554266666952
 30
0.0
 10
108.4388590223694
 20
-147.5062418251026
 30
0.0
 10
108.405097086614
 20
-147.6183796831475
 30
0.0
 10
108.3396402723942
 20
-147.7579060503001
 30
0.0
 10
108.3816704373143
 20
-147.7579060503001
 30
0.0
 10
108.6590006238769
 20
-147.7389580251312
 30
0.0
 10
108.7203233235143
 20
-147.7367187130658
 30
0.0
 10
108.7203233235143
 20
-147.7367187130658
 30
0.0
 10
108.7203233235143
 20
-147.9208590667524
 30
0.0
 10
108.7203233235143
 20
-147.9208590667524
 30
0.0
 10
108.6906955023412
 20
-147.9208590667524
 30
0.0
 10
108.6738145344635
 20
-147.9165526973958
 30
0.0
 10
108.5108615180112
 20
-147.9165526973958
 30
0.0
  0
HATCH
  5
91
330
8A
100
AcDbEntity
  8
レイヤー 1
 62
    18
420
        0
440
 33554687
100
AcDbHatch
 10
0.0
 20
0.0
 30
0.0
210
0.0
220
0.0
230
1.0
  2
SOLID
 70
     1
 71
     1
 91
        3
 92
        1
 93
        1
 72
     4
 94
        3
 73
     0
 74
     0
 95
       17
 96
       13
 40
0.0
 40
0.0
 40
0.0
 40
0.0
 40
1.0
 40
1.0
 40
1.0
 40
2.0
 40
2.0
 40
2.0
 40
3.0
 40
3.0
 40
3.0
 40
4.0
 40
4.0
 40
4.0
 40
4.0
 10
107.9462103679787
 20
-148.3017143726468
 10
107.9289848905525
 20
-148.3311699390457
 10
107.8783419869193
 20
-148.4243597719217
 10
107.867662190915
 20
-148.4433077970905
 10
108.0581759712493
 20
-148.5025634394368
 10
108.0791910537094
 20
-148.5089368660846
 10
108.1511935493511
 20
-148.5364976299666
 10
108.2063150771151
 20
-148.4496812237383
 10
108.2293972168662
 20
-148.3756116708054
 10
108.2442111274528
 20
-148.3017143726468
 10
108.2442111274528
 20
-148.3017143726468
 10
107.9462103679787
 20
-148.3017143726468
 10
107.9462103679787
 20
-148.3017143726468
 97
        0
 97
        1
330
8E
 92
        1
 93
        1
 72
     4
 94
        3
 73
     0
 74
     0
 95
       20
 96
       16
 40
0.0
 40
0.0
 40
0.0
 40
0.0
 40
1.0
 40
1.0
 40
1.0
 40
2.0
 40
2.0
 40
2.0
 40
3.0
 40
3.0
 40
3.0
 40
4.0
 40
4.0
 40
4.0
 40
5.0
 40
5.0
 40
5.0
 40
5.0
 10
107.8824761015016
 20
-147.4512925521128
 10
107.8824761015016
 20
-147.4512925521128
 10
107.8507812230373
 20
-147.4512925521128
 10
107.8507812230373
 20
-147.4512925521128
 10
107.8972900120882
 20
-147.5506835568623
 10
107.9289848905525
 20
-147.6309542816686
 10
107.9630913358564
 20
-147.7579060503001
 10
107.9630913358564
 20
-147.7579060503001
 10
108.17014157452
 20
-147.7579060503001
 10
108.17014157452
 20
-147.7579060503001
 10
108.2021809625328
 20
-147.6648884721983
 10
108.2252631022839
 20
-147.5803113780354
 10
108.2486897515837
 20
-147.4512925521128
 10
108.2486897515837
 20
-147.4512925521128
 10
107.8824761015016
 20
-147.4512925521128
 10
107.8824761015016
 20
-147.4512925521128
 97
        0
 97
        1
330
8F
 92
        1
 93
        1
 72
     4
 94
        3
 73
     0
 74
     0
 95
      242
 96
      238
 40
0.0
 40
0.0
 40
0.0
 40
0.0
 40
1.0
 40
1.0
 40
1.0
 40
2.0
 40
2.0
 40
2.0
 40
3.0
 40
3.0
 40
3.0
 40
4.0
 40
4.0
 40
4.0
 40
5.0
 40
5.0
 40
5.0
 40
6.0
 40
6.0
 40
6.0
 40
7.0
 40
7.0
 40
7.0
 40
8.0
 40
8.0
 40
8.0
 40
9.0
 40
9.0
 40
9.0
 40
10.0
 40
10.0
 40
10.0
 40
11.0
 40
11.0
 40
11.0
 40
12.0
 40
12.0
 40
12.0
 40
13.0
 40
13.0
 40
13.0
 40
14.0
 40
14.0
 40
14.0
 40
15.0
 40
15.0
 40
15.0
 40
16.0
 40
16.0
 40
16.0
 40
17.0
 40
17.0
 40
17.0
 40
18.0
 40
18.0
 40
18.0
 40
19.0
 40
19.0
 40
19.0
 40
20.0
 40
20.0
 40
20.0
 40
21.0
 40
21.0
 40
21.0
 40
22.0
 40
22.0
 40
22.0
 40
23.0
 40
23.0
 40
23.0
 40
24.0
 40
24.0
 40
24.0
 40
25.0
 40
25.0
 40
25.0
 40
26.0
 40
26.0
 40
26.0
 40
27.0
 40
27.0
 40
27.0
 40
28.0
 40
28.0
 40
28.0
 40
29.0
 40
29.0
 40
29.0
 40
30.0
 40
30.0
 40
30.0
 40
31.0
 40
31.0
 40
31.0
 40
32.0
 40
32.0
 40
32.0
 40
33.0
 40
33.0
 40
33.0
 40
34.0
 40
34.0
 40
34.0
 40
35.0
 40
35.0
 40
35.0
 40
36.0
 40
36.0
 40
36.0
 40
37.0
 40
37.0
 40
37.0
 40
38.0
 40
38.0
 40
38.0
 40
39.0
 40
39.0
 40
39.0
 40
40.0
 40
40.0
 40
40.0
 40
41.0
 40
41.0
 40
41.0
 40
42.0
 40
42.0
 40
42.0
 40
43.0
 40
43.0
 40
43.0
 40
44.0
 40
44.0
 40
44.0
 40
45.0
 40
45.0
 40
45.0
 40
46.0
 40
46.0
 40
46.0
 40
47.0
 40
47.0
 40
47.0
 40
48.0
 40
48.0
 40
48.0
 40
49.0
 40
49.0
 40
49.0
 40
50.0
 40
50.0
 40
50.0
 40
51.0
 40
51.0
 40
51.0
 40
52.0
 40
52.0
 40
52.0
 40
53.0
 40
53.0
 40
53.0
 40
54.0
 40
54.0
 40
54.0
 40
55.0
 40
55.0
 40
55.0
 40
56.0
 40
56.0
 40
56.0
 40
57.0
 40
57.0
 40
57.0
 40
58.0
 40
58.0
 40
58.0
 40
59.0
 40
59.0
 40
59.0
 40
60.0
 40
60.0
 40
60.0
 40
61.0
 40
61.0
 40
61.0
 40
62.0
 40
62.0
 40
62.0
 40
63.0
 40
63.0
 40
63.0
 40
64.0
 40
64.0
 40
64.0
 40
65.0
 40
65.0
 40
65.0
 40
66.0
 40
66.0
 40
66.0
 40
67.0
 40
67.0
 40
67.0
 40
68.0
 40
68.0
 40
68.0
 40
69.0
 40
69.0
 40
69.0
 40
70.0
 40
70.0
 40
70.0
 40
71.0
 40
71.0
 40
71.0
 40
72.0
 40
72.0
 40
72.0
 40
73.0
 40
73.0
 40
73.0
 40
74.0
 40
74.0
 40
74.0
 40
75.0
 40
75.0
 40
75.0
 40
76.0
 40
76.0
 40
76.0
 40
77.0
 40
77.0
 40
77.0
 40
78.0
 40
78.0
 40
78.0
 40
79.0
 40
79.0
 40
79.0
 40
79.0
 10
108.5108615180112
 20
-147.9165526973958
 10
108.5108615180112
 20
-147.9165526973958
 10
108.2569579807483
 20
-147.9165526973958
 10
108.2569579807483
 20
-147.9165526973958
 10
108.2569579807483
 20
-147.9165526973958
 10
107.9799723037341
 20
-147.9165526973958
 10
107.9799723037341
 20
-147.9165526973958
 10
107.9799723037341
 20
-147.9165526973958
 10
108.1067518175913
 20
-147.9589273718644
 10
108.1067518175913
 20
-147.9589273718644
 10
108.1174316135956
 20
-147.963233741221
 10
108.1301784668911
 20
-147.9694349130944
 10
108.1301784668911
 20
-147.9821817663899
 10
108.1301784668911
 20
-148.0033691036241
 10
108.0984835884267
 20
-148.0097425302718
 10
108.0771239964182
 20
-148.0138766448542
 10
108.0667887099625
 20
-148.0371310393796
 10
108.0371608887893
 20
-148.1027601083736
 10
108.0178683540719
 20
-148.1472018401333
 10
108.0178683540719
 20
-148.1472018401333
 10
108.2886528592125
 20
-148.1472018401333
 10
108.2886528592125
 20
-148.1472018401333
 10
108.3796033800231
 20
-148.1472018401333
 10
108.5763183322309
 20
-148.1428954707768
 10
108.7182562662232
 20
-148.1344549868379
 10
108.7182562662232
 20
-148.1344549868379
 10
108.7182562662232
 20
-148.3122219138768
 10
108.7182562662232
 20
-148.3122219138768
 10
108.6355739745772
 20
-148.3079155445202
 10
108.6145588921172
 20
-148.3079155445202
 10
108.4347249077871
 20
-148.3037814299379
 10
108.4030300293228
 20
-148.4581217076771
 10
108.3585882975631
 20
-148.5385646872577
 10
108.3141465658034
 20
-148.608327870834
 10
108.4347249077871
 20
-148.6675835131803
 10
108.5404893391843
 20
-148.7352796394655
 10
108.6441867132903
 20
-148.8177896763372
 10
108.6441867132903
 20
-148.8177896763372
 10
108.5256754285977
 20
-148.9848768073718
 10
108.5256754285977
 20
-148.9848768073718
 10
108.5025932888466
 20
-148.965928782203
 10
108.4898464355511
 20
-148.9576605530384
 10
108.377536322732
 20
-148.8729112041012
 10
108.32896047639
 20
-148.8346706442149
 10
108.2697048340437
 20
-148.7988416511683
 10
108.1894341092374
 20
-148.7543999194086
 10
107.977905246443
 20
-148.9407795851606
 10
107.7725775555221
 20
-148.9638617249118
 10
107.4828450252126
 20
-148.9934895460849
 10
107.4828450252126
 20
-148.9934895460849
 10
107.3791476511066
 20
-148.8136555617549
 10
107.3791476511066
 20
-148.8136555617549
 10
107.6964409452981
 20
-148.8093491923983
 10
107.8721408150458
 20
-148.7840277405818
 10
108.0244140354939
 20
-148.673956939828
 10
107.9059027508013
 20
-148.6231417814206
 10
107.8170192872818
 20
-148.5957532723128
 10
107.7811902942352
 20
-148.5830064190174
 10
107.7618977595178
 20
-148.6105671828994
 10
107.7470838489313
 20
-148.6295152080683
 10
107.7195230850493
 20
-148.663449398598
 10
107.7195230850493
 20
-148.663449398598
 10
107.5228081328415
 20
-148.5809393617263
 10
107.5228081328415
 20
-148.5809393617263
 10
107.6054904244875
 20
-148.5004963821457
 10
107.666813124125
 20
-148.4052394919785
 10
107.7240017091801
 20
-148.3037814299379
 10
107.5334879288458
 20
-148.3079155445202
 10
107.5124728463858
 20
-148.3079155445202
 10
107.4297905547398
 20
-148.3122219138768
 10
107.4297905547398
 20
-148.3122219138768
 10
107.4297905547398
 20
-148.1344549868379
 10
107.4297905547398
 20
-148.1344549868379
 10
107.5693169218924
 20
-148.1408284134856
 10
107.7787787273956
 20
-148.1451347828422
 10
107.8042724339864
 20
-148.1451347828422
 10
107.8211534018642
 20
-148.1112005923125
 10
107.8762749296281
 20
-147.9906222503287
 10
107.895222954797
 20
-147.9165526973958
 10
107.8762749296281
 20
-147.9165526973958
 10
107.6985080025892
 20
-147.9229261240436
 10
107.5038601076726
 20
-147.935672977339
 10
107.5038601076726
 20
-147.935672977339
 10
107.5038601076726
 20
-148.0689981726181
 10
107.5038601076726
 20
-148.0689981726181
 10
107.4552842613306
 20
-148.0943196244347
 10
107.3960286189843
 20
-148.126014502899
 10
107.2627034237051
 20
-148.1916435718931
 10
107.2627034237051
 20
-148.1916435718931
 10
107.2627034237051
 20
-148.3375433656934
 10
107.2627034237051
 20
-148.3375433656934
 10
107.2627034237051
 20
-148.3375433656934
 10
107.2627034237051
 20
-148.805215077816
 10
107.2627034237051
 20
-148.805215077816
 10
107.2627034237051
 20
-148.9321668464475
 10
107.2268744306585
 20
-148.9914224887938
 10
106.9433430722225
 20
-148.9828097500807
 10
106.9433430722225
 20
-148.9828097500807
 10
106.8396456981165
 20
-148.7755872566429
 10
106.8396456981165
 20
-148.7755872566429
 10
106.9030354550451
 20
-148.788161855164
 10
106.9516113013871
 20
-148.7924682245206
 10
106.9919189185645
 20
-148.7924682245206
 10
107.0680555287885
 20
-148.7924682245206
 10
107.0787353247928
 20
-148.7692138299952
 10
107.0787353247928
 20
-148.7035847610012
 10
107.0787353247928
 20
-148.7035847610012
 10
107.0787353247928
 20
-148.2741536087648
 10
107.0787353247928
 20
-148.2741536087648
 10
106.9812391225602
 20
-148.3142889711679
 10
106.9643581546825
 20
-148.3206623978157
 10
106.9178493656316
 20
-148.3397826777588
 10
106.9137152510493
 20
-148.3607977602188
 10
106.909581136467
 20
-148.390425581392
 10
106.8902886017496
 20
-148.390425581392
 10
106.882020372585
 20
-148.390425581392
 10
106.8713405765808
 20
-148.3862914668097
 10
106.8651394047073
 20
-148.3630370722842
 10
106.8651394047073
 20
-148.3630370722842
 10
106.8120849342345
 20
-148.1704562346588
 10
106.8120849342345
 20
-148.1704562346588
 10
106.9581569828091
 20
-148.1239474456079
 10
107.0236137970288
 20
-148.1006930510824
 10
107.0787353247928
 20
-148.0795057138482
 10
107.0787353247928
 20
-148.0795057138482
 10
107.0787353247928
 20
-147.6669555294895
 10
107.0787353247928
 20
-147.6669555294895
 10
107.0787353247928
 20
-147.6669555294895
 10
107.02568085432
 20
-147.6669555294895
 10
107.02568085432
 20
-147.6669555294895
 10
107.02568085432
 20
-147.6669555294895
 10
106.9474771868048
 20
-147.6669555294895
 10
106.9474771868048
 20
-147.6669555294895
 10
106.8799533152939
 20
-147.6669555294895
 10
106.8713405765808
 20
-147.6669555294895
 10
106.8355115835342
 20
-147.6733289561372
 10
106.8355115835342
 20
-147.6733289561372
 10
106.8355115835342
 20
-147.4786810612206
 10
106.8355115835342
 20
-147.4786810612206
 10
106.8630723474162
 20
-147.4850544878683
 10
106.8713405765808
 20
-147.4850544878683
 10
106.9412760149313
 20
-147.4850544878683
 10
106.9412760149313
 20
-147.4850544878683
 10
107.0746012102105
 20
-147.4850544878683
 10
107.0746012102105
 20
-147.4850544878683
 10
107.0746012102105
 20
-147.415291304292
 10
107.0746012102105
 20
-147.3327812674202
 10
107.0721896433708
 20
-147.3284748980637
 10
107.0639214142062
 20
-147.1486409137337
 10
107.0639214142062
 20
-147.1296928885648
 10
107.0618543569151
 20
-147.0831840995139
 10
107.0618543569151
 20
-147.0831840995139
 10
107.2775173342917
 20
-147.0916245834528
 10
107.2775173342917
 20
-147.0916245834528
 10
107.288197130296
 20
-147.0916245834528
 10
107.309212212756
 20
-147.0936916407439
 10
107.309212212756
 20
-147.1105726086217
 10
107.309212212756
 20
-147.1296928885648
 10
107.2943983021694
 20
-147.1402004297948
 10
107.2692491051271
 20
-147.1593207097379
 10
107.2692491051271
 20
-147.2099636133711
 10
107.2627034237051
 20
-147.4385456988174
 10
107.2647704809963
 20
-147.4850544878683
 10
107.3939615616932
 20
-147.4850544878683
 10
107.4067084149886
 20
-147.4850544878683
 10
107.5038601076726
 20
-147.4766140039294
 10
107.5038601076726
 20
-147.4766140039294
 10
107.5038601076726
 20
-147.671261898846
 10
107.5038601076726
 20
-147.671261898846
 10
107.4659640573349
 20
-147.6690225867806
 10
107.3980956762754
 20
-147.6648884721983
 10
107.2627034237051
 20
-147.6669555294895
 10
107.2627034237051
 20
-147.6669555294895
 10
107.2627034237051
 20
-148.0054361609153
 10
107.2627034237051
 20
-148.0054361609153
 10
107.3178249514691
 20
-147.9821817663899
 10
107.3832817656889
 20
-147.9546210025079
 10
107.4318576120309
 20
-147.9313666079824
 10
107.4318576120309
 20
-147.9313666079824
 10
107.4318576120309
 20
-147.7537719357178
 10
107.4318576120309
 20
-147.7537719357178
 10
107.5462347821412
 20
-147.766346534239
 10
107.6647460668338
 20
-147.766346534239
 10
107.7811902942352
 20
-147.766346534239
 10
107.7577636449355
 20
-147.671261898846
 10
107.7302028810535
 20
-147.5887518619743
 10
107.666813124125
 20
-147.4554266666952
 10
107.6223713923652
 20
-147.4574937239863
 10
107.5400336102678
 20
-147.4618000933429
 10
107.5017930503815
 20
-147.463867150634
 10
107.5017930503815
 20
-147.463867150634
 10
107.5017930503815
 20
-147.284033166304
 10
107.5017930503815
 20
-147.284033166304
 10
107.6265055069475
 20
-147.2924736502428
 10
107.8001383194041
 20
-147.2967800195994
 10
107.8824761015016
 20
-147.2967800195994
 10
107.8824761015016
 20
-147.2967800195994
 10
107.9651583931476
 20
-147.2967800195994
 10
107.9651583931476
 20
-147.2967800195994
 10
107.9651583931476
 20
-147.1338270031471
 10
107.9651583931476
 20
-147.1233194619171
 10
107.9630913358564
 20
-147.0683701889273
 10
107.9630913358564
 20
-147.0683701889273
 10
108.1873670519462
 20
-147.0936916407439
 10
108.1873670519462
 20
-147.0936916407439
 10
108.1915011665285
 20
-147.0936916407439
 10
108.2125162489885
 20
-147.0957586980351
 10
108.2125162489885
 20
-147.1126396659128
 10
108.2125162489885
 20
-147.1274535764994
 10
108.2021809625328
 20
-147.1360663152125
 10
108.1746201986508
 20
-147.1508802257991
 10
108.1680745172288
 20
-147.2163370400188
 10
108.1660074599376
 20
-147.2375243772531
 10
108.1660074599376
 20
-147.2967800195994
 10
108.1660074599376
 20
-147.2967800195994
 10
108.2610920953305
 20
-147.2967800195994
 10
108.2610920953305
 20
-147.2967800195994
 10
108.3437743869765
 20
-147.2967800195994
 10
108.5170626898846
 20
-147.2924736502428
 10
108.6421196559992
 20
-147.284033166304
 10
108.6421196559992
 20
-147.284033166304
 10
108.6421196559992
 20
-147.463867150634
 10
108.6421196559992
 20
-147.463867150634
 10
108.612491834826
 20
-147.4618000933429
 10
108.4939805501334
 20
-147.4574937239863
 10
108.453672932956
 20
-147.4554266666952
 10
108.4388590223694
 20
-147.5062418251026
 10
108.405097086614
 20
-147.6183796831475
 10
108.3396402723942
 20
-147.7579060503001
 10
108.3816704373143
 20
-147.7579060503001
 10
108.6590006238769
 20
-147.7389580251312
 10
108.7203233235143
 20
-147.7367187130658
 10
108.7203233235143
 20
-147.7367187130658
 10
108.7203233235143
 20
-147.9208590667524
 10
108.7203233235143
 20
-147.9208590667524
 10
108.6906955023412
 20
-147.9208590667524
 10
108.6738145344635
 20
-147.9165526973958
 10
108.5108615180112
 20
-147.9165526973958
 97
        0
 97
        1
330
90
 75
     2
 76
     1
 98
        1
 10
0.0
 20
0.0
450
        0
451
        0
460
0.0
461
0.0
452
        0
462
0.0
453
        0
470

  0
SPLINE
  5
92
330
8A
100
AcDbEntity
  8
レイヤー 1
100
AcDbSpline
210
0.0
220
0.0
230
1.0
 70
    11
 71
     3
 72
    17
 73
    13
 74
     0
 42
0.0000000001
 43
0.0000000001
 40
0.0
 40
0.0
 40
0.0
 40
0.0
 40
1.0
 40
1.0
 40
1.0
 40
2.0
 40
2.0
 40
2.0
 40
3.0
 40
3.0
 40
3.0
 40
4.0
 40
4.0
 40
4.0
 40
4.0
 10
110.3674234750123
 20
-148.7163316142966
 30
0.0
 10
110.3674234750123
 20
-148.7163316142966
 30
0.0
 10
109.6608343909875
 20
-148.7163316142966
 30
0.0
 10
109.6608343909875
 20
-148.7163316142966
 30
0.0
 10
109.6608343909875
 20
-148.7163316142966
 30
0.0
 10
109.6608343909875
 20
-148.8305365296326
 30
0.0
 10
109.6608343909875
 20
-148.8305365296326
 30
0.0
 10
109.6608343909875
 20
-148.8305365296326
 30
0.0
 10
110.3674234750123
 20
-148.8305365296326
 30
0.0
 10
110.3674234750123
 20
-148.8305365296326
 30
0.0
 10
110.3674234750123
 20
-148.8305365296326
 30
0.0
 10
110.3674234750123
 20
-148.7163316142966
 30
0.0
 10
110.3674234750123
 20
-148.7163316142966
 30
0.0
  0
SPLINE
  5
93
330
8A
100
AcDbEntity
  8
レイヤー 1
100
AcDbSpline
210
0.0
220
0.0
230
1.0
 70
    11
 71
     3
 72
    17
 73
    13
 74
     0
 42
0.0000000001
 43
0.0000000001
 40
0.0
 40
0.0
 40
0.0
 40
0.0
 40
1.0
 40
1.0
 40
1.0
 40
2.0
 40
2.0
 40
2.0
 40
3.0
 40
3.0
 40
3.0
 40
4.0
 40
4.0
 40
4.0
 40
4.0
 10
110.3674234750123
 20
-148.4729356182637
 30
0.0
 10
110.3674234750123
 20
-148.4729356182637
 30
0.0
 10
109.6608343909875
 20
-148.4729356182637
 30
0.0
 10
109.6608343909875
 20
-148.4729356182637
 30
0.0
 10
109.6608343909875
 20
-148.4729356182637
 30
0.0
 10
109.6608343909875
 20
-148.587312788374
 30
0.0
 10
109.6608343909875
 20
-148.587312788374
 30
0.0
 10
109.6608343909875
 20
-148.587312788374
 30
0.0
 10
110.3674234750123
 20
-148.587312788374
 30
0.0
 10
110.3674234750123
 20
-148.587312788374
 30
0.0
 10
110.3674234750123
 20
-148.587312788374
 30
0.0
 10
110.3674234750123
 20
-148.4729356182637
 30
0.0
 10
110.3674234750123
 20
-148.4729356182637
 30
0.0
  0
SPLINE
  5
94
330
8A
100
AcDbEntity
  8
レイヤー 1
100
AcDbSpline
210
0.0
220
0.0
230
1.0
 70
    11
 71
     3
 72
    17
 73
    13
 74
     0
 42
0.0000000001
 43
0.0000000001
 40
0.0
 40
0.0
 40
0.0
 40
0.0
 40
1.0
 40
1.0
 40
1.0
 40
2.0
 40
2.0
 40
2.0
 40
3.0
 40
3.0
 40
3.0
 40
4.0
 40
4.0
 40
4.0
 40
4.0
 10
110.3674234750123
 20
-148.2402194182351
 30
0.0
 10
110.3674234750123
 20
-148.2402194182351
 30
0.0
 10
109.6608343909875
 20
-148.2402194182351
 30
0.0
 10
109.6608343909875
 20
-148.2402194182351
 30
0.0
 10
109.6608343909875
 20
-148.2402194182351
 30
0.0
 10
109.6608343909875
 20
-148.3482231616976
 30
0.0
 10
109.6608343909875
 20
-148.3482231616976
 30
0.0
 10
109.6608343909875
 20
-148.3482231616976
 30
0.0
 10
110.3674234750123
 20
-148.3482231616976
 30
0.0
 10
110.3674234750123
 20
-148.3482231616976
 30
0.0
 10
110.3674234750123
 20
-148.3482231616976
 30
0.0
 10
110.3674234750123
 20
-148.2402194182351
 30
0.0
 10
110.3674234750123
 20
-148.2402194182351
 30
0.0
  0
SPLINE
  5
95
330
8A
100
AcDbEntity
  8
レイヤー 1
100
AcDbSpline
210
0.0
220
0.0
230
1.0
 70
     9
 71
     3
 72
   203
 73
   199
 74
     0
 42
0.0000000001
 43
0.0000000001
 40
0.0
 40
0.0
 40
0.0
 40
0.0
 40
1.0
 40
1.0
 40
1.0
 40
2.0
 40
2.0
 40
2.0
 40
3.0
 40
3.0
 40
3.0
 40
4.0
 40
4.0
 40
4.0
 40
5.0
 40
5.0
 40
5.0
 40
6.0
 40
6.0
 40
6.0
 40
7.0
 40
7.0
 40
7.0
 40
8.0
 40
8.0
 40
8.0
 40
9.0
 40
9.0
 40
9.0
 40
10.0
 40
10.0
 40
10.0
 40
11.0
 40
11.0
 40
11.0
 40
12.0
 40
12.0
 40
12.0
 40
13.0
 40
13.0
 40
13.0
 40
14.0
 40
14.0
 40
14.0
 40
15.0
 40
15.0
 40
15.0
 40
16.0
 40
16.0
 40
16.0
 40
17.0
 40
17.0
 40
17.0
 40
18.0
 40
18.0
 40
18.0
 40
19.0
 40
19.0
 40
19.0
 40
20.0
 40
20.0
 40
20.0
 40
21.0
 40
21.0
 40
21.0
 40
22.0
 40
22.0
 40
22.0
 40
23.0
 40
23.0
 40
23.0
 40
24.0
 40
24.0
 40
24.0
 40
25.0
 40
25.0
 40
25.0
 40
26.0
 40
26.0
 40
26.0
 40
27.0
 40
27.0
 40
27.0
 40
28.0
 40
28.0
 40
28.0
 40
29.0
 40
29.0
 40
29.0
 40
30.0
 40
30.0
 40
30.0
 40
31.0
 40
31.0
 40
31.0
 40
32.0
 40
32.0
 40
32.0
 40
33.0
 40
33.0
 40
33.0
 40
34.0
 40
34.0
 40
34.0
 40
35.0
 40
35.0
 40
35.0
 40
36.0
 40
36.0
 40
36.0
 40
37.0
 40
37.0
 40
37.0
 40
38.0
 40
38.0
 40
38.0
 40
39.0
 40
39.0
 40
39.0
 40
40.0
 40
40.0
 40
40.0
 40
41.0
 40
41.0
 40
41.0
 40
42.0
 40
42.0
 40
42.0
 40
43.0
 40
43.0
 40
43.0
 40
44.0
 40
44.0
 40
44.0
 40
45.0
 40
45.0
 40
45.0
 40
46.0
 40
46.0
 40
46.0
 40
47.0
 40
47.0
 40
47.0
 40
48.0
 40
48.0
 40
48.0
 40
49.0
 40
49.0
 40
49.0
 40
50.0
 40
50.0
 40
50.0
 40
51.0
 40
51.0
 40
51.0
 40
52.0
 40
52.0
 40
52.0
 40
53.0
 40
53.0
 40
53.0
 40
54.0
 40
54.0
 40
54.0
 40
55.0
 40
55.0
 40
55.0
 40
56.0
 40
56.0
 40
56.0
 40
57.0
 40
57.0
 40
57.0
 40
58.0
 40
58.0
 40
58.0
 40
59.0
 40
59.0
 40
59.0
 40
60.0
 40
60.0
 40
60.0
 40
61.0
 40
61.0
 40
61.0
 40
62.0
 40
62.0
 40
62.0
 40
63.0
 40
63.0
 40
63.0
 40
64.0
 40
64.0
 40
64.0
 40
65.0
 40
65.0
 40
65.0
 40
66.0
 40
66.0
 40
66.0
 40
66.0
 10
110.2024034012688
 20
-147.984248823681
 30
0.0
 10
110.2024034012688
 20
-147.984248823681
 30
0.0
 10
109.6439534231098
 20
-147.984248823681
 30
0.0
 10
109.6439534231098
 20
-147.984248823681
 30
0.0
 10
109.6332736271055
 20
-148.0286905554407
 30
0.0
 10
109.6246608883924
 20
-148.060385433905
 30
0.0
 10
109.6122585446455
 20
-148.0986259937913
 30
0.0
 10
109.6374077416879
 20
-148.0986259937913
 30
0.0
 10
109.6522216522744
 20
-148.1006930510824
 30
0.0
 10
109.6587673336964
 20
-148.1006930510824
 30
0.0
 10
109.6587673336964
 20
-148.1006930510824
 30
0.0
 10
109.846869547191
 20
-148.1006930510824
 30
0.0
 10
109.846869547191
 20
-148.1006930510824
 30
0.0
 10
109.846869547191
 20
-148.1006930510824
 30
0.0
 10
110.2213514264377
 20
-148.1006930510824
 30
0.0
 10
110.2213514264377
 20
-148.1006930510824
 30
0.0
 10
110.2719943300709
 20
-148.1006930510824
 30
0.0
 10
110.5555256885069
 20
-148.087946197787
 30
0.0
 10
110.5872205669712
 20
-148.087946197787
 30
0.0
 10
110.5851535096801
 20
-148.115506961669
 30
0.0
 10
110.5830864523889
 20
-148.1344549868379
 30
0.0
 10
110.5830864523889
 20
-148.164082808011
 30
0.0
 10
110.5810193950978
 20
-148.1957776864753
 30
0.0
 10
110.5810193950978
 20
-148.3311699390457
 30
0.0
 10
110.5810193950978
 20
-148.3587307029277
 30
0.0
 10
110.5810193950978
 20
-148.3587307029277
 30
0.0
 10
110.5810193950978
 20
-148.6041937562517
 30
0.0
 10
110.5810193950978
 20
-148.6041937562517
 30
0.0
 10
110.5810193950978
 20
-148.6486354880114
 30
0.0
 10
110.5851535096801
 20
-148.8453504402192
 30
0.0
 10
110.5896321338109
 20
-148.9976236606672
 30
0.0
 10
110.5896321338109
 20
-148.9976236606672
 30
0.0
 10
110.3629448508815
 20
-148.9976236606672
 30
0.0
 10
110.3629448508815
 20
-148.9976236606672
 30
0.0
 10
110.3629448508815
 20
-148.9976236606672
 30
0.0
 10
110.3653564177211
 20
-148.9638617249118
 30
0.0
 10
110.3653564177211
 20
-148.9638617249118
 30
0.0
 10
110.3653564177211
 20
-148.9638617249118
 30
0.0
 10
109.6629014482787
 20
-148.9638617249118
 30
0.0
 10
109.6629014482787
 20
-148.9638617249118
 30
0.0
 10
109.6629014482787
 20
-148.9638617249118
 30
0.0
 10
109.6649685055699
 20
-148.9976236606672
 30
0.0
 10
109.6649685055699
 20
-148.9976236606672
 30
0.0
 10
109.6649685055699
 20
-148.9976236606672
 30
0.0
 10
109.447238470902
 20
-148.9976236606672
 30
0.0
 10
109.447238470902
 20
-148.9976236606672
 30
0.0
 10
109.4513725854844
 20
-148.9428466424518
 30
0.0
 10
109.4513725854844
 20
-148.9300997891563
 30
0.0
 10
109.4575737573578
 20
-148.8157226190461
 30
0.0
 10
109.459640814649
 20
-148.788161855164
 30
0.0
 10
109.4620523814886
 20
-148.6550089146591
 30
0.0
 10
109.4620523814886
 20
-148.635888634716
 30
0.0
 10
109.4620523814886
 20
-148.635888634716
 30
0.0
 10
109.4620523814886
 20
-148.4328002558605
 30
0.0
 10
109.4620523814886
 20
-148.4328002558605
 30
0.0
 10
109.3221815047875
 20
-148.6823974237669
 30
0.0
 10
109.1530273164617
 20
-148.8136555617549
 30
0.0
 10
109.0472628850646
 20
-148.8791123759746
 30
0.0
 10
109.0472628850646
 20
-148.8791123759746
 30
0.0
 10
108.8736300726079
 20
-148.739586008822
 30
0.0
 10
108.8736300726079
 20
-148.739586008822
 30
0.0
 10
108.9625135361274
 20
-148.6887708504146
 30
0.0
 10
109.1065185274108
 20
-148.6019544441863
 30
0.0
 10
109.2439778372723
 20
-148.4074788040439
 30
0.0
 10
109.3349283580829
 20
-148.2805270354125
 30
0.0
 10
109.4007296818512
 20
-148.1366942989033
 30
0.0
 10
109.4344916176066
 20
-147.984248823681
 30
0.0
 10
109.2060817869346
 20
-147.9864881357464
 30
0.0
 10
109.0262478026045
 20
-147.9928615623941
 30
0.0
 10
108.9308186576631
 20
-147.9949286196853
 30
0.0
 10
108.9308186576631
 20
-147.9949286196853
 30
0.0
 10
108.9308186576631
 20
-147.8171616926464
 30
0.0
 10
108.9308186576631
 20
-147.8171616926464
 30
0.0
 10
109.1275336098709
 20
-147.8235351192941
 30
0.0
 10
109.4110649683069
 20
-147.8278414886506
 30
0.0
 10
109.5612711314638
 20
-147.8278414886506
 30
0.0
 10
109.5612711314638
 20
-147.8278414886506
 30
0.0
 10
109.7748670515493
 20
-147.8278414886506
 30
0.0
 10
109.7748670515493
 20
-147.8278414886506
 30
0.0
 10
109.7748670515493
 20
-147.8278414886506
 30
0.0
 10
109.7748670515493
 20
-147.7198377451881
 30
0.0
 10
109.7748670515493
 20
-147.7198377451881
 30
0.0
 10
109.7748670515493
 20
-147.7198377451881
 30
0.0
 10
109.6291395125233
 20
-147.7198377451881
 30
0.0
 10
109.6291395125233
 20
-147.7198377451881
 30
0.0
 10
109.459640814649
 20
-147.7198377451881
 30
0.0
 10
109.2904866263232
 20
-147.7241441145446
 30
0.0
 10
109.1233994952886
 20
-147.7305175411923
 30
0.0
 10
109.1233994952886
 20
-147.7305175411923
 30
0.0
 10
109.1233994952886
 20
-147.5591240408012
 30
0.0
 10
109.1233994952886
 20
-147.5591240408012
 30
0.0
 10
109.2777397730278
 20
-147.5696315820312
 30
0.0
 10
109.4641194387798
 20
-147.5696315820312
 30
0.0
 10
109.6291395125233
 20
-147.5696315820312
 30
0.0
 10
109.6291395125233
 20
-147.5696315820312
 30
0.0
 10
109.7748670515493
 20
-147.5696315820312
 30
0.0
 10
109.7748670515493
 20
-147.5696315820312
 30
0.0
 10
109.7748670515493
 20
-147.5696315820312
 30
0.0
 10
109.7748670515493
 20
-147.4512925521128
 30
0.0
 10
109.7748670515493
 20
-147.4512925521128
 30
0.0
 10
109.7748670515493
 20
-147.4512925521128
 30
0.0
 10
109.6439534231098
 20
-147.4512925521128
 30
0.0
 10
109.6439534231098
 20
-147.4512925521128
 30
0.0
 10
109.597444634059
 20
-147.4512925521128
 30
0.0
 10
109.3941840004292
 20
-147.4597330360517
 30
0.0
 10
109.3518093259606
 20
-147.4597330360517
 30
0.0
 10
109.1488932018794
 20
-147.463867150634
 30
0.0
 10
109.0727565916554
 20
-147.4659342079252
 30
0.0
 10
108.9945529241402
 20
-147.4681735199906
 30
0.0
 10
108.9945529241402
 20
-147.4681735199906
 30
0.0
 10
108.9945529241402
 20
-147.284033166304
 30
0.0
 10
108.9945529241402
 20
-147.284033166304
 30
0.0
 10
109.108585584702
 20
-147.2924736502428
 30
0.0
 10
109.1530273164617
 20
-147.2924736502428
 30
0.0
 10
109.5361219344215
 20
-147.301086388956
 30
0.0
 10
109.4723876679444
 20
-147.2058294987888
 30
0.0
 10
109.4448269040624
 20
-147.1782687349068
 30
0.0
 10
109.4089979110158
 20
-147.142267487086
 30
0.0
 10
109.4089979110158
 20
-147.142267487086
 30
0.0
 10
109.5846977807635
 20
-147.0597574502142
 30
0.0
 10
109.5846977807635
 20
-147.0597574502142
 30
0.0
 10
109.6246608883924
 20
-147.0957586980351
 30
0.0
 10
109.6691026201521
 20
-147.1381333725036
 30
0.0
 10
109.743172173085
 20
-147.2480319184831
 30
0.0
 10
109.743172173085
 20
-147.2480319184831
 30
0.0
 10
109.6291395125233
 20
-147.3031534462471
 30
0.0
 10
109.6291395125233
 20
-147.3031534462471
 30
0.0
 10
109.6291395125233
 20
-147.3031534462471
 30
0.0
 10
109.639474798979
 20
-147.3031534462471
 30
0.0
 10
109.639474798979
 20
-147.3031534462471
 30
0.0
 10
109.639474798979
 20
-147.3031534462471
 30
0.0
 10
110.1620957840914
 20
-147.3031534462471
 30
0.0
 10
110.1620957840914
 20
-147.3031534462471
 30
0.0
 10
110.1620957840914
 20
-147.3031534462471
 30
0.0
 10
110.0670111486985
 20
-147.2587117144874
 30
0.0
 10
110.0670111486985
 20
-147.2587117144874
 30
0.0
 10
110.0945719125805
 20
-147.2206434093754
 30
0.0
 10
110.1514159880871
 20
-147.1402004297948
 30
0.0
 10
110.1662298986737
 20
-147.0661308768619
 30
0.0
 10
110.1662298986737
 20
-147.0661308768619
 30
0.0
 10
110.3801703283077
 20
-147.1296928885648
 30
0.0
 10
110.3801703283077
 20
-147.1296928885648
 30
0.0
 10
110.3884385574723
 20
-147.1317599458559
 30
0.0
 10
110.4097981494809
 20
-147.142267487086
 30
0.0
 10
110.4097981494809
 20
-147.1634548243202
 30
0.0
 10
110.4097981494809
 20
-147.2015231294323
 30
0.0
 10
110.3439968257126
 20
-147.2015231294323
 30
0.0
 10
110.3250488005437
 20
-147.2015231294323
 30
0.0
 10
110.3143690045395
 20
-147.2206434093754
 30
0.0
 10
110.2912868647883
 20
-147.2607787717786
 30
0.0
 10
110.2616590436151
 20
-147.301086388956
 30
0.0
 10
110.6612901199041
 20
-147.2947129623082
 30
0.0
 10
110.6909179410773
 20
-147.2924736502428
 30
0.0
 10
110.7670545513013
 20
-147.2862724783694
 30
0.0
 10
110.7670545513013
 20
-147.2862724783694
 30
0.0
 10
110.7670545513013
 20
-147.4681735199906
 30
0.0
 10
110.7670545513013
 20
-147.4681735199906
 30
0.0
 10
110.7481065261324
 20
-147.4681735199906
 30
0.0
 10
110.7226128195416
 20
-147.4659342079252
 30
0.0
 10
110.5028157275826
 20
-147.4574937239863
 30
0.0
 10
110.4518283144009
 20
-147.4554266666952
 30
0.0
 10
110.232031222442
 20
-147.4512925521128
 30
0.0
 10
110.1875894906823
 20
-147.4512925521128
 30
0.0
 10
110.1875894906823
 20
-147.4512925521128
 30
0.0
 10
109.9715820037571
 20
-147.4512925521128
 30
0.0
 10
109.9715820037571
 20
-147.4512925521128
 30
0.0
 10
109.9715820037571
 20
-147.4512925521128
 30
0.0
 10
109.9715820037571
 20
-147.5696315820312
 30
0.0
 10
109.9715820037571
 20
-147.5696315820312
 30
0.0
 10
109.9715820037571
 20
-147.5696315820312
 30
0.0
 10
110.1452148162137
 20
-147.5696315820312
 30
0.0
 10
110.1452148162137
 20
-147.5696315820312
 30
0.0
 10
110.308167832666
 20
-147.5696315820312
 30
0.0
 10
110.4983371034518
 20
-147.5696315820312
 30
0.0
 10
110.6550889480307
 20
-147.5591240408012
 30
0.0
 10
110.6550889480307
 20
-147.5591240408012
 30
0.0
 10
110.6550889480307
 20
-147.7305175411923
 30
0.0
 10
110.6550889480307
 20
-147.7305175411923
 30
0.0
 10
110.4456271425275
 20
-147.7220770572535
 30
0.0
 10
110.2489121903197
 20
-147.7198377451881
 30
0.0
 10
110.1452148162137
 20
-147.7198377451881
 30
0.0
 10
110.1452148162137
 20
-147.7198377451881
 30
0.0
 10
109.9715820037571
 20
-147.7198377451881
 30
0.0
 10
109.9715820037571
 20
-147.7198377451881
 30
0.0
 10
109.9715820037571
 20
-147.7198377451881
 30
0.0
 10
109.9715820037571
 20
-147.8278414886506
 30
0.0
 10
109.9715820037571
 20
-147.8278414886506
 30
0.0
 10
109.9715820037571
 20
-147.8278414886506
 30
0.0
 10
110.2024034012688
 20
-147.8278414886506
 30
0.0
 10
110.2024034012688
 20
-147.8278414886506
 30
0.0
 10
110.335728596548
 20
-147.8278414886506
 30
0.0
 10
110.6233940695664
 20
-147.8235351192941
 30
0.0
 10
110.8328558750695
 20
-147.8171616926464
 30
0.0
 10
110.8328558750695
 20
-147.8171616926464
 30
0.0
 10
110.8328558750695
 20
-147.9949286196853
 30
0.0
 10
110.8328558750695
 20
-147.9949286196853
 30
0.0
 10
110.6402750374441
 20
-147.9885551930376
 30
0.0
 10
110.3271158578349
 20
-147.984248823681
 30
0.0
 10
110.2024034012688
 20
-147.984248823681
 30
0.0
  0
HATCH
  5
96
330
8A
100
AcDbEntity
  8
レイヤー 1
 62
    18
420
        0
440
 33554687
100
AcDbHatch
 10
0.0
 20
0.0
 30
0.0
210
0.0
220
0.0
230
1.0
  2
SOLID
 70
     1
 71
     1
 91
        4
 92
        1
 93
        1
 72
     4
 94
        3
 73
     0
 74
     0
 95
       17
 96
       13
 40
0.0
 40
0.0
 40
0.0
 40
0.0
 40
1.0
 40
1.0
 40
1.0
 40
2.0
 40
2.0
 40
2.0
 40
3.0
 40
3.0
 40
3.0
 40
4.0
 40
4.0
 40
4.0
 40
4.0
 10
110.3674234750123
 20
-148.7163316142966
 10
110.3674234750123
 20
-148.7163316142966
 10
109.6608343909875
 20
-148.7163316142966
 10
109.6608343909875
 20
-148.7163316142966
 10
109.6608343909875
 20
-148.7163316142966
 10
109.6608343909875
 20
-148.8305365296326
 10
109.6608343909875
 20
-148.8305365296326
 10
109.6608343909875
 20
-148.8305365296326
 10
110.3674234750123
 20
-148.8305365296326
 10
110.3674234750123
 20
-148.8305365296326
 10
110.3674234750123
 20
-148.8305365296326
 10
110.3674234750123
 20
-148.7163316142966
 10
110.3674234750123
 20
-148.7163316142966
 97
        0
 97
        1
330
92
 92
        1
 93
        1
 72
     4
 94
        3
 73
     0
 74
     0
 95
       17
 96
       13
 40
0.0
 40
0.0
 40
0.0
 40
0.0
 40
1.0
 40
1.0
 40
1.0
 40
2.0
 40
2.0
 40
2.0
 40
3.0
 40
3.0
 40
3.0
 40
4.0
 40
4.0
 40
4.0
 40
4.0
 10
110.3674234750123
 20
-148.4729356182637
 10
110.3674234750123
 20
-148.4729356182637
 10
109.6608343909875
 20
-148.4729356182637
 10
109.6608343909875
 20
-148.4729356182637
 10
109.6608343909875
 20
-148.4729356182637
 10
109.6608343909875
 20
-148.587312788374
 10
109.6608343909875
 20
-148.587312788374
 10
109.6608343909875
 20
-148.587312788374
 10
110.3674234750123
 20
-148.587312788374
 10
110.3674234750123
 20
-148.587312788374
 10
110.3674234750123
 20
-148.587312788374
 10
110.3674234750123
 20
-148.4729356182637
 10
110.3674234750123
 20
-148.4729356182637
 97
        0
 97
        1
330
93
 92
        1
 93
        1
 72
     4
 94
        3
 73
     0
 74
     0
 95
       17
 96
       13
 40
0.0
 40
0.0
 40
0.0
 40
0.0
 40
1.0
 40
1.0
 40
1.0
 40
2.0
 40
2.0
 40
2.0
 40
3.0
 40
3.0
 40
3.0
 40
4.0
 40
4.0
 40
4.0
 40
4.0
 10
110.3674234750123
 20
-148.2402194182351
 10
110.3674234750123
 20
-148.2402194182351
 10
109.6608343909875
 20
-148.2402194182351
 10
109.6608343909875
 20
-148.2402194182351
 10
109.6608343909875
 20
-148.2402194182351
 10
109.6608343909875
 20
-148.3482231616976
 10
109.6608343909875
 20
-148.3482231616976
 10
109.6608343909875
 20
-148.3482231616976
 10
110.3674234750123
 20
-148.3482231616976
 10
110.3674234750123
 20
-148.3482231616976
 10
110.3674234750123
 20
-148.3482231616976
 10
110.3674234750123
 20
-148.2402194182351
 10
110.3674234750123
 20
-148.2402194182351
 97
        0
 97
        1
330
94
 92
        1
 93
        1
 72
     4
 94
        3
 73
     0
 74
     0
 95
      203
 96
      199
 40
0.0
 40
0.0
 40
0.0
 40
0.0
 40
1.0
 40
1.0
 40
1.0
 40
2.0
 40
2.0
 40
2.0
 40
3.0
 40
3.0
 40
3.0
 40
4.0
 40
4.0
 40
4.0
 40
5.0
 40
5.0
 40
5.0
 40
6.0
 40
6.0
 40
6.0
 40
7.0
 40
7.0
 40
7.0
 40
8.0
 40
8.0
 40
8.0
 40
9.0
 40
9.0
 40
9.0
 40
10.0
 40
10.0
 40
10.0
 40
11.0
 40
11.0
 40
11.0
 40
12.0
 40
12.0
 40
12.0
 40
13.0
 40
13.0
 40
13.0
 40
14.0
 40
14.0
 40
14.0
 40
15.0
 40
15.0
 40
15.0
 40
16.0
 40
16.0
 40
16.0
 40
17.0
 40
17.0
 40
17.0
 40
18.0
 40
18.0
 40
18.0
 40
19.0
 40
19.0
 40
19.0
 40
20.0
 40
20.0
 40
20.0
 40
21.0
 40
21.0
 40
21.0
 40
22.0
 40
22.0
 40
22.0
 40
23.0
 40
23.0
 40
23.0
 40
24.0
 40
24.0
 40
24.0
 40
25.0
 40
25.0
 40
25.0
 40
26.0
 40
26.0
 40
26.0
 40
27.0
 40
27.0
 40
27.0
 40
28.0
 40
28.0
 40
28.0
 40
29.0
 40
29.0
 40
29.0
 40
30.0
 40
30.0
 40
30.0
 40
31.0
 40
31.0
 40
31.0
 40
32.0
 40
32.0
 40
32.0
 40
33.0
 40
33.0
 40
33.0
 40
34.0
 40
34.0
 40
34.0
 40
35.0
 40
35.0
 40
35.0
 40
36.0
 40
36.0
 40
36.0
 40
37.0
 40
37.0
 40
37.0
 40
38.0
 40
38.0
 40
38.0
 40
39.0
 40
39.0
 40
39.0
 40
40.0
 40
40.0
 40
40.0
 40
41.0
 40
41.0
 40
41.0
 40
42.0
 40
42.0
 40
42.0
 40
43.0
 40
43.0
 40
43.0
 40
44.0
 40
44.0
 40
44.0
 40
45.0
 40
45.0
 40
45.0
 40
46.0
 40
46.0
 40
46.0
 40
47.0
 40
47.0
 40
47.0
 40
48.0
 40
48.0
 40
48.0
 40
49.0
 40
49.0
 40
49.0
 40
50.0
 40
50.0
 40
50.0
 40
51.0
 40
51.0
 40
51.0
 40
52.0
 40
52.0
 40
52.0
 40
53.0
 40
53.0
 40
53.0
 40
54.0
 40
54.0
 40
54.0
 40
55.0
 40
55.0
 40
55.0
 40
56.0
 40
56.0
 40
56.0
 40
57.0
 40
57.0
 40
57.0
 40
58.0
 40
58.0
 40
58.0
 40
59.0
 40
59.0
 40
59.0
 40
60.0
 40
60.0
 40
60.0
 40
61.0
 40
61.0
 40
61.0
 40
62.0
 40
62.0
 40
62.0
 40
63.0
 40
63.0
 40
63.0
 40
64.0
 40
64.0
 40
64.0
 40
65.0
 40
65.0
 40
65.0
 40
66.0
 40
66.0
 40
66.0
 40
66.0
 10
110.2024034012688
 20
-147.984248823681
 10
110.2024034012688
 20
-147.984248823681
 10
109.6439534231098
 20
-147.984248823681
 10
109.6439534231098
 20
-147.984248823681
 10
109.6332736271055
 20
-148.0286905554407
 10
109.6246608883924
 20
-148.060385433905
 10
109.6122585446455
 20
-148.0986259937913
 10
109.6374077416879
 20
-148.0986259937913
 10
109.6522216522744
 20
-148.1006930510824
 10
109.6587673336964
 20
-148.1006930510824
 10
109.6587673336964
 20
-148.1006930510824
 10
109.846869547191
 20
-148.1006930510824
 10
109.846869547191
 20
-148.1006930510824
 10
109.846869547191
 20
-148.1006930510824
 10
110.2213514264377
 20
-148.1006930510824
 10
110.2213514264377
 20
-148.1006930510824
 10
110.2719943300709
 20
-148.1006930510824
 10
110.5555256885069
 20
-148.087946197787
 10
110.5872205669712
 20
-148.087946197787
 10
110.5851535096801
 20
-148.115506961669
 10
110.5830864523889
 20
-148.1344549868379
 10
110.5830864523889
 20
-148.164082808011
 10
110.5810193950978
 20
-148.1957776864753
 10
110.5810193950978
 20
-148.3311699390457
 10
110.5810193950978
 20
-148.3587307029277
 10
110.5810193950978
 20
-148.3587307029277
 10
110.5810193950978
 20
-148.6041937562517
 10
110.5810193950978
 20
-148.6041937562517
 10
110.5810193950978
 20
-148.6486354880114
 10
110.5851535096801
 20
-148.8453504402192
 10
110.5896321338109
 20
-148.9976236606672
 10
110.5896321338109
 20
-148.9976236606672
 10
110.3629448508815
 20
-148.9976236606672
 10
110.3629448508815
 20
-148.9976236606672
 10
110.3629448508815
 20
-148.9976236606672
 10
110.3653564177211
 20
-148.9638617249118
 10
110.3653564177211
 20
-148.9638617249118
 10
110.3653564177211
 20
-148.9638617249118
 10
109.6629014482787
 20
-148.9638617249118
 10
109.6629014482787
 20
-148.9638617249118
 10
109.6629014482787
 20
-148.9638617249118
 10
109.6649685055699
 20
-148.9976236606672
 10
109.6649685055699
 20
-148.9976236606672
 10
109.6649685055699
 20
-148.9976236606672
 10
109.447238470902
 20
-148.9976236606672
 10
109.447238470902
 20
-148.9976236606672
 10
109.4513725854844
 20
-148.9428466424518
 10
109.4513725854844
 20
-148.9300997891563
 10
109.4575737573578
 20
-148.8157226190461
 10
109.459640814649
 20
-148.788161855164
 10
109.4620523814886
 20
-148.6550089146591
 10
109.4620523814886
 20
-148.635888634716
 10
109.4620523814886
 20
-148.635888634716
 10
109.4620523814886
 20
-148.4328002558605
 10
109.4620523814886
 20
-148.4328002558605
 10
109.3221815047875
 20
-148.6823974237669
 10
109.1530273164617
 20
-148.8136555617549
 10
109.0472628850646
 20
-148.8791123759746
 10
109.0472628850646
 20
-148.8791123759746
 10
108.8736300726079
 20
-148.739586008822
 10
108.8736300726079
 20
-148.739586008822
 10
108.9625135361274
 20
-148.6887708504146
 10
109.1065185274108
 20
-148.6019544441863
 10
109.2439778372723
 20
-148.4074788040439
 10
109.3349283580829
 20
-148.2805270354125
 10
109.4007296818512
 20
-148.1366942989033
 10
109.4344916176066
 20
-147.984248823681
 10
109.2060817869346
 20
-147.9864881357464
 10
109.0262478026045
 20
-147.9928615623941
 10
108.9308186576631
 20
-147.9949286196853
 10
108.9308186576631
 20
-147.9949286196853
 10
108.9308186576631
 20
-147.8171616926464
 10
108.9308186576631
 20
-147.8171616926464
 10
109.1275336098709
 20
-147.8235351192941
 10
109.4110649683069
 20
-147.8278414886506
 10
109.5612711314638
 20
-147.8278414886506
 10
109.5612711314638
 20
-147.8278414886506
 10
109.7748670515493
 20
-147.8278414886506
 10
109.7748670515493
 20
-147.8278414886506
 10
109.7748670515493
 20
-147.8278414886506
 10
109.7748670515493
 20
-147.7198377451881
 10
109.7748670515493
 20
-147.7198377451881
 10
109.7748670515493
 20
-147.7198377451881
 10
109.6291395125233
 20
-147.7198377451881
 10
109.6291395125233
 20
-147.7198377451881
 10
109.459640814649
 20
-147.7198377451881
 10
109.2904866263232
 20
-147.7241441145446
 10
109.1233994952886
 20
-147.7305175411923
 10
109.1233994952886
 20
-147.7305175411923
 10
109.1233994952886
 20
-147.5591240408012
 10
109.1233994952886
 20
-147.5591240408012
 10
109.2777397730278
 20
-147.5696315820312
 10
109.4641194387798
 20
-147.5696315820312
 10
109.6291395125233
 20
-147.5696315820312
 10
109.6291395125233
 20
-147.5696315820312
 10
109.7748670515493
 20
-147.5696315820312
 10
109.7748670515493
 20
-147.5696315820312
 10
109.7748670515493
 20
-147.5696315820312
 10
109.7748670515493
 20
-147.4512925521128
 10
109.7748670515493
 20
-147.4512925521128
 10
109.7748670515493
 20
-147.4512925521128
 10
109.6439534231098
 20
-147.4512925521128
 10
109.6439534231098
 20
-147.4512925521128
 10
109.597444634059
 20
-147.4512925521128
 10
109.3941840004292
 20
-147.4597330360517
 10
109.3518093259606
 20
-147.4597330360517
 10
109.1488932018794
 20
-147.463867150634
 10
109.0727565916554
 20
-147.4659342079252
 10
108.9945529241402
 20
-147.4681735199906
 10
108.9945529241402
 20
-147.4681735199906
 10
108.9945529241402
 20
-147.284033166304
 10
108.9945529241402
 20
-147.284033166304
 10
109.108585584702
 20
-147.2924736502428
 10
109.1530273164617
 20
-147.2924736502428
 10
109.5361219344215
 20
-147.301086388956
 10
109.4723876679444
 20
-147.2058294987888
 10
109.4448269040624
 20
-147.1782687349068
 10
109.4089979110158
 20
-147.142267487086
 10
109.4089979110158
 20
-147.142267487086
 10
109.5846977807635
 20
-147.0597574502142
 10
109.5846977807635
 20
-147.0597574502142
 10
109.6246608883924
 20
-147.0957586980351
 10
109.6691026201521
 20
-147.1381333725036
 10
109.743172173085
 20
-147.2480319184831
 10
109.743172173085
 20
-147.2480319184831
 10
109.6291395125233
 20
-147.3031534462471
 10
109.6291395125233
 20
-147.3031534462471
 10
109.6291395125233
 20
-147.3031534462471
 10
109.639474798979
 20
-147.3031534462471
 10
109.639474798979
 20
-147.3031534462471
 10
109.639474798979
 20
-147.3031534462471
 10
110.1620957840914
 20
-147.3031534462471
 10
110.1620957840914
 20
-147.3031534462471
 10
110.1620957840914
 20
-147.3031534462471
 10
110.0670111486985
 20
-147.2587117144874
 10
110.0670111486985
 20
-147.2587117144874
 10
110.0945719125805
 20
-147.2206434093754
 10
110.1514159880871
 20
-147.1402004297948
 10
110.1662298986737
 20
-147.0661308768619
 10
110.1662298986737
 20
-147.0661308768619
 10
110.3801703283077
 20
-147.1296928885648
 10
110.3801703283077
 20
-147.1296928885648
 10
110.3884385574723
 20
-147.1317599458559
 10
110.4097981494809
 20
-147.142267487086
 10
110.4097981494809
 20
-147.1634548243202
 10
110.4097981494809
 20
-147.2015231294323
 10
110.3439968257126
 20
-147.2015231294323
 10
110.3250488005437
 20
-147.2015231294323
 10
110.3143690045395
 20
-147.2206434093754
 10
110.2912868647883
 20
-147.2607787717786
 10
110.2616590436151
 20
-147.301086388956
 10
110.6612901199041
 20
-147.2947129623082
 10
110.6909179410773
 20
-147.2924736502428
 10
110.7670545513013
 20
-147.2862724783694
 10
110.7670545513013
 20
-147.2862724783694
 10
110.7670545513013
 20
-147.4681735199906
 10
110.7670545513013
 20
-147.4681735199906
 10
110.7481065261324
 20
-147.4681735199906
 10
110.7226128195416
 20
-147.4659342079252
 10
110.5028157275826
 20
-147.4574937239863
 10
110.4518283144009
 20
-147.4554266666952
 10
110.232031222442
 20
-147.4512925521128
 10
110.1875894906823
 20
-147.4512925521128
 10
110.1875894906823
 20
-147.4512925521128
 10
109.9715820037571
 20
-147.4512925521128
 10
109.9715820037571
 20
-147.4512925521128
 10
109.9715820037571
 20
-147.4512925521128
 10
109.9715820037571
 20
-147.5696315820312
 10
109.9715820037571
 20
-147.5696315820312
 10
109.9715820037571
 20
-147.5696315820312
 10
110.1452148162137
 20
-147.5696315820312
 10
110.1452148162137
 20
-147.5696315820312
 10
110.308167832666
 20
-147.5696315820312
 10
110.4983371034518
 20
-147.5696315820312
 10
110.6550889480307
 20
-147.5591240408012
 10
110.6550889480307
 20
-147.5591240408012
 10
110.6550889480307
 20
-147.7305175411923
 10
110.6550889480307
 20
-147.7305175411923
 10
110.4456271425275
 20
-147.7220770572535
 10
110.2489121903197
 20
-147.7198377451881
 10
110.1452148162137
 20
-147.7198377451881
 10
110.1452148162137
 20
-147.7198377451881
 10
109.9715820037571
 20
-147.7198377451881
 10
109.9715820037571
 20
-147.7198377451881
 10
109.9715820037571
 20
-147.7198377451881
 10
109.9715820037571
 20
-147.8278414886506
 10
109.9715820037571
 20
-147.8278414886506
 10
109.9715820037571
 20
-147.8278414886506
 10
110.2024034012688
 20
-147.8278414886506
 10
110.2024034012688
 20
-147.8278414886506
 10
110.335728596548
 20
-147.8278414886506
 10
110.6233940695664
 20
-147.8235351192941
 10
110.8328558750695
 20
-147.8171616926464
 10
110.8328558750695
 20
-147.8171616926464
 10
110.8328558750695
 20
-147.9949286196853
 10
110.8328558750695
 20
-147.9949286196853
 10
110.6402750374441
 20
-147.9885551930376
 10
110.3271158578349
 20
-147.984248823681
 10
110.2024034012688
 20
-147.984248823681
 97
        0
 97
        1
330
95
 75
     2
 76
     1
 98
        1
 10
0.0
 20
0.0
450
        0
451
        0
460
0.0
461
0.0
452
        0
462
0.0
453
        0
470

  0
SPLINE
  5
97
330
8A
100
AcDbEntity
  8
レイヤー 1
100
AcDbSpline
210
0.0
220
0.0
230
1.0
 70
     9
 71
     3
 72
    29
 73
    25
 74
     0
 42
0.0000000001
 43
0.0000000001
 40
0.0
 40
0.0
 40
0.0
 40
0.0
 40
1.0
 40
1.0
 40
1.0
 40
2.0
 40
2.0
 40
2.0
 40
3.0
 40
3.0
 40
3.0
 40
4.0
 40
4.0
 40
4.0
 40
5.0
 40
5.0
 40
5.0
 40
6.0
 40
6.0
 40
6.0
 40
7.0
 40
7.0
 40
7.0
 40
8.0
 40
8.0
 40
8.0
 40
8.0
 10
112.0779133834388
 20
-147.4321722721697
 30
0.0
 10
112.0779133834388
 20
-147.4321722721697
 30
0.0
 10
111.7244465866522
 20
-147.4321722721697
 30
0.0
 10
111.7244465866522
 20
-147.4321722721697
 30
0.0
 10
111.6124809833816
 20
-147.4321722721697
 30
0.0
 10
111.472954616229
 20
-147.4385456988174
 30
0.0
 10
111.3647786179921
 20
-147.4512925521128
 30
0.0
 10
111.3647786179921
 20
-147.4512925521128
 30
0.0
 10
111.3647786179921
 20
-147.2163370400188
 30
0.0
 10
111.3647786179921
 20
-147.2163370400188
 30
0.0
 10
111.4832899026847
 20
-147.2311509506054
 30
0.0
 10
111.667258001597
 20
-147.2354573199619
 30
0.0
 10
111.7244465866522
 20
-147.2354573199619
 30
0.0
 10
111.7244465866522
 20
-147.2354573199619
 30
0.0
 10
112.0779133834388
 20
-147.2354573199619
 30
0.0
 10
112.0779133834388
 20
-147.2354573199619
 30
0.0
 10
112.0968614086077
 20
-147.2354573199619
 30
0.0
 10
112.3001220422374
 20
-147.2354573199619
 30
0.0
 10
112.4417154666812
 20
-147.2163370400188
 30
0.0
 10
112.4417154666812
 20
-147.2163370400188
 30
0.0
 10
112.4417154666812
 20
-147.4512925521128
 30
0.0
 10
112.4417154666812
 20
-147.4512925521128
 30
0.0
 10
112.2853081316509
 20
-147.4321722721697
 30
0.0
 10
112.0947943513165
 20
-147.4321722721697
 30
0.0
 10
112.0779133834388
 20
-147.4321722721697
 30
0.0
  0
SPLINE
  5
98
330
8A
100
AcDbEntity
  8
レイヤー 1
100
AcDbSpline
210
0.0
220
0.0
230
1.0
 70
     9
 71
     3
 72
    47
 73
    43
 74
     0
 42
0.0000000001
 43
0.0000000001
 40
0.0
 40
0.0
 40
0.0
 40
0.0
 40
1.0
 40
1.0
 40
1.0
 40
2.0
 40
2.0
 40
2.0
 40
3.0
 40
3.0
 40
3.0
 40
4.0
 40
4.0
 40
4.0
 40
5.0
 40
5.0
 40
5.0
 40
6.0
 40
6.0
 40
6.0
 40
7.0
 40
7.0
 40
7.0
 40
8.0
 40
8.0
 40
8.0
 40
9.0
 40
9.0
 40
9.0
 40
10.0
 40
10.0
 40
10.0
 40
11.0
 40
11.0
 40
11.0
 40
12.0
 40
12.0
 40
12.0
 40
13.0
 40
13.0
 40
13.0
 40
14.0
 40
14.0
 40
14.0
 40
14.0
 10
112.1791991907052
 20
-147.9609944291556
 30
0.0
 10
112.1791991907052
 20
-147.9609944291556
 30
0.0
 10
112.0779133834388
 20
-147.9609944291556
 30
0.0
 10
112.0779133834388
 20
-147.9609944291556
 30
0.0
 10
112.0779133834388
 20
-148.0478108353839
 30
0.0
 10
112.0565537914303
 20
-148.4371066252171
 30
0.0
 10
111.8598388392225
 20
-148.6570759719503
 30
0.0
 10
111.7075656187745
 20
-148.8262301602761
 30
0.0
 10
111.5001708705624
 20
-148.8963378534009
 30
0.0
 10
111.4157660311738
 20
-148.9235541077344
 30
0.0
 10
111.4157660311738
 20
-148.9235541077344
 30
0.0
 10
111.2211181362572
 20
-148.7564669766998
 30
0.0
 10
111.2211181362572
 20
-148.7564669766998
 30
0.0
 10
111.3182698289412
 20
-148.7437201234043
 30
0.0
 10
111.493969698689
 20
-148.7204657288789
 30
0.0
 10
111.6820719121836
 20
-148.53219126061
 30
0.0
 10
111.7561414651165
 20
-148.4603610197425
 30
0.0
 10
111.8598388392225
 20
-148.3206623978157
 30
0.0
 10
111.8598388392225
 20
-147.9609944291556
 30
0.0
 10
111.8598388392225
 20
-147.9609944291556
 30
0.0
 10
111.6293619512593
 20
-147.9609944291556
 30
0.0
 10
111.6293619512593
 20
-147.9609944291556
 30
0.0
 10
111.4433267950558
 20
-147.9609944291556
 30
0.0
 10
111.2569471293038
 20
-147.9653007985121
 30
0.0
 10
111.0709119731003
 20
-147.9801147090987
 30
0.0
 10
111.0709119731003
 20
-147.9801147090987
 30
0.0
 10
111.0709119731003
 20
-147.7601453623655
 30
0.0
 10
111.0709119731003
 20
-147.7601453623655
 30
0.0
 10
111.2590141865949
 20
-147.7749592729521
 30
0.0
 10
111.5446126023222
 20
-147.7790933875344
 30
0.0
 10
111.6293619512593
 20
-147.7790933875344
 30
0.0
 10
111.6293619512593
 20
-147.7790933875344
 30
0.0
 10
112.1791991907052
 20
-147.7790933875344
 30
0.0
 10
112.1791991907052
 20
-147.7790933875344
 30
0.0
 10
112.1984917254226
 20
-147.7790933875344
 30
0.0
 10
112.5157850196141
 20
-147.7790933875344
 30
0.0
 10
112.7441948502861
 20
-147.7601453623655
 30
0.0
 10
112.7441948502861
 20
-147.7601453623655
 30
0.0
 10
112.7441948502861
 20
-147.9801147090987
 30
0.0
 10
112.7441948502861
 20
-147.9801147090987
 30
0.0
 10
112.5560926367915
 20
-147.9653007985121
 30
0.0
 10
112.3676459137483
 20
-147.9609944291556
 30
0.0
 10
112.1791991907052
 20
-147.9609944291556
 30
0.0
  0
HATCH
  5
99
330
8A
100
AcDbEntity
  8
レイヤー 1
 62
    18
420
        0
440
 33554687
100
AcDbHatch
 10
0.0
 20
0.0
 30
0.0
210
0.0
220
0.0
230
1.0
  2
SOLID
 70
     1
 71
     1
 91
        2
 92
        1
 93
        1
 72
     4
 94
        3
 73
     0
 74
     0
 95
       29
 96
       25
 40
0.0
 40
0.0
 40
0.0
 40
0.0
 40
1.0
 40
1.0
 40
1.0
 40
2.0
 40
2.0
 40
2.0
 40
3.0
 40
3.0
 40
3.0
 40
4.0
 40
4.0
 40
4.0
 40
5.0
 40
5.0
 40
5.0
 40
6.0
 40
6.0
 40
6.0
 40
7.0
 40
7.0
 40
7.0
 40
8.0
 40
8.0
 40
8.0
 40
8.0
 10
112.0779133834388
 20
-147.4321722721697
 10
112.0779133834388
 20
-147.4321722721697
 10
111.7244465866522
 20
-147.4321722721697
 10
111.7244465866522
 20
-147.4321722721697
 10
111.6124809833816
 20
-147.4321722721697
 10
111.472954616229
 20
-147.4385456988174
 10
111.3647786179921
 20
-147.4512925521128
 10
111.3647786179921
 20
-147.4512925521128
 10
111.3647786179921
 20
-147.2163370400188
 10
111.3647786179921
 20
-147.2163370400188
 10
111.4832899026847
 20
-147.2311509506054
 10
111.667258001597
 20
-147.2354573199619
 10
111.7244465866522
 20
-147.2354573199619
 10
111.7244465866522
 20
-147.2354573199619
 10
112.0779133834388
 20
-147.2354573199619
 10
112.0779133834388
 20
-147.2354573199619
 10
112.0968614086077
 20
-147.2354573199619
 10
112.3001220422374
 20
-147.2354573199619
 10
112.4417154666812
 20
-147.2163370400188
 10
112.4417154666812
 20
-147.2163370400188
 10
112.4417154666812
 20
-147.4512925521128
 10
112.4417154666812
 20
-147.4512925521128
 10
112.2853081316509
 20
-147.4321722721697
 10
112.0947943513165
 20
-147.4321722721697
 10
112.0779133834388
 20
-147.4321722721697
 97
        0
 97
        1
330
97
 92
        1
 93
        1
 72
     4
 94
        3
 73
     0
 74
     0
 95
       47
 96
       43
 40
0.0
 40
0.0
 40
0.0
 40
0.0
 40
1.0
 40
1.0
 40
1.0
 40
2.0
 40
2.0
 40
2.0
 40
3.0
 40
3.0
 40
3.0
 40
4.0
 40
4.0
 40
4.0
 40
5.0
 40
5.0
 40
5.0
 40
6.0
 40
6.0
 40
6.0
 40
7.0
 40
7.0
 40
7.0
 40
8.0
 40
8.0
 40
8.0
 40
9.0
 40
9.0
 40
9.0
 40
10.0
 40
10.0
 40
10.0
 40
11.0
 40
11.0
 40
11.0
 40
12.0
 40
12.0
 40
12.0
 40
13.0
 40
13.0
 40
13.0
 40
14.0
 40
14.0
 40
14.0
 40
14.0
 10
112.1791991907052
 20
-147.9609944291556
 10
112.1791991907052
 20
-147.9609944291556
 10
112.0779133834388
 20
-147.9609944291556
 10
112.0779133834388
 20
-147.9609944291556
 10
112.0779133834388
 20
-148.0478108353839
 10
112.0565537914303
 20
-148.4371066252171
 10
111.8598388392225
 20
-148.6570759719503
 10
111.7075656187745
 20
-148.8262301602761
 10
111.5001708705624
 20
-148.8963378534009
 10
111.4157660311738
 20
-148.9235541077344
 10
111.4157660311738
 20
-148.9235541077344
 10
111.2211181362572
 20
-148.7564669766998
 10
111.2211181362572
 20
-148.7564669766998
 10
111.3182698289412
 20
-148.7437201234043
 10
111.493969698689
 20
-148.7204657288789
 10
111.6820719121836
 20
-148.53219126061
 10
111.7561414651165
 20
-148.4603610197425
 10
111.8598388392225
 20
-148.3206623978157
 10
111.8598388392225
 20
-147.9609944291556
 10
111.8598388392225
 20
-147.9609944291556
 10
111.6293619512593
 20
-147.9609944291556
 10
111.6293619512593
 20
-147.9609944291556
 10
111.4433267950558
 20
-147.9609944291556
 10
111.2569471293038
 20
-147.9653007985121
 10
111.0709119731003
 20
-147.9801147090987
 10
111.0709119731003
 20
-147.9801147090987
 10
111.0709119731003
 20
-147.7601453623655
 10
111.0709119731003
 20
-147.7601453623655
 10
111.2590141865949
 20
-147.7749592729521
 10
111.5446126023222
 20
-147.7790933875344
 10
111.6293619512593
 20
-147.7790933875344
 10
111.6293619512593
 20
-147.7790933875344
 10
112.1791991907052
 20
-147.7790933875344
 10
112.1791991907052
 20
-147.7790933875344
 10
112.1984917254226
 20
-147.7790933875344
 10
112.5157850196141
 20
-147.7790933875344
 10
112.7441948502861
 20
-147.7601453623655
 10
112.7441948502861
 20
-147.7601453623655
 10
112.7441948502861
 20
-147.9801147090987
 10
112.7441948502861
 20
-147.9801147090987
 10
112.5560926367915
 20
-147.9653007985121
 10
112.3676459137483
 20
-147.9609944291556
 10
112.1791991907052
 20
-147.9609944291556
 97
        0
 97
        1
330
98
 75
     2
 76
     1
 98
        1
 10
0.0
 20
0.0
450
        0
451
        0
460
0.0
461
0.0
452
        0
462
0.0
453
        0
470

  0
SPLINE
  5
9A
330
8A
100
AcDbEntity
  8
レイヤー 1
100
AcDbSpline
210
0.0
220
0.0
230
1.0
 70
     9
 71
     3
 72
    29
 73
    25
 74
     0
 42
0.0000000001
 43
0.0000000001
 40
0.0
 40
0.0
 40
0.0
 40
0.0
 40
1.0
 40
1.0
 40
1.0
 40
2.0
 40
2.0
 40
2.0
 40
3.0
 40
3.0
 40
3.0
 40
4.0
 40
4.0
 40
4.0
 40
5.0
 40
5.0
 40
5.0
 40
6.0
 40
6.0
 40
6.0
 40
7.0
 40
7.0
 40
7.0
 40
8.0
 40
8.0
 40
8.0
 40
8.0
 10
114.025081351702
 20
-148.1239474456079
 30
0.0
 10
114.025081351702
 20
-148.1239474456079
 30
0.0
 10
113.5407009264759
 20
-148.1239474456079
 30
0.0
 10
113.5407009264759
 20
-148.1239474456079
 30
0.0
 10
113.5131401625939
 20
-148.1239474456079
 30
0.0
 10
113.1958468684024
 20
-148.1239474456079
 30
0.0
 10
112.9843180056081
 20
-148.1492688974245
 30
0.0
 10
112.9843180056081
 20
-148.1492688974245
 30
0.0
 10
112.9843180056081
 20
-147.9187920094612
 30
0.0
 10
112.9843180056081
 20
-147.9187920094612
 30
0.0
 10
113.1431369074781
 20
-147.9420464039867
 30
0.0
 10
113.3333061782639
 20
-147.9441134612779
 30
0.0
 10
113.5407009264759
 20
-147.9441134612779
 30
0.0
 10
113.5407009264759
 20
-147.9441134612779
 30
0.0
 10
114.025081351702
 20
-147.9441134612779
 30
0.0
 10
114.025081351702
 20
-147.9441134612779
 30
0.0
 10
114.2114610174541
 20
-147.9441134612779
 30
0.0
 10
114.3974961736575
 20
-147.9420464039867
 30
0.0
 10
114.5814642725699
 20
-147.9187920094612
 30
0.0
 10
114.5814642725699
 20
-147.9187920094612
 30
0.0
 10
114.5814642725699
 20
-148.1492688974245
 30
0.0
 10
114.5814642725699
 20
-148.1492688974245
 30
0.0
 10
114.3974961736575
 20
-148.126014502899
 30
0.0
 10
114.1501383178166
 20
-148.1239474456079
 30
0.0
 10
114.025081351702
 20
-148.1239474456079
 30
0.0
  0
HATCH
  5
9B
330
8A
100
AcDbEntity
  8
レイヤー 1
 62
    18
420
        0
440
 33554687
100
AcDbHatch
 10
0.0
 20
0.0
 30
0.0
210
0.0
220
0.0
230
1.0
  2
SOLID
 70
     1
 71
     1
 91
        1
 92
        1
 93
        1
 72
     4
 94
        3
 73
     0
 74
     0
 95
       29
 96
       25
 40
0.0
 40
0.0
 40
0.0
 40
0.0
 40
1.0
 40
1.0
 40
1.0
 40
2.0
 40
2.0
 40
2.0
 40
3.0
 40
3.0
 40
3.0
 40
4.0
 40
4.0
 40
4.0
 40
5.0
 40
5.0
 40
5.0
 40
6.0
 40
6.0
 40
6.0
 40
7.0
 40
7.0
 40
7.0
 40
8.0
 40
8.0
 40
8.0
 40
8.0
 10
114.025081351702
 20
-148.1239474456079
 10
114.025081351702
 20
-148.1239474456079
 10
113.5407009264759
 20
-148.1239474456079
 10
113.5407009264759
 20
-148.1239474456079
 10
113.5131401625939
 20
-148.1239474456079
 10
113.1958468684024
 20
-148.1239474456079
 10
112.9843180056081
 20
-148.1492688974245
 10
112.9843180056081
 20
-148.1492688974245
 10
112.9843180056081
 20
-147.9187920094612
 10
112.9843180056081
 20
-147.9187920094612
 10
113.1431369074781
 20
-147.9420464039867
 10
113.3333061782639
 20
-147.9441134612779
 10
113.5407009264759
 20
-147.9441134612779
 10
113.5407009264759
 20
-147.9441134612779
 10
114.025081351702
 20
-147.9441134612779
 10
114.025081351702
 20
-147.9441134612779
 10
114.2114610174541
 20
-147.9441134612779
 10
114.3974961736575
 20
-147.9420464039867
 10
114.5814642725699
 20
-147.9187920094612
 10
114.5814642725699
 20
-147.9187920094612
 10
114.5814642725699
 20
-148.1492688974245
 10
114.5814642725699
 20
-148.1492688974245
 10
114.3974961736575
 20
-148.126014502899
 10
114.1501383178166
 20
-148.1239474456079
 10
114.025081351702
 20
-148.1239474456079
 97
        0
 97
        1
330
9A
 75
     2
 76
     1
 98
        1
 10
0.0
 20
0.0
450
        0
451
        0
460
0.0
461
0.0
452
        0
462
0.0
453
        0
470

  0
SPLINE
  5
9C
330
8A
100
AcDbEntity
  8
レイヤー 1
100
AcDbSpline
210
0.0
220
0.0
230
1.0
 70
     9
 71
     3
 72
    47
 73
    43
 74
     0
 42
0.0000000001
 43
0.0000000001
 40
0.0
 40
0.0
 40
0.0
 40
0.0
 40
1.0
 40
1.0
 40
1.0
 40
2.0
 40
2.0
 40
2.0
 40
3.0
 40
3.0
 40
3.0
 40
4.0
 40
4.0
 40
4.0
 40
5.0
 40
5.0
 40
5.0
 40
6.0
 40
6.0
 40
6.0
 40
7.0
 40
7.0
 40
7.0
 40
8.0
 40
8.0
 40
8.0
 40
9.0
 40
9.0
 40
9.0
 40
10.0
 40
10.0
 40
10.0
 40
11.0
 40
11.0
 40
11.0
 40
12.0
 40
12.0
 40
12.0
 40
13.0
 40
13.0
 40
13.0
 40
14.0
 40
14.0
 40
14.0
 40
14.0
 10
116.2454453919456
 20
-147.529496219628
 30
0.0
 10
116.175509953595
 20
-147.8087212087075
 30
0.0
 10
116.099373343371
 20
-148.1134399043779
 30
0.0
 10
115.7862141637618
 20
-148.4455471091559
 30
0.0
 10
115.5491915943766
 20
-148.6951442770623
 30
0.0
 10
115.3039007958268
 20
-148.7945352818118
 30
0.0
 10
115.1981363644296
 20
-148.8369099562803
 30
0.0
 10
115.1981363644296
 20
-148.8369099562803
 30
0.0
 10
115.003488469513
 20
-148.6550089146591
 30
0.0
 10
115.003488469513
 20
-148.6550089146591
 30
0.0
 10
115.1895236257165
 20
-148.608327870834
 30
0.0
 10
115.5516031612163
 20
-148.5153102927323
 30
0.0
 10
115.8475368633992
 20
-148.0202500715019
 30
0.0
 10
116.0084228225604
 20
-147.7537719357178
 30
0.0
 10
116.0211696758558
 20
-147.5803113780354
 30
0.0
 10
116.0294379050204
 20
-147.4893608572249
 30
0.0
 10
116.0294379050204
 20
-147.4893608572249
 30
0.0
 10
115.5240423973342
 20
-147.4893608572249
 30
0.0
 10
115.5240423973342
 20
-147.4893608572249
 30
0.0
 10
115.4055311126417
 20
-147.4893608572249
 30
0.0
 10
114.9845404443441
 20
-147.5083088823937
 30
0.0
 10
114.8322672238961
 20
-147.5188164236238
 30
0.0
 10
114.8322672238961
 20
-147.5188164236238
 30
0.0
 10
114.8322672238961
 20
-147.3095268728948
 30
0.0
 10
114.8322672238961
 20
-147.3095268728948
 30
0.0
 10
114.9738606483398
 20
-147.322101471416
 30
0.0
 10
115.2511908349025
 20
-147.3264078407725
 30
0.0
 10
115.3672905527554
 20
-147.3264078407725
 30
0.0
 10
115.3672905527554
 20
-147.3264078407725
 30
0.0
 10
115.7228244068332
 20
-147.3264078407725
 30
0.0
 10
115.7228244068332
 20
-147.3264078407725
 30
0.0
 10
115.7503851707152
 20
-147.3264078407725
 30
0.0
 10
115.9109266203278
 20
-147.3243407834814
 30
0.0
 10
116.0211696758558
 20
-147.3095268728948
 30
0.0
 10
116.0783582609109
 20
-147.3031534462471
 30
0.0
 10
116.0952392287887
 20
-147.284033166304
 30
0.0
 10
116.1183213685399
 20
-147.2607787717786
 30
0.0
 10
116.1183213685399
 20
-147.2607787717786
 30
0.0
 10
116.306768091583
 20
-147.4109849349354
 30
0.0
 10
116.306768091583
 20
-147.4109849349354
 30
0.0
 10
116.2919541809964
 20
-147.4406127561086
 30
0.0
 10
116.2812743849922
 20
-147.4597330360517
 30
0.0
 10
116.2454453919456
 20
-147.529496219628
 30
0.0
  0
HATCH
  5
9D
330
8A
100
AcDbEntity
  8
レイヤー 1
 62
    18
420
        0
440
 33554687
100
AcDbHatch
 10
0.0
 20
0.0
 30
0.0
210
0.0
220
0.0
230
1.0
  2
SOLID
 70
     1
 71
     1
 91
        1
 92
        1
 93
        1
 72
     4
 94
        3
 73
     0
 74
     0
 95
       47
 96
       43
 40
0.0
 40
0.0
 40
0.0
 40
0.0
 40
1.0
 40
1.0
 40
1.0
 40
2.0
 40
2.0
 40
2.0
 40
3.0
 40
3.0
 40
3.0
 40
4.0
 40
4.0
 40
4.0
 40
5.0
 40
5.0
 40
5.0
 40
6.0
 40
6.0
 40
6.0
 40
7.0
 40
7.0
 40
7.0
 40
8.0
 40
8.0
 40
8.0
 40
9.0
 40
9.0
 40
9.0
 40
10.0
 40
10.0
 40
10.0
 40
11.0
 40
11.0
 40
11.0
 40
12.0
 40
12.0
 40
12.0
 40
13.0
 40
13.0
 40
13.0
 40
14.0
 40
14.0
 40
14.0
 40
14.0
 10
116.2454453919456
 20
-147.529496219628
 10
116.175509953595
 20
-147.8087212087075
 10
116.099373343371
 20
-148.1134399043779
 10
115.7862141637618
 20
-148.4455471091559
 10
115.5491915943766
 20
-148.6951442770623
 10
115.3039007958268
 20
-148.7945352818118
 10
115.1981363644296
 20
-148.8369099562803
 10
115.1981363644296
 20
-148.8369099562803
 10
115.003488469513
 20
-148.6550089146591
 10
115.003488469513
 20
-148.6550089146591
 10
115.1895236257165
 20
-148.608327870834
 10
115.5516031612163
 20
-148.5153102927323
 10
115.8475368633992
 20
-148.0202500715019
 10
116.0084228225604
 20
-147.7537719357178
 10
116.0211696758558
 20
-147.5803113780354
 10
116.0294379050204
 20
-147.4893608572249
 10
116.0294379050204
 20
-147.4893608572249
 10
115.5240423973342
 20
-147.4893608572249
 10
115.5240423973342
 20
-147.4893608572249
 10
115.4055311126417
 20
-147.4893608572249
 10
114.9845404443441
 20
-147.5083088823937
 10
114.8322672238961
 20
-147.5188164236238
 10
114.8322672238961
 20
-147.5188164236238
 10
114.8322672238961
 20
-147.3095268728948
 10
114.8322672238961
 20
-147.3095268728948
 10
114.9738606483398
 20
-147.322101471416
 10
115.2511908349025
 20
-147.3264078407725
 10
115.3672905527554
 20
-147.3264078407725
 10
115.3672905527554
 20
-147.3264078407725
 10
115.7228244068332
 20
-147.3264078407725
 10
115.7228244068332
 20
-147.3264078407725
 10
115.7503851707152
 20
-147.3264078407725
 10
115.9109266203278
 20
-147.3243407834814
 10
116.0211696758558
 20
-147.3095268728948
 10
116.0783582609109
 20
-147.3031534462471
 10
116.0952392287887
 20
-147.284033166304
 10
116.1183213685399
 20
-147.2607787717786
 10
116.1183213685399
 20
-147.2607787717786
 10
116.306768091583
 20
-147.4109849349354
 10
116.306768091583
 20
-147.4109849349354
 10
116.2919541809964
 20
-147.4406127561086
 10
116.2812743849922
 20
-147.4597330360517
 10
116.2454453919456
 20
-147.529496219628
 97
        0
 97
        1
330
9C
 75
     2
 76
     1
 98
        1
 10
0.0
 20
0.0
450
        0
451
        0
460
0.0
461
0.0
452
        0
462
0.0
453
        0
470

  0
SPLINE
  5
9E
330
8A
100
AcDbEntity
  8
レイヤー 1
100
AcDbSpline
210
0.0
220
0.0
230
1.0
 70
    11
 71
     3
 72
    17
 73
    13
 74
     0
 42
0.0000000001
 43
0.0000000001
 40
0.0
 40
0.0
 40
0.0
 40
0.0
 40
1.0
 40
1.0
 40
1.0
 40
2.0
 40
2.0
 40
2.0
 40
3.0
 40
3.0
 40
3.0
 40
4.0
 40
4.0
 40
4.0
 40
4.0
 10
116.6357747104244
 20
-147.311593930186
 30
0.0
 10
116.6357747104244
 20
-147.3708495725323
 30
0.0
 10
116.6822834994752
 20
-147.4173583615831
 30
0.0
 10
116.7415391418215
 20
-147.4173583615831
 30
0.0
 10
116.8007947841678
 20
-147.4173583615831
 30
0.0
 10
116.8493706305099
 20
-147.3708495725323
 30
0.0
 10
116.8493706305099
 20
-147.311593930186
 30
0.0
 10
116.8493706305099
 20
-147.2523382878397
 30
0.0
 10
116.8007947841678
 20
-147.2037624414976
 30
0.0
 10
116.7415391418215
 20
-147.2037624414976
 30
0.0
 10
116.6822834994752
 20
-147.2037624414976
 30
0.0
 10
116.6357747104244
 20
-147.2523382878397
 30
0.0
 10
116.6357747104244
 20
-147.311593930186
 30
0.0
  0
SPLINE
  5
9F
330
8A
100
AcDbEntity
  8
レイヤー 1
100
AcDbSpline
210
0.0
220
0.0
230
1.0
 70
     9
 71
     3
 72
    17
 73
    13
 74
     0
 42
0.0000000001
 43
0.0000000001
 40
0.0
 40
0.0
 40
0.0
 40
0.0
 40
1.0
 40
1.0
 40
1.0
 40
2.0
 40
2.0
 40
2.0
 40
3.0
 40
3.0
 40
3.0
 40
4.0
 40
4.0
 40
4.0
 40
4.0
 10
116.9506564377762
 20
-147.311593930186
 30
0.0
 10
116.9506564377762
 20
-147.425798845522
 30
0.0
 10
116.8576388596745
 20
-147.5210557356891
 30
0.0
 10
116.7415391418215
 20
-147.5210557356891
 30
0.0
 10
116.6271619717113
 20
-147.5210557356891
 30
0.0
 10
116.5320773363184
 20
-147.425798845522
 30
0.0
 10
116.5320773363184
 20
-147.311593930186
 30
0.0
 10
116.5320773363184
 20
-147.1951497027845
 30
0.0
 10
116.6271619717113
 20
-147.1021321246828
 30
0.0
 10
116.7415391418215
 20
-147.1021321246828
 30
0.0
 10
116.8555718023833
 20
-147.1021321246828
 30
0.0
 10
116.9506564377762
 20
-147.1951497027845
 30
0.0
 10
116.9506564377762
 20
-147.311593930186
 30
0.0
  0
HATCH
  5
A0
330
8A
100
AcDbEntity
  8
レイヤー 1
 62
    18
420
        0
440
 33554687
100
AcDbHatch
 10
0.0
 20
0.0
 30
0.0
210
0.0
220
0.0
230
1.0
  2
SOLID
 70
     1
 71
     1
 91
        2
 92
        1
 93
        1
 72
     4
 94
        3
 73
     0
 74
     0
 95
       17
 96
       13
 40
0.0
 40
0.0
 40
0.0
 40
0.0
 40
1.0
 40
1.0
 40
1.0
 40
2.0
 40
2.0
 40
2.0
 40
3.0
 40
3.0
 40
3.0
 40
4.0
 40
4.0
 40
4.0
 40
4.0
 10
116.6357747104244
 20
-147.311593930186
 10
116.6357747104244
 20
-147.3708495725323
 10
116.6822834994752
 20
-147.4173583615831
 10
116.7415391418215
 20
-147.4173583615831
 10
116.8007947841678
 20
-147.4173583615831
 10
116.8493706305099
 20
-147.3708495725323
 10
116.8493706305099
 20
-147.311593930186
 10
116.8493706305099
 20
-147.2523382878397
 10
116.8007947841678
 20
-147.2037624414976
 10
116.7415391418215
 20
-147.2037624414976
 10
116.6822834994752
 20
-147.2037624414976
 10
116.6357747104244
 20
-147.2523382878397
 10
116.6357747104244
 20
-147.311593930186
 97
        0
 97
        1
330
9E
 92
        1
 93
        1
 72
     4
 94
        3
 73
     0
 74
     0
 95
       17
 96
       13
 40
0.0
 40
0.0
 40
0.0
 40
0.0
 40
1.0
 40
1.0
 40
1.0
 40
2.0
 40
2.0
 40
2.0
 40
3.0
 40
3.0
 40
3.0
 40
4.0
 40
4.0
 40
4.0
 40
4.0
 10
116.9506564377762
 20
-147.311593930186
 10
116.9506564377762
 20
-147.425798845522
 10
116.8576388596745
 20
-147.5210557356891
 10
116.7415391418215
 20
-147.5210557356891
 10
116.6271619717113
 20
-147.5210557356891
 10
116.5320773363184
 20
-147.425798845522
 10
116.5320773363184
 20
-147.311593930186
 10
116.5320773363184
 20
-147.1951497027845
 10
116.6271619717113
 20
-147.1021321246828
 10
116.7415391418215
 20
-147.1021321246828
 10
116.8555718023833
 20
-147.1021321246828
 10
116.9506564377762
 20
-147.1951497027845
 10
116.9506564377762
 20
-147.311593930186
 97
        0
 97
        1
330
9F
 75
     2
 76
     1
 98
        1
 10
0.0
 20
0.0
450
        0
451
        0
460
0.0
461
0.0
452
        0
462
0.0
453
        0
470

  0
ENDBLK
  5
8D
330
8A
100
AcDbEntity
  8
0
100
AcDbBlockEnd
  0
BLOCK
  5
B9
330
B7
100
AcDbEntity
  8
0
100
AcDbBlockBegin
  2
Block_4
 70
     0
 10
0.0
 20
0.0
 30
0.0
  3
Block_4
  1

  0
INSERT
  5
BC
330
B7
100
AcDbEntity
  8
レイヤー 1
100
AcDbBlockReference
  2
Block_5
 10
0.0
 20
0.0
 30
0.0
  0
ENDBLK
  5
BA
330
B7
100
AcDbEntity
  8
0
100
AcDbBlockEnd
  0
BLOCK
  5
BD
330
BB
100
AcDbEntity
  8
0
100
AcDbBlockBegin
  2
Block_5
 70
     0
 10
0.0
 20
0.0
 30
0.0
  3
Block_5
  1

  0
SPLINE
  5
BF
330
BB
100
AcDbEntity
  8
レイヤー 1
100
AcDbSpline
210
0.0
220
0.0
230
1.0
 70
     9
 71
     3
 72
    17
 73
    13
 74
     0
 42
0.0000000001
 43
0.0000000001
 40
0.0
 40
0.0
 40
0.0
 40
0.0
 40
1.0
 40
1.0
 40
1.0
 40
2.0
 40
2.0
 40
2.0
 40
3.0
 40
3.0
 40
3.0
 40
4.0
 40
4.0
 40
4.0
 40
4.0
 10
122.7129231464051
 20
-152.772070274307
 30
0.0
 10
122.7129231464051
 20
-153.0214951874391
 30
0.0
 10
122.9964545048412
 20
-153.0683484860384
 30
0.0
 10
123.3413085629146
 20
-153.0683484860384
 30
0.0
 10
123.6606689143973
 20
-153.0683484860384
 30
0.0
 10
123.9693494698757
 20
-153.0321749834433
 30
0.0
 10
123.9693494698757
 20
-152.772070274307
 30
0.0
 10
123.9693494698757
 20
-152.5243679089175
 30
0.0
 10
123.6882296782793
 20
-152.4757920625755
 30
0.0
 10
123.3413085629146
 20
-152.4757920625755
 30
0.0
 10
123.0216037018835
 20
-152.4757920625755
 30
0.0
 10
122.7129231464051
 20
-152.5140326224617
 30
0.0
 10
122.7129231464051
 20
-152.772070274307
 30
0.0
  0
SPLINE
  5
C0
330
BB
100
AcDbEntity
  8
レイヤー 1
100
AcDbSpline
210
0.0
220
0.0
230
1.0
 70
     9
 71
     3
 72
    29
 73
    25
 74
     0
 42
0.0000000001
 43
0.0000000001
 40
0.0
 40
0.0
 40
0.0
 40
0.0
 40
1.0
 40
1.0
 40
1.0
 40
2.0
 40
2.0
 40
2.0
 40
3.0
 40
3.0
 40
3.0
 40
4.0
 40
4.0
 40
4.0
 40
5.0
 40
5.0
 40
5.0
 40
6.0
 40
6.0
 40
6.0
 40
7.0
 40
7.0
 40
7.0
 40
8.0
 40
8.0
 40
8.0
 40
8.0
 10
123.9355875341203
 20
-152.3741617457606
 30
0.0
 10
124.1450493396234
 20
-152.4823377439975
 30
0.0
 10
124.1639973647923
 20
-152.6556260469055
 30
0.0
 10
124.1639973647923
 20
-152.772070274307
 30
0.0
 10
124.1639973647923
 20
-152.9329562334681
 30
0.0
 10
124.1174885757414
 20
-153.0745496579119
 30
0.0
 10
123.9355875341203
 20
-153.1696342933048
 30
0.0
 10
123.7409396392036
 20
-153.2733316674108
 30
0.0
 10
123.5039170698184
 20
-153.2922796925797
 30
0.0
 10
123.3413085629146
 20
-153.2922796925797
 30
0.0
 10
123.1973035716312
 20
-153.2922796925797
 30
0.0
 10
122.9454670916594
 20
-153.275398724702
 30
0.0
 10
122.7466850821605
 20
-153.1696342933048
 30
0.0
 10
122.5437689580793
 20
-153.0618028046165
 30
0.0
 10
122.5203423087796
 20
-152.9009168454553
 30
0.0
 10
122.5203423087796
 20
-152.772070274307
 30
0.0
 10
122.5203423087796
 20
-152.613251372437
 30
0.0
 10
122.5647840405393
 20
-152.469590890702
 30
0.0
 10
122.7466850821605
 20
-152.3741617457606
 30
0.0
 10
122.939265919786
 20
-152.2749429957854
 30
0.0
 10
123.1676757504581
 20
-152.2515163464857
 30
0.0
 10
123.3413085629146
 20
-152.2515163464857
 30
0.0
 10
123.5125298085316
 20
-152.2515163464857
 30
0.0
 10
123.7430066964948
 20
-152.2728759384943
 30
0.0
 10
123.9355875341203
 20
-152.3741617457606
 30
0.0
  0
HATCH
  5
C1
330
BB
100
AcDbEntity
  8
レイヤー 1
 62
    18
420
        0
440
 33554687
100
AcDbHatch
 10
0.0
 20
0.0
 30
0.0
210
0.0
220
0.0
230
1.0
  2
SOLID
 70
     1
 71
     1
 91
        2
 92
        1
 93
        1
 72
     4
 94
        3
 73
     0
 74
     0
 95
       17
 96
       13
 40
0.0
 40
0.0
 40
0.0
 40
0.0
 40
1.0
 40
1.0
 40
1.0
 40
2.0
 40
2.0
 40
2.0
 40
3.0
 40
3.0
 40
3.0
 40
4.0
 40
4.0
 40
4.0
 40
4.0
 10
122.7129231464051
 20
-152.772070274307
 10
122.7129231464051
 20
-153.0214951874391
 10
122.9964545048412
 20
-153.0683484860384
 10
123.3413085629146
 20
-153.0683484860384
 10
123.6606689143973
 20
-153.0683484860384
 10
123.9693494698757
 20
-153.0321749834433
 10
123.9693494698757
 20
-152.772070274307
 10
123.9693494698757
 20
-152.5243679089175
 10
123.6882296782793
 20
-152.4757920625755
 10
123.3413085629146
 20
-152.4757920625755
 10
123.0216037018835
 20
-152.4757920625755
 10
122.7129231464051
 20
-152.5140326224617
 10
122.7129231464051
 20
-152.772070274307
 97
        0
 97
        1
330
BF
 92
        1
 93
        1
 72
     4
 94
        3
 73
     0
 74
     0
 95
       29
 96
       25
 40
0.0
 40
0.0
 40
0.0
 40
0.0
 40
1.0
 40
1.0
 40
1.0
 40
2.0
 40
2.0
 40
2.0
 40
3.0
 40
3.0
 40
3.0
 40
4.0
 40
4.0
 40
4.0
 40
5.0
 40
5.0
 40
5.0
 40
6.0
 40
6.0
 40
6.0
 40
7.0
 40
7.0
 40
7.0
 40
8.0
 40
8.0
 40
8.0
 40
8.0
 10
123.9355875341203
 20
-152.3741617457606
 10
124.1450493396234
 20
-152.4823377439975
 10
124.1639973647923
 20
-152.6556260469055
 10
124.1639973647923
 20
-152.772070274307
 10
124.1639973647923
 20
-152.9329562334681
 10
124.1174885757414
 20
-153.0745496579119
 10
123.9355875341203
 20
-153.1696342933048
 10
123.7409396392036
 20
-153.2733316674108
 10
123.5039170698184
 20
-153.2922796925797
 10
123.3413085629146
 20
-153.2922796925797
 10
123.1973035716312
 20
-153.2922796925797
 10
122.9454670916594
 20
-153.275398724702
 10
122.7466850821605
 20
-153.1696342933048
 10
122.5437689580793
 20
-153.0618028046165
 10
122.5203423087796
 20
-152.9009168454553
 10
122.5203423087796
 20
-152.772070274307
 10
122.5203423087796
 20
-152.613251372437
 10
122.5647840405393
 20
-152.469590890702
 10
122.7466850821605
 20
-152.3741617457606
 10
122.939265919786
 20
-152.2749429957854
 10
123.1676757504581
 20
-152.2515163464857
 10
123.3413085629146
 20
-152.2515163464857
 10
123.5125298085316
 20
-152.2515163464857
 10
123.7430066964948
 20
-152.2728759384943
 10
123.9355875341203
 20
-152.3741617457606
 97
        0
 97
        1
330
C0
 75
     2
 76
     1
 98
        1
 10
0.0
 20
0.0
450
        0
451
        0
460
0.0
461
0.0
452
        0
462
0.0
453
        0
470

  0
SPLINE
  5
C2
330
BB
100
AcDbEntity
  8
レイヤー 1
100
AcDbSpline
210
0.0
220
0.0
230
1.0
 70
    11
 71
     3
 72
    17
 73
    13
 74
     0
 42
0.0000000001
 43
0.0000000001
 40
0.0
 40
0.0
 40
0.0
 40
0.0
 40
1.0
 40
1.0
 40
1.0
 40
2.0
 40
2.0
 40
2.0
 40
3.0
 40
3.0
 40
3.0
 40
4.0
 40
4.0
 40
4.0
 40
4.0
 10
124.1133544611591
 20
-152.035164350012
 30
0.0
 10
124.1133544611591
 20
-152.035164350012
 30
0.0
 10
123.8615179811874
 20
-152.035164350012
 30
0.0
 10
123.8615179811874
 20
-152.035164350012
 30
0.0
 10
123.8615179811874
 20
-152.035164350012
 30
0.0
 10
123.8615179811874
 20
-151.7833278700403
 30
0.0
 10
123.8615179811874
 20
-151.7833278700403
 30
0.0
 10
123.8615179811874
 20
-151.7833278700403
 30
0.0
 10
124.1133544611591
 20
-151.7833278700403
 30
0.0
 10
124.1133544611591
 20
-151.7833278700403
 30
0.0
 10
124.1133544611591
 20
-151.7833278700403
 30
0.0
 10
124.1133544611591
 20
-152.035164350012
 30
0.0
 10
124.1133544611591
 20
-152.035164350012
 30
0.0
  0
HATCH
  5
C3
330
BB
100
AcDbEntity
  8
レイヤー 1
 62
    18
420
        0
440
 33554687
100
AcDbHatch
 10
0.0
 20
0.0
 30
0.0
210
0.0
220
0.0
230
1.0
  2
SOLID
 70
     1
 71
     1
 91
        1
 92
        1
 93
        1
 72
     4
 94
        3
 73
     0
 74
     0
 95
       17
 96
       13
 40
0.0
 40
0.0
 40
0.0
 40
0.0
 40
1.0
 40
1.0
 40
1.0
 40
2.0
 40
2.0
 40
2.0
 40
3.0
 40
3.0
 40
3.0
 40
4.0
 40
4.0
 40
4.0
 40
4.0
 10
124.1133544611591
 20
-152.035164350012
 10
124.1133544611591
 20
-152.035164350012
 10
123.8615179811874
 20
-152.035164350012
 10
123.8615179811874
 20
-152.035164350012
 10
123.8615179811874
 20
-152.035164350012
 10
123.8615179811874
 20
-151.7833278700403
 10
123.8615179811874
 20
-151.7833278700403
 10
123.8615179811874
 20
-151.7833278700403
 10
124.1133544611591
 20
-151.7833278700403
 10
124.1133544611591
 20
-151.7833278700403
 10
124.1133544611591
 20
-151.7833278700403
 10
124.1133544611591
 20
-152.035164350012
 10
124.1133544611591
 20
-152.035164350012
 97
        0
 97
        1
330
C2
 75
     2
 76
     1
 98
        1
 10
0.0
 20
0.0
450
        0
451
        0
460
0.0
461
0.0
452
        0
462
0.0
453
        0
470

  0
SPLINE
  5
C4
330
BB
100
AcDbEntity
  8
レイヤー 1
100
AcDbSpline
210
0.0
220
0.0
230
1.0
 70
    11
 71
     3
 72
    14
 73
    10
 74
     0
 42
0.0000000001
 43
0.0000000001
 40
0.0
 40
0.0
 40
0.0
 40
0.0
 40
1.0
 40
1.0
 40
1.0
 40
2.0
 40
2.0
 40
2.0
 40
3.0
 40
3.0
 40
3.0
 40
3.0
 10
122.911705155904
 20
-150.9327337947321
 30
0.0
 10
122.911705155904
 20
-150.9327337947321
 30
0.0
 10
123.5676513362956
 20
-151.3898979656247
 30
0.0
 10
123.5676513362956
 20
-151.3898979656247
 30
0.0
 10
123.5676513362956
 20
-151.3898979656247
 30
0.0
 10
123.5676513362956
 20
-150.9327337947321
 30
0.0
 10
123.5676513362956
 20
-150.9327337947321
 30
0.0
 10
123.5676513362956
 20
-150.9327337947321
 30
0.0
 10
122.911705155904
 20
-150.9327337947321
 30
0.0
 10
122.911705155904
 20
-150.9327337947321
 30
0.0
  0
SPLINE
  5
C5
330
BB
100
AcDbEntity
  8
レイヤー 1
100
AcDbSpline
210
0.0
220
0.0
230
1.0
 70
    11
 71
     3
 72
    38
 73
    34
 74
     0
 42
0.0000000001
 43
0.0000000001
 40
0.0
 40
0.0
 40
0.0
 40
0.0
 40
1.0
 40
1.0
 40
1.0
 40
2.0
 40
2.0
 40
2.0
 40
3.0
 40
3.0
 40
3.0
 40
4.0
 40
4.0
 40
4.0
 40
5.0
 40
5.0
 40
5.0
 40
6.0
 40
6.0
 40
6.0
 40
7.0
 40
7.0
 40
7.0
 40
8.0
 40
8.0
 40
8.0
 40
9.0
 40
9.0
 40
9.0
 40
10.0
 40
10.0
 40
10.0
 40
11.0
 40
11.0
 40
11.0
 40
11.0
 10
123.7664333457945
 20
-150.7150037600643
 30
0.0
 10
123.7664333457945
 20
-150.7150037600643
 30
0.0
 10
124.1133544611591
 20
-150.7150037600643
 30
0.0
 10
124.1133544611591
 20
-150.7150037600643
 30
0.0
 10
124.1133544611591
 20
-150.7150037600643
 30
0.0
 10
124.1133544611591
 20
-150.9327337947321
 30
0.0
 10
124.1133544611591
 20
-150.9327337947321
 30
0.0
 10
124.1133544611591
 20
-150.9327337947321
 30
0.0
 10
123.7664333457945
 20
-150.9327337947321
 30
0.0
 10
123.7664333457945
 20
-150.9327337947321
 30
0.0
 10
123.7664333457945
 20
-150.9327337947321
 30
0.0
 10
123.7664333457945
 20
-151.5886799751237
 30
0.0
 10
123.7664333457945
 20
-151.5886799751237
 30
0.0
 10
123.7664333457945
 20
-151.5886799751237
 30
0.0
 10
123.5421576297047
 20
-151.5886799751237
 30
0.0
 10
123.5421576297047
 20
-151.5886799751237
 30
0.0
 10
123.5421576297047
 20
-151.5886799751237
 30
0.0
 10
122.5689181551216
 20
-150.9096516549809
 30
0.0
 10
122.5689181551216
 20
-150.9096516549809
 30
0.0
 10
122.5689181551216
 20
-150.9096516549809
 30
0.0
 10
122.5689181551216
 20
-150.7150037600643
 30
0.0
 10
122.5689181551216
 20
-150.7150037600643
 30
0.0
 10
122.5689181551216
 20
-150.7150037600643
 30
0.0
 10
123.5676513362956
 20
-150.7150037600643
 30
0.0
 10
123.5676513362956
 20
-150.7150037600643
 30
0.0
 10
123.5676513362956
 20
-150.7150037600643
 30
0.0
 10
123.5676513362956
 20
-150.5076090118523
 30
0.0
 10
123.5676513362956
 20
-150.5076090118523
 30
0.0
 10
123.5676513362956
 20
-150.5076090118523
 30
0.0
 10
123.7664333457945
 20
-150.5076090118523
 30
0.0
 10
123.7664333457945
 20
-150.5076090118523
 30
0.0
 10
123.7664333457945
 20
-150.5076090118523
 30
0.0
 10
123.7664333457945
 20
-150.7150037600643
 30
0.0
 10
123.7664333457945
 20
-150.7150037600643
 30
0.0
  0
HATCH
  5
C6
330
BB
100
AcDbEntity
  8
レイヤー 1
 62
    18
420
        0
440
 33554687
100
AcDbHatch
 10
0.0
 20
0.0
 30
0.0
210
0.0
220
0.0
230
1.0
  2
SOLID
 70
     1
 71
     1
 91
        2
 92
        1
 93
        1
 72
     4
 94
        3
 73
     0
 74
     0
 95
       14
 96
       10
 40
0.0
 40
0.0
 40
0.0
 40
0.0
 40
1.0
 40
1.0
 40
1.0
 40
2.0
 40
2.0
 40
2.0
 40
3.0
 40
3.0
 40
3.0
 40
3.0
 10
122.911705155904
 20
-150.9327337947321
 10
122.911705155904
 20
-150.9327337947321
 10
123.5676513362956
 20
-151.3898979656247
 10
123.5676513362956
 20
-151.3898979656247
 10
123.5676513362956
 20
-151.3898979656247
 10
123.5676513362956
 20
-150.9327337947321
 10
123.5676513362956
 20
-150.9327337947321
 10
123.5676513362956
 20
-150.9327337947321
 10
122.911705155904
 20
-150.9327337947321
 10
122.911705155904
 20
-150.9327337947321
 97
        0
 97
        1
330
C4
 92
        1
 93
        1
 72
     4
 94
        3
 73
     0
 74
     0
 95
       38
 96
       34
 40
0.0
 40
0.0
 40
0.0
 40
0.0
 40
1.0
 40
1.0
 40
1.0
 40
2.0
 40
2.0
 40
2.0
 40
3.0
 40
3.0
 40
3.0
 40
4.0
 40
4.0
 40
4.0
 40
5.0
 40
5.0
 40
5.0
 40
6.0
 40
6.0
 40
6.0
 40
7.0
 40
7.0
 40
7.0
 40
8.0
 40
8.0
 40
8.0
 40
9.0
 40
9.0
 40
9.0
 40
10.0
 40
10.0
 40
10.0
 40
11.0
 40
11.0
 40
11.0
 40
11.0
 10
123.7664333457945
 20
-150.7150037600643
 10
123.7664333457945
 20
-150.7150037600643
 10
124.1133544611591
 20
-150.7150037600643
 10
124.1133544611591
 20
-150.7150037600643
 10
124.1133544611591
 20
-150.7150037600643
 10
124.1133544611591
 20
-150.9327337947321
 10
124.1133544611591
 20
-150.9327337947321
 10
124.1133544611591
 20
-150.9327337947321
 10
123.7664333457945
 20
-150.9327337947321
 10
123.7664333457945
 20
-150.9327337947321
 10
123.7664333457945
 20
-150.9327337947321
 10
123.7664333457945
 20
-151.5886799751237
 10
123.7664333457945
 20
-151.5886799751237
 10
123.7664333457945
 20
-151.5886799751237
 10
123.5421576297047
 20
-151.5886799751237
 10
123.5421576297047
 20
-151.5886799751237
 10
123.5421576297047
 20
-151.5886799751237
 10
122.5689181551216
 20
-150.9096516549809
 10
122.5689181551216
 20
-150.9096516549809
 10
122.5689181551216
 20
-150.9096516549809
 10
122.5689181551216
 20
-150.7150037600643
 10
122.5689181551216
 20
-150.7150037600643
 10
122.5689181551216
 20
-150.7150037600643
 10
123.5676513362956
 20
-150.7150037600643
 10
123.5676513362956
 20
-150.7150037600643
 10
123.5676513362956
 20
-150.7150037600643
 10
123.5676513362956
 20
-150.5076090118523
 10
123.5676513362956
 20
-150.5076090118523
 10
123.5676513362956
 20
-150.5076090118523
 10
123.7664333457945
 20
-150.5076090118523
 10
123.7664333457945
 20
-150.5076090118523
 10
123.7664333457945
 20
-150.5076090118523
 10
123.7664333457945
 20
-150.7150037600643
 10
123.7664333457945
 20
-150.7150037600643
 97
        0
 97
        1
330
C5
 75
     2
 76
     1
 98
        1
 10
0.0
 20
0.0
450
        0
451
        0
460
0.0
461
0.0
452
        0
462
0.0
453
        0
470

  0
ENDBLK
  5
BE
330
BB
100
AcDbEntity
  8
0
100
AcDbBlockEnd
  0
BLOCK
  5
CD
330
CB
100
AcDbEntity
  8
0
100
AcDbBlockBegin
  2
Block_6
 70
     0
 10
0.0
 20
0.0
 30
0.0
  3
Block_6
  1

  0
INSERT
  5
D0
330
CB
100
AcDbEntity
  8
レイヤー 1
100
AcDbBlockReference
  2
Block_7
 10
0.0
 20
0.0
 30
0.0
  0
ENDBLK
  5
CE
330
CB
100
AcDbEntity
  8
0
100
AcDbBlockEnd
  0
BLOCK
  5
D1
330
CF
100
AcDbEntity
  8
0
100
AcDbBlockBegin
  2
Block_7
 70
     0
 10
0.0
 20
0.0
 30
0.0
  3
Block_7
  1

  0
SPLINE
  5
D3
330
CF
100
AcDbEntity
  8
レイヤー 1
100
AcDbSpline
210
0.0
220
0.0
230
1.0
 70
    11
 71
     3
 72
    26
 73
    22
 74
     0
 42
0.0000000001
 43
0.0000000001
 40
0.0
 40
0.0
 40
0.0
 40
0.0
 40
1.0
 40
1.0
 40
1.0
 40
2.0
 40
2.0
 40
2.0
 40
3.0
 40
3.0
 40
3.0
 40
4.0
 40
4.0
 40
4.0
 40
5.0
 40
5.0
 40
5.0
 40
6.0
 40
6.0
 40
6.0
 40
7.0
 40
7.0
 40
7.0
 40
7.0
 10
87.21345348297095
 20
-142.095891620292
 30
0.0
 10
87.21345348297095
 20
-142.095891620292
 30
0.0
 10
86.1091281251741
 20
-142.095891620292
 30
0.0
 10
86.1091281251741
 20
-142.095891620292
 30
0.0
 10
86.1091281251741
 20
-142.095891620292
 30
0.0
 10
86.1091281251741
 20
-142.4259317677789
 30
0.0
 10
86.1091281251741
 20
-142.4259317677789
 30
0.0
 10
86.1091281251741
 20
-142.4259317677789
 30
0.0
 10
85.96098901930837
 20
-142.4259317677789
 30
0.0
 10
85.96098901930837
 20
-142.4259317677789
 30
0.0
 10
85.94634736349606
 20
-142.0938245630008
 30
0.0
 10
85.78339434704373
 20
-142.04731577395
 30
0.0
 10
85.66918943170771
 20
-142.0176879527768
 30
0.0
 10
85.66918943170771
 20
-142.0176879527768
 30
0.0
 10
85.66918943170771
 20
-141.8716159042022
 30
0.0
 10
85.66918943170771
 20
-141.8716159042022
 30
0.0
 10
85.66918943170771
 20
-141.8716159042022
 30
0.0
 10
87.21345348297095
 20
-141.8716159042022
 30
0.0
 10
87.21345348297095
 20
-141.8716159042022
 30
0.0
 10
87.21345348297095
 20
-141.8716159042022
 30
0.0
 10
87.21345348297095
 20
-142.095891620292
 30
0.0
 10
87.21345348297095
 20
-142.095891620292
 30
0.0
  0
HATCH
  5
D4
330
CF
100
AcDbEntity
  8
レイヤー 1
 62
    18
420
        0
440
 33554687
100
AcDbHatch
 10
0.0
 20
0.0
 30
0.0
210
0.0
220
0.0
230
1.0
  2
SOLID
 70
     1
 71
     1
 91
        1
 92
        1
 93
        1
 72
     4
 94
        3
 73
     0
 74
     0
 95
       26
 96
       22
 40
0.0
 40
0.0
 40
0.0
 40
0.0
 40
1.0
 40
1.0
 40
1.0
 40
2.0
 40
2.0
 40
2.0
 40
3.0
 40
3.0
 40
3.0
 40
4.0
 40
4.0
 40
4.0
 40
5.0
 40
5.0
 40
5.0
 40
6.0
 40
6.0
 40
6.0
 40
7.0
 40
7.0
 40
7.0
 40
7.0
 10
87.21345348297095
 20
-142.095891620292
 10
87.21345348297095
 20
-142.095891620292
 10
86.1091281251741
 20
-142.095891620292
 10
86.1091281251741
 20
-142.095891620292
 10
86.1091281251741
 20
-142.095891620292
 10
86.1091281251741
 20
-142.4259317677789
 10
86.1091281251741
 20
-142.4259317677789
 10
86.1091281251741
 20
-142.4259317677789
 10
85.96098901930837
 20
-142.4259317677789
 10
85.96098901930837
 20
-142.4259317677789
 10
85.94634736349606
 20
-142.0938245630008
 10
85.78339434704373
 20
-142.04731577395
 10
85.66918943170771
 20
-142.0176879527768
 10
85.66918943170771
 20
-142.0176879527768
 10
85.66918943170771
 20
-141.8716159042022
 10
85.66918943170771
 20
-141.8716159042022
 10
85.66918943170771
 20
-141.8716159042022
 10
87.21345348297095
 20
-141.8716159042022
 10
87.21345348297095
 20
-141.8716159042022
 10
87.21345348297095
 20
-141.8716159042022
 10
87.21345348297095
 20
-142.095891620292
 10
87.21345348297095
 20
-142.095891620292
 97
        0
 97
        1
330
D3
 75
     2
 76
     1
 98
        1
 10
0.0
 20
0.0
450
        0
451
        0
460
0.0
461
0.0
452
        0
462
0.0
453
        0
470

  0
SPLINE
  5
D5
330
CF
100
AcDbEntity
  8
レイヤー 1
100
AcDbSpline
210
0.0
220
0.0
230
1.0
 70
    11
 71
     3
 72
    17
 73
    13
 74
     0
 42
0.0000000001
 43
0.0000000001
 40
0.0
 40
0.0
 40
0.0
 40
0.0
 40
1.0
 40
1.0
 40
1.0
 40
2.0
 40
2.0
 40
2.0
 40
3.0
 40
3.0
 40
3.0
 40
4.0
 40
4.0
 40
4.0
 40
4.0
 10
87.21345348297095
 20
-141.310409849655
 30
0.0
 10
87.21345348297095
 20
-141.310409849655
 30
0.0
 10
86.96178925777344
 20
-141.310409849655
 30
0.0
 10
86.96178925777344
 20
-141.310409849655
 30
0.0
 10
86.96178925777344
 20
-141.310409849655
 30
0.0
 10
86.96178925777344
 20
-141.0585733696833
 30
0.0
 10
86.96178925777344
 20
-141.0585733696833
 30
0.0
 10
86.96178925777344
 20
-141.0585733696833
 30
0.0
 10
87.21345348297095
 20
-141.0585733696833
 30
0.0
 10
87.21345348297095
 20
-141.0585733696833
 30
0.0
 10
87.21345348297095
 20
-141.0585733696833
 30
0.0
 10
87.21345348297095
 20
-141.310409849655
 30
0.0
 10
87.21345348297095
 20
-141.310409849655
 30
0.0
  0
HATCH
  5
D6
330
CF
100
AcDbEntity
  8
レイヤー 1
 62
    18
420
        0
440
 33554687
100
AcDbHatch
 10
0.0
 20
0.0
 30
0.0
210
0.0
220
0.0
230
1.0
  2
SOLID
 70
     1
 71
     1
 91
        1
 92
        1
 93
        1
 72
     4
 94
        3
 73
     0
 74
     0
 95
       17
 96
       13
 40
0.0
 40
0.0
 40
0.0
 40
0.0
 40
1.0
 40
1.0
 40
1.0
 40
2.0
 40
2.0
 40
2.0
 40
3.0
 40
3.0
 40
3.0
 40
4.0
 40
4.0
 40
4.0
 40
4.0
 10
87.21345348297095
 20
-141.310409849655
 10
87.21345348297095
 20
-141.310409849655
 10
86.96178925777344
 20
-141.310409849655
 10
86.96178925777344
 20
-141.310409849655
 10
86.96178925777344
 20
-141.310409849655
 10
86.96178925777344
 20
-141.0585733696833
 10
86.96178925777344
 20
-141.0585733696833
 10
86.96178925777344
 20
-141.0585733696833
 10
87.21345348297095
 20
-141.0585733696833
 10
87.21345348297095
 20
-141.0585733696833
 10
87.21345348297095
 20
-141.0585733696833
 10
87.21345348297095
 20
-141.310409849655
 10
87.21345348297095
 20
-141.310409849655
 97
        0
 97
        1
330
D5
 75
     2
 76
     1
 98
        1
 10
0.0
 20
0.0
450
        0
451
        0
460
0.0
461
0.0
452
        0
462
0.0
453
        0
470

  0
SPLINE
  5
D7
330
CF
100
AcDbEntity
  8
レイヤー 1
100
AcDbSpline
210
0.0
220
0.0
230
1.0
 70
    11
 71
     3
 72
    26
 73
    22
 74
     0
 42
0.0000000001
 43
0.0000000001
 40
0.0
 40
0.0
 40
0.0
 40
0.0
 40
1.0
 40
1.0
 40
1.0
 40
2.0
 40
2.0
 40
2.0
 40
3.0
 40
3.0
 40
3.0
 40
4.0
 40
4.0
 40
4.0
 40
5.0
 40
5.0
 40
5.0
 40
6.0
 40
6.0
 40
6.0
 40
7.0
 40
7.0
 40
7.0
 40
7.0
 10
87.21345348297095
 20
-140.3709323108274
 30
0.0
 10
87.21345348297095
 20
-140.3709323108274
 30
0.0
 10
86.1091281251741
 20
-140.3709323108274
 30
0.0
 10
86.1091281251741
 20
-140.3709323108274
 30
0.0
 10
86.1091281251741
 20
-140.3709323108274
 30
0.0
 10
86.1091281251741
 20
-140.7009724583143
 30
0.0
 10
86.1091281251741
 20
-140.7009724583143
 30
0.0
 10
86.1091281251741
 20
-140.7009724583143
 30
0.0
 10
85.96098901930837
 20
-140.7009724583143
 30
0.0
 10
85.96098901930837
 20
-140.7009724583143
 30
0.0
 10
85.94634736349606
 20
-140.3688652535362
 30
0.0
 10
85.78339434704373
 20
-140.3223564644854
 30
0.0
 10
85.66918943170771
 20
-140.2927286433122
 30
0.0
 10
85.66918943170771
 20
-140.2927286433122
 30
0.0
 10
85.66918943170771
 20
-140.1466565947376
 30
0.0
 10
85.66918943170771
 20
-140.1466565947376
 30
0.0
 10
85.66918943170771
 20
-140.1466565947376
 30
0.0
 10
87.21345348297095
 20
-140.1466565947376
 30
0.0
 10
87.21345348297095
 20
-140.1466565947376
 30
0.0
 10
87.21345348297095
 20
-140.1466565947376
 30
0.0
 10
87.21345348297095
 20
-140.3709323108274
 30
0.0
 10
87.21345348297095
 20
-140.3709323108274
 30
0.0
  0
HATCH
  5
D8
330
CF
100
AcDbEntity
  8
レイヤー 1
 62
    18
420
        0
440
 33554687
100
AcDbHatch
 10
0.0
 20
0.0
 30
0.0
210
0.0
220
0.0
230
1.0
  2
SOLID
 70
     1
 71
     1
 91
        1
 92
        1
 93
        1
 72
     4
 94
        3
 73
     0
 74
     0
 95
       26
 96
       22
 40
0.0
 40
0.0
 40
0.0
 40
0.0
 40
1.0
 40
1.0
 40
1.0
 40
2.0
 40
2.0
 40
2.0
 40
3.0
 40
3.0
 40
3.0
 40
4.0
 40
4.0
 40
4.0
 40
5.0
 40
5.0
 40
5.0
 40
6.0
 40
6.0
 40
6.0
 40
7.0
 40
7.0
 40
7.0
 40
7.0
 10
87.21345348297095
 20
-140.3709323108274
 10
87.21345348297095
 20
-140.3709323108274
 10
86.1091281251741
 20
-140.3709323108274
 10
86.1091281251741
 20
-140.3709323108274
 10
86.1091281251741
 20
-140.3709323108274
 10
86.1091281251741
 20
-140.7009724583143
 10
86.1091281251741
 20
-140.7009724583143
 10
86.1091281251741
 20
-140.7009724583143
 10
85.96098901930837
 20
-140.7009724583143
 10
85.96098901930837
 20
-140.7009724583143
 10
85.94634736349606
 20
-140.3688652535362
 10
85.78339434704373
 20
-140.3223564644854
 10
85.66918943170771
 20
-140.2927286433122
 10
85.66918943170771
 20
-140.2927286433122
 10
85.66918943170771
 20
-140.1466565947376
 10
85.66918943170771
 20
-140.1466565947376
 10
85.66918943170771
 20
-140.1466565947376
 10
87.21345348297095
 20
-140.1466565947376
 10
87.21345348297095
 20
-140.1466565947376
 10
87.21345348297095
 20
-140.1466565947376
 10
87.21345348297095
 20
-140.3709323108274
 10
87.21345348297095
 20
-140.3709323108274
 97
        0
 97
        1
330
D7
 75
     2
 76
     1
 98
        1
 10
0.0
 20
0.0
450
        0
451
        0
460
0.0
461
0.0
452
        0
462
0.0
453
        0
470

  0
ENDBLK
  5
D2
330
CF
100
AcDbEntity
  8
0
100
AcDbBlockEnd
  0
BLOCK
  5
DD
330
DB
100
AcDbEntity
  8
0
100
AcDbBlockBegin
  2
Block_8
 70
     0
 10
0.0
 20
0.0
 30
0.0
  3
Block_8
  1

  0
INSERT
  5
E0
330
DB
100
AcDbEntity
  8
レイヤー 1
100
AcDbBlockReference
  2
Block_9
 10
0.0
 20
0.0
 30
0.0
  0
ENDBLK
  5
DE
330
DB
100
AcDbEntity
  8
0
100
AcDbBlockEnd
  0
BLOCK
  5
E1
330
DF
100
AcDbEntity
  8
0
100
AcDbBlockBegin
  2
Block_9
 70
     0
 10
0.0
 20
0.0
 30
0.0
  3
Block_9
  1

  0
SPLINE
  5
E3
330
DF
100
AcDbEntity
  8
レイヤー 1
100
AcDbSpline
210
0.0
220
0.0
230
1.0
 70
     9
 71
     3
 72
    17
 73
    13
 74
     0
 42
0.0000000001
 43
0.0000000001
 40
0.0
 40
0.0
 40
0.0
 40
0.0
 40
1.0
 40
1.0
 40
1.0
 40
2.0
 40
2.0
 40
2.0
 40
3.0
 40
3.0
 40
3.0
 40
4.0
 40
4.0
 40
4.0
 40
4.0
 10
119.8448811549346
 20
-148.297235748516
 30
0.0
 10
119.8448811549346
 20
-148.4408962302509
 30
0.0
 10
119.9316975611629
 20
-148.5935139602474
 30
0.0
 10
120.1346136852441
 20
-148.5935139602474
 30
0.0
 10
120.339941376165
 20
-148.5935139602474
 30
0.0
 10
120.4412271834313
 20
-148.4663899368417
 30
0.0
 10
120.4412271834313
 20
-148.297235748516
 30
0.0
 10
120.4412271834313
 20
-148.1112005923125
 30
0.0
 10
120.3185817841564
 20
-148.0009575367845
 30
0.0
 10
120.1408148571176
 20
-148.0009575367845
 30
0.0
 10
119.9189507078675
 20
-148.0009575367845
 30
0.0
 10
119.8448811549346
 20
-148.1639105532368
 30
0.0
 10
119.8448811549346
 20
-148.297235748516
 30
0.0
  0
SPLINE
  5
E4
330
DF
100
AcDbEntity
  8
レイヤー 1
100
AcDbSpline
210
0.0
220
0.0
230
1.0
 70
     9
 71
     3
 72
    17
 73
    13
 74
     0
 42
0.0000000001
 43
0.0000000001
 40
0.0
 40
0.0
 40
0.0
 40
0.0
 40
1.0
 40
1.0
 40
1.0
 40
2.0
 40
2.0
 40
2.0
 40
3.0
 40
3.0
 40
3.0
 40
4.0
 40
4.0
 40
4.0
 40
4.0
 10
119.1848008599607
 20
-148.297235748516
 30
0.0
 10
119.1848008599607
 20
-148.4622558222594
 30
0.0
 10
119.2798854953536
 20
-148.5470051711966
 30
0.0
 10
119.4152777479239
 20
-148.5470051711966
 30
0.0
 10
119.5379231471988
 20
-148.5470051711966
 30
0.0
 10
119.6564344318914
 20
-148.4750026755548
 30
0.0
 10
119.6564344318914
 20
-148.297235748516
 30
0.0
 10
119.6564344318914
 20
-148.1194688214771
 30
0.0
 10
119.5379231471988
 20
-148.0474663258353
 30
0.0
 10
119.4152777479239
 20
-148.0474663258353
 30
0.0
 10
119.2798854953536
 20
-148.0474663258353
 30
0.0
 10
119.1848008599607
 20
-148.1342827320636
 30
0.0
 10
119.1848008599607
 20
-148.297235748516
 30
0.0
  0
SPLINE
  5
E5
330
DF
100
AcDbEntity
  8
レイヤー 1
100
AcDbSpline
210
0.0
220
0.0
230
1.0
 70
     9
 71
     3
 72
    29
 73
    25
 74
     0
 42
0.0000000001
 43
0.0000000001
 40
0.0
 40
0.0
 40
0.0
 40
0.0
 40
1.0
 40
1.0
 40
1.0
 40
2.0
 40
2.0
 40
2.0
 40
3.0
 40
3.0
 40
3.0
 40
4.0
 40
4.0
 40
4.0
 40
5.0
 40
5.0
 40
5.0
 40
6.0
 40
6.0
 40
6.0
 40
7.0
 40
7.0
 40
7.0
 40
8.0
 40
8.0
 40
8.0
 40
8.0
 10
120.635875078348
 20
-148.297235748516
 30
0.0
 10
120.635875078348
 20
-148.5638861390743
 30
0.0
 10
120.4984157684865
 20
-148.8177896763372
 30
0.0
 10
120.1494275958307
 20
-148.8177896763372
 30
0.0
 10
119.8934570012766
 20
-148.8177896763372
 30
0.0
 10
119.7983723658837
 20
-148.6758517423449
 30
0.0
 10
119.7370496662463
 20
-148.5700873109477
 30
0.0
 10
119.6777940239
 20
-148.6947997675138
 30
0.0
 10
119.5634168537897
 20
-148.7709363777378
 30
0.0
 10
119.4025308946285
 20
-148.7709363777378
 30
0.0
 10
119.1276122749056
 20
-148.7709363777378
 30
0.0
 10
118.9922200223353
 20
-148.5721543682389
 30
0.0
 10
118.9922200223353
 20
-148.297235748516
 30
0.0
 10
118.9922200223353
 20
-148.0137043900799
 30
0.0
 10
119.1362250136187
 20
-147.8231906097456
 30
0.0
 10
119.4025308946285
 20
-147.8231906097456
 30
0.0
 10
119.5634168537897
 20
-147.8231906097456
 30
0.0
 10
119.6777940239
 20
-147.9017387868093
 30
0.0
 10
119.7370496662463
 20
-148.0264512433753
 30
0.0
 10
119.7876925698794
 20
-147.9375677798559
 30
0.0
 10
119.8827772052723
 20
-147.7787488779858
 30
0.0
 10
120.1452934812484
 20
-147.7787488779858
 30
0.0
 10
120.519775360495
 20
-147.7787488779858
 30
0.0
 10
120.635875078348
 20
-148.0581461218396
 30
0.0
 10
120.635875078348
 20
-148.297235748516
 30
0.0
  0
HATCH
  5
E6
330
DF
100
AcDbEntity
  8
レイヤー 1
 62
    18
420
        0
440
 33554687
100
AcDbHatch
 10
0.0
 20
0.0
 30
0.0
210
0.0
220
0.0
230
1.0
  2
SOLID
 70
     1
 71
     1
 91
        3
 92
        1
 93
        1
 72
     4
 94
        3
 73
     0
 74
     0
 95
       17
 96
       13
 40
0.0
 40
0.0
 40
0.0
 40
0.0
 40
1.0
 40
1.0
 40
1.0
 40
2.0
 40
2.0
 40
2.0
 40
3.0
 40
3.0
 40
3.0
 40
4.0
 40
4.0
 40
4.0
 40
4.0
 10
119.8448811549346
 20
-148.297235748516
 10
119.8448811549346
 20
-148.4408962302509
 10
119.9316975611629
 20
-148.5935139602474
 10
120.1346136852441
 20
-148.5935139602474
 10
120.339941376165
 20
-148.5935139602474
 10
120.4412271834313
 20
-148.4663899368417
 10
120.4412271834313
 20
-148.297235748516
 10
120.4412271834313
 20
-148.1112005923125
 10
120.3185817841564
 20
-148.0009575367845
 10
120.1408148571176
 20
-148.0009575367845
 10
119.9189507078675
 20
-148.0009575367845
 10
119.8448811549346
 20
-148.1639105532368
 10
119.8448811549346
 20
-148.297235748516
 97
        0
 97
        1
330
E3
 92
        1
 93
        1
 72
     4
 94
        3
 73
     0
 74
     0
 95
       17
 96
       13
 40
0.0
 40
0.0
 40
0.0
 40
0.0
 40
1.0
 40
1.0
 40
1.0
 40
2.0
 40
2.0
 40
2.0
 40
3.0
 40
3.0
 40
3.0
 40
4.0
 40
4.0
 40
4.0
 40
4.0
 10
119.1848008599607
 20
-148.297235748516
 10
119.1848008599607
 20
-148.4622558222594
 10
119.2798854953536
 20
-148.5470051711966
 10
119.4152777479239
 20
-148.5470051711966
 10
119.5379231471988
 20
-148.5470051711966
 10
119.6564344318914
 20
-148.4750026755548
 10
119.6564344318914
 20
-148.297235748516
 10
119.6564344318914
 20
-148.1194688214771
 10
119.5379231471988
 20
-148.0474663258353
 10
119.4152777479239
 20
-148.0474663258353
 10
119.2798854953536
 20
-148.0474663258353
 10
119.1848008599607
 20
-148.1342827320636
 10
119.1848008599607
 20
-148.297235748516
 97
        0
 97
        1
330
E4
 92
        1
 93
        1
 72
     4
 94
        3
 73
     0
 74
     0
 95
       29
 96
       25
 40
0.0
 40
0.0
 40
0.0
 40
0.0
 40
1.0
 40
1.0
 40
1.0
 40
2.0
 40
2.0
 40
2.0
 40
3.0
 40
3.0
 40
3.0
 40
4.0
 40
4.0
 40
4.0
 40
5.0
 40
5.0
 40
5.0
 40
6.0
 40
6.0
 40
6.0
 40
7.0
 40
7.0
 40
7.0
 40
8.0
 40
8.0
 40
8.0
 40
8.0
 10
120.635875078348
 20
-148.297235748516
 10
120.635875078348
 20
-148.5638861390743
 10
120.4984157684865
 20
-148.8177896763372
 10
120.1494275958307
 20
-148.8177896763372
 10
119.8934570012766
 20
-148.8177896763372
 10
119.7983723658837
 20
-148.6758517423449
 10
119.7370496662463
 20
-148.5700873109477
 10
119.6777940239
 20
-148.6947997675138
 10
119.5634168537897
 20
-148.7709363777378
 10
119.4025308946285
 20
-148.7709363777378
 10
119.1276122749056
 20
-148.7709363777378
 10
118.9922200223353
 20
-148.5721543682389
 10
118.9922200223353
 20
-148.297235748516
 10
118.9922200223353
 20
-148.0137043900799
 10
119.1362250136187
 20
-147.8231906097456
 10
119.4025308946285
 20
-147.8231906097456
 10
119.5634168537897
 20
-147.8231906097456
 10
119.6777940239
 20
-147.9017387868093
 10
119.7370496662463
 20
-148.0264512433753
 10
119.7876925698794
 20
-147.9375677798559
 10
119.8827772052723
 20
-147.7787488779858
 10
120.1452934812484
 20
-147.7787488779858
 10
120.519775360495
 20
-147.7787488779858
 10
120.635875078348
 20
-148.0581461218396
 10
120.635875078348
 20
-148.297235748516
 97
        0
 97
        1
330
E5
 75
     2
 76
     1
 98
        1
 10
0.0
 20
0.0
450
        0
451
        0
460
0.0
461
0.0
452
        0
462
0.0
453
        0
470

  0
SPLINE
  5
E7
330
DF
100
AcDbEntity
  8
レイヤー 1
100
AcDbSpline
210
0.0
220
0.0
230
1.0
 70
    11
 71
     3
 72
    17
 73
    13
 74
     0
 42
0.0000000001
 43
0.0000000001
 40
0.0
 40
0.0
 40
0.0
 40
0.0
 40
1.0
 40
1.0
 40
1.0
 40
2.0
 40
2.0
 40
2.0
 40
3.0
 40
3.0
 40
3.0
 40
4.0
 40
4.0
 40
4.0
 40
4.0
 10
120.5852321747148
 20
-147.560329824221
 30
0.0
 10
120.5852321747148
 20
-147.560329824221
 30
0.0
 10
120.333395694743
 20
-147.560329824221
 30
0.0
 10
120.333395694743
 20
-147.560329824221
 30
0.0
 10
120.333395694743
 20
-147.560329824221
 30
0.0
 10
120.333395694743
 20
-147.3084933442493
 30
0.0
 10
120.333395694743
 20
-147.3084933442493
 30
0.0
 10
120.333395694743
 20
-147.3084933442493
 30
0.0
 10
120.5852321747148
 20
-147.3084933442493
 30
0.0
 10
120.5852321747148
 20
-147.3084933442493
 30
0.0
 10
120.5852321747148
 20
-147.3084933442493
 30
0.0
 10
120.5852321747148
 20
-147.560329824221
 30
0.0
 10
120.5852321747148
 20
-147.560329824221
 30
0.0
  0
HATCH
  5
E8
330
DF
100
AcDbEntity
  8
レイヤー 1
 62
    18
420
        0
440
 33554687
100
AcDbHatch
 10
0.0
 20
0.0
 30
0.0
210
0.0
220
0.0
230
1.0
  2
SOLID
 70
     1
 71
     1
 91
        1
 92
        1
 93
        1
 72
     4
 94
        3
 73
     0
 74
     0
 95
       17
 96
       13
 40
0.0
 40
0.0
 40
0.0
 40
0.0
 40
1.0
 40
1.0
 40
1.0
 40
2.0
 40
2.0
 40
2.0
 40
3.0
 40
3.0
 40
3.0
 40
4.0
 40
4.0
 40
4.0
 40
4.0
 10
120.5852321747148
 20
-147.560329824221
 10
120.5852321747148
 20
-147.560329824221
 10
120.333395694743
 20
-147.560329824221
 10
120.333395694743
 20
-147.560329824221
 10
120.333395694743
 20
-147.560329824221
 10
120.333395694743
 20
-147.3084933442493
 10
120.333395694743
 20
-147.3084933442493
 10
120.333395694743
 20
-147.3084933442493
 10
120.5852321747148
 20
-147.3084933442493
 10
120.5852321747148
 20
-147.3084933442493
 10
120.5852321747148
 20
-147.3084933442493
 10
120.5852321747148
 20
-147.560329824221
 10
120.5852321747148
 20
-147.560329824221
 97
        0
 97
        1
330
E7
 75
     2
 76
     1
 98
        1
 10
0.0
 20
0.0
450
        0
451
        0
460
0.0
461
0.0
452
        0
462
0.0
453
        0
470

  0
SPLINE
  5
E9
330
DF
100
AcDbEntity
  8
レイヤー 1
100
AcDbSpline
210
0.0
220
0.0
230
1.0
 70
     9
 71
     3
 72
    53
 73
    49
 74
     0
 42
0.0000000001
 43
0.0000000001
 40
0.0
 40
0.0
 40
0.0
 40
0.0
 40
1.0
 40
1.0
 40
1.0
 40
2.0
 40
2.0
 40
2.0
 40
3.0
 40
3.0
 40
3.0
 40
4.0
 40
4.0
 40
4.0
 40
5.0
 40
5.0
 40
5.0
 40
6.0
 40
6.0
 40
6.0
 40
7.0
 40
7.0
 40
7.0
 40
8.0
 40
8.0
 40
8.0
 40
9.0
 40
9.0
 40
9.0
 40
10.0
 40
10.0
 40
10.0
 40
11.0
 40
11.0
 40
11.0
 40
12.0
 40
12.0
 40
12.0
 40
13.0
 40
13.0
 40
13.0
 40
14.0
 40
14.0
 40
14.0
 40
15.0
 40
15.0
 40
15.0
 40
16.0
 40
16.0
 40
16.0
 40
16.0
 10
120.635875078348
 20
-146.5912244642202
 30
0.0
 10
120.635875078348
 20
-146.6694281317354
 30
0.0
 10
120.6189941104702
 20
-146.7710584485503
 30
0.0
 10
120.5556043535416
 20
-146.8726887653651
 30
0.0
 10
120.4457058075622
 20
-147.0459770682732
 30
0.0
 10
120.3144476695741
 20
-147.0673366602818
 30
0.0
 10
120.2066161808858
 20
-147.0862846854506
 30
0.0
 10
120.2066161808858
 20
-147.0862846854506
 30
0.0
 10
120.2066161808858
 20
-146.864076026652
 30
0.0
 10
120.2066161808858
 20
-146.864076026652
 30
0.0
 10
120.4053981903848
 20
-146.8092990084366
 30
0.0
 10
120.4350260115579
 20
-146.6821749850308
 30
0.0
 10
120.4350260115579
 20
-146.5891574069291
 30
0.0
 10
120.4350260115579
 20
-146.4496310397765
 30
0.0
 10
120.3354627520342
 20
-146.2973578193284
 30
0.0
 10
120.1029188067798
 20
-146.2973578193284
 30
0.0
 10
119.8469482122257
 20
-146.2973578193284
 30
0.0
 10
119.7770127738752
 20
-146.4771918036585
 30
0.0
 10
119.7770127738752
 20
-146.5977701456422
 30
0.0
 10
119.7770127738752
 20
-146.6294650241065
 30
0.0
 10
119.7770127738752
 20
-146.7710584485503
 30
0.0
 10
119.906203854572
 20
-146.8599419120697
 30
0.0
 10
119.906203854572
 20
-146.8599419120697
 30
0.0
 10
119.8872558294032
 20
-147.0356417818174
 30
0.0
 10
119.8872558294032
 20
-147.0356417818174
 30
0.0
 10
119.8872558294032
 20
-147.0356417818174
 30
0.0
 10
119.0407958686773
 20
-146.9150634398337
 30
0.0
 10
119.0407958686773
 20
-146.9150634398337
 30
0.0
 10
119.0407958686773
 20
-146.9150634398337
 30
0.0
 10
119.0407958686773
 20
-146.1364718601673
 30
0.0
 10
119.0407958686773
 20
-146.1364718601673
 30
0.0
 10
119.0407958686773
 20
-146.1364718601673
 30
0.0
 10
119.2354437635939
 20
-146.1364718601673
 30
0.0
 10
119.2354437635939
 20
-146.1364718601673
 30
0.0
 10
119.2354437635939
 20
-146.1364718601673
 30
0.0
 10
119.2354437635939
 20
-146.7521104233814
 30
0.0
 10
119.2354437635939
 20
-146.7521104233814
 30
0.0
 10
119.2354437635939
 20
-146.7521104233814
 30
0.0
 10
119.6585014891826
 20
-146.8175672376012
 30
0.0
 10
119.6585014891826
 20
-146.8175672376012
 30
0.0
 10
119.6247395534271
 20
-146.7562445379637
 30
0.0
 10
119.5844319362497
 20
-146.6739067558662
 30
0.0
 10
119.5844319362497
 20
-146.5553954711736
 30
0.0
 10
119.5844319362497
 20
-146.3014919339107
 30
0.0
 10
119.7708116020017
 20
-146.0644693645255
 30
0.0
 10
120.0839707816109
 20
-146.0644693645255
 30
0.0
 10
120.4012640758024
 20
-146.0644693645255
 30
0.0
 10
120.635875078348
 20
-146.2887450806153
 30
0.0
 10
120.635875078348
 20
-146.5912244642202
 30
0.0
  0
HATCH
  5
EA
330
DF
100
AcDbEntity
  8
レイヤー 1
 62
    18
420
        0
440
 33554687
100
AcDbHatch
 10
0.0
 20
0.0
 30
0.0
210
0.0
220
0.0
230
1.0
  2
SOLID
 70
     1
 71
     1
 91
        1
 92
        1
 93
        1
 72
     4
 94
        3
 73
     0
 74
     0
 95
       53
 96
       49
 40
0.0
 40
0.0
 40
0.0
 40
0.0
 40
1.0
 40
1.0
 40
1.0
 40
2.0
 40
2.0
 40
2.0
 40
3.0
 40
3.0
 40
3.0
 40
4.0
 40
4.0
 40
4.0
 40
5.0
 40
5.0
 40
5.0
 40
6.0
 40
6.0
 40
6.0
 40
7.0
 40
7.0
 40
7.0
 40
8.0
 40
8.0
 40
8.0
 40
9.0
 40
9.0
 40
9.0
 40
10.0
 40
10.0
 40
10.0
 40
11.0
 40
11.0
 40
11.0
 40
12.0
 40
12.0
 40
12.0
 40
13.0
 40
13.0
 40
13.0
 40
14.0
 40
14.0
 40
14.0
 40
15.0
 40
15.0
 40
15.0
 40
16.0
 40
16.0
 40
16.0
 40
16.0
 10
120.635875078348
 20
-146.5912244642202
 10
120.635875078348
 20
-146.6694281317354
 10
120.6189941104702
 20
-146.7710584485503
 10
120.5556043535416
 20
-146.8726887653651
 10
120.4457058075622
 20
-147.0459770682732
 10
120.3144476695741
 20
-147.0673366602818
 10
120.2066161808858
 20
-147.0862846854506
 10
120.2066161808858
 20
-147.0862846854506
 10
120.2066161808858
 20
-146.864076026652
 10
120.2066161808858
 20
-146.864076026652
 10
120.4053981903848
 20
-146.8092990084366
 10
120.4350260115579
 20
-146.6821749850308
 10
120.4350260115579
 20
-146.5891574069291
 10
120.4350260115579
 20
-146.4496310397765
 10
120.3354627520342
 20
-146.2973578193284
 10
120.1029188067798
 20
-146.2973578193284
 10
119.8469482122257
 20
-146.2973578193284
 10
119.7770127738752
 20
-146.4771918036585
 10
119.7770127738752
 20
-146.5977701456422
 10
119.7770127738752
 20
-146.6294650241065
 10
119.7770127738752
 20
-146.7710584485503
 10
119.906203854572
 20
-146.8599419120697
 10
119.906203854572
 20
-146.8599419120697
 10
119.8872558294032
 20
-147.0356417818174
 10
119.8872558294032
 20
-147.0356417818174
 10
119.8872558294032
 20
-147.0356417818174
 10
119.0407958686773
 20
-146.9150634398337
 10
119.0407958686773
 20
-146.9150634398337
 10
119.0407958686773
 20
-146.9150634398337
 10
119.0407958686773
 20
-146.1364718601673
 10
119.0407958686773
 20
-146.1364718601673
 10
119.0407958686773
 20
-146.1364718601673
 10
119.2354437635939
 20
-146.1364718601673
 10
119.2354437635939
 20
-146.1364718601673
 10
119.2354437635939
 20
-146.1364718601673
 10
119.2354437635939
 20
-146.7521104233814
 10
119.2354437635939
 20
-146.7521104233814
 10
119.2354437635939
 20
-146.7521104233814
 10
119.6585014891826
 20
-146.8175672376012
 10
119.6585014891826
 20
-146.8175672376012
 10
119.6247395534271
 20
-146.7562445379637
 10
119.5844319362497
 20
-146.6739067558662
 10
119.5844319362497
 20
-146.5553954711736
 10
119.5844319362497
 20
-146.3014919339107
 10
119.7708116020017
 20
-146.0644693645255
 10
120.0839707816109
 20
-146.0644693645255
 10
120.4012640758024
 20
-146.0644693645255
 10
120.635875078348
 20
-146.2887450806153
 10
120.635875078348
 20
-146.5912244642202
 97
        0
 97
        1
330
E9
 75
     2
 76
     1
 98
        1
 10
0.0
 20
0.0
450
        0
451
        0
460
0.0
461
0.0
452
        0
462
0.0
453
        0
470

  0
ENDBLK
  5
E2
330
DF
100
AcDbEntity
  8
0
100
AcDbBlockEnd
  0
BLOCK
  5
F0
330
EE
100
AcDbEntity
  8
0
100
AcDbBlockBegin
  2
Block_10
 70
     0
 10
0.0
 20
0.0
 30
0.0
  3
Block_10
  1

  0
INSERT
  5
F3
330
EE
100
AcDbEntity
  8
レイヤー 1
100
AcDbBlockReference
  2
Block_11
 10
0.0
 20
0.0
 30
0.0
  0
ENDBLK
  5
F1
330
EE
100
AcDbEntity
  8
0
100
AcDbBlockEnd
  0
BLOCK
  5
F4
330
F2
100
AcDbEntity
  8
0
100
AcDbBlockBegin
  2
Block_11
 70
     0
 10
0.0
 20
0.0
 30
0.0
  3
Block_11
  1

  0
SPLINE
  5
F6
330
F2
100
AcDbEntity
  8
レイヤー 1
100
AcDbSpline
210
0.0
220
0.0
230
1.0
 70
    11
 71
     3
 72
    26
 73
    22
 74
     0
 42
0.0000000001
 43
0.0000000001
 40
0.0
 40
0.0
 40
0.0
 40
0.0
 40
1.0
 40
1.0
 40
1.0
 40
2.0
 40
2.0
 40
2.0
 40
3.0
 40
3.0
 40
3.0
 40
4.0
 40
4.0
 40
4.0
 40
5.0
 40
5.0
 40
5.0
 40
6.0
 40
6.0
 40
6.0
 40
7.0
 40
7.0
 40
7.0
 40
7.0
 10
107.9658474122446
 20
-156.1820257856072
 30
0.0
 10
107.9658474122446
 20
-156.1820257856072
 30
0.0
 10
107.9658474122446
 20
-155.0778726825847
 30
0.0
 10
107.9658474122446
 20
-155.0778726825847
 30
0.0
 10
107.9658474122446
 20
-155.0778726825847
 30
0.0
 10
107.6358072647577
 20
-155.0778726825847
 30
0.0
 10
107.6358072647577
 20
-155.0778726825847
 30
0.0
 10
107.6358072647577
 20
-155.0778726825847
 30
0.0
 10
107.6358072647577
 20
-154.929733576719
 30
0.0
 10
107.6358072647577
 20
-154.929733576719
 30
0.0
 10
107.9679144695358
 20
-154.9149196661324
 30
0.0
 10
108.0144232585866
 20
-154.75196664968
 30
0.0
 10
108.0440510797598
 20
-154.6375894795698
 30
0.0
 10
108.0440510797598
 20
-154.6375894795698
 30
0.0
 10
108.1901231283344
 20
-154.6375894795698
 30
0.0
 10
108.1901231283344
 20
-154.6375894795698
 30
0.0
 10
108.1901231283344
 20
-154.6375894795698
 30
0.0
 10
108.1901231283344
 20
-156.1820257856072
 30
0.0
 10
108.1901231283344
 20
-156.1820257856072
 30
0.0
 10
108.1901231283344
 20
-156.1820257856072
 30
0.0
 10
107.9658474122446
 20
-156.1820257856072
 30
0.0
 10
107.9658474122446
 20
-156.1820257856072
 30
0.0
  0
HATCH
  5
F7
330
F2
100
AcDbEntity
  8
レイヤー 1
 62
    18
420
        0
440
 33554687
100
AcDbHatch
 10
0.0
 20
0.0
 30
0.0
210
0.0
220
0.0
230
1.0
  2
SOLID
 70
     1
 71
     1
 91
        1
 92
        1
 93
        1
 72
     4
 94
        3
 73
     0
 74
     0
 95
       26
 96
       22
 40
0.0
 40
0.0
 40
0.0
 40
0.0
 40
1.0
 40
1.0
 40
1.0
 40
2.0
 40
2.0
 40
2.0
 40
3.0
 40
3.0
 40
3.0
 40
4.0
 40
4.0
 40
4.0
 40
5.0
 40
5.0
 40
5.0
 40
6.0
 40
6.0
 40
6.0
 40
7.0
 40
7.0
 40
7.0
 40
7.0
 10
107.9658474122446
 20
-156.1820257856072
 10
107.9658474122446
 20
-156.1820257856072
 10
107.9658474122446
 20
-155.0778726825847
 10
107.9658474122446
 20
-155.0778726825847
 10
107.9658474122446
 20
-155.0778726825847
 10
107.6358072647577
 20
-155.0778726825847
 10
107.6358072647577
 20
-155.0778726825847
 10
107.6358072647577
 20
-155.0778726825847
 10
107.6358072647577
 20
-154.929733576719
 10
107.6358072647577
 20
-154.929733576719
 10
107.9679144695358
 20
-154.9149196661324
 10
108.0144232585866
 20
-154.75196664968
 10
108.0440510797598
 20
-154.6375894795698
 10
108.0440510797598
 20
-154.6375894795698
 10
108.1901231283344
 20
-154.6375894795698
 10
108.1901231283344
 20
-154.6375894795698
 10
108.1901231283344
 20
-154.6375894795698
 10
108.1901231283344
 20
-156.1820257856072
 10
108.1901231283344
 20
-156.1820257856072
 10
108.1901231283344
 20
-156.1820257856072
 10
107.9658474122446
 20
-156.1820257856072
 10
107.9658474122446
 20
-156.1820257856072
 97
        0
 97
        1
330
F6
 75
     2
 76
     1
 98
        1
 10
0.0
 20
0.0
450
        0
451
        0
460
0.0
461
0.0
452
        0
462
0.0
453
        0
470

  0
SPLINE
  5
F8
330
F2
100
AcDbEntity
  8
レイヤー 1
100
AcDbSpline
210
0.0
220
0.0
230
1.0
 70
     9
 71
     3
 72
    26
 73
    22
 74
     0
 42
0.0000000001
 43
0.0000000001
 40
0.0
 40
0.0
 40
0.0
 40
0.0
 40
1.0
 40
1.0
 40
1.0
 40
2.0
 40
2.0
 40
2.0
 40
3.0
 40
3.0
 40
3.0
 40
4.0
 40
4.0
 40
4.0
 40
5.0
 40
5.0
 40
5.0
 40
6.0
 40
6.0
 40
6.0
 40
7.0
 40
7.0
 40
7.0
 40
7.0
 10
109.1023844128286
 20
-156.1820257856072
 30
0.0
 10
109.1023844128286
 20
-156.1820257856072
 30
0.0
 10
108.8653618434433
 20
-156.1820257856072
 30
0.0
 10
108.8653618434433
 20
-156.1820257856072
 30
0.0
 10
108.8908555500342
 20
-155.8730007205803
 30
0.0
 10
109.0834363876597
 20
-155.3548583595988
 30
0.0
 10
109.4896131453706
 20
-154.8491183423641
 30
0.0
 10
109.4896131453706
 20
-154.8491183423641
 30
0.0
 10
108.6517659233579
 20
-154.8491183423641
 30
0.0
 10
108.6517659233579
 20
-154.8491183423641
 30
0.0
 10
108.6517659233579
 20
-154.8491183423641
 30
0.0
 10
108.6517659233579
 20
-154.6375894795698
 30
0.0
 10
108.6517659233579
 20
-154.6375894795698
 30
0.0
 10
108.6517659233579
 20
-154.6375894795698
 30
0.0
 10
109.7266357147558
 20
-154.6375894795698
 30
0.0
 10
109.7266357147558
 20
-154.6375894795698
 30
0.0
 10
109.7266357147558
 20
-154.6375894795698
 30
0.0
 10
109.7266357147558
 20
-154.8491183423641
 30
0.0
 10
109.7266357147558
 20
-154.8491183423641
 30
0.0
 10
109.4027967391423
 20
-155.1391953822221
 30
0.0
 10
109.136146348584
 20
-155.7314072961366
 30
0.0
 10
109.1023844128286
 20
-156.1820257856072
 30
0.0
  0
HATCH
  5
F9
330
F2
100
AcDbEntity
  8
レイヤー 1
 62
    18
420
        0
440
 33554687
100
AcDbHatch
 10
0.0
 20
0.0
 30
0.0
210
0.0
220
0.0
230
1.0
  2
SOLID
 70
     1
 71
     1
 91
        1
 92
        1
 93
        1
 72
     4
 94
        3
 73
     0
 74
     0
 95
       26
 96
       22
 40
0.0
 40
0.0
 40
0.0
 40
0.0
 40
1.0
 40
1.0
 40
1.0
 40
2.0
 40
2.0
 40
2.0
 40
3.0
 40
3.0
 40
3.0
 40
4.0
 40
4.0
 40
4.0
 40
5.0
 40
5.0
 40
5.0
 40
6.0
 40
6.0
 40
6.0
 40
7.0
 40
7.0
 40
7.0
 40
7.0
 10
109.1023844128286
 20
-156.1820257856072
 10
109.1023844128286
 20
-156.1820257856072
 10
108.8653618434433
 20
-156.1820257856072
 10
108.8653618434433
 20
-156.1820257856072
 10
108.8908555500342
 20
-155.8730007205803
 10
109.0834363876597
 20
-155.3548583595988
 10
109.4896131453706
 20
-154.8491183423641
 10
109.4896131453706
 20
-154.8491183423641
 10
108.6517659233579
 20
-154.8491183423641
 10
108.6517659233579
 20
-154.8491183423641
 10
108.6517659233579
 20
-154.8491183423641
 10
108.6517659233579
 20
-154.6375894795698
 10
108.6517659233579
 20
-154.6375894795698
 10
108.6517659233579
 20
-154.6375894795698
 10
109.7266357147558
 20
-154.6375894795698
 10
109.7266357147558
 20
-154.6375894795698
 10
109.7266357147558
 20
-154.6375894795698
 10
109.7266357147558
 20
-154.8491183423641
 10
109.7266357147558
 20
-154.8491183423641
 10
109.4027967391423
 20
-155.1391953822221
 10
109.136146348584
 20
-155.7314072961366
 10
109.1023844128286
 20
-156.1820257856072
 97
        0
 97
        1
330
F8
 75
     2
 76
     1
 98
        1
 10
0.0
 20
0.0
450
        0
451
        0
460
0.0
461
0.0
452
        0
462
0.0
453
        0
470

  0
ENDBLK
  5
F5
330
F2
100
AcDbEntity
  8
0
100
AcDbBlockEnd
  0
BLOCK
  5
FC
330
FA
100
AcDbEntity
  8
0
100
AcDbBlockBegin
  2
Block_12
 70
     0
 10
0.0
 20
0.0
 30
0.0
  3
Block_12
  1

  0
INSERT
  5
FF
330
FA
100
AcDbEntity
  8
レイヤー 1
100
AcDbBlockReference
  2
Block_13
 10
0.0
 20
0.0
 30
0.0
  0
ENDBLK
  5
FD
330
FA
100
AcDbEntity
  8
0
100
AcDbBlockEnd
  0
BLOCK
  5
100
330
FE
100
AcDbEntity
  8
0
100
AcDbBlockBegin
  2
Block_13
 70
     0
 10
0.0
 20
0.0
 30
0.0
  3
Block_13
  1

  0
SPLINE
  5
102
330
FE
100
AcDbEntity
  8
レイヤー 1
100
AcDbSpline
210
0.0
220
0.0
230
1.0
 70
    11
 71
     3
 72
    26
 73
    22
 74
     0
 42
0.0000000001
 43
0.0000000001
 40
0.0
 40
0.0
 40
0.0
 40
0.0
 40
1.0
 40
1.0
 40
1.0
 40
2.0
 40
2.0
 40
2.0
 40
3.0
 40
3.0
 40
3.0
 40
4.0
 40
4.0
 40
4.0
 40
5.0
 40
5.0
 40
5.0
 40
6.0
 40
6.0
 40
6.0
 40
7.0
 40
7.0
 40
7.0
 40
7.0
 10
94.46572398897037
 20
-156.1823702951558
 30
0.0
 10
94.46572398897037
 20
-156.1823702951558
 30
0.0
 10
94.46572398897037
 20
-155.0782171921332
 30
0.0
 10
94.46572398897037
 20
-155.0782171921332
 30
0.0
 10
94.46572398897037
 20
-155.0782171921332
 30
0.0
 10
94.13568384148344
 20
-155.0782171921332
 30
0.0
 10
94.13568384148344
 20
-155.0782171921332
 30
0.0
 10
94.13568384148344
 20
-155.0782171921332
 30
0.0
 10
94.13568384148344
 20
-154.9300780862675
 30
0.0
 10
94.13568384148344
 20
-154.9300780862675
 30
0.0
 10
94.46779104626152
 20
-154.9152641756809
 30
0.0
 10
94.51429983531239
 20
-154.7523111592286
 30
0.0
 10
94.54392765648554
 20
-154.6379339891183
 30
0.0
 10
94.54392765648554
 20
-154.6379339891183
 30
0.0
 10
94.68999970506015
 20
-154.6379339891183
 30
0.0
 10
94.68999970506015
 20
-154.6379339891183
 30
0.0
 10
94.68999970506015
 20
-154.6379339891183
 30
0.0
 10
94.68999970506015
 20
-156.1823702951558
 30
0.0
 10
94.68999970506015
 20
-156.1823702951558
 30
0.0
 10
94.68999970506015
 20
-156.1823702951558
 30
0.0
 10
94.46572398897037
 20
-156.1823702951558
 30
0.0
 10
94.46572398897037
 20
-156.1823702951558
 30
0.0
  0
HATCH
  5
103
330
FE
100
AcDbEntity
  8
レイヤー 1
 62
    18
420
        0
440
 33554687
100
AcDbHatch
 10
0.0
 20
0.0
 30
0.0
210
0.0
220
0.0
230
1.0
  2
SOLID
 70
     1
 71
     1
 91
        1
 92
        1
 93
        1
 72
     4
 94
        3
 73
     0
 74
     0
 95
       26
 96
       22
 40
0.0
 40
0.0
 40
0.0
 40
0.0
 40
1.0
 40
1.0
 40
1.0
 40
2.0
 40
2.0
 40
2.0
 40
3.0
 40
3.0
 40
3.0
 40
4.0
 40
4.0
 40
4.0
 40
5.0
 40
5.0
 40
5.0
 40
6.0
 40
6.0
 40
6.0
 40
7.0
 40
7.0
 40
7.0
 40
7.0
 10
94.46572398897037
 20
-156.1823702951558
 10
94.46572398897037
 20
-156.1823702951558
 10
94.46572398897037
 20
-155.0782171921332
 10
94.46572398897037
 20
-155.0782171921332
 10
94.46572398897037
 20
-155.0782171921332
 10
94.13568384148344
 20
-155.0782171921332
 10
94.13568384148344
 20
-155.0782171921332
 10
94.13568384148344
 20
-155.0782171921332
 10
94.13568384148344
 20
-154.9300780862675
 10
94.13568384148344
 20
-154.9300780862675
 10
94.46779104626152
 20
-154.9152641756809
 10
94.51429983531239
 20
-154.7523111592286
 10
94.54392765648554
 20
-154.6379339891183
 10
94.54392765648554
 20
-154.6379339891183
 10
94.68999970506015
 20
-154.6379339891183
 10
94.68999970506015
 20
-154.6379339891183
 10
94.68999970506015
 20
-154.6379339891183
 10
94.68999970506015
 20
-156.1823702951558
 10
94.68999970506015
 20
-156.1823702951558
 10
94.68999970506015
 20
-156.1823702951558
 10
94.46572398897037
 20
-156.1823702951558
 10
94.46572398897037
 20
-156.1823702951558
 97
        0
 97
        1
330
102
 75
     2
 76
     1
 98
        1
 10
0.0
 20
0.0
450
        0
451
        0
460
0.0
461
0.0
452
        0
462
0.0
453
        0
470

  0
SPLINE
  5
104
330
FE
100
AcDbEntity
  8
レイヤー 1
100
AcDbSpline
210
0.0
220
0.0
230
1.0
 70
     9
 71
     3
 72
    17
 73
    13
 74
     0
 42
0.0000000001
 43
0.0000000001
 40
0.0
 40
0.0
 40
0.0
 40
0.0
 40
1.0
 40
1.0
 40
1.0
 40
2.0
 40
2.0
 40
2.0
 40
3.0
 40
3.0
 40
3.0
 40
4.0
 40
4.0
 40
4.0
 40
4.0
 10
95.69114445307375
 20
-154.7819389804017
 30
0.0
 10
95.44154728516739
 20
-154.7819389804017
 30
0.0
 10
95.39503849611653
 20
-155.0654703388378
 30
0.0
 10
95.39503849611653
 20
-155.4103243969113
 30
0.0
 10
95.39503849611653
 20
-155.7296847483939
 30
0.0
 10
95.43103974393739
 20
-156.0383653038723
 30
0.0
 10
95.69114445307375
 20
-156.0383653038723
 30
0.0
 10
95.93867456368895
 20
-156.0383653038723
 30
0.0
 10
95.98742266480524
 20
-155.7572455122759
 30
0.0
 10
95.98742266480524
 20
-155.4103243969113
 30
0.0
 10
95.98742266480524
 20
-155.0906195358801
 30
0.0
 10
95.94918210491895
 20
-154.7819389804017
 30
0.0
 10
95.69114445307375
 20
-154.7819389804017
 30
0.0
  0
SPLINE
  5
105
330
FE
100
AcDbEntity
  8
レイヤー 1
100
AcDbSpline
210
0.0
220
0.0
230
1.0
 70
     9
 71
     3
 72
    29
 73
    25
 74
     0
 42
0.0000000001
 43
0.0000000001
 40
0.0
 40
0.0
 40
0.0
 40
0.0
 40
1.0
 40
1.0
 40
1.0
 40
2.0
 40
2.0
 40
2.0
 40
3.0
 40
3.0
 40
3.0
 40
4.0
 40
4.0
 40
4.0
 40
5.0
 40
5.0
 40
5.0
 40
6.0
 40
6.0
 40
6.0
 40
7.0
 40
7.0
 40
7.0
 40
8.0
 40
8.0
 40
8.0
 40
8.0
 10
96.08888072684585
 20
-156.0046033681169
 30
0.0
 10
95.98104923815752
 20
-156.2140651736201
 30
0.0
 10
95.80758868047519
 20
-156.2330131987889
 30
0.0
 10
95.69114445307375
 20
-156.2330131987889
 30
0.0
 10
95.53043074868684
 20
-156.2330131987889
 30
0.0
 10
95.38866506946881
 20
-156.1865044097381
 30
0.0
 10
95.29340817930165
 20
-156.0046033681169
 30
0.0
 10
95.18988305996989
 20
-155.8099554732003
 30
0.0
 10
95.17076278002676
 20
-155.5729329038151
 30
0.0
 10
95.17076278002676
 20
-155.4103243969113
 30
0.0
 10
95.17076278002676
 20
-155.2663194056279
 30
0.0
 10
95.18764374790448
 20
-155.0144829256561
 30
0.0
 10
95.29340817930165
 20
-154.8157009161572
 30
0.0
 10
95.40141192276424
 20
-154.612784792076
 30
0.0
 10
95.56212562715113
 20
-154.5893581427763
 30
0.0
 10
95.69114445307375
 20
-154.5893581427763
 30
0.0
 10
95.8497911001695
 20
-154.5893581427763
 30
0.0
 10
95.99362383667868
 20
-154.633799874536
 30
0.0
 10
96.08888072684585
 20
-154.8157009161572
 30
0.0
 10
96.1882717315953
 20
-155.0082817537826
 30
0.0
 10
96.21152612612073
 20
-155.2366915844547
 30
0.0
 10
96.21152612612073
 20
-155.4103243969113
 30
0.0
 10
96.21152612612073
 20
-155.5815456425282
 30
0.0
 10
96.19051104366072
 20
-155.8120225304914
 30
0.0
 10
96.08888072684585
 20
-156.0046033681169
 30
0.0
  0
HATCH
  5
106
330
FE
100
AcDbEntity
  8
レイヤー 1
 62
    18
420
        0
440
 33554687
100
AcDbHatch
 10
0.0
 20
0.0
 30
0.0
210
0.0
220
0.0
230
1.0
  2
SOLID
 70
     1
 71
     1
 91
        2
 92
        1
 93
        1
 72
     4
 94
        3
 73
     0
 74
     0
 95
       17
 96
       13
 40
0.0
 40
0.0
 40
0.0
 40
0.0
 40
1.0
 40
1.0
 40
1.0
 40
2.0
 40
2.0
 40
2.0
 40
3.0
 40
3.0
 40
3.0
 40
4.0
 40
4.0
 40
4.0
 40
4.0
 10
95.69114445307375
 20
-154.7819389804017
 10
95.44154728516739
 20
-154.7819389804017
 10
95.39503849611653
 20
-155.0654703388378
 10
95.39503849611653
 20
-155.4103243969113
 10
95.39503849611653
 20
-155.7296847483939
 10
95.43103974393739
 20
-156.0383653038723
 10
95.69114445307375
 20
-156.0383653038723
 10
95.93867456368895
 20
-156.0383653038723
 10
95.98742266480524
 20
-155.7572455122759
 10
95.98742266480524
 20
-155.4103243969113
 10
95.98742266480524
 20
-155.0906195358801
 10
95.94918210491895
 20
-154.7819389804017
 10
95.69114445307375
 20
-154.7819389804017
 97
        0
 97
        1
330
104
 92
        1
 93
        1
 72
     4
 94
        3
 73
     0
 74
     0
 95
       29
 96
       25
 40
0.0
 40
0.0
 40
0.0
 40
0.0
 40
1.0
 40
1.0
 40
1.0
 40
2.0
 40
2.0
 40
2.0
 40
3.0
 40
3.0
 40
3.0
 40
4.0
 40
4.0
 40
4.0
 40
5.0
 40
5.0
 40
5.0
 40
6.0
 40
6.0
 40
6.0
 40
7.0
 40
7.0
 40
7.0
 40
8.0
 40
8.0
 40
8.0
 40
8.0
 10
96.08888072684585
 20
-156.0046033681169
 10
95.98104923815752
 20
-156.2140651736201
 10
95.80758868047519
 20
-156.2330131987889
 10
95.69114445307375
 20
-156.2330131987889
 10
95.53043074868684
 20
-156.2330131987889
 10
95.38866506946881
 20
-156.1865044097381
 10
95.29340817930165
 20
-156.0046033681169
 10
95.18988305996989
 20
-155.8099554732003
 10
95.17076278002676
 20
-155.5729329038151
 10
95.17076278002676
 20
-155.4103243969113
 10
95.17076278002676
 20
-155.2663194056279
 10
95.18764374790448
 20
-155.0144829256561
 10
95.29340817930165
 20
-154.8157009161572
 10
95.40141192276424
 20
-154.612784792076
 10
95.56212562715113
 20
-154.5893581427763
 10
95.69114445307375
 20
-154.5893581427763
 10
95.8497911001695
 20
-154.5893581427763
 10
95.99362383667868
 20
-154.633799874536
 10
96.08888072684585
 20
-154.8157009161572
 10
96.1882717315953
 20
-155.0082817537826
 10
96.21152612612073
 20
-155.2366915844547
 10
96.21152612612073
 20
-155.4103243969113
 10
96.21152612612073
 20
-155.5815456425282
 10
96.19051104366072
 20
-155.8120225304914
 10
96.08888072684585
 20
-156.0046033681169
 97
        0
 97
        1
330
105
 75
     2
 76
     1
 98
        1
 10
0.0
 20
0.0
450
        0
451
        0
460
0.0
461
0.0
452
        0
462
0.0
453
        0
470

  0
ENDBLK
  5
101
330
FE
100
AcDbEntity
  8
0
100
AcDbBlockEnd
  0
ENDSEC
  0
SECTION
  2
ENTITIES
  0
INSERT
  5
7A
330
70
100
AcDbEntity
  8
レイヤー 1
100
AcDbBlockReference
  2
Block_0
 10
0.0
 20
0.0
 30
0.0
  0
LINE
  5
A1
330
70
100
AcDbEntity
  8
レイヤー 1
 62
    18
420
        0
370
    25
100
AcDbLine
 10
90.17734127409525
 20
-143.2318423275481
 30
0.0
 11
101.2813713191097
 21
-143.2318423275481
 31
0.0
  0
LINE
  5
A2
330
70
100
AcDbEntity
  8
レイヤー 1
 62
    18
420
        0
370
    25
100
AcDbLine
 10
100.1816925139068
 20
-144.3321914661425
 30
0.0
 11
100.1816925139068
 21
-152.8319484715182
 31
0.0
  0
LINE
  5
A3
330
70
100
AcDbEntity
  8
レイヤー 1
 62
    18
420
        0
370
    25
100
AcDbLine
 10
90.17734127409525
 20
-144.3321914661425
 30
0.0
 11
100.1773885694969
 21
-144.3321914661425
 31
0.0
  0
LINE
  5
A4
330
70
100
AcDbEntity
  8
レイヤー 1
 62
    18
420
        0
370
    25
100
AcDbLine
 10
90.18164516287402
 20
-143.2318423275481
 30
0.0
 11
90.18164516287402
 21
-144.3321914661425
 31
0.0
  0
LINE
  5
A5
330
70
100
AcDbEntity
  8
レイヤー 1
 62
    18
420
        0
370
    25
100
AcDbLine
 10
101.2813713747405
 20
-143.2318423275481
 30
0.0
 11
101.2813713747405
 21
-151.7322696106845
 31
0.0
  0
LINE
  5
A6
330
70
100
AcDbEntity
  8
レイヤー 1
 62
    18
420
        0
370
    25
100
AcDbLine
 10
117.1818415246413
 20
-151.7322696106845
 30
0.0
 11
117.1818415246413
 21
-152.1318962671552
 31
0.0
  0
LINE
  5
A7
330
70
100
AcDbEntity
  8
レイヤー 1
 62
    18
420
        0
370
    25
100
AcDbLine
 10
101.2813713747405
 20
-151.7322696106845
 30
0.0
 11
117.1818415246413
 21
-151.7322696106845
 31
0.0
  0
LINE
  5
A8
330
70
100
AcDbEntity
  8
レイヤー 1
 62
    18
420
        0
370
    25
100
AcDbLine
 10
117.1818415246413
 20
-152.1318962671552
 30
0.0
 11
100.1816925139068
 21
-152.8319484715182
 31
0.0
  0
SPLINE
  5
A9
330
70
100
AcDbEntity
  8
レイヤー 1
 62
    18
420
        0
370
     9
100
AcDbSpline
210
0.0
220
0.0
230
1.0
 70
     9
 71
     3
 72
    17
 73
    13
 74
     0
 42
0.0000000001
 43
0.0000000001
 40
0.0
 40
0.0
 40
0.0
 40
0.0
 40
1.0
 40
1.0
 40
1.0
 40
2.0
 40
2.0
 40
2.0
 40
3.0
 40
3.0
 40
3.0
 40
4.0
 40
4.0
 40
4.0
 40
4.0
 10
121.2811897533915
 20
-143.2318423275481
 30
0.0
 10
121.2811897533915
 20
-143.1767031622878
 30
0.0
 10
121.2363869767568
 20
-143.1319356634302
 30
0.0
 10
121.1812830892737
 20
-143.1319356634302
 30
0.0
 10
121.1264993653405
 20
-143.1319356634302
 30
0.0
 10
121.0816965875738
 20
-143.1767031622878
 30
0.0
 10
121.0816965875738
 20
-143.2318423275481
 30
0.0
 10
121.0816965875738
 20
-143.2869399057509
 30
0.0
 10
121.1264993653405
 20
-143.3317426835173
 30
0.0
 10
121.1812830892737
 20
-143.3317426835173
 30
0.0
 10
121.2363869767568
 20
-143.3317426835173
 30
0.0
 10
121.2811897533915
 20
-143.2869399057509
 30
0.0
 10
121.2811897533915
 20
-143.2318423275481
 30
0.0
  0
SPLINE
  5
AA
330
70
100
AcDbEntity
  8
レイヤー 1
 62
    18
420
        0
370
     9
100
AcDbSpline
210
0.0
220
0.0
230
1.0
 70
     9
 71
     3
 72
    17
 73
    13
 74
     0
 42
0.0000000001
 43
0.0000000001
 40
0.0
 40
0.0
 40
0.0
 40
0.0
 40
1.0
 40
1.0
 40
1.0
 40
2.0
 40
2.0
 40
2.0
 40
3.0
 40
3.0
 40
3.0
 40
4.0
 40
4.0
 40
4.0
 40
4.0
 10
121.2811897533915
 20
-151.7322696106845
 30
0.0
 10
121.2811897533915
 20
-151.6764601676638
 30
0.0
 10
121.2363869767568
 20
-151.6316573910291
 30
0.0
 10
121.1812830892737
 20
-151.6316573910291
 30
0.0
 10
121.1264993653405
 20
-151.6316573910291
 30
0.0
 10
121.0816965875738
 20
-151.6764601676638
 30
0.0
 10
121.0816965875738
 20
-151.7322696106845
 30
0.0
 10
121.0816965875738
 20
-151.7873734981675
 30
0.0
 10
121.1264993653405
 20
-151.8321762748023
 30
0.0
 10
121.1812830892737
 20
-151.8321762748023
 30
0.0
 10
121.2363869767568
 20
-151.8321762748023
 30
0.0
 10
121.2811897533915
 20
-151.7873734981675
 30
0.0
 10
121.2811897533915
 20
-151.7322696106845
 30
0.0
  0
SPLINE
  5
AB
330
70
100
AcDbEntity
  8
レイヤー 1
 62
    18
420
        0
370
     9
100
AcDbSpline
210
0.0
220
0.0
230
1.0
 70
     9
 71
     3
 72
    17
 73
    13
 74
     0
 42
0.0000000001
 43
0.0000000001
 40
0.0
 40
0.0
 40
0.0
 40
0.0
 40
1.0
 40
1.0
 40
1.0
 40
2.0
 40
2.0
 40
2.0
 40
3.0
 40
3.0
 40
3.0
 40
4.0
 40
4.0
 40
4.0
 40
4.0
 10
121.2811897533915
 20
-152.1318962671552
 30
0.0
 10
121.2811897533915
 20
-152.0767923796727
 30
0.0
 10
121.2363869767568
 20
-152.0319896030379
 30
0.0
 10
121.1812830892737
 20
-152.0319896030379
 30
0.0
 10
121.1264993653405
 20
-152.0319896030379
 30
0.0
 10
121.0816965875738
 20
-152.0767923796727
 30
0.0
 10
121.0816965875738
 20
-152.1318962671552
 30
0.0
 10
121.0816965875738
 20
-152.1870354324157
 30
0.0
 10
121.1264993653405
 20
-152.2318029312736
 30
0.0
 10
121.1812830892737
 20
-152.2318029312736
 30
0.0
 10
121.2363869767568
 20
-152.2318029312736
 30
0.0
 10
121.2811897533915
 20
-152.1870354324157
 30
0.0
 10
121.2811897533915
 20
-152.1318962671552
 30
0.0
  0
SPLINE
  5
AC
330
70
100
AcDbEntity
  8
レイヤー 1
 62
    18
420
        0
370
     9
100
AcDbSpline
210
0.0
220
0.0
230
1.0
 70
     9
 71
     3
 72
    17
 73
    13
 74
     0
 42
0.0000000001
 43
0.0000000001
 40
0.0
 40
0.0
 40
0.0
 40
0.0
 40
1.0
 40
1.0
 40
1.0
 40
2.0
 40
2.0
 40
2.0
 40
3.0
 40
3.0
 40
3.0
 40
4.0
 40
4.0
 40
4.0
 40
4.0
 10
117.2817481887591
 20
-156.8317075361425
 30
0.0
 10
117.2817481887591
 20
-156.7765683708826
 30
0.0
 10
117.2369806899012
 20
-156.7318008720246
 30
0.0
 10
117.1818415246413
 20
-156.7318008720246
 30
0.0
 10
117.1260320816207
 20
-156.7318008720246
 30
0.0
 10
117.0812645827628
 20
-156.7765683708826
 30
0.0
 10
117.0812645827628
 20
-156.8317075361425
 30
0.0
 10
117.0812645827628
 20
-156.8868114236256
 30
0.0
 10
117.1260320816207
 20
-156.9316142002603
 30
0.0
 10
117.1818415246413
 20
-156.9316142002603
 30
0.0
 10
117.2369806899012
 20
-156.9316142002603
 30
0.0
 10
117.2817481887591
 20
-156.8868114236256
 30
0.0
 10
117.2817481887591
 20
-156.8317075361425
 30
0.0
  0
SPLINE
  5
AD
330
70
100
AcDbEntity
  8
レイヤー 1
 62
    18
420
        0
370
     9
100
AcDbSpline
210
0.0
220
0.0
230
1.0
 70
     9
 71
     3
 72
    17
 73
    13
 74
     0
 42
0.0000000001
 43
0.0000000001
 40
0.0
 40
0.0
 40
0.0
 40
0.0
 40
1.0
 40
1.0
 40
1.0
 40
2.0
 40
2.0
 40
2.0
 40
3.0
 40
3.0
 40
3.0
 40
4.0
 40
4.0
 40
4.0
 40
4.0
 10
90.27724793821276
 20
-156.8317075361425
 30
0.0
 10
90.27724793821276
 20
-156.7765683708826
 30
0.0
 10
90.23248043935488
 20
-156.7318008720246
 30
0.0
 10
90.17734127409525
 20
-156.7318008720246
 30
0.0
 10
90.12188460884308
 20
-156.7318008720246
 30
0.0
 10
90.0771171099852
 20
-156.7765683708826
 30
0.0
 10
90.0771171099852
 20
-156.8317075361425
 30
0.0
 10
90.0771171099852
 20
-156.8868114236256
 30
0.0
 10
90.12188460884308
 20
-156.9316142002603
 30
0.0
 10
90.17734127409525
 20
-156.9316142002603
 30
0.0
 10
90.23248043935488
 20
-156.9316142002603
 30
0.0
 10
90.27724793821276
 20
-156.8868114236256
 30
0.0
 10
90.27724793821276
 20
-156.8317075361425
 30
0.0
  0
SPLINE
  5
AE
330
70
100
AcDbEntity
  8
レイヤー 1
 62
    18
420
        0
370
     9
100
AcDbSpline
210
0.0
220
0.0
230
1.0
 70
     9
 71
     3
 72
    17
 73
    13
 74
     0
 42
0.0000000001
 43
0.0000000001
 40
0.0
 40
0.0
 40
0.0
 40
0.0
 40
1.0
 40
1.0
 40
1.0
 40
2.0
 40
2.0
 40
2.0
 40
3.0
 40
3.0
 40
3.0
 40
4.0
 40
4.0
 40
4.0
 40
4.0
 10
87.91013670876935
 20
-143.2318423275481
 30
0.0
 10
87.91013670876935
 20
-143.1767031622878
 30
0.0
 10
87.86533393213458
 20
-143.1319356634302
 30
0.0
 10
87.81023004465152
 20
-143.1319356634302
 30
0.0
 10
87.75509087939157
 20
-143.1319356634302
 30
0.0
 10
87.7103233805337
 20
-143.1767031622878
 30
0.0
 10
87.7103233805337
 20
-143.2318423275481
 30
0.0
 10
87.7103233805337
 20
-143.2869399057509
 30
0.0
 10
87.75509087939157
 20
-143.3317426835173
 30
0.0
 10
87.81023004465152
 20
-143.3317426835173
 30
0.0
 10
87.86533393213458
 20
-143.3317426835173
 30
0.0
 10
87.91013670876935
 20
-143.2869399057509
 30
0.0
 10
87.91013670876935
 20
-143.2318423275481
 30
0.0
  0
CIRCLE
  5
AF
330
70
100
AcDbEntity
  8
レイヤー 1
 62
    18
420
        0
370
     9
100
AcDbCircle
 10
87.81023004465152
 20
-144.3321914661425
 30
0.0
 40
0.0999066641178353
  0
CIRCLE
  5
B0
330
70
100
AcDbEntity
  8
レイヤー 1
 62
    18
420
        0
370
     9
100
AcDbCircle
 10
100.1816925139068
 20
-156.8317075361425
 30
0.0
 40
0.0999066641178353
  0
LINE
  5
B1
330
70
100
AcDbEntity
  8
レイヤー 1
 62
    18
420
        0
370
     9
100
AcDbLine
 10
100.1816925139068
 20
-156.8317075361425
 30
0.0
 11
117.1818415246413
 21
-156.8317075361425
 31
0.0
  0
LINE
  5
B2
330
70
100
AcDbEntity
  8
レイヤー 1
 62
    18
420
        0
370
     9
100
AcDbLine
 10
117.1818415246413
 20
-154.67161398014
 30
0.0
 11
117.1818415246413
 21
-157.8321500106191
 31
0.0
  0
LINE
  5
B3
330
70
100
AcDbEntity
  8
レイヤー 1
 62
    18
420
        0
370
     9
100
AcDbLine
 10
121.1812830892737
 20
-152.1318962671552
 30
0.0
 11
121.1812830892737
 21
-153.1316684638717
 31
0.0
  0
LINE
  5
B4
330
70
100
AcDbEntity
  8
レイヤー 1
 62
    18
420
        0
370
     9
100
AcDbLine
 10
121.1812830892737
 20
-151.7322696106845
 30
0.0
 11
121.1812830892737
 21
-152.1318962671552
 31
0.0
  0
LINE
  5
B5
330
70
100
AcDbEntity
  8
レイヤー 1
 62
    18
420
        0
370
     9
100
AcDbLine
 10
119.7215945154024
 20
-151.7322696106845
 30
0.0
 11
122.1810200082128
 21
-151.7322696106845
 31
0.0
  0
LINE
  5
B6
330
70
100
AcDbEntity
  8
レイヤー 1
 62
    18
420
        0
370
     9
100
AcDbLine
 10
119.7215945154024
 20
-152.1318962671552
 30
0.0
 11
122.1810200082128
 21
-152.1318962671552
 31
0.0
  0
INSERT
  5
B8
330
70
100
AcDbEntity
  8
レイヤー 1
100
AcDbBlockReference
  2
Block_4
 10
0.0
 20
0.0
 30
0.0
  0
LINE
  5
C7
330
70
100
AcDbEntity
  8
レイヤー 1
 62
    18
420
        0
370
     9
100
AcDbLine
 10
87.81023004465152
 20
-143.2318423275481
 30
0.0
 11
87.81023004465152
 21
-142.2320701308322
 31
0.0
  0
LINE
  5
C8
330
70
100
AcDbEntity
  8
レイヤー 1
 62
    18
420
        0
370
     9
100
AcDbLine
 10
87.81023004465152
 20
-143.2318423275481
 30
0.0
 11
87.81023004465152
 21
-145.3319636628584
 31
0.0
  0
LINE
  5
C9
330
70
100
AcDbEntity
  8
レイヤー 1
 62
    18
420
        0
370
     9
100
AcDbLine
 10
89.2702361185151
 20
-143.2318423275481
 30
0.0
 11
86.8104578479356
 21
-143.2318423275481
 31
0.0
  0
LINE
  5
CA
330
70
100
AcDbEntity
  8
レイヤー 1
 62
    18
420
        0
370
     9
100
AcDbLine
 10
89.2702361185151
 20
-144.3321914661425
 30
0.0
 11
86.8104578479356
 21
-144.3321914661425
 31
0.0
  0
INSERT
  5
CC
330
70
100
AcDbEntity
  8
レイヤー 1
100
AcDbBlockReference
  2
Block_6
 10
0.0
 20
0.0
 30
0.0
  0
LINE
  5
D9
330
70
100
AcDbEntity
  8
レイヤー 1
 62
    18
420
        0
370
     9
100
AcDbLine
 10
121.1812830892737
 20
-143.2318423275481
 30
0.0
 11
121.1812830892737
 21
-151.7322696106845
 31
0.0
  0
LINE
  5
DA
330
70
100
AcDbEntity
  8
レイヤー 1
 62
    18
420
        0
370
     9
100
AcDbLine
 10
103.8217593654854
 20
-143.2318423275481
 30
0.0
 11
122.1810200082128
 21
-143.2318423275481
 31
0.0
  0
INSERT
  5
DC
330
70
100
AcDbEntity
  8
レイヤー 1
100
AcDbBlockReference
  2
Block_8
 10
0.0
 20
0.0
 30
0.0
  0
LINE
  5
EB
330
70
100
AcDbEntity
  8
レイヤー 1
 62
    18
420
        0
370
     9
100
AcDbLine
 10
100.181692458276
 20
-156.8317075361425
 30
0.0
 11
90.17734127409525
 21
-156.8317075361425
 31
0.0
  0
LINE
  5
EC
330
70
100
AcDbEntity
  8
レイヤー 1
 62
    18
420
        0
370
     9
100
AcDbLine
 10
100.1816925139068
 20
-155.3716661845024
 30
0.0
 11
100.1816925139068
 21
-157.8321500106191
 31
0.0
  0
LINE
  5
ED
330
70
100
AcDbEntity
  8
レイヤー 1
 62
    18
420
        0
370
     9
100
AcDbLine
 10
90.17734127409525
 20
-146.8719091791267
 30
0.0
 11
90.17734127409525
 21
-157.8321500106191
 31
0.0
  0
INSERT
  5
EF
330
70
100
AcDbEntity
  8
レイヤー 1
100
AcDbBlockReference
  2
Block_10
 10
0.0
 20
0.0
 30
0.0
  0
INSERT
  5
FB
330
70
100
AcDbEntity
  8
レイヤー 1
100
AcDbBlockReference
  2
Block_12
 10
0.0
 20
0.0
 30
0.0
  0
ENDSEC
  0
SECTION
  2
OBJECTS
  0
DICTIONARY
  5
C
330
0
100
AcDbDictionary
281
     1
  3
ACAD_COLOR
350
63
  3
ACAD_DETAILVIEWSTYLE
350
6A
  3
ACAD_GROUP
350
D
  3
ACAD_LAYOUT
350
62
  3
ACAD_MATERIAL
350
10
  3
ACAD_MLEADERSTYLE
350
66
  3
ACAD_MLINESTYLE
350
5F
  3
ACAD_PLOTSETTINGS
350
61
  3
ACAD_PLOTSTYLENAME
350
E
  3
ACAD_SCALELIST
350
42
  3
ACAD_SECTIONVIEWSTYLE
350
68
  3
ACAD_TABLESTYLE
350
64
  3
ACAD_VISUALSTYLE
350
29
  3
ACDB_RECOMPOSE_DATA
350
10F
  3
AcDbVariableDictionary
350
107
  0
DICTIONARY
  5
63
102
{ACAD_REACTORS
330
C
102
}
330
C
100
AcDbDictionary
281
     1
  0
DICTIONARY
  5
6A
102
{ACAD_REACTORS
330
C
102
}
330
C
100
AcDbDictionary
281
     1
  3
Imperial24
350
6B
  0
DICTIONARY
  5
D
102
{ACAD_REACTORS
330
C
102
}
330
C
100
AcDbDictionary
281
     1
  0
DICTIONARY
  5
62
102
{ACAD_REACTORS
330
C
102
}
330
C
100
AcDbDictionary
281
     1
  3
Layout1
350
6F
  3
Layout2
350
77
  3
Model
350
73
  0
DICTIONARY
  5
10
102
{ACAD_REACTORS
330
C
102
}
330
C
100
AcDbDictionary
281
     1
  3
ByBlock
350
19
  3
ByLayer
350
11
  3
Global
350
21
  0
DICTIONARY
  5
66
102
{ACAD_REACTORS
330
C
102
}
330
C
100
AcDbDictionary
281
     1
  3
Standard
350
67
  0
DICTIONARY
  5
5F
102
{ACAD_REACTORS
330
C
102
}
330
C
100
AcDbDictionary
281
     1
  3
Standard
350
60
  0
DICTIONARY
  5
61
102
{ACAD_REACTORS
330
C
102
}
330
C
100
AcDbDictionary
281
     1
  0
ACDBDICTIONARYWDFLT
  5
E
102
{ACAD_REACTORS
330
C
102
}
330
C
100
AcDbDictionary
281
     1
  3
Normal
350
F
100
AcDbDictionaryWithDefault
340
F
  0
DICTIONARY
  5
42
102
{ACAD_REACTORS
330
C
102
}
330
C
100
AcDbDictionary
281
     1
  3
A0
350
43
  3
A1
350
44
  3
A2
350
45
  3
A3
350
46
  3
A4
350
47
  3
A5
350
48
  3
A6
350
49
  3
A7
350
4A
  3
A8
350
4B
  3
A9
350
4C
  3
B0
350
4D
  3
B1
350
4E
  3
B2
350
4F
  3
B3
350
50
  3
B4
350
51
  3
B5
350
52
  3
B6
350
53
  0
DICTIONARY
  5
68
102
{ACAD_REACTORS
330
C
102
}
330
C
100
AcDbDictionary
281
     1
  3
Imperial24
350
69
  0
DICTIONARY
  5
64
102
{ACAD_REACTORS
330
C
102
}
330
C
100
AcDbDictionary
281
     1
  3
Standard
350
65
  0
DICTIONARY
  5
29
102
{ACAD_REACTORS
330
C
102
}
330
C
100
AcDbDictionary
281
     1
  3
2dWireframe
350
2F
  3
Basic
350
2E
  3
Brighten
350
35
  3
ColorChange
350
39
  3
Conceptual
350
32
  3
Dim
350
34
  3
EdgeColorOff
350
41
  3
Facepattern
350
38
  3
Flat
350
2A
  3
FlatWithEdges
350
2B
  3
Gouraud
350
2C
  3
GouraudWithEdges
350
2D
  3
Hidden
350
31
  3
JitterOff
350
3F
  3
Linepattern
350
37
  3
OverhangOff
350
40
  3
Realistic
350
33
  3
Shaded
350
3E
  3
Shaded with edges
350
3D
  3
Shades of Gray
350
3A
  3
Sketchy
350
3B
  3
Thicken
350
36
  3
Wireframe
350
30
  3
X-Ray
350
3C
  0
XRECORD
  5
10F
102
{ACAD_REACTORS
330
C
102
}
330
C
100
AcDbXrecord
280
     1
 90
        1
330
65
  0
DICTIONARY
  5
107
102
{ACAD_REACTORS
330
C
102
}
330
C
100
AcDbDictionary
281
     1
  3
CANNOSCALE
350
10C
  3
CMLEADERSTYLE
350
109
  3
CTABLESTYLE
350
108
  3
CVIEWDETAILSTYLE
350
10A
  3
CVIEWSECTIONSTYLE
350
10B
  0
ACDBDETAILVIEWSTYLE
  5
6B
102
{ACAD_XDICTIONARY
360
144
102
}
102
{ACAD_REACTORS
330
6A
102
}
330
6A
100
AcDbModelDocViewStyle
 70
     0
  3
Imperial24
290
     0
100
AcDbDetailViewStyle
 70
     0
 71
     0
 90
        3
 71
     1
340
55
 62
   256
 40
0.24
340
0
 62
   256
 40
0.24
300

 40
0.36
280
     3
 71
     2
340
5D
 90
       25
 62
   256
 71
     3
340
55
 62
   256
 40
0.24
 90
        1
 40
0.75
 90
        1
300
%<\AcVar ViewType \f "%tc1">% %<\AcVar ViewDetailId>%\PSCALE %<\AcVar ViewScale \f "%sn">%
 71
     4
340
5D
 90
       25
 62
   256
340
5D
 90
       25
 62
   256
280
     0
  0
LAYOUT
  5
6F
102
{ACAD_REACTORS
330
62
102
}
330
62
100
AcDbPlotSettings
  1

  2

  4

  6

 40
0.0
 41
0.0
 42
0.0
 43
0.0
 44
0.0
 45
0.0
 46
0.0
 47
0.0
 48
0.0
 49
0.0
140
0.0
141
0.0
142
1.0
143
1.0
 70
   688
 72
     0
 73
     0
 74
     5
  7

 75
    16
147
1.0
 76
     0
 77
     2
 78
   300
148
0.0
149
0.0
100
AcDbLayout
  1
Layout1
 70
     1
 71
     1
 10
0.0
 20
0.0
 11
12.0
 21
9.0
 12
0.0
 22
0.0
 32
0.0
 14
0.0
 24
0.0
 34
0.0
 15
0.0
 25
0.0
 35
0.0
146
0.0
 13
0.0
 23
0.0
 33
0.0
 16
1.0
 26
0.0
 36
0.0
 17
0.0
 27
1.0
 37
0.0
 76
     0
330
6C
  0
LAYOUT
  5
77
102
{ACAD_REACTORS
330
62
102
}
330
62
100
AcDbPlotSettings
  1

  2

  4

  6

 40
0.0
 41
0.0
 42
0.0
 43
0.0
 44
0.0
 45
0.0
 46
0.0
 47
0.0
 48
0.0
 49
0.0
140
0.0
141
0.0
142
1.0
143
1.0
 70
   688
 72
     0
 73
     0
 74
     5
  7

 75
    16
147
1.0
 76
     0
 77
     2
 78
   300
148
0.0
149
0.0
100
AcDbLayout
  1
Layout2
 70
     1
 71
     2
 10
0.0
 20
0.0
 11
12.0
 21
9.0
 12
0.0
 22
0.0
 32
0.0
 14
0.0
 24
0.0
 34
0.0
 15
0.0
 25
0.0
 35
0.0
146
0.0
 13
0.0
 23
0.0
 33
0.0
 16
1.0
 26
0.0
 36
0.0
 17
0.0
 27
1.0
 37
0.0
 76
     0
330
74
  0
LAYOUT
  5
73
102
{ACAD_REACTORS
330
62
102
}
330
62
100
AcDbPlotSettings
  1

  2

  4

  6

 40
0.0
 41
0.0
 42
0.0
 43
0.0
 44
0.0
 45
0.0
 46
0.0
 47
0.0
 48
0.0
 49
0.0
140
0.0
141
0.0
142
1.0
143
1.0
 70
  1712
 72
     0
 73
     0
 74
     0
  7

 75
     0
147
1.0
 76
     0
 77
     2
 78
   300
148
0.0
149
0.0
100
AcDbLayout
  1
Model
 70
     1
 71
     0
 10
0.0
 20
0.0
 11
12.0
 21
9.0
 12
0.0
 22
0.0
 32
0.0
 14
0.0
 24
0.0
 34
0.0
 15
0.0
 25
0.0
 35
0.0
146
0.0
 13
0.0
 23
0.0
 33
0.0
 16
1.0
 26
0.0
 36
0.0
 17
0.0
 27
1.0
 37
0.0
 76
     0
330
70
  0
MATERIAL
  5
19
102
{ACAD_XDICTIONARY
360
1A
102
}
102
{ACAD_REACTORS
330
10
102
}
330
10
100
AcDbMaterial
  1
ByBlock
 72
     0
 43
0.0208333333333333
 43
0.0
 43
0.0
 43
0.0
 43
0.0
 43
0.0208333333333333
 43
0.0
 43
0.0
 43
0.0
 43
0.0
 43
1.0
 43
0.0
 43
0.0
 43
0.0
 43
0.0
 43
1.0
 77
     0
 47
0.0208333333333333
 47
0.0
 47
0.0
 47
0.0
 47
0.0
 47
0.0208333333333333
 47
0.0
 47
0.0
 47
0.0
 47
0.0
 47
1.0
 47
0.0
 47
0.0
 47
0.0
 47
0.0
 47
1.0
171
     0
 49
0.0208333333333333
 49
0.0
 49
0.0
 49
0.0
 49
0.0
 49
0.0208333333333333
 49
0.0
 49
0.0
 49
0.0
 49
0.0
 49
1.0
 49
0.0
 49
0.0
 49
0.0
 49
0.0
 49
1.0
175
     0
142
0.0208333333333333
142
0.0
142
0.0
142
0.0
142
0.0
142
0.0208333333333333
142
0.0
142
0.0
142
0.0
142
0.0
142
1.0
142
0.0
142
0.0
142
0.0
142
0.0
142
1.0
179
     0
144
0.0208333333333333
144
0.0
144
0.0
144
0.0
144
0.0
144
0.0208333333333333
144
0.0
144
0.0
144
0.0
144
0.0
144
1.0
144
0.0
144
0.0
144
0.0
144
0.0
144
1.0
147
0.0208333333333333
147
0.0
147
0.0
147
0.0
147
0.0
147
0.0208333333333333
147
0.0
147
0.0
147
0.0
147
0.0
147
1.0
147
0.0
147
0.0
147
0.0
147
0.0
147
1.0
  0
MATERIAL
  5
11
102
{ACAD_XDICTIONARY
360
12
102
}
102
{ACAD_REACTORS
330
10
102
}
330
10
100
AcDbMaterial
  1
ByLayer
 72
     0
 43
0.0208333333333333
 43
0.0
 43
0.0
 43
0.0
 43
0.0
 43
0.0208333333333333
 43
0.0
 43
0.0
 43
0.0
 43
0.0
 43
1.0
 43
0.0
 43
0.0
 43
0.0
 43
0.0
 43
1.0
 77
     0
 47
0.0208333333333333
 47
0.0
 47
0.0
 47
0.0
 47
0.0
 47
0.0208333333333333
 47
0.0
 47
0.0
 47
0.0
 47
0.0
 47
1.0
 47
0.0
 47
0.0
 47
0.0
 47
0.0
 47
1.0
171
     0
 49
0.0208333333333333
 49
0.0
 49
0.0
 49
0.0
 49
0.0
 49
0.0208333333333333
 49
0.0
 49
0.0
 49
0.0
 49
0.0
 49
1.0
 49
0.0
 49
0.0
 49
0.0
 49
0.0
 49
1.0
175
     0
142
0.0208333333333333
142
0.0
142
0.0
142
0.0
142
0.0
142
0.0208333333333333
142
0.0
142
0.0
142
0.0
142
0.0
142
1.0
142
0.0
142
0.0
142
0.0
142
0.0
142
1.0
179
     0
144
0.0208333333333333
144
0.0
144
0.0
144
0.0
144
0.0
144
0.0208333333333333
144
0.0
144
0.0
144
0.0
144
0.0
144
1.0
144
0.0
144
0.0
144
0.0
144
0.0
144
1.0
147
0.0208333333333333
147
0.0
147
0.0
147
0.0
147
0.0
147
0.0208333333333333
147
0.0
147
0.0
147
0.0
147
0.0
147
1.0
147
0.0
147
0.0
147
0.0
147
0.0
147
1.0
  0
MATERIAL
  5
21
102
{ACAD_XDICTIONARY
360
22
102
}
102
{ACAD_REACTORS
330
10
102
}
330
10
100
AcDbMaterial
  1
Global
 72
     0
 43
0.0208333333333333
 43
0.0
 43
0.0
 43
0.0
 43
0.0
 43
0.0208333333333333
 43
0.0
 43
0.0
 43
0.0
 43
0.0
 43
1.0
 43
0.0
 43
0.0
 43
0.0
 43
0.0
 43
1.0
 77
     0
 47
0.0208333333333333
 47
0.0
 47
0.0
 47
0.0
 47
0.0
 47
0.0208333333333333
 47
0.0
 47
0.0
 47
0.0
 47
0.0
 47
1.0
 47
0.0
 47
0.0
 47
0.0
 47
0.0
 47
1.0
171
     0
 49
0.0208333333333333
 49
0.0
 49
0.0
 49
0.0
 49
0.0
 49
0.0208333333333333
 49
0.0
 49
0.0
 49
0.0
 49
0.0
 49
1.0
 49
0.0
 49
0.0
 49
0.0
 49
0.0
 49
1.0
175
     0
142
0.0208333333333333
142
0.0
142
0.0
142
0.0
142
0.0
142
0.0208333333333333
142
0.0
142
0.0
142
0.0
142
0.0
142
1.0
142
0.0
142
0.0
142
0.0
142
0.0
142
1.0
179
     0
144
0.0208333333333333
144
0.0
144
0.0
144
0.0
144
0.0
144
0.0208333333333333
144
0.0
144
0.0
144
0.0
144
0.0
144
1.0
144
0.0
144
0.0
144
0.0
144
0.0
144
1.0
147
0.0208333333333333
147
0.0
147
0.0
147
0.0
147
0.0
147
0.0208333333333333
147
0.0
147
0.0
147
0.0
147
0.0
147
1.0
147
0.0
147
0.0
147
0.0
147
0.0
147
1.0
  0
MLEADERSTYLE
  5
67
102
{ACAD_XDICTIONARY
360
140
102
}
102
{ACAD_REACTORS
330
66
102
}
330
66
100
AcDbMLeaderStyle
179
     2
170
     2
171
     1
172
     0
 90
        2
 40
0.0
 41
0.0
173
     1
 91
-1056964608
340
5B
 92
       -2
290
     1
 42
0.09
291
     1
 43
0.36
  3
Standard
 44
0.18
300

342
55
174
     1
178
     6
175
     1
176
     0
 93
-1056964608
 45
0.18
292
     0
297
     0
 46
0.18
 94
-1056964608
 47
1.0
 49
1.0
140
1.0
293
     1
141
0.0
294
     1
177
     0
142
1.0
295
     0
296
     0
143
0.125
271
     0
272
     9
273
     9
  0
MLINESTYLE
  5
60
102
{ACAD_REACTORS
330
5F
102
}
330
5F
100
AcDbMlineStyle
  2
STANDARD
 70
     0
  3

 62
   256
 51
90.0
 52
90.0
 71
     2
 49
0.5
 62
   256
  6
BYLAYER
 49
-0.5
 62
   256
  6
BYLAYER
  0
ACDBPLACEHOLDER
  5
F
102
{ACAD_REACTORS
330
E
102
}
330
E
  0
SCALE
  5
43
102
{ACAD_REACTORS
330
42
102
}
330
42
100
AcDbScale
 70
     0
300
1:1
140
1.0
141
1.0
290
     1
  0
SCALE
  5
44
102
{ACAD_REACTORS
330
42
102
}
330
42
100
AcDbScale
 70
     0
300
1/128" = 1'-0"
140
0.0078125
141
12.0
290
     0
  0
SCALE
  5
45
102
{ACAD_REACTORS
330
42
102
}
330
42
100
AcDbScale
 70
     0
300
1/64" = 1'-0"
140
0.015625
141
12.0
290
     0
  0
SCALE
  5
46
102
{ACAD_REACTORS
330
42
102
}
330
42
100
AcDbScale
 70
     0
300
1/32" = 1'-0"
140
0.03125
141
12.0
290
     0
  0
SCALE
  5
47
102
{ACAD_REACTORS
330
42
102
}
330
42
100
AcDbScale
 70
     0
300
1/16" = 1'-0"
140
0.0625
141
12.0
290
     0
  0
SCALE
  5
48
102
{ACAD_REACTORS
330
42
102
}
330
42
100
AcDbScale
 70
     0
300
3/32" = 1'-0"
140
0.09375
141
12.0
290
     0
  0
SCALE
  5
49
102
{ACAD_REACTORS
330
42
102
}
330
42
100
AcDbScale
 70
     0
300
1/8" = 1'-0"
140
0.125
141
12.0
290
     0
  0
SCALE
  5
4A
102
{ACAD_REACTORS
330
42
102
}
330
42
100
AcDbScale
 70
     0
300
3/16" = 1'-0"
140
0.1875
141
12.0
290
     0
  0
SCALE
  5
4B
102
{ACAD_REACTORS
330
42
102
}
330
42
100
AcDbScale
 70
     0
300
1/4" = 1'-0"
140
0.25
141
12.0
290
     0
  0
SCALE
  5
4C
102
{ACAD_REACTORS
330
42
102
}
330
42
100
AcDbScale
 70
     0
300
3/8" = 1'-0"
140
0.375
141
12.0
290
     0
  0
SCALE
  5
4D
102
{ACAD_REACTORS
330
42
102
}
330
42
100
AcDbScale
 70
     0
300
1/2" = 1'-0"
140
0.5
141
12.0
290
     0
  0
SCALE
  5
4E
102
{ACAD_REACTORS
330
42
102
}
330
42
100
AcDbScale
 70
     0
300
3/4" = 1'-0"
140
0.75
141
12.0
290
     0
  0
SCALE
  5
4F
102
{ACAD_REACTORS
330
42
102
}
330
42
100
AcDbScale
 70
     0
300
1" = 1'-0"
140
1.0
141
12.0
290
     0
  0
SCALE
  5
50
102
{ACAD_REACTORS
330
42
102
}
330
42
100
AcDbScale
 70
     0
300
1-1/2" = 1'-0"
140
1.5
141
12.0
290
     0
  0
SCALE
  5
51
102
{ACAD_REACTORS
330
42
102
}
330
42
100
AcDbScale
 70
     0
300
3" = 1'-0"
140
3.0
141
12.0
290
     0
  0
SCALE
  5
52
102
{ACAD_REACTORS
330
42
102
}
330
42
100
AcDbScale
 70
     0
300
6" = 1'-0"
140
6.0
141
12.0
290
     0
  0
SCALE
  5
53
102
{ACAD_REACTORS
330
42
102
}
330
42
100
AcDbScale
 70
     0
300
1'-0" = 1'-0"
140
12.0
141
12.0
290
     0
  0
ACDBSECTIONVIEWSTYLE
  5
69
102
{ACAD_XDICTIONARY
360
142
102
}
102
{ACAD_REACTORS
330
68
102
}
330
68
100
AcDbModelDocViewStyle
 70
     0
  3
Imperial24
290
     0
100
AcDbSectionViewStyle
 70
     0
 71
     0
 90
       78
 71
     1
340
55
 62
   256
 40
0.24
340
0
340
0
 62
   256
 40
0.24
300
I, O, Q, S, X, Z
 40
0.48
 90
        3
 40
0.18
 90
        1
 71
     2
340
5D
 90
       25
 62
   256
340
5D
 90
       50
 62
   256
 40
0.24
 40
0.0
 40
0.24
 71
     3
340
55
 62
   256
 40
0.24
 90
        1
 40
0.75
 90
        1
300
%<\AcVar ViewType \f "%tc1">% %<\AcVar ViewSectionStartId>%-%<\AcVar ViewSectionEndId>%\PSCALE %<\AcVar ViewScale \f "%sn">%
 71
     4
 62
   256
 62
   257
300
ANSI31
 40
1.0
 90
        0
290
     0
290
     0
 90
        6
 40
0.0
 40
1.570796326794896
 40
0.2617993877991494
 40
1.308996938995747
 40
-0.2617993877991494
 40
1.832595714594046
  0
TABLESTYLE
  5
65
102
{ACAD_XDICTIONARY
360
10D
102
}
102
{ACAD_REACTORS
330
64
102
}
330
64
100
AcDbTableStyle
280
     0
  3
Standard
 70
     0
 71
     0
 40
0.06
 41
0.06
280
     0
281
     0
  7
Standard
140
0.18
170
     2
 62
     0
 63
     7
283
     0
 90
      512
 91
        0
  1

274
    -2
284
     1
 64
     0
275
    -2
285
     1
 65
     0
276
    -2
286
     1
 66
     0
277
    -2
287
     1
 67
     0
278
    -2
288
     1
 68
     0
279
    -2
289
     1
 69
     0
  7
Standard
140
0.25
170
     5
 62
     0
 63
     7
283
     0
 90
      512
 91
        0
  1

274
    -2
284
     1
 64
     0
275
    -2
285
     1
 65
     0
276
    -2
286
     1
 66
     0
277
    -2
287
     1
 67
     0
278
    -2
288
     1
 68
     0
279
    -2
289
     1
 69
     0
  7
Standard
140
0.18
170
     5
 62
     0
 63
     7
283
     0
 90
      512
 91
        0
  1

274
    -2
284
     1
 64
     0
275
    -2
285
     1
 65
     0
276
    -2
286
     1
 66
     0
277
    -2
287
     1
 67
     0
278
    -2
288
     1
 68
     0
279
    -2
289
     1
 69
     0
  0
VISUALSTYLE
  5
2F
102
{ACAD_XDICTIONARY
360
11A
102
}
102
{ACAD_REACTORS
330
29
102
}
330
29
100
AcDbVisualStyle
  2
2dWireframe
 70
     4
177
     2
291
     0
 71
     0
176
     1
 72
     2
176
     1
 73
     0
176
     1
 90
        0
176
     1
 40
0.6
176
     1
 41
30.0
176
     1
 63
     7
421
 16777215
176
     1
 74
     1
176
     1
 91
        4
176
     1
 64
     7
176
     1
 65
   257
176
     1
 75
     1
176
     1
175
     1
176
     1
 42
1.0
176
     1
 92
        0
176
     1
 66
   257
176
     1
 43
1.0
176
     1
 76
     1
176
     1
 77
     6
176
     1
 78
     2
176
     1
 67
     7
176
     1
 79
     5
176
     1
170
     0
176
     1
171
     0
176
     1
290
     0
176
     1
 93
        1
176
     1
 44
0.0
176
     1
173
     0
176
     1
1001
ACAD
1000
AcDbSavedByObjectVersion
1070
     0
  0
VISUALSTYLE
  5
2E
102
{ACAD_XDICTIONARY
360
118
102
}
102
{ACAD_REACTORS
330
29
102
}
330
29
100
AcDbVisualStyle
  2
Basic
 70
     7
177
     2
291
     1
 71
     1
176
     1
 72
     0
176
     1
 73
     1
176
     1
 90
        0
176
     1
 40
0.6
176
     1
 41
30.0
176
     1
 63
     7
421
 16777215
176
     1
 74
     0
176
     1
 91
        4
176
     1
 64
     7
176
     1
 65
   257
176
     1
 75
     1
176
     1
175
     1
176
     1
 42
1.0
176
     1
 92
        8
176
     1
 66
     7
176
     1
 43
1.0
176
     1
 76
     1
176
     1
 77
     6
176
     1
 78
     2
176
     1
 67
     7
176
     1
 79
     5
176
     1
170
     0
176
     1
171
     0
176
     1
290
     0
176
     1
 93
        1
176
     1
 44
0.0
176
     1
173
     0
176
     1
1001
ACAD
1000
AcDbSavedByObjectVersion
1070
     0
  0
VISUALSTYLE
  5
35
102
{ACAD_XDICTIONARY
360
126
102
}
102
{ACAD_REACTORS
330
29
102
}
330
29
100
AcDbVisualStyle
  2
Brighten
 70
    12
177
     2
291
     1
 71
     2
176
     1
 72
     2
176
     1
 73
     0
176
     1
 90
        0
176
     1
 40
0.6
176
     1
 41
30.0
176
     1
 63
     7
421
 16777215
176
     1
 74
     1
176
     1
 91
        4
176
     1
 64
     7
176
     1
 65
   257
176
     1
 75
     1
176
     1
175
     1
176
     1
 42
1.0
176
     1
 92
        8
176
     1
 66
     7
176
     1
 43
1.0
176
     1
 76
     1
176
     1
 77
     6
176
     1
 78
     2
176
     1
 67
     7
176
     1
 79
     5
176
     1
170
     0
176
     1
171
     0
176
     1
290
     0
176
     1
 93
        1
176
     1
 44
50.0
176
     1
173
     0
176
     1
1001
ACAD
1000
AcDbSavedByObjectVersion
1070
     0
  0
VISUALSTYLE
  5
39
102
{ACAD_XDICTIONARY
360
12E
102
}
102
{ACAD_REACTORS
330
29
102
}
330
29
100
AcDbVisualStyle
  2
ColorChange
 70
    16
177
     2
291
     1
 71
     2
176
     1
 72
     2
176
     1
 73
     3
176
     1
 90
        0
176
     1
 40
0.6
176
     1
 41
30.0
176
     1
 63
     8
421
  8421504
176
     1
 74
     1
176
     1
 91
        4
176
     1
 64
     7
176
     1
 65
   257
176
     1
 75
     1
176
     1
175
     1
176
     1
 42
1.0
176
     1
 92
        8
176
     1
 66
     8
424
  8421504
176
     1
 43
1.0
176
     1
 76
     1
176
     1
 77
     6
176
     1
 78
     2
176
     1
 67
     7
176
     1
 79
     5
176
     1
170
     0
176
     1
171
     0
176
     1
290
     0
176
     1
 93
        1
176
     1
 44
0.0
176
     1
173
     0
176
     1
1001
ACAD
1000
AcDbSavedByObjectVersion
1070
     0
  0
VISUALSTYLE
  5
32
102
{ACAD_XDICTIONARY
360
120
102
}
102
{ACAD_REACTORS
330
29
102
}
330
29
100
AcDbVisualStyle
  2
Conceptual
 70
     9
177
     2
291
     0
 71
     3
176
     1
 72
     2
176
     1
 73
     0
176
     1
 90
        0
176
     1
 40
0.6
176
     1
 41
30.0
176
     1
 63
     7
421
 16777215
176
     1
 74
     2
176
     1
 91
        2
176
     1
 64
     7
176
     1
 65
   257
176
     1
 75
     1
176
     1
175
     1
176
     1
 42
179.0
176
     1
 92
        8
176
     1
 66
     7
176
     1
 43
1.0
176
     1
 76
     1
176
     1
 77
     6
176
     1
 78
     2
176
     1
 67
     7
176
     1
 79
     3
176
     1
170
     0
176
     1
171
     0
176
     1
290
     0
176
     1
 93
        1
176
     1
 44
0.0
176
     1
173
     0
176
     1
1001
ACAD
1000
AcDbSavedByObjectVersion
1070
     0
  0
VISUALSTYLE
  5
34
102
{ACAD_XDICTIONARY
360
124
102
}
102
{ACAD_REACTORS
330
29
102
}
330
29
100
AcDbVisualStyle
  2
Dim
 70
    11
177
     2
291
     1
 71
     2
176
     1
 72
     2
176
     1
 73
     0
176
     1
 90
        0
176
     1
 40
0.6
176
     1
 41
30.0
176
     1
 63
     7
421
 16777215
176
     1
 74
     1
176
     1
 91
        4
176
     1
 64
     7
176
     1
 65
   257
176
     1
 75
     1
176
     1
175
     1
176
     1
 42
1.0
176
     1
 92
        8
176
     1
 66
     7
176
     1
 43
1.0
176
     1
 76
     1
176
     1
 77
     6
176
     1
 78
     2
176
     1
 67
     7
176
     1
 79
     5
176
     1
170
     0
176
     1
171
     0
176
     1
290
     0
176
     1
 93
        1
176
     1
 44
-50.0
176
     1
173
     0
176
     1
1001
ACAD
1000
AcDbSavedByObjectVersion
1070
     0
  0
VISUALSTYLE
  5
41
102
{ACAD_XDICTIONARY
360
13E
102
}
102
{ACAD_REACTORS
330
29
102
}
330
29
100
AcDbVisualStyle
  2
EdgeColorOff
 70
    22
177
     2
291
     1
 71
     2
176
     0
 72
     2
176
     0
 73
     0
176
     0
 90
        0
176
     0
 40
0.6
176
     0
 41
30.0
176
     0
 63
     7
421
 16777215
176
     0
 74
     1
176
     0
 91
        4
176
     0
 64
     7
176
     0
 65
   257
176
     0
 75
     1
176
     0
175
     1
176
     0
 42
1.0
176
     0
 92
        8
176
     2
 66
     7
176
     0
 43
1.0
176
     0
 76
     1
176
     0
 77
     6
176
     0
 78
     2
176
     0
 67
     7
176
     0
 79
     5
176
     0
170
     0
176
     0
171
     0
176
     0
290
     0
176
     0
 93
        1
176
     0
 44
0.0
176
     0
173
     0
176
     0
1001
ACAD
1000
AcDbSavedByObjectVersion
1070
     0
  0
VISUALSTYLE
  5
38
102
{ACAD_XDICTIONARY
360
12C
102
}
102
{ACAD_REACTORS
330
29
102
}
330
29
100
AcDbVisualStyle
  2
Facepattern
 70
    15
177
     2
291
     1
 71
     2
176
     1
 72
     2
176
     1
 73
     0
176
     1
 90
        0
176
     1
 40
0.6
176
     1
 41
30.0
176
     1
 63
     7
421
 16777215
176
     1
 74
     1
176
     1
 91
        4
176
     1
 64
     7
176
     1
 65
   257
176
     1
 75
     1
176
     1
175
     1
176
     1
 42
1.0
176
     1
 92
        8
176
     1
 66
     7
176
     1
 43
1.0
176
     1
 76
     1
176
     1
 77
     6
176
     1
 78
     2
176
     1
 67
     7
176
     1
 79
     5
176
     1
170
     0
176
     1
171
     0
176
     1
290
     0
176
     1
 93
        1
176
     1
 44
0.0
176
     1
173
     0
176
     1
1001
ACAD
1000
AcDbSavedByObjectVersion
1070
     0
  0
VISUALSTYLE
  5
2A
102
{ACAD_XDICTIONARY
360
110
102
}
102
{ACAD_REACTORS
330
29
102
}
330
29
100
AcDbVisualStyle
  2
Flat
 70
     0
177
     2
291
     1
 71
     2
176
     1
 72
     1
176
     1
 73
     1
176
     1
 90
        2
176
     1
 40
0.6
176
     1
 41
30.0
176
     1
 63
     7
421
 16777215
176
     1
 74
     0
176
     1
 91
        0
176
     1
 64
     7
176
     1
 65
   257
176
     1
 75
     1
176
     1
175
     1
176
     1
 42
1.0
176
     1
 92
        8
176
     1
 66
     7
176
     1
 43
1.0
176
     1
 76
     1
176
     1
 77
     6
176
     1
 78
     2
176
     1
 67
     7
176
     1
 79
     5
176
     1
170
     0
176
     1
171
     0
176
     1
290
     0
176
     1
 93
       13
176
     1
 44
0.0
176
     1
173
     0
176
     1
1001
ACAD
1000
AcDbSavedByObjectVersion
1070
     0
  0
VISUALSTYLE
  5
2B
102
{ACAD_XDICTIONARY
360
112
102
}
102
{ACAD_REACTORS
330
29
102
}
330
29
100
AcDbVisualStyle
  2
FlatWithEdges
 70
     1
177
     2
291
     1
 71
     2
176
     1
 72
     1
176
     1
 73
     1
176
     1
 90
        2
176
     1
 40
0.6
176
     1
 41
30.0
176
     1
 63
     7
421
 16777215
176
     1
 74
     1
176
     1
 91
        0
176
     1
 64
     7
176
     1
 65
   257
176
     1
 75
     1
176
     1
175
     1
176
     1
 42
1.0
176
     1
 92
        0
176
     1
 66
   257
176
     1
 43
1.0
176
     1
 76
     1
176
     1
 77
     6
176
     1
 78
     2
176
     1
 67
     7
176
     1
 79
     5
176
     1
170
     0
176
     1
171
     0
176
     1
290
     0
176
     1
 93
       13
176
     1
 44
0.0
176
     1
173
     0
176
     1
1001
ACAD
1000
AcDbSavedByObjectVersion
1070
     0
  0
VISUALSTYLE
  5
2C
102
{ACAD_XDICTIONARY
360
114
102
}
102
{ACAD_REACTORS
330
29
102
}
330
29
100
AcDbVisualStyle
  2
Gouraud
 70
     2
177
     2
291
     1
 71
     2
176
     1
 72
     2
176
     1
 73
     1
176
     1
 90
        2
176
     1
 40
0.6
176
     1
 41
30.0
176
     1
 63
     7
421
 16777215
176
     1
 74
     0
176
     1
 91
        0
176
     1
 64
     7
176
     1
 65
   257
176
     1
 75
     1
176
     1
175
     1
176
     1
 42
1.0
176
     1
 92
        0
176
     1
 66
     7
176
     1
 43
1.0
176
     1
 76
     1
176
     1
 77
     6
176
     1
 78
     2
176
     1
 67
     7
176
     1
 79
     5
176
     1
170
     0
176
     1
171
     0
176
     1
290
     0
176
     1
 93
       13
176
     1
 44
0.0
176
     1
173
     0
176
     1
1001
ACAD
1000
AcDbSavedByObjectVersion
1070
     0
  0
VISUALSTYLE
  5
2D
102
{ACAD_XDICTIONARY
360
116
102
}
102
{ACAD_REACTORS
330
29
102
}
330
29
100
AcDbVisualStyle
  2
GouraudWithEdges
 70
     3
177
     2
291
     1
 71
     2
176
     1
 72
     2
176
     1
 73
     1
176
     1
 90
        2
176
     1
 40
0.6
176
     1
 41
30.0
176
     1
 63
     7
421
 16777215
176
     1
 74
     1
176
     1
 91
        0
176
     1
 64
     7
176
     1
 65
   257
176
     1
 75
     1
176
     1
175
     1
176
     1
 42
1.0
176
     1
 92
        0
176
     1
 66
   257
176
     1
 43
1.0
176
     1
 76
     1
176
     1
 77
     6
176
     1
 78
     2
176
     1
 67
     7
176
     1
 79
     5
176
     1
170
     0
176
     1
171
     0
176
     1
290
     0
176
     1
 93
       13
176
     1
 44
0.0
176
     1
173
     0
176
     1
1001
ACAD
1000
AcDbSavedByObjectVersion
1070
     0
  0
VISUALSTYLE
  5
31
102
{ACAD_XDICTIONARY
360
11E
102
}
102
{ACAD_REACTORS
330
29
102
}
330
29
100
AcDbVisualStyle
  2
Hidden
 70
     6
177
     2
291
     0
 71
     1
176
     1
 72
     2
176
     1
 73
     2
176
     1
 90
        0
176
     1
 40
0.6
176
     1
 41
30.0
176
     1
 63
     7
421
 16777215
176
     1
 74
     2
176
     1
 91
        2
176
     1
 64
     7
176
     1
 65
   257
176
     1
 75
     2
176
     1
175
     1
176
     1
 42
40.0
176
     1
 92
        0
176
     1
 66
   257
176
     1
 43
1.0
176
     1
 76
     1
176
     1
 77
     6
176
     1
 78
     2
176
     1
 67
     7
176
     1
 79
     3
176
     1
170
     0
176
     1
171
     0
176
     1
290
     0
176
     1
 93
        1
176
     1
 44
0.0
176
     1
173
     0
176
     1
1001
ACAD
1000
AcDbSavedByObjectVersion
1070
     0
  0
VISUALSTYLE
  5
3F
102
{ACAD_XDICTIONARY
360
13A
102
}
102
{ACAD_REACTORS
330
29
102
}
330
29
100
AcDbVisualStyle
  2
JitterOff
 70
    20
177
     2
291
     1
 71
     2
176
     0
 72
     2
176
     0
 73
     0
176
     0
 90
        0
176
     0
 40
0.6
176
     0
 41
30.0
176
     0
 63
     7
421
 16777215
176
     0
 74
     1
176
     0
 91
        4
176
     0
 64
     7
176
     0
 65
   257
176
     0
 75
     1
176
     0
175
     1
176
     0
 42
1.0
176
     0
 92
       10
176
     2
 66
     7
176
     0
 43
1.0
176
     0
 76
     1
176
     0
 77
     6
176
     0
 78
     2
176
     0
 67
     7
176
     0
 79
     5
176
     0
170
     0
176
     0
171
     0
176
     0
290
     0
176
     0
 93
        1
176
     0
 44
0.0
176
     0
173
     0
176
     0
1001
ACAD
1000
AcDbSavedByObjectVersion
1070
     0
  0
VISUALSTYLE
  5
37
102
{ACAD_XDICTIONARY
360
12A
102
}
102
{ACAD_REACTORS
330
29
102
}
330
29
100
AcDbVisualStyle
  2
Linepattern
 70
    14
177
     2
291
     1
 71
     2
176
     1
 72
     2
176
     1
 73
     0
176
     1
 90
        0
176
     1
 40
0.6
176
     1
 41
30.0
176
     1
 63
     7
421
 16777215
176
     1
 74
     1
176
     1
 91
        4
176
     1
 64
     7
176
     1
 65
   257
176
     1
 75
     7
176
     1
175
     7
176
     1
 42
1.0
176
     1
 92
        8
176
     1
 66
     7
176
     1
 43
1.0
176
     1
 76
     1
176
     1
 77
     6
176
     1
 78
     2
176
     1
 67
     7
176
     1
 79
     5
176
     1
170
     0
176
     1
171
     0
176
     1
290
     0
176
     1
 93
        1
176
     1
 44
0.0
176
     1
173
     0
176
     1
1001
ACAD
1000
AcDbSavedByObjectVersion
1070
     0
  0
VISUALSTYLE
  5
40
102
{ACAD_XDICTIONARY
360
13C
102
}
102
{ACAD_REACTORS
330
29
102
}
330
29
100
AcDbVisualStyle
  2
OverhangOff
 70
    21
177
     2
291
     1
 71
     2
176
     0
 72
     2
176
     0
 73
     0
176
     0
 90
        0
176
     0
 40
0.6
176
     0
 41
30.0
176
     0
 63
     7
421
 16777215
176
     0
 74
     1
176
     0
 91
        4
176
     0
 64
     7
176
     0
 65
   257
176
     0
 75
     1
176
     0
175
     1
176
     0
 42
1.0
176
     0
 92
        9
176
     2
 66
     7
176
     0
 43
1.0
176
     0
 76
     1
176
     0
 77
     6
176
     0
 78
     2
176
     0
 67
     7
176
     0
 79
     5
176
     0
170
     0
176
     0
171
     0
176
     0
290
     0
176
     0
 93
        1
176
     0
 44
0.0
176
     0
173
     0
176
     0
1001
ACAD
1000
AcDbSavedByObjectVersion
1070
     0
  0
VISUALSTYLE
  5
33
102
{ACAD_XDICTIONARY
360
122
102
}
102
{ACAD_REACTORS
330
29
102
}
330
29
100
AcDbVisualStyle
  2
Realistic
 70
     8
177
     2
291
     0
 71
     2
176
     1
 72
     3
176
     1
 73
     0
176
     1
 90
        2
176
     1
 40
0.6
176
     1
 41
30.0
176
     1
 63
     7
421
 16777215
176
     1
 74
     0
176
     1
 91
        0
176
     1
 64
     7
176
     1
 65
   257
176
     1
 75
     1
176
     1
175
     1
176
     1
 42
1.0
176
     1
 92
        8
176
     1
 66
   257
176
     1
 43
1.0
176
     1
 76
     1
176
     1
 77
     6
176
     1
 78
     2
176
     1
 67
     7
176
     1
 79
     3
176
     1
170
     0
176
     1
171
     0
176
     1
290
     0
176
     1
 93
       13
176
     1
 44
0.0
176
     1
173
     0
176
     1
1001
ACAD
1000
AcDbSavedByObjectVersion
1070
     0
  0
VISUALSTYLE
  5
3E
102
{ACAD_XDICTIONARY
360
138
102
}
102
{ACAD_REACTORS
330
29
102
}
330
29
100
AcDbVisualStyle
  2
Shaded
 70
    27
177
     2
291
     0
 71
     2
176
     1
 72
     2
176
     1
 73
     1
176
     1
 90
        2
176
     1
 40
0.6
176
     1
 41
30.0
176
     1
 63
     7
421
 16777215
176
     1
 74
     0
176
     1
 91
        4
176
     1
 64
     7
176
     1
 65
   257
176
     1
 75
     1
176
     1
175
     1
176
     1
 42
1.0
176
     1
 92
        8
176
     1
 66
   257
176
     1
 43
1.0
176
     1
 76
     1
176
     1
 77
     6
176
     1
 78
     2
176
     1
 67
     8
425
  7895160
176
     1
 79
     3
176
     1
170
     0
176
     1
171
     0
176
     1
290
     0
176
     1
 93
        5
176
     1
 44
0.0
176
     1
173
     0
176
     1
1001
ACAD
1000
AcDbSavedByObjectVersion
1070
     0
  0
VISUALSTYLE
  5
3D
102
{ACAD_XDICTIONARY
360
136
102
}
102
{ACAD_REACTORS
330
29
102
}
330
29
100
AcDbVisualStyle
  2
Shaded with edges
 70
    26
177
     2
291
     0
 71
     2
176
     1
 72
     2
176
     1
 73
     1
176
     1
 90
        2
176
     1
 40
0.6
176
     1
 41
30.0
176
     1
 63
     7
421
 16777215
176
     1
 74
     1
176
     1
 91
        2
176
     1
 64
     7
176
     1
 65
   257
176
     1
 75
     2
176
     1
175
     1
176
     1
 42
1.0
176
     1
 92
        8
176
     1
 66
   257
176
     1
 43
1.0
176
     1
 76
     1
176
     1
 77
     6
176
     1
 78
     2
176
     1
 67
     7
176
     1
 79
     3
176
     1
170
     0
176
     1
171
     0
176
     1
290
     0
176
     1
 93
        5
176
     1
 44
0.0
176
     1
173
     0
176
     1
1001
ACAD
1000
AcDbSavedByObjectVersion
1070
     0
  0
VISUALSTYLE
  5
3A
102
{ACAD_XDICTIONARY
360
130
102
}
102
{ACAD_REACTORS
330
29
102
}
330
29
100
AcDbVisualStyle
  2
Shades of Gray
 70
    23
177
     2
291
     0
 71
     2
176
     1
 72
     2
176
     1
 73
     3
176
     1
 90
        0
176
     1
 40
0.6
176
     1
 41
30.0
176
     1
 63
     7
421
 16777215
176
     1
 74
     2
176
     1
 91
        2
176
     1
 64
     7
176
     1
 65
     7
176
     1
 75
     1
176
     1
175
     1
176
     1
 42
40.0
176
     1
 92
        8
176
     1
 66
     7
176
     1
 43
1.0
176
     1
 76
     1
176
     1
 77
     6
176
     1
 78
     2
176
     1
 67
     7
176
     1
 79
     3
176
     1
170
     0
176
     1
171
     0
176
     1
290
     0
176
     1
 93
        1
176
     1
 44
0.0
176
     1
173
     0
176
     1
1001
ACAD
1000
AcDbSavedByObjectVersion
1070
     0
  0
VISUALSTYLE
  5
3B
102
{ACAD_XDICTIONARY
360
132
102
}
102
{ACAD_REACTORS
330
29
102
}
330
29
100
AcDbVisualStyle
  2
Sketchy
 70
    24
177
     2
291
     0
 71
     1
176
     1
 72
     2
176
     1
 73
     2
176
     1
 90
        0
176
     1
 40
0.6
176
     1
 41
30.0
176
     1
 63
     7
421
 16777215
176
     1
 74
     2
176
     1
 91
        2
176
     1
 64
     7
176
     1
 65
     7
176
     1
 75
     1
176
     1
175
     1
176
     1
 42
40.0
176
     1
 92
       11
176
     1
 66
     7
176
     1
 43
1.0
176
     1
 76
     1
176
     1
 77
     6
176
     1
 78
     2
176
     1
 67
     7
176
     1
 79
     6
176
     1
170
     0
176
     1
171
     0
176
     1
290
     0
176
     1
 93
        1
176
     1
 44
0.0
176
     1
173
     0
176
     1
1001
ACAD
1000
AcDbSavedByObjectVersion
1070
     0
  0
VISUALSTYLE
  5
36
102
{ACAD_XDICTIONARY
360
128
102
}
102
{ACAD_REACTORS
330
29
102
}
330
29
100
AcDbVisualStyle
  2
Thicken
 70
    13
177
     2
291
     1
 71
     2
176
     1
 72
     2
176
     1
 73
     0
176
     1
 90
        0
176
     1
 40
0.6
176
     1
 41
30.0
176
     1
 63
     7
421
 16777215
176
     1
 74
     1
176
     1
 91
        4
176
     1
 64
     7
176
     1
 65
   257
176
     1
 75
     1
176
     1
175
     1
176
     1
 42
1.0
176
     1
 92
       12
176
     1
 66
     7
176
     1
 43
1.0
176
     1
 76
     1
176
     1
 77
     6
176
     1
 78
     2
176
     1
 67
     7
176
     1
 79
     5
176
     1
170
     0
176
     1
171
     0
176
     1
290
     0
176
     1
 93
        1
176
     1
 44
0.0
176
     1
173
     0
176
     1
1001
ACAD
1000
AcDbSavedByObjectVersion
1070
     0
  0
VISUALSTYLE
  5
30
102
{ACAD_XDICTIONARY
360
11C
102
}
102
{ACAD_REACTORS
330
29
102
}
330
29
100
AcDbVisualStyle
  2
Wireframe
 70
     5
177
     2
291
     0
 71
     0
176
     1
 72
     2
176
     1
 73
     0
176
     1
 90
        0
176
     1
 40
0.6
176
     1
 41
30.0
176
     1
 63
     7
421
 16777215
176
     1
 74
     1
176
     1
 91
        4
176
     1
 64
     7
176
     1
 65
   257
176
     1
 75
     1
176
     1
175
     1
176
     1
 42
1.0
176
     1
 92
        0
176
     1
 66
   257
176
     1
 43
1.0
176
     1
 76
     1
176
     1
 77
     6
176
     1
 78
     2
176
     1
 67
     7
176
     1
 79
     3
176
     1
170
     0
176
     1
171
     0
176
     1
290
     0
176
     1
 93
        1
176
     1
 44
0.0
176
     1
173
     0
176
     1
1001
ACAD
1000
AcDbSavedByObjectVersion
1070
     0
  0
VISUALSTYLE
  5
3C
102
{ACAD_XDICTIONARY
360
134
102
}
102
{ACAD_REACTORS
330
29
102
}
330
29
100
AcDbVisualStyle
  2
X-Ray
 70
    25
177
     2
291
     0
 71
     2
176
     1
 72
     2
176
     1
 73
     1
176
     1
 90
        1
176
     1
 40
0.5
176
     1
 41
30.0
176
     1
 63
     7
421
 16777215
176
     1
 74
     1
176
     1
 91
        0
176
     1
 64
     7
176
     1
 65
   257
176
     1
 75
     1
176
     1
175
     1
176
     1
 42
1.0
176
     1
 92
        8
176
     1
 66
     7
176
     1
 43
1.0
176
     1
 76
     1
176
     1
 77
     6
176
     1
 78
     2
176
     1
 67
     7
176
     1
 79
     3
176
     1
170
     0
176
     1
171
     0
176
     1
290
     0
176
     1
 93
       13
176
     1
 44
0.0
176
     1
173
     0
176
     1
1001
ACAD
1000
AcDbSavedByObjectVersion
1070
     0
  0
DICTIONARYVAR
  5
10C
102
{ACAD_REACTORS
330
107
102
}
330
107
100
DictionaryVariables
280
     0
  1
1:1
  0
DICTIONARYVAR
  5
109
102
{ACAD_REACTORS
330
107
102
}
330
107
100
DictionaryVariables
280
     0
  1
STANDARD
  0
DICTIONARYVAR
  5
108
102
{ACAD_REACTORS
330
107
102
}
330
107
100
DictionaryVariables
280
     0
  1
STANDARD
  0
DICTIONARYVAR
  5
10A
102
{ACAD_REACTORS
330
107
102
}
330
107
100
DictionaryVariables
280
     0
  1
Imperial24
  0
DICTIONARYVAR
  5
10B
102
{ACAD_REACTORS
330
107
102
}
330
107
100
DictionaryVariables
280
     0
  1
Imperial24
  0
DICTIONARY
  5
144
330
6B
100
AcDbDictionary
280
     1
281
     1
  3
ACAD_XREC_ROUNDTRIP
360
145
  0
DICTIONARY
  5
1A
330
19
100
AcDbDictionary
280
     1
281
     1
  3
BUMPTILE
360
1C
  3
DIFFUSETILE
360
1B
  3
OPACITYTILE
360
1F
  3
REFLECTIONTILE
360
1E
  3
REFRACTIONTILE
360
20
  3
SPECULARTILE
360
1D
  0
DICTIONARY
  5
12
330
11
100
AcDbDictionary
280
     1
281
     1
  3
BUMPTILE
360
14
  3
DIFFUSETILE
360
13
  3
OPACITYTILE
360
17
  3
REFLECTIONTILE
360
16
  3
REFRACTIONTILE
360
18
  3
SPECULARTILE
360
15
  0
DICTIONARY
  5
22
330
21
100
AcDbDictionary
280
     1
281
     1
  3
BUMPTILE
360
24
  3
DIFFUSETILE
360
23
  3
OPACITYTILE
360
27
  3
REFLECTIONTILE
360
26
  3
REFRACTIONTILE
360
28
  3
SPECULARTILE
360
25
  0
DICTIONARY
  5
140
330
67
100
AcDbDictionary
280
     1
281
     1
  3
ACAD_XREC_ROUNDTRIP
360
141
  0
DICTIONARY
  5
142
330
69
100
AcDbDictionary
280
     1
281
     1
  3
ACAD_XREC_ROUNDTRIP
360
143
  0
DICTIONARY
  5
10D
330
65
100
AcDbDictionary
280
     1
281
     1
  3
ACAD_ROUNDTRIP_2008_TABLESTYLE_CELLSTYLEMAP
360
10E
  0
DICTIONARY
  5
11A
330
2F
100
AcDbDictionary
280
     1
281
     1
  3
ACAD_XREC_ROUNDTRIP
360
11B
  0
DICTIONARY
  5
118
330
2E
100
AcDbDictionary
280
     1
281
     1
  3
ACAD_XREC_ROUNDTRIP
360
119
  0
DICTIONARY
  5
126
330
35
100
AcDbDictionary
280
     1
281
     1
  3
ACAD_XREC_ROUNDTRIP
360
127
  0
DICTIONARY
  5
12E
330
39
100
AcDbDictionary
280
     1
281
     1
  3
ACAD_XREC_ROUNDTRIP
360
12F
  0
DICTIONARY
  5
120
330
32
100
AcDbDictionary
280
     1
281
     1
  3
ACAD_XREC_ROUNDTRIP
360
121
  0
DICTIONARY
  5
124
330
34
100
AcDbDictionary
280
     1
281
     1
  3
ACAD_XREC_ROUNDTRIP
360
125
  0
DICTIONARY
  5
13E
330
41
100
AcDbDictionary
280
     1
281
     1
  3
ACAD_XREC_ROUNDTRIP
360
13F
  0
DICTIONARY
  5
12C
330
38
100
AcDbDictionary
280
     1
281
     1
  3
ACAD_XREC_ROUNDTRIP
360
12D
  0
DICTIONARY
  5
110
330
2A
100
AcDbDictionary
280
     1
281
     1
  3
ACAD_XREC_ROUNDTRIP
360
111
  0
DICTIONARY
  5
112
330
2B
100
AcDbDictionary
280
     1
281
     1
  3
ACAD_XREC_ROUNDTRIP
360
113
  0
DICTIONARY
  5
114
330
2C
100
AcDbDictionary
280
     1
281
     1
  3
ACAD_XREC_ROUNDTRIP
360
115
  0
DICTIONARY
  5
116
330
2D
100
AcDbDictionary
280
     1
281
     1
  3
ACAD_XREC_ROUNDTRIP
360
117
  0
DICTIONARY
  5
11E
330
31
100
AcDbDictionary
280
     1
281
     1
  3
ACAD_XREC_ROUNDTRIP
360
11F
  0
DICTIONARY
  5
13A
330
3F
100
AcDbDictionary
280
     1
281
     1
  3
ACAD_XREC_ROUNDTRIP
360
13B
  0
DICTIONARY
  5
12A
330
37
100
AcDbDictionary
280
     1
281
     1
  3
ACAD_XREC_ROUNDTRIP
360
12B
  0
DICTIONARY
  5
13C
330
40
100
AcDbDictionary
280
     1
281
     1
  3
ACAD_XREC_ROUNDTRIP
360
13D
  0
DICTIONARY
  5
122
330
33
100
AcDbDictionary
280
     1
281
     1
  3
ACAD_XREC_ROUNDTRIP
360
123
  0
DICTIONARY
  5
138
330
3E
100
AcDbDictionary
280
     1
281
     1
  3
ACAD_XREC_ROUNDTRIP
360
139
  0
DICTIONARY
  5
136
330
3D
100
AcDbDictionary
280
     1
281
     1
  3
ACAD_XREC_ROUNDTRIP
360
137
  0
DICTIONARY
  5
130
330
3A
100
AcDbDictionary
280
     1
281
     1
  3
ACAD_XREC_ROUNDTRIP
360
131
  0
DICTIONARY
  5
132
330
3B
100
AcDbDictionary
280
     1
281
     1
  3
ACAD_XREC_ROUNDTRIP
360
133
  0
DICTIONARY
  5
128
330
36
100
AcDbDictionary
280
     1
281
     1
  3
ACAD_XREC_ROUNDTRIP
360
129
  0
DICTIONARY
  5
11C
330
30
100
AcDbDictionary
280
     1
281
     1
  3
ACAD_XREC_ROUNDTRIP
360
11D
  0
DICTIONARY
  5
134
330
3C
100
AcDbDictionary
280
     1
281
     1
  3
ACAD_XREC_ROUNDTRIP
360
135
  0
XRECORD
  5
145
102
{ACAD_REACTORS
330
144
102
}
330
144
100
AcDbXrecord
280
     1
102
DISPLAYNAME
  1
Imperial24
102
FLAGS
 90
        0
  0
XRECORD
  5
1C
102
{ACAD_REACTORS
330
1A
102
}
330
1A
100
AcDbXrecord
280
     1
270
     1
271
     1
  0
XRECORD
  5
1B
102
{ACAD_REACTORS
330
1A
102
}
330
1A
100
AcDbXrecord
280
     1
270
     1
271
     1
  0
XRECORD
  5
1F
102
{ACAD_REACTORS
330
1A
102
}
330
1A
100
AcDbXrecord
280
     1
270
     1
271
     1
  0
XRECORD
  5
1E
102
{ACAD_REACTORS
330
1A
102
}
330
1A
100
AcDbXrecord
280
     1
270
     1
271
     1
  0
XRECORD
  5
20
102
{ACAD_REACTORS
330
1A
102
}
330
1A
100
AcDbXrecord
280
     1
270
     1
271
     1
  0
XRECORD
  5
1D
102
{ACAD_REACTORS
330
1A
102
}
330
1A
100
AcDbXrecord
280
     1
270
     1
271
     1
  0
XRECORD
  5
14
102
{ACAD_REACTORS
330
12
102
}
330
12
100
AcDbXrecord
280
     1
270
     1
271
     1
  0
XRECORD
  5
13
102
{ACAD_REACTORS
330
12
102
}
330
12
100
AcDbXrecord
280
     1
270
     1
271
     1
  0
XRECORD
  5
17
102
{ACAD_REACTORS
330
12
102
}
330
12
100
AcDbXrecord
280
     1
270
     1
271
     1
  0
XRECORD
  5
16
102
{ACAD_REACTORS
330
12
102
}
330
12
100
AcDbXrecord
280
     1
270
     1
271
     1
  0
XRECORD
  5
18
102
{ACAD_REACTORS
330
12
102
}
330
12
100
AcDbXrecord
280
     1
270
     1
271
     1
  0
XRECORD
  5
15
102
{ACAD_REACTORS
330
12
102
}
330
12
100
AcDbXrecord
280
     1
270
     1
271
     1
  0
XRECORD
  5
24
102
{ACAD_REACTORS
330
22
102
}
330
22
100
AcDbXrecord
280
     1
270
     1
271
     1
  0
XRECORD
  5
23
102
{ACAD_REACTORS
330
22
102
}
330
22
100
AcDbXrecord
280
     1
270
     1
271
     1
  0
XRECORD
  5
27
102
{ACAD_REACTORS
330
22
102
}
330
22
100
AcDbXrecord
280
     1
270
     1
271
     1
  0
XRECORD
  5
26
102
{ACAD_REACTORS
330
22
102
}
330
22
100
AcDbXrecord
280
     1
270
     1
271
     1
  0
XRECORD
  5
28
102
{ACAD_REACTORS
330
22
102
}
330
22
100
AcDbXrecord
280
     1
270
     1
271
     1
  0
XRECORD
  5
25
102
{ACAD_REACTORS
330
22
102
}
330
22
100
AcDbXrecord
280
     1
270
     1
271
     1
  0
XRECORD
  5
141
102
{ACAD_REACTORS
330
140
102
}
330
140
100
AcDbXrecord
280
     1
102
ACAD_ROUNDTRIP_2012_MLEADER_STYLE
298
     1
  0
XRECORD
  5
143
102
{ACAD_REACTORS
330
142
102
}
330
142
100
AcDbXrecord
280
     1
102
DISPLAYNAME
  1
Imperial24
102
FLAGS
 90
        0
  0
CELLSTYLEMAP
  5
10E
102
{ACAD_REACTORS
330
10D
102
}
330
10D
100
AcDbCellStyleMap
 90
        3
300
CELLSTYLE
  1
TABLEFORMAT_BEGIN
 90
        5
170
     1
 91
        0
 92
    32768
 62
   257
 93
        1
300
CONTENTFORMAT
  1
CONTENTFORMAT_BEGIN
 90
        0
 91
        0
 92
      512
 93
        0
300

 40
0.0
140
1.0
 94
        5
 62
     0
340
55
144
0.25
309
CONTENTFORMAT_END
171
     0
 94
        0
309
TABLEFORMAT_END
  1
CELLSTYLE_BEGIN
 90
        1
 91
        1
300
_TITLE
309
CELLSTYLE_END
300
CELLSTYLE
  1
TABLEFORMAT_BEGIN
 90
        5
170
     1
 91
        0
 92
        0
 62
   257
 93
        1
300
CONTENTFORMAT
  1
CONTENTFORMAT_BEGIN
 90
        0
 91
        0
 92
      512
 93
        0
300

 40
0.0
140
1.0
 94
        5
 62
     0
340
55
144
0.18
309
CONTENTFORMAT_END
171
     0
 94
        0
309
TABLEFORMAT_END
  1
CELLSTYLE_BEGIN
 90
        2
 91
        1
300
_HEADER
309
CELLSTYLE_END
300
CELLSTYLE
  1
TABLEFORMAT_BEGIN
 90
        5
170
     1
 91
        0
 92
        0
 62
   257
 93
        1
300
CONTENTFORMAT
  1
CONTENTFORMAT_BEGIN
 90
        0
 91
        0
 92
      512
 93
        0
300

 40
0.0
140
1.0
 94
        2
 62
     0
340
55
144
0.18
309
CONTENTFORMAT_END
171
     0
 94
        0
309
TABLEFORMAT_END
  1
CELLSTYLE_BEGIN
 90
        3
 91
        2
300
_DATA
309
CELLSTYLE_END
  0
XRECORD
  5
11B
102
{ACAD_REACTORS
330
11A
102
}
330
11A
100
AcDbXrecord
280
     1
102
RTVSPost2010Prop28
280
     1
102
RTVSPost2010PropOp28
 70
     1
102
RTVSPost2010Prop29
280
     1
102
RTVSPost2010PropOp29
 70
     1
102
RTVSPost2010Prop30
280
     0
102
RTVSPost2010PropOp30
 70
     1
102
RTVSPost2010Prop31
280
     0
102
RTVSPost2010PropOp31
 70
     1
102
RTVSPost2010Prop32
280
     0
102
RTVSPost2010PropOp32
 70
     1
102
RTVSPost2010Prop33
280
     0
102
RTVSPost2010PropOp33
 70
     1
102
RTVSPost2010Prop34
280
     0
102
RTVSPost2010PropOp34
 70
     1
102
RTVSPost2010Prop35
280
     0
102
RTVSPost2010PropOp35
 70
     1
102
RTVSPost2010Prop36
280
     0
102
RTVSPost2010PropOp36
 70
     1
102
RTVSPost2010Prop37
 90
       50
102
RTVSPost2010PropOp37
 70
     1
102
RTVSPost2010Prop38
140
0.0
102
RTVSPost2010PropOp38
 70
     1
102
RTVSPost2010Prop39
140
1.0
102
RTVSPost2010PropOp39
 70
     1
102
RTVSPost2010Prop40
 90
        0
102
RTVSPost2010PropOp40
 70
     1
102
RTVSPost2010Prop41ColorIndex
 90
       18
102
RTVSPost2010Prop41ColorRGB
 90
        0
102
RTVSPost2010PropOp41
 70
     1
102
RTVSPost2010Prop42
 90
       50
102
RTVSPost2010PropOp42
 70
     1
102
RTVSPost2010Prop43
 90
        3
102
RTVSPost2010PropOp43
 70
     1
102
RTVSPost2010Prop44ColorIndex
 90
        5
102
RTVSPost2010Prop44ColorRGB
 90
      255
102
RTVSPost2010PropOp44
 70
     1
102
RTVSPost2010Prop45
280
     0
102
RTVSPost2010PropOp45
 70
     1
102
RTVSPost2010Prop46
 90
       50
102
RTVSPost2010PropOp46
 70
     1
102
RTVSPost2010Prop47
 90
       50
102
RTVSPost2010PropOp47
 70
     1
102
RTVSPost2010Prop48
 90
       50
102
RTVSPost2010PropOp48
 70
     1
102
RTVSPost2010Prop49
280
     0
102
RTVSPost2010PropOp49
 70
     1
102
RTVSPost2010Prop50
 90
       50
102
RTVSPost2010PropOp50
 70
     1
102
RTVSPost2010Prop51ColorIndex
 90
      256
102
RTVSPost2010Prop51ColorRGB
 90
-16777216
102
RTVSPost2010PropOp51
 70
     0
102
RTVSPost2010Prop52
140
1.0
102
RTVSPost2010PropOp52
 70
     0
102
RTVSPost2010Prop53
 90
        2
102
RTVSPost2010PropOp53
 70
     1
102
RTVSPost2010Prop54
  1
strokes_ogs.tif
102
RTVSPost2010PropOp54
 70
     1
102
RTVSPost2010Prop55
280
     0
102
RTVSPost2010PropOp55
 70
     1
102
RTVSPost2010Prop56
140
1.0
102
RTVSPost2010PropOp56
 70
     1
102
RTVSPost2010Prop57
140
1.0
102
RTVSPost2010PropOp57
 70
     1
  0
XRECORD
  5
119
102
{ACAD_REACTORS
330
118
102
}
330
118
100
AcDbXrecord
280
     1
102
RTVSPost2010Prop28
280
     0
102
RTVSPost2010PropOp28
 70
     1
102
RTVSPost2010Prop29
280
     1
102
RTVSPost2010PropOp29
 70
     1
102
RTVSPost2010Prop30
280
     1
102
RTVSPost2010PropOp30
 70
     1
102
RTVSPost2010Prop31
280
     0
102
RTVSPost2010PropOp31
 70
     1
102
RTVSPost2010Prop32
280
     0
102
RTVSPost2010PropOp32
 70
     1
102
RTVSPost2010Prop33
280
     0
102
RTVSPost2010PropOp33
 70
     1
102
RTVSPost2010Prop34
280
     0
102
RTVSPost2010PropOp34
 70
     1
102
RTVSPost2010Prop35
280
     0
102
RTVSPost2010PropOp35
 70
     1
102
RTVSPost2010Prop36
280
     0
102
RTVSPost2010PropOp36
 70
     1
102
RTVSPost2010Prop37
 90
       50
102
RTVSPost2010PropOp37
 70
     1
102
RTVSPost2010Prop38
140
0.0
102
RTVSPost2010PropOp38
 70
     1
102
RTVSPost2010Prop39
140
1.0
102
RTVSPost2010PropOp39
 70
     1
102
RTVSPost2010Prop40
 90
        0
102
RTVSPost2010PropOp40
 70
     1
102
RTVSPost2010Prop41ColorIndex
 90
       18
102
RTVSPost2010Prop41ColorRGB
 90
        0
102
RTVSPost2010PropOp41
 70
     1
102
RTVSPost2010Prop42
 90
       50
102
RTVSPost2010PropOp42
 70
     1
102
RTVSPost2010Prop43
 90
        3
102
RTVSPost2010PropOp43
 70
     1
102
RTVSPost2010Prop44ColorIndex
 90
        5
102
RTVSPost2010Prop44ColorRGB
 90
      255
102
RTVSPost2010PropOp44
 70
     1
102
RTVSPost2010Prop45
280
     0
102
RTVSPost2010PropOp45
 70
     1
102
RTVSPost2010Prop46
 90
       50
102
RTVSPost2010PropOp46
 70
     1
102
RTVSPost2010Prop47
 90
       50
102
RTVSPost2010PropOp47
 70
     1
102
RTVSPost2010Prop48
 90
       50
102
RTVSPost2010PropOp48
 70
     1
102
RTVSPost2010Prop49
280
     0
102
RTVSPost2010PropOp49
 70
     1
102
RTVSPost2010Prop50
 90
       50
102
RTVSPost2010PropOp50
 70
     1
102
RTVSPost2010Prop51ColorIndex
 90
      256
102
RTVSPost2010Prop51ColorRGB
 90
-16777216
102
RTVSPost2010PropOp51
 70
     0
102
RTVSPost2010Prop52
140
1.0
102
RTVSPost2010PropOp52
 70
     0
102
RTVSPost2010Prop53
 90
        2
102
RTVSPost2010PropOp53
 70
     1
102
RTVSPost2010Prop54
  1
strokes_ogs.tif
102
RTVSPost2010PropOp54
 70
     1
102
RTVSPost2010Prop55
280
     0
102
RTVSPost2010PropOp55
 70
     1
102
RTVSPost2010Prop56
140
1.0
102
RTVSPost2010PropOp56
 70
     1
102
RTVSPost2010Prop57
140
1.0
102
RTVSPost2010PropOp57
 70
     1
  0
XRECORD
  5
127
102
{ACAD_REACTORS
330
126
102
}
330
126
100
AcDbXrecord
280
     1
102
RTVSPost2010Prop28
280
     0
102
RTVSPost2010PropOp28
 70
     1
102
RTVSPost2010Prop29
280
     1
102
RTVSPost2010PropOp29
 70
     1
102
RTVSPost2010Prop30
280
     1
102
RTVSPost2010PropOp30
 70
     1
102
RTVSPost2010Prop31
280
     0
102
RTVSPost2010PropOp31
 70
     1
102
RTVSPost2010Prop32
280
     0
102
RTVSPost2010PropOp32
 70
     1
102
RTVSPost2010Prop33
280
     0
102
RTVSPost2010PropOp33
 70
     1
102
RTVSPost2010Prop34
280
     0
102
RTVSPost2010PropOp34
 70
     1
102
RTVSPost2010Prop35
280
     0
102
RTVSPost2010PropOp35
 70
     1
102
RTVSPost2010Prop36
280
     0
102
RTVSPost2010PropOp36
 70
     1
102
RTVSPost2010Prop37
 90
       50
102
RTVSPost2010PropOp37
 70
     1
102
RTVSPost2010Prop38
140
0.0
102
RTVSPost2010PropOp38
 70
     1
102
RTVSPost2010Prop39
140
1.0
102
RTVSPost2010PropOp39
 70
     1
102
RTVSPost2010Prop40
 90
        0
102
RTVSPost2010PropOp40
 70
     1
102
RTVSPost2010Prop41ColorIndex
 90
       18
102
RTVSPost2010Prop41ColorRGB
 90
        0
102
RTVSPost2010PropOp41
 70
     1
102
RTVSPost2010Prop42
 90
       50
102
RTVSPost2010PropOp42
 70
     1
102
RTVSPost2010Prop43
 90
        3
102
RTVSPost2010PropOp43
 70
     1
102
RTVSPost2010Prop44ColorIndex
 90
        5
102
RTVSPost2010Prop44ColorRGB
 90
      255
102
RTVSPost2010PropOp44
 70
     1
102
RTVSPost2010Prop45
280
     0
102
RTVSPost2010PropOp45
 70
     1
102
RTVSPost2010Prop46
 90
       50
102
RTVSPost2010PropOp46
 70
     1
102
RTVSPost2010Prop47
 90
       50
102
RTVSPost2010PropOp47
 70
     1
102
RTVSPost2010Prop48
 90
       50
102
RTVSPost2010PropOp48
 70
     1
102
RTVSPost2010Prop49
280
     0
102
RTVSPost2010PropOp49
 70
     1
102
RTVSPost2010Prop50
 90
       50
102
RTVSPost2010PropOp50
 70
     1
102
RTVSPost2010Prop51ColorIndex
 90
      256
102
RTVSPost2010Prop51ColorRGB
 90
-16777216
102
RTVSPost2010PropOp51
 70
     0
102
RTVSPost2010Prop52
140
1.0
102
RTVSPost2010PropOp52
 70
     0
102
RTVSPost2010Prop53
 90
        2
102
RTVSPost2010PropOp53
 70
     1
102
RTVSPost2010Prop54
  1
strokes_ogs.tif
102
RTVSPost2010PropOp54
 70
     1
102
RTVSPost2010Prop55
280
     0
102
RTVSPost2010PropOp55
 70
     1
102
RTVSPost2010Prop56
140
1.0
102
RTVSPost2010PropOp56
 70
     1
102
RTVSPost2010Prop57
140
1.0
102
RTVSPost2010PropOp57
 70
     1
  0
XRECORD
  5
12F
102
{ACAD_REACTORS
330
12E
102
}
330
12E
100
AcDbXrecord
280
     1
102
RTVSPost2010Prop28
280
     0
102
RTVSPost2010PropOp28
 70
     1
102
RTVSPost2010Prop29
280
     1
102
RTVSPost2010PropOp29
 70
     1
102
RTVSPost2010Prop30
280
     1
102
RTVSPost2010PropOp30
 70
     1
102
RTVSPost2010Prop31
280
     0
102
RTVSPost2010PropOp31
 70
     1
102
RTVSPost2010Prop32
280
     0
102
RTVSPost2010PropOp32
 70
     1
102
RTVSPost2010Prop33
280
     0
102
RTVSPost2010PropOp33
 70
     1
102
RTVSPost2010Prop34
280
     0
102
RTVSPost2010PropOp34
 70
     1
102
RTVSPost2010Prop35
280
     0
102
RTVSPost2010PropOp35
 70
     1
102
RTVSPost2010Prop36
280
     0
102
RTVSPost2010PropOp36
 70
     1
102
RTVSPost2010Prop37
 90
       50
102
RTVSPost2010PropOp37
 70
     1
102
RTVSPost2010Prop38
140
0.0
102
RTVSPost2010PropOp38
 70
     1
102
RTVSPost2010Prop39
140
1.0
102
RTVSPost2010PropOp39
 70
     1
102
RTVSPost2010Prop40
 90
        0
102
RTVSPost2010PropOp40
 70
     1
102
RTVSPost2010Prop41ColorIndex
 90
       18
102
RTVSPost2010Prop41ColorRGB
 90
        0
102
RTVSPost2010PropOp41
 70
     1
102
RTVSPost2010Prop42
 90
       50
102
RTVSPost2010PropOp42
 70
     1
102
RTVSPost2010Prop43
 90
        3
102
RTVSPost2010PropOp43
 70
     1
102
RTVSPost2010Prop44ColorIndex
 90
        5
102
RTVSPost2010Prop44ColorRGB
 90
      255
102
RTVSPost2010PropOp44
 70
     1
102
RTVSPost2010Prop45
280
     0
102
RTVSPost2010PropOp45
 70
     1
102
RTVSPost2010Prop46
 90
       50
102
RTVSPost2010PropOp46
 70
     1
102
RTVSPost2010Prop47
 90
       50
102
RTVSPost2010PropOp47
 70
     1
102
RTVSPost2010Prop48
 90
       50
102
RTVSPost2010PropOp48
 70
     1
102
RTVSPost2010Prop49
280
     0
102
RTVSPost2010PropOp49
 70
     1
102
RTVSPost2010Prop50
 90
       50
102
RTVSPost2010PropOp50
 70
     1
102
RTVSPost2010Prop51ColorIndex
 90
      256
102
RTVSPost2010Prop51ColorRGB
 90
-16777216
102
RTVSPost2010PropOp51
 70
     0
102
RTVSPost2010Prop52
140
1.0
102
RTVSPost2010PropOp52
 70
     0
102
RTVSPost2010Prop53
 90
        2
102
RTVSPost2010PropOp53
 70
     1
102
RTVSPost2010Prop54
  1
strokes_ogs.tif
102
RTVSPost2010PropOp54
 70
     1
102
RTVSPost2010Prop55
280
     0
102
RTVSPost2010PropOp55
 70
     1
102
RTVSPost2010Prop56
140
1.0
102
RTVSPost2010PropOp56
 70
     1
102
RTVSPost2010Prop57
140
1.0
102
RTVSPost2010PropOp57
 70
     1
  0
XRECORD
  5
121
102
{ACAD_REACTORS
330
120
102
}
330
120
100
AcDbXrecord
280
     1
102
RTVSPost2010Prop28
280
     0
102
RTVSPost2010PropOp28
 70
     1
102
RTVSPost2010Prop29
280
     1
102
RTVSPost2010PropOp29
 70
     1
102
RTVSPost2010Prop30
280
     1
102
RTVSPost2010PropOp30
 70
     1
102
RTVSPost2010Prop31
280
     0
102
RTVSPost2010PropOp31
 70
     1
102
RTVSPost2010Prop32
280
     0
102
RTVSPost2010PropOp32
 70
     1
102
RTVSPost2010Prop33
280
     0
102
RTVSPost2010PropOp33
 70
     1
102
RTVSPost2010Prop34
280
     0
102
RTVSPost2010PropOp34
 70
     1
102
RTVSPost2010Prop35
280
     0
102
RTVSPost2010PropOp35
 70
     1
102
RTVSPost2010Prop36
280
     0
102
RTVSPost2010PropOp36
 70
     1
102
RTVSPost2010Prop37
 90
       50
102
RTVSPost2010PropOp37
 70
     1
102
RTVSPost2010Prop38
140
0.0
102
RTVSPost2010PropOp38
 70
     1
102
RTVSPost2010Prop39
140
1.0
102
RTVSPost2010PropOp39
 70
     1
102
RTVSPost2010Prop40
 90
        0
102
RTVSPost2010PropOp40
 70
     1
102
RTVSPost2010Prop41ColorIndex
 90
       18
102
RTVSPost2010Prop41ColorRGB
 90
        0
102
RTVSPost2010PropOp41
 70
     1
102
RTVSPost2010Prop42
 90
       50
102
RTVSPost2010PropOp42
 70
     1
102
RTVSPost2010Prop43
 90
        3
102
RTVSPost2010PropOp43
 70
     1
102
RTVSPost2010Prop44ColorIndex
 90
        5
102
RTVSPost2010Prop44ColorRGB
 90
      255
102
RTVSPost2010PropOp44
 70
     1
102
RTVSPost2010Prop45
280
     0
102
RTVSPost2010PropOp45
 70
     1
102
RTVSPost2010Prop46
 90
       50
102
RTVSPost2010PropOp46
 70
     1
102
RTVSPost2010Prop47
 90
       50
102
RTVSPost2010PropOp47
 70
     1
102
RTVSPost2010Prop48
 90
       50
102
RTVSPost2010PropOp48
 70
     1
102
RTVSPost2010Prop49
280
     0
102
RTVSPost2010PropOp49
 70
     1
102
RTVSPost2010Prop50
 90
       50
102
RTVSPost2010PropOp50
 70
     1
102
RTVSPost2010Prop51ColorIndex
 90
      256
102
RTVSPost2010Prop51ColorRGB
 90
-16777216
102
RTVSPost2010PropOp51
 70
     0
102
RTVSPost2010Prop52
140
1.0
102
RTVSPost2010PropOp52
 70
     0
102
RTVSPost2010Prop53
 90
        2
102
RTVSPost2010PropOp53
 70
     1
102
RTVSPost2010Prop54
  1
strokes_ogs.tif
102
RTVSPost2010PropOp54
 70
     1
102
RTVSPost2010Prop55
280
     0
102
RTVSPost2010PropOp55
 70
     1
102
RTVSPost2010Prop56
140
1.0
102
RTVSPost2010PropOp56
 70
     1
102
RTVSPost2010Prop57
140
1.0
102
RTVSPost2010PropOp57
 70
     1
  0
XRECORD
  5
125
102
{ACAD_REACTORS
330
124
102
}
330
124
100
AcDbXrecord
280
     1
102
RTVSPost2010Prop28
280
     0
102
RTVSPost2010PropOp28
 70
     1
102
RTVSPost2010Prop29
280
     1
102
RTVSPost2010PropOp29
 70
     1
102
RTVSPost2010Prop30
280
     1
102
RTVSPost2010PropOp30
 70
     1
102
RTVSPost2010Prop31
280
     0
102
RTVSPost2010PropOp31
 70
     1
102
RTVSPost2010Prop32
280
     0
102
RTVSPost2010PropOp32
 70
     1
102
RTVSPost2010Prop33
280
     0
102
RTVSPost2010PropOp33
 70
     1
102
RTVSPost2010Prop34
280
     0
102
RTVSPost2010PropOp34
 70
     1
102
RTVSPost2010Prop35
280
     0
102
RTVSPost2010PropOp35
 70
     1
102
RTVSPost2010Prop36
280
     0
102
RTVSPost2010PropOp36
 70
     1
102
RTVSPost2010Prop37
 90
       50
102
RTVSPost2010PropOp37
 70
     1
102
RTVSPost2010Prop38
140
0.0
102
RTVSPost2010PropOp38
 70
     1
102
RTVSPost2010Prop39
140
1.0
102
RTVSPost2010PropOp39
 70
     1
102
RTVSPost2010Prop40
 90
        0
102
RTVSPost2010PropOp40
 70
     1
102
RTVSPost2010Prop41ColorIndex
 90
       18
102
RTVSPost2010Prop41ColorRGB
 90
        0
102
RTVSPost2010PropOp41
 70
     1
102
RTVSPost2010Prop42
 90
       50
102
RTVSPost2010PropOp42
 70
     1
102
RTVSPost2010Prop43
 90
        3
102
RTVSPost2010PropOp43
 70
     1
102
RTVSPost2010Prop44ColorIndex
 90
        5
102
RTVSPost2010Prop44ColorRGB
 90
      255
102
RTVSPost2010PropOp44
 70
     1
102
RTVSPost2010Prop45
280
     0
102
RTVSPost2010PropOp45
 70
     1
102
RTVSPost2010Prop46
 90
       50
102
RTVSPost2010PropOp46
 70
     1
102
RTVSPost2010Prop47
 90
       50
102
RTVSPost2010PropOp47
 70
     1
102
RTVSPost2010Prop48
 90
       50
102
RTVSPost2010PropOp48
 70
     1
102
RTVSPost2010Prop49
280
     0
102
RTVSPost2010PropOp49
 70
     1
102
RTVSPost2010Prop50
 90
       50
102
RTVSPost2010PropOp50
 70
     1
102
RTVSPost2010Prop51ColorIndex
 90
      256
102
RTVSPost2010Prop51ColorRGB
 90
-16777216
102
RTVSPost2010PropOp51
 70
     0
102
RTVSPost2010Prop52
140
1.0
102
RTVSPost2010PropOp52
 70
     0
102
RTVSPost2010Prop53
 90
        2
102
RTVSPost2010PropOp53
 70
     1
102
RTVSPost2010Prop54
  1
strokes_ogs.tif
102
RTVSPost2010PropOp54
 70
     1
102
RTVSPost2010Prop55
280
     0
102
RTVSPost2010PropOp55
 70
     1
102
RTVSPost2010Prop56
140
1.0
102
RTVSPost2010PropOp56
 70
     1
102
RTVSPost2010Prop57
140
1.0
102
RTVSPost2010PropOp57
 70
     1
  0
XRECORD
  5
13F
102
{ACAD_REACTORS
330
13E
102
}
330
13E
100
AcDbXrecord
280
     1
102
RTVSPost2010Prop28
280
     0
102
RTVSPost2010PropOp28
 70
     0
102
RTVSPost2010Prop29
280
     1
102
RTVSPost2010PropOp29
 70
     0
102
RTVSPost2010Prop30
280
     1
102
RTVSPost2010PropOp30
 70
     0
102
RTVSPost2010Prop31
280
     0
102
RTVSPost2010PropOp31
 70
     0
102
RTVSPost2010Prop32
280
     0
102
RTVSPost2010PropOp32
 70
     0
102
RTVSPost2010Prop33
280
     0
102
RTVSPost2010PropOp33
 70
     0
102
RTVSPost2010Prop34
280
     0
102
RTVSPost2010PropOp34
 70
     0
102
RTVSPost2010Prop35
280
     0
102
RTVSPost2010PropOp35
 70
     0
102
RTVSPost2010Prop36
280
     0
102
RTVSPost2010PropOp36
 70
     0
102
RTVSPost2010Prop37
 90
       50
102
RTVSPost2010PropOp37
 70
     0
102
RTVSPost2010Prop38
140
0.0
102
RTVSPost2010PropOp38
 70
     0
102
RTVSPost2010Prop39
140
1.0
102
RTVSPost2010PropOp39
 70
     0
102
RTVSPost2010Prop40
 90
        0
102
RTVSPost2010PropOp40
 70
     0
102
RTVSPost2010Prop41ColorIndex
 90
       18
102
RTVSPost2010Prop41ColorRGB
 90
        0
102
RTVSPost2010PropOp41
 70
     0
102
RTVSPost2010Prop42
 90
       50
102
RTVSPost2010PropOp42
 70
     0
102
RTVSPost2010Prop43
 90
        3
102
RTVSPost2010PropOp43
 70
     0
102
RTVSPost2010Prop44ColorIndex
 90
        5
102
RTVSPost2010Prop44ColorRGB
 90
      255
102
RTVSPost2010PropOp44
 70
     0
102
RTVSPost2010Prop45
280
     0
102
RTVSPost2010PropOp45
 70
     0
102
RTVSPost2010Prop46
 90
       50
102
RTVSPost2010PropOp46
 70
     0
102
RTVSPost2010Prop47
 90
       50
102
RTVSPost2010PropOp47
 70
     0
102
RTVSPost2010Prop48
 90
       50
102
RTVSPost2010PropOp48
 70
     0
102
RTVSPost2010Prop49
280
     0
102
RTVSPost2010PropOp49
 70
     0
102
RTVSPost2010Prop50
 90
       50
102
RTVSPost2010PropOp50
 70
     0
102
RTVSPost2010Prop51ColorIndex
 90
      256
102
RTVSPost2010Prop51ColorRGB
 90
-16777216
102
RTVSPost2010PropOp51
 70
     0
102
RTVSPost2010Prop52
140
1.0
102
RTVSPost2010PropOp52
 70
     0
102
RTVSPost2010Prop53
 90
        2
102
RTVSPost2010PropOp53
 70
     0
102
RTVSPost2010Prop54
  1
strokes_ogs.tif
102
RTVSPost2010PropOp54
 70
     0
102
RTVSPost2010Prop55
280
     0
102
RTVSPost2010PropOp55
 70
     0
102
RTVSPost2010Prop56
140
1.0
102
RTVSPost2010PropOp56
 70
     0
102
RTVSPost2010Prop57
140
1.0
102
RTVSPost2010PropOp57
 70
     0
  0
XRECORD
  5
12D
102
{ACAD_REACTORS
330
12C
102
}
330
12C
100
AcDbXrecord
280
     1
102
RTVSPost2010Prop28
280
     0
102
RTVSPost2010PropOp28
 70
     1
102
RTVSPost2010Prop29
280
     1
102
RTVSPost2010PropOp29
 70
     1
102
RTVSPost2010Prop30
280
     1
102
RTVSPost2010PropOp30
 70
     1
102
RTVSPost2010Prop31
280
     0
102
RTVSPost2010PropOp31
 70
     1
102
RTVSPost2010Prop32
280
     0
102
RTVSPost2010PropOp32
 70
     1
102
RTVSPost2010Prop33
280
     0
102
RTVSPost2010PropOp33
 70
     1
102
RTVSPost2010Prop34
280
     0
102
RTVSPost2010PropOp34
 70
     1
102
RTVSPost2010Prop35
280
     0
102
RTVSPost2010PropOp35
 70
     1
102
RTVSPost2010Prop36
280
     0
102
RTVSPost2010PropOp36
 70
     1
102
RTVSPost2010Prop37
 90
       50
102
RTVSPost2010PropOp37
 70
     1
102
RTVSPost2010Prop38
140
0.0
102
RTVSPost2010PropOp38
 70
     1
102
RTVSPost2010Prop39
140
1.0
102
RTVSPost2010PropOp39
 70
     1
102
RTVSPost2010Prop40
 90
        0
102
RTVSPost2010PropOp40
 70
     1
102
RTVSPost2010Prop41ColorIndex
 90
       18
102
RTVSPost2010Prop41ColorRGB
 90
        0
102
RTVSPost2010PropOp41
 70
     1
102
RTVSPost2010Prop42
 90
       50
102
RTVSPost2010PropOp42
 70
     1
102
RTVSPost2010Prop43
 90
        3
102
RTVSPost2010PropOp43
 70
     1
102
RTVSPost2010Prop44ColorIndex
 90
        5
102
RTVSPost2010Prop44ColorRGB
 90
      255
102
RTVSPost2010PropOp44
 70
     1
102
RTVSPost2010Prop45
280
     0
102
RTVSPost2010PropOp45
 70
     1
102
RTVSPost2010Prop46
 90
       50
102
RTVSPost2010PropOp46
 70
     1
102
RTVSPost2010Prop47
 90
       50
102
RTVSPost2010PropOp47
 70
     1
102
RTVSPost2010Prop48
 90
       50
102
RTVSPost2010PropOp48
 70
     1
102
RTVSPost2010Prop49
280
     0
102
RTVSPost2010PropOp49
 70
     1
102
RTVSPost2010Prop50
 90
       50
102
RTVSPost2010PropOp50
 70
     1
102
RTVSPost2010Prop51ColorIndex
 90
      256
102
RTVSPost2010Prop51ColorRGB
 90
-16777216
102
RTVSPost2010PropOp51
 70
     0
102
RTVSPost2010Prop52
140
1.0
102
RTVSPost2010PropOp52
 70
     0
102
RTVSPost2010Prop53
 90
        2
102
RTVSPost2010PropOp53
 70
     1
102
RTVSPost2010Prop54
  1
strokes_ogs.tif
102
RTVSPost2010PropOp54
 70
     1
102
RTVSPost2010Prop55
280
     0
102
RTVSPost2010PropOp55
 70
     1
102
RTVSPost2010Prop56
140
1.0
102
RTVSPost2010PropOp56
 70
     1
102
RTVSPost2010Prop57
140
1.0
102
RTVSPost2010PropOp57
 70
     1
  0
XRECORD
  5
111
102
{ACAD_REACTORS
330
110
102
}
330
110
100
AcDbXrecord
280
     1
102
RTVSPost2010Prop28
280
     0
102
RTVSPost2010PropOp28
 70
     1
102
RTVSPost2010Prop29
280
     1
102
RTVSPost2010PropOp29
 70
     1
102
RTVSPost2010Prop30
280
     1
102
RTVSPost2010PropOp30
 70
     1
102
RTVSPost2010Prop31
280
     0
102
RTVSPost2010PropOp31
 70
     1
102
RTVSPost2010Prop32
280
     0
102
RTVSPost2010PropOp32
 70
     1
102
RTVSPost2010Prop33
280
     0
102
RTVSPost2010PropOp33
 70
     1
102
RTVSPost2010Prop34
280
     0
102
RTVSPost2010PropOp34
 70
     1
102
RTVSPost2010Prop35
280
     0
102
RTVSPost2010PropOp35
 70
     1
102
RTVSPost2010Prop36
280
     0
102
RTVSPost2010PropOp36
 70
     1
102
RTVSPost2010Prop37
 90
       50
102
RTVSPost2010PropOp37
 70
     1
102
RTVSPost2010Prop38
140
0.0
102
RTVSPost2010PropOp38
 70
     1
102
RTVSPost2010Prop39
140
1.0
102
RTVSPost2010PropOp39
 70
     1
102
RTVSPost2010Prop40
 90
        0
102
RTVSPost2010PropOp40
 70
     1
102
RTVSPost2010Prop41ColorIndex
 90
       18
102
RTVSPost2010Prop41ColorRGB
 90
        0
102
RTVSPost2010PropOp41
 70
     1
102
RTVSPost2010Prop42
 90
       50
102
RTVSPost2010PropOp42
 70
     1
102
RTVSPost2010Prop43
 90
        3
102
RTVSPost2010PropOp43
 70
     1
102
RTVSPost2010Prop44ColorIndex
 90
        5
102
RTVSPost2010Prop44ColorRGB
 90
      255
102
RTVSPost2010PropOp44
 70
     1
102
RTVSPost2010Prop45
280
     0
102
RTVSPost2010PropOp45
 70
     1
102
RTVSPost2010Prop46
 90
       50
102
RTVSPost2010PropOp46
 70
     1
102
RTVSPost2010Prop47
 90
       50
102
RTVSPost2010PropOp47
 70
     1
102
RTVSPost2010Prop48
 90
       50
102
RTVSPost2010PropOp48
 70
     1
102
RTVSPost2010Prop49
280
     0
102
RTVSPost2010PropOp49
 70
     1
102
RTVSPost2010Prop50
 90
       50
102
RTVSPost2010PropOp50
 70
     1
102
RTVSPost2010Prop51ColorIndex
 90
      256
102
RTVSPost2010Prop51ColorRGB
 90
-16777216
102
RTVSPost2010PropOp51
 70
     0
102
RTVSPost2010Prop52
140
1.0
102
RTVSPost2010PropOp52
 70
     0
102
RTVSPost2010Prop53
 90
        2
102
RTVSPost2010PropOp53
 70
     1
102
RTVSPost2010Prop54
  1
strokes_ogs.tif
102
RTVSPost2010PropOp54
 70
     1
102
RTVSPost2010Prop55
280
     0
102
RTVSPost2010PropOp55
 70
     1
102
RTVSPost2010Prop56
140
1.0
102
RTVSPost2010PropOp56
 70
     1
102
RTVSPost2010Prop57
140
1.0
102
RTVSPost2010PropOp57
 70
     1
  0
XRECORD
  5
113
102
{ACAD_REACTORS
330
112
102
}
330
112
100
AcDbXrecord
280
     1
102
RTVSPost2010Prop28
280
     0
102
RTVSPost2010PropOp28
 70
     1
102
RTVSPost2010Prop29
280
     1
102
RTVSPost2010PropOp29
 70
     1
102
RTVSPost2010Prop30
280
     1
102
RTVSPost2010PropOp30
 70
     1
102
RTVSPost2010Prop31
280
     0
102
RTVSPost2010PropOp31
 70
     1
102
RTVSPost2010Prop32
280
     0
102
RTVSPost2010PropOp32
 70
     1
102
RTVSPost2010Prop33
280
     0
102
RTVSPost2010PropOp33
 70
     1
102
RTVSPost2010Prop34
280
     0
102
RTVSPost2010PropOp34
 70
     1
102
RTVSPost2010Prop35
280
     0
102
RTVSPost2010PropOp35
 70
     1
102
RTVSPost2010Prop36
280
     0
102
RTVSPost2010PropOp36
 70
     1
102
RTVSPost2010Prop37
 90
       50
102
RTVSPost2010PropOp37
 70
     1
102
RTVSPost2010Prop38
140
0.0
102
RTVSPost2010PropOp38
 70
     1
102
RTVSPost2010Prop39
140
1.0
102
RTVSPost2010PropOp39
 70
     1
102
RTVSPost2010Prop40
 90
        0
102
RTVSPost2010PropOp40
 70
     1
102
RTVSPost2010Prop41ColorIndex
 90
       18
102
RTVSPost2010Prop41ColorRGB
 90
        0
102
RTVSPost2010PropOp41
 70
     1
102
RTVSPost2010Prop42
 90
       50
102
RTVSPost2010PropOp42
 70
     1
102
RTVSPost2010Prop43
 90
        3
102
RTVSPost2010PropOp43
 70
     1
102
RTVSPost2010Prop44ColorIndex
 90
        5
102
RTVSPost2010Prop44ColorRGB
 90
      255
102
RTVSPost2010PropOp44
 70
     1
102
RTVSPost2010Prop45
280
     0
102
RTVSPost2010PropOp45
 70
     1
102
RTVSPost2010Prop46
 90
       50
102
RTVSPost2010PropOp46
 70
     1
102
RTVSPost2010Prop47
 90
       50
102
RTVSPost2010PropOp47
 70
     1
102
RTVSPost2010Prop48
 90
       50
102
RTVSPost2010PropOp48
 70
     1
102
RTVSPost2010Prop49
280
     0
102
RTVSPost2010PropOp49
 70
     1
102
RTVSPost2010Prop50
 90
       50
102
RTVSPost2010PropOp50
 70
     1
102
RTVSPost2010Prop51ColorIndex
 90
      256
102
RTVSPost2010Prop51ColorRGB
 90
-16777216
102
RTVSPost2010PropOp51
 70
     0
102
RTVSPost2010Prop52
140
1.0
102
RTVSPost2010PropOp52
 70
     0
102
RTVSPost2010Prop53
 90
        2
102
RTVSPost2010PropOp53
 70
     1
102
RTVSPost2010Prop54
  1
strokes_ogs.tif
102
RTVSPost2010PropOp54
 70
     1
102
RTVSPost2010Prop55
280
     0
102
RTVSPost2010PropOp55
 70
     1
102
RTVSPost2010Prop56
140
1.0
102
RTVSPost2010PropOp56
 70
     1
102
RTVSPost2010Prop57
140
1.0
102
RTVSPost2010PropOp57
 70
     1
  0
XRECORD
  5
115
102
{ACAD_REACTORS
330
114
102
}
330
114
100
AcDbXrecord
280
     1
102
RTVSPost2010Prop28
280
     0
102
RTVSPost2010PropOp28
 70
     1
102
RTVSPost2010Prop29
280
     1
102
RTVSPost2010PropOp29
 70
     1
102
RTVSPost2010Prop30
280
     1
102
RTVSPost2010PropOp30
 70
     1
102
RTVSPost2010Prop31
280
     0
102
RTVSPost2010PropOp31
 70
     1
102
RTVSPost2010Prop32
280
     0
102
RTVSPost2010PropOp32
 70
     1
102
RTVSPost2010Prop33
280
     0
102
RTVSPost2010PropOp33
 70
     1
102
RTVSPost2010Prop34
280
     0
102
RTVSPost2010PropOp34
 70
     1
102
RTVSPost2010Prop35
280
     0
102
RTVSPost2010PropOp35
 70
     1
102
RTVSPost2010Prop36
280
     0
102
RTVSPost2010PropOp36
 70
     1
102
RTVSPost2010Prop37
 90
       50
102
RTVSPost2010PropOp37
 70
     1
102
RTVSPost2010Prop38
140
0.0
102
RTVSPost2010PropOp38
 70
     1
102
RTVSPost2010Prop39
140
1.0
102
RTVSPost2010PropOp39
 70
     1
102
RTVSPost2010Prop40
 90
        0
102
RTVSPost2010PropOp40
 70
     1
102
RTVSPost2010Prop41ColorIndex
 90
       18
102
RTVSPost2010Prop41ColorRGB
 90
        0
102
RTVSPost2010PropOp41
 70
     1
102
RTVSPost2010Prop42
 90
       50
102
RTVSPost2010PropOp42
 70
     1
102
RTVSPost2010Prop43
 90
        3
102
RTVSPost2010PropOp43
 70
     1
102
RTVSPost2010Prop44ColorIndex
 90
        5
102
RTVSPost2010Prop44ColorRGB
 90
      255
102
RTVSPost2010PropOp44
 70
     1
102
RTVSPost2010Prop45
280
     0
102
RTVSPost2010PropOp45
 70
     1
102
RTVSPost2010Prop46
 90
       50
102
RTVSPost2010PropOp46
 70
     1
102
RTVSPost2010Prop47
 90
       50
102
RTVSPost2010PropOp47
 70
     1
102
RTVSPost2010Prop48
 90
       50
102
RTVSPost2010PropOp48
 70
     1
102
RTVSPost2010Prop49
280
     0
102
RTVSPost2010PropOp49
 70
     1
102
RTVSPost2010Prop50
 90
       50
102
RTVSPost2010PropOp50
 70
     1
102
RTVSPost2010Prop51ColorIndex
 90
      256
102
RTVSPost2010Prop51ColorRGB
 90
-16777216
102
RTVSPost2010PropOp51
 70
     0
102
RTVSPost2010Prop52
140
1.0
102
RTVSPost2010PropOp52
 70
     0
102
RTVSPost2010Prop53
 90
        2
102
RTVSPost2010PropOp53
 70
     1
102
RTVSPost2010Prop54
  1
strokes_ogs.tif
102
RTVSPost2010PropOp54
 70
     1
102
RTVSPost2010Prop55
280
     0
102
RTVSPost2010PropOp55
 70
     1
102
RTVSPost2010Prop56
140
1.0
102
RTVSPost2010PropOp56
 70
     1
102
RTVSPost2010Prop57
140
1.0
102
RTVSPost2010PropOp57
 70
     1
  0
XRECORD
  5
117
102
{ACAD_REACTORS
330
116
102
}
330
116
100
AcDbXrecord
280
     1
102
RTVSPost2010Prop28
280
     0
102
RTVSPost2010PropOp28
 70
     1
102
RTVSPost2010Prop29
280
     1
102
RTVSPost2010PropOp29
 70
     1
102
RTVSPost2010Prop30
280
     1
102
RTVSPost2010PropOp30
 70
     1
102
RTVSPost2010Prop31
280
     0
102
RTVSPost2010PropOp31
 70
     1
102
RTVSPost2010Prop32
280
     0
102
RTVSPost2010PropOp32
 70
     1
102
RTVSPost2010Prop33
280
     0
102
RTVSPost2010PropOp33
 70
     1
102
RTVSPost2010Prop34
280
     0
102
RTVSPost2010PropOp34
 70
     1
102
RTVSPost2010Prop35
280
     0
102
RTVSPost2010PropOp35
 70
     1
102
RTVSPost2010Prop36
280
     0
102
RTVSPost2010PropOp36
 70
     1
102
RTVSPost2010Prop37
 90
       50
102
RTVSPost2010PropOp37
 70
     1
102
RTVSPost2010Prop38
140
0.0
102
RTVSPost2010PropOp38
 70
     1
102
RTVSPost2010Prop39
140
1.0
102
RTVSPost2010PropOp39
 70
     1
102
RTVSPost2010Prop40
 90
        0
102
RTVSPost2010PropOp40
 70
     1
102
RTVSPost2010Prop41ColorIndex
 90
       18
102
RTVSPost2010Prop41ColorRGB
 90
        0
102
RTVSPost2010PropOp41
 70
     1
102
RTVSPost2010Prop42
 90
       50
102
RTVSPost2010PropOp42
 70
     1
102
RTVSPost2010Prop43
 90
        3
102
RTVSPost2010PropOp43
 70
     1
102
RTVSPost2010Prop44ColorIndex
 90
        5
102
RTVSPost2010Prop44ColorRGB
 90
      255
102
RTVSPost2010PropOp44
 70
     1
102
RTVSPost2010Prop45
280
     0
102
RTVSPost2010PropOp45
 70
     1
102
RTVSPost2010Prop46
 90
       50
102
RTVSPost2010PropOp46
 70
     1
102
RTVSPost2010Prop47
 90
       50
102
RTVSPost2010PropOp47
 70
     1
102
RTVSPost2010Prop48
 90
       50
102
RTVSPost2010PropOp48
 70
     1
102
RTVSPost2010Prop49
280
     0
102
RTVSPost2010PropOp49
 70
     1
102
RTVSPost2010Prop50
 90
       50
102
RTVSPost2010PropOp50
 70
     1
102
RTVSPost2010Prop51ColorIndex
 90
      256
102
RTVSPost2010Prop51ColorRGB
 90
-16777216
102
RTVSPost2010PropOp51
 70
     0
102
RTVSPost2010Prop52
140
1.0
102
RTVSPost2010PropOp52
 70
     0
102
RTVSPost2010Prop53
 90
        2
102
RTVSPost2010PropOp53
 70
     1
102
RTVSPost2010Prop54
  1
strokes_ogs.tif
102
RTVSPost2010PropOp54
 70
     1
102
RTVSPost2010Prop55
280
     0
102
RTVSPost2010PropOp55
 70
     1
102
RTVSPost2010Prop56
140
1.0
102
RTVSPost2010PropOp56
 70
     1
102
RTVSPost2010Prop57
140
1.0
102
RTVSPost2010PropOp57
 70
     1
  0
XRECORD
  5
11F
102
{ACAD_REACTORS
330
11E
102
}
330
11E
100
AcDbXrecord
280
     1
102
RTVSPost2010Prop28
280
     0
102
RTVSPost2010PropOp28
 70
     1
102
RTVSPost2010Prop29
280
     1
102
RTVSPost2010PropOp29
 70
     1
102
RTVSPost2010Prop30
280
     1
102
RTVSPost2010PropOp30
 70
     1
102
RTVSPost2010Prop31
280
     0
102
RTVSPost2010PropOp31
 70
     1
102
RTVSPost2010Prop32
280
     0
102
RTVSPost2010PropOp32
 70
     1
102
RTVSPost2010Prop33
280
     0
102
RTVSPost2010PropOp33
 70
     1
102
RTVSPost2010Prop34
280
     0
102
RTVSPost2010PropOp34
 70
     1
102
RTVSPost2010Prop35
280
     0
102
RTVSPost2010PropOp35
 70
     1
102
RTVSPost2010Prop36
280
     0
102
RTVSPost2010PropOp36
 70
     1
102
RTVSPost2010Prop37
 90
       50
102
RTVSPost2010PropOp37
 70
     1
102
RTVSPost2010Prop38
140
0.0
102
RTVSPost2010PropOp38
 70
     1
102
RTVSPost2010Prop39
140
1.0
102
RTVSPost2010PropOp39
 70
     1
102
RTVSPost2010Prop40
 90
        0
102
RTVSPost2010PropOp40
 70
     1
102
RTVSPost2010Prop41ColorIndex
 90
       18
102
RTVSPost2010Prop41ColorRGB
 90
        0
102
RTVSPost2010PropOp41
 70
     1
102
RTVSPost2010Prop42
 90
       50
102
RTVSPost2010PropOp42
 70
     1
102
RTVSPost2010Prop43
 90
        3
102
RTVSPost2010PropOp43
 70
     1
102
RTVSPost2010Prop44ColorIndex
 90
        5
102
RTVSPost2010Prop44ColorRGB
 90
      255
102
RTVSPost2010PropOp44
 70
     1
102
RTVSPost2010Prop45
280
     0
102
RTVSPost2010PropOp45
 70
     1
102
RTVSPost2010Prop46
 90
       50
102
RTVSPost2010PropOp46
 70
     1
102
RTVSPost2010Prop47
 90
       50
102
RTVSPost2010PropOp47
 70
     1
102
RTVSPost2010Prop48
 90
       50
102
RTVSPost2010PropOp48
 70
     1
102
RTVSPost2010Prop49
280
     0
102
RTVSPost2010PropOp49
 70
     1
102
RTVSPost2010Prop50
 90
       50
102
RTVSPost2010PropOp50
 70
     1
102
RTVSPost2010Prop51ColorIndex
 90
      256
102
RTVSPost2010Prop51ColorRGB
 90
-16777216
102
RTVSPost2010PropOp51
 70
     0
102
RTVSPost2010Prop52
140
1.0
102
RTVSPost2010PropOp52
 70
     0
102
RTVSPost2010Prop53
 90
        2
102
RTVSPost2010PropOp53
 70
     1
102
RTVSPost2010Prop54
  1
strokes_ogs.tif
102
RTVSPost2010PropOp54
 70
     1
102
RTVSPost2010Prop55
280
     0
102
RTVSPost2010PropOp55
 70
     1
102
RTVSPost2010Prop56
140
1.0
102
RTVSPost2010PropOp56
 70
     1
102
RTVSPost2010Prop57
140
1.0
102
RTVSPost2010PropOp57
 70
     1
  0
XRECORD
  5
13B
102
{ACAD_REACTORS
330
13A
102
}
330
13A
100
AcDbXrecord
280
     1
102
RTVSPost2010Prop28
280
     0
102
RTVSPost2010PropOp28
 70
     0
102
RTVSPost2010Prop29
280
     1
102
RTVSPost2010PropOp29
 70
     0
102
RTVSPost2010Prop30
280
     1
102
RTVSPost2010PropOp30
 70
     0
102
RTVSPost2010Prop31
280
     0
102
RTVSPost2010PropOp31
 70
     0
102
RTVSPost2010Prop32
280
     0
102
RTVSPost2010PropOp32
 70
     0
102
RTVSPost2010Prop33
280
     0
102
RTVSPost2010PropOp33
 70
     0
102
RTVSPost2010Prop34
280
     0
102
RTVSPost2010PropOp34
 70
     0
102
RTVSPost2010Prop35
280
     0
102
RTVSPost2010PropOp35
 70
     0
102
RTVSPost2010Prop36
280
     0
102
RTVSPost2010PropOp36
 70
     0
102
RTVSPost2010Prop37
 90
       50
102
RTVSPost2010PropOp37
 70
     0
102
RTVSPost2010Prop38
140
0.0
102
RTVSPost2010PropOp38
 70
     0
102
RTVSPost2010Prop39
140
1.0
102
RTVSPost2010PropOp39
 70
     0
102
RTVSPost2010Prop40
 90
        0
102
RTVSPost2010PropOp40
 70
     0
102
RTVSPost2010Prop41ColorIndex
 90
       18
102
RTVSPost2010Prop41ColorRGB
 90
        0
102
RTVSPost2010PropOp41
 70
     0
102
RTVSPost2010Prop42
 90
       50
102
RTVSPost2010PropOp42
 70
     0
102
RTVSPost2010Prop43
 90
        3
102
RTVSPost2010PropOp43
 70
     0
102
RTVSPost2010Prop44ColorIndex
 90
        5
102
RTVSPost2010Prop44ColorRGB
 90
      255
102
RTVSPost2010PropOp44
 70
     0
102
RTVSPost2010Prop45
280
     0
102
RTVSPost2010PropOp45
 70
     0
102
RTVSPost2010Prop46
 90
       50
102
RTVSPost2010PropOp46
 70
     0
102
RTVSPost2010Prop47
 90
       50
102
RTVSPost2010PropOp47
 70
     0
102
RTVSPost2010Prop48
 90
       50
102
RTVSPost2010PropOp48
 70
     0
102
RTVSPost2010Prop49
280
     0
102
RTVSPost2010PropOp49
 70
     0
102
RTVSPost2010Prop50
 90
       50
102
RTVSPost2010PropOp50
 70
     0
102
RTVSPost2010Prop51ColorIndex
 90
      256
102
RTVSPost2010Prop51ColorRGB
 90
-16777216
102
RTVSPost2010PropOp51
 70
     0
102
RTVSPost2010Prop52
140
1.0
102
RTVSPost2010PropOp52
 70
     0
102
RTVSPost2010Prop53
 90
        2
102
RTVSPost2010PropOp53
 70
     0
102
RTVSPost2010Prop54
  1
strokes_ogs.tif
102
RTVSPost2010PropOp54
 70
     0
102
RTVSPost2010Prop55
280
     0
102
RTVSPost2010PropOp55
 70
     0
102
RTVSPost2010Prop56
140
1.0
102
RTVSPost2010PropOp56
 70
     0
102
RTVSPost2010Prop57
140
1.0
102
RTVSPost2010PropOp57
 70
     0
  0
XRECORD
  5
12B
102
{ACAD_REACTORS
330
12A
102
}
330
12A
100
AcDbXrecord
280
     1
102
RTVSPost2010Prop28
280
     0
102
RTVSPost2010PropOp28
 70
     1
102
RTVSPost2010Prop29
280
     1
102
RTVSPost2010PropOp29
 70
     1
102
RTVSPost2010Prop30
280
     1
102
RTVSPost2010PropOp30
 70
     1
102
RTVSPost2010Prop31
280
     0
102
RTVSPost2010PropOp31
 70
     1
102
RTVSPost2010Prop32
280
     0
102
RTVSPost2010PropOp32
 70
     1
102
RTVSPost2010Prop33
280
     0
102
RTVSPost2010PropOp33
 70
     1
102
RTVSPost2010Prop34
280
     0
102
RTVSPost2010PropOp34
 70
     1
102
RTVSPost2010Prop35
280
     0
102
RTVSPost2010PropOp35
 70
     1
102
RTVSPost2010Prop36
280
     0
102
RTVSPost2010PropOp36
 70
     1
102
RTVSPost2010Prop37
 90
       50
102
RTVSPost2010PropOp37
 70
     1
102
RTVSPost2010Prop38
140
0.0
102
RTVSPost2010PropOp38
 70
     1
102
RTVSPost2010Prop39
140
1.0
102
RTVSPost2010PropOp39
 70
     1
102
RTVSPost2010Prop40
 90
        0
102
RTVSPost2010PropOp40
 70
     1
102
RTVSPost2010Prop41ColorIndex
 90
       18
102
RTVSPost2010Prop41ColorRGB
 90
        0
102
RTVSPost2010PropOp41
 70
     1
102
RTVSPost2010Prop42
 90
       50
102
RTVSPost2010PropOp42
 70
     1
102
RTVSPost2010Prop43
 90
        3
102
RTVSPost2010PropOp43
 70
     1
102
RTVSPost2010Prop44ColorIndex
 90
        5
102
RTVSPost2010Prop44ColorRGB
 90
      255
102
RTVSPost2010PropOp44
 70
     1
102
RTVSPost2010Prop45
280
     0
102
RTVSPost2010PropOp45
 70
     1
102
RTVSPost2010Prop46
 90
       50
102
RTVSPost2010PropOp46
 70
     1
102
RTVSPost2010Prop47
 90
       50
102
RTVSPost2010PropOp47
 70
     1
102
RTVSPost2010Prop48
 90
       50
102
RTVSPost2010PropOp48
 70
     1
102
RTVSPost2010Prop49
280
     0
102
RTVSPost2010PropOp49
 70
     1
102
RTVSPost2010Prop50
 90
       50
102
RTVSPost2010PropOp50
 70
     1
102
RTVSPost2010Prop51ColorIndex
 90
      256
102
RTVSPost2010Prop51ColorRGB
 90
-16777216
102
RTVSPost2010PropOp51
 70
     0
102
RTVSPost2010Prop52
140
1.0
102
RTVSPost2010PropOp52
 70
     0
102
RTVSPost2010Prop53
 90
        2
102
RTVSPost2010PropOp53
 70
     1
102
RTVSPost2010Prop54
  1
strokes_ogs.tif
102
RTVSPost2010PropOp54
 70
     1
102
RTVSPost2010Prop55
280
     0
102
RTVSPost2010PropOp55
 70
     1
102
RTVSPost2010Prop56
140
1.0
102
RTVSPost2010PropOp56
 70
     1
102
RTVSPost2010Prop57
140
1.0
102
RTVSPost2010PropOp57
 70
     1
  0
XRECORD
  5
13D
102
{ACAD_REACTORS
330
13C
102
}
330
13C
100
AcDbXrecord
280
     1
102
RTVSPost2010Prop28
280
     0
102
RTVSPost2010PropOp28
 70
     0
102
RTVSPost2010Prop29
280
     1
102
RTVSPost2010PropOp29
 70
     0
102
RTVSPost2010Prop30
280
     1
102
RTVSPost2010PropOp30
 70
     0
102
RTVSPost2010Prop31
280
     0
102
RTVSPost2010PropOp31
 70
     0
102
RTVSPost2010Prop32
280
     0
102
RTVSPost2010PropOp32
 70
     0
102
RTVSPost2010Prop33
280
     0
102
RTVSPost2010PropOp33
 70
     0
102
RTVSPost2010Prop34
280
     0
102
RTVSPost2010PropOp34
 70
     0
102
RTVSPost2010Prop35
280
     0
102
RTVSPost2010PropOp35
 70
     0
102
RTVSPost2010Prop36
280
     0
102
RTVSPost2010PropOp36
 70
     0
102
RTVSPost2010Prop37
 90
       50
102
RTVSPost2010PropOp37
 70
     0
102
RTVSPost2010Prop38
140
0.0
102
RTVSPost2010PropOp38
 70
     0
102
RTVSPost2010Prop39
140
1.0
102
RTVSPost2010PropOp39
 70
     0
102
RTVSPost2010Prop40
 90
        0
102
RTVSPost2010PropOp40
 70
     0
102
RTVSPost2010Prop41ColorIndex
 90
       18
102
RTVSPost2010Prop41ColorRGB
 90
        0
102
RTVSPost2010PropOp41
 70
     0
102
RTVSPost2010Prop42
 90
       50
102
RTVSPost2010PropOp42
 70
     0
102
RTVSPost2010Prop43
 90
        3
102
RTVSPost2010PropOp43
 70
     0
102
RTVSPost2010Prop44ColorIndex
 90
        5
102
RTVSPost2010Prop44ColorRGB
 90
      255
102
RTVSPost2010PropOp44
 70
     0
102
RTVSPost2010Prop45
280
     0
102
RTVSPost2010PropOp45
 70
     0
102
RTVSPost2010Prop46
 90
       50
102
RTVSPost2010PropOp46
 70
     0
102
RTVSPost2010Prop47
 90
       50
102
RTVSPost2010PropOp47
 70
     0
102
RTVSPost2010Prop48
 90
       50
102
RTVSPost2010PropOp48
 70
     0
102
RTVSPost2010Prop49
280
     0
102
RTVSPost2010PropOp49
 70
     0
102
RTVSPost2010Prop50
 90
       50
102
RTVSPost2010PropOp50
 70
     0
102
RTVSPost2010Prop51ColorIndex
 90
      256
102
RTVSPost2010Prop51ColorRGB
 90
-16777216
102
RTVSPost2010PropOp51
 70
     0
102
RTVSPost2010Prop52
140
1.0
102
RTVSPost2010PropOp52
 70
     0
102
RTVSPost2010Prop53
 90
        2
102
RTVSPost2010PropOp53
 70
     0
102
RTVSPost2010Prop54
  1
strokes_ogs.tif
102
RTVSPost2010PropOp54
 70
     0
102
RTVSPost2010Prop55
280
     0
102
RTVSPost2010PropOp55
 70
     0
102
RTVSPost2010Prop56
140
1.0
102
RTVSPost2010PropOp56
 70
     0
102
RTVSPost2010Prop57
140
1.0
102
RTVSPost2010PropOp57
 70
     0
  0
XRECORD
  5
123
102
{ACAD_REACTORS
330
122
102
}
330
122
100
AcDbXrecord
280
     1
102
RTVSPost2010Prop28
280
     0
102
RTVSPost2010PropOp28
 70
     1
102
RTVSPost2010Prop29
280
     1
102
RTVSPost2010PropOp29
 70
     1
102
RTVSPost2010Prop30
280
     1
102
RTVSPost2010PropOp30
 70
     1
102
RTVSPost2010Prop31
280
     0
102
RTVSPost2010PropOp31
 70
     1
102
RTVSPost2010Prop32
280
     0
102
RTVSPost2010PropOp32
 70
     1
102
RTVSPost2010Prop33
280
     0
102
RTVSPost2010PropOp33
 70
     1
102
RTVSPost2010Prop34
280
     0
102
RTVSPost2010PropOp34
 70
     1
102
RTVSPost2010Prop35
280
     0
102
RTVSPost2010PropOp35
 70
     1
102
RTVSPost2010Prop36
280
     0
102
RTVSPost2010PropOp36
 70
     1
102
RTVSPost2010Prop37
 90
       50
102
RTVSPost2010PropOp37
 70
     1
102
RTVSPost2010Prop38
140
0.0
102
RTVSPost2010PropOp38
 70
     1
102
RTVSPost2010Prop39
140
1.0
102
RTVSPost2010PropOp39
 70
     1
102
RTVSPost2010Prop40
 90
        0
102
RTVSPost2010PropOp40
 70
     1
102
RTVSPost2010Prop41ColorIndex
 90
       18
102
RTVSPost2010Prop41ColorRGB
 90
        0
102
RTVSPost2010PropOp41
 70
     1
102
RTVSPost2010Prop42
 90
       50
102
RTVSPost2010PropOp42
 70
     1
102
RTVSPost2010Prop43
 90
        3
102
RTVSPost2010PropOp43
 70
     1
102
RTVSPost2010Prop44ColorIndex
 90
        5
102
RTVSPost2010Prop44ColorRGB
 90
      255
102
RTVSPost2010PropOp44
 70
     1
102
RTVSPost2010Prop45
280
     0
102
RTVSPost2010PropOp45
 70
     1
102
RTVSPost2010Prop46
 90
       50
102
RTVSPost2010PropOp46
 70
     1
102
RTVSPost2010Prop47
 90
       50
102
RTVSPost2010PropOp47
 70
     1
102
RTVSPost2010Prop48
 90
       50
102
RTVSPost2010PropOp48
 70
     1
102
RTVSPost2010Prop49
280
     0
102
RTVSPost2010PropOp49
 70
     1
102
RTVSPost2010Prop50
 90
       50
102
RTVSPost2010PropOp50
 70
     1
102
RTVSPost2010Prop51ColorIndex
 90
      256
102
RTVSPost2010Prop51ColorRGB
 90
-16777216
102
RTVSPost2010PropOp51
 70
     0
102
RTVSPost2010Prop52
140
1.0
102
RTVSPost2010PropOp52
 70
     0
102
RTVSPost2010Prop53
 90
        2
102
RTVSPost2010PropOp53
 70
     1
102
RTVSPost2010Prop54
  1
strokes_ogs.tif
102
RTVSPost2010PropOp54
 70
     1
102
RTVSPost2010Prop55
280
     0
102
RTVSPost2010PropOp55
 70
     1
102
RTVSPost2010Prop56
140
1.0
102
RTVSPost2010PropOp56
 70
     1
102
RTVSPost2010Prop57
140
1.0
102
RTVSPost2010PropOp57
 70
     1
  0
XRECORD
  5
139
102
{ACAD_REACTORS
330
138
102
}
330
138
100
AcDbXrecord
280
     1
102
RTVSPost2010Prop28
280
     0
102
RTVSPost2010PropOp28
 70
     1
102
RTVSPost2010Prop29
280
     1
102
RTVSPost2010PropOp29
 70
     1
102
RTVSPost2010Prop30
280
     1
102
RTVSPost2010PropOp30
 70
     1
102
RTVSPost2010Prop31
280
     0
102
RTVSPost2010PropOp31
 70
     1
102
RTVSPost2010Prop32
280
     0
102
RTVSPost2010PropOp32
 70
     1
102
RTVSPost2010Prop33
280
     0
102
RTVSPost2010PropOp33
 70
     1
102
RTVSPost2010Prop34
280
     0
102
RTVSPost2010PropOp34
 70
     1
102
RTVSPost2010Prop35
280
     0
102
RTVSPost2010PropOp35
 70
     1
102
RTVSPost2010Prop36
280
     0
102
RTVSPost2010PropOp36
 70
     1
102
RTVSPost2010Prop37
 90
       50
102
RTVSPost2010PropOp37
 70
     1
102
RTVSPost2010Prop38
140
0.0
102
RTVSPost2010PropOp38
 70
     1
102
RTVSPost2010Prop39
140
1.0
102
RTVSPost2010PropOp39
 70
     1
102
RTVSPost2010Prop40
 90
        0
102
RTVSPost2010PropOp40
 70
     1
102
RTVSPost2010Prop41ColorIndex
 90
       18
102
RTVSPost2010Prop41ColorRGB
 90
        0
102
RTVSPost2010PropOp41
 70
     1
102
RTVSPost2010Prop42
 90
       50
102
RTVSPost2010PropOp42
 70
     1
102
RTVSPost2010Prop43
 90
        3
102
RTVSPost2010PropOp43
 70
     1
102
RTVSPost2010Prop44ColorIndex
 90
        5
102
RTVSPost2010Prop44ColorRGB
 90
      255
102
RTVSPost2010PropOp44
 70
     1
102
RTVSPost2010Prop45
280
     0
102
RTVSPost2010PropOp45
 70
     1
102
RTVSPost2010Prop46
 90
       50
102
RTVSPost2010PropOp46
 70
     1
102
RTVSPost2010Prop47
 90
       50
102
RTVSPost2010PropOp47
 70
     1
102
RTVSPost2010Prop48
 90
       50
102
RTVSPost2010PropOp48
 70
     1
102
RTVSPost2010Prop49
280
     0
102
RTVSPost2010PropOp49
 70
     1
102
RTVSPost2010Prop50
 90
       50
102
RTVSPost2010PropOp50
 70
     1
102
RTVSPost2010Prop51ColorIndex
 90
      256
102
RTVSPost2010Prop51ColorRGB
 90
-16777216
102
RTVSPost2010PropOp51
 70
     0
102
RTVSPost2010Prop52
140
1.0
102
RTVSPost2010PropOp52
 70
     0
102
RTVSPost2010Prop53
 90
        2
102
RTVSPost2010PropOp53
 70
     1
102
RTVSPost2010Prop54
  1
strokes_ogs.tif
102
RTVSPost2010PropOp54
 70
     1
102
RTVSPost2010Prop55
280
     0
102
RTVSPost2010PropOp55
 70
     1
102
RTVSPost2010Prop56
140
1.0
102
RTVSPost2010PropOp56
 70
     1
102
RTVSPost2010Prop57
140
1.0
102
RTVSPost2010PropOp57
 70
     1
  0
XRECORD
  5
137
102
{ACAD_REACTORS
330
136
102
}
330
136
100
AcDbXrecord
280
     1
102
RTVSPost2010Prop28
280
     0
102
RTVSPost2010PropOp28
 70
     1
102
RTVSPost2010Prop29
280
     1
102
RTVSPost2010PropOp29
 70
     1
102
RTVSPost2010Prop30
280
     1
102
RTVSPost2010PropOp30
 70
     1
102
RTVSPost2010Prop31
280
     0
102
RTVSPost2010PropOp31
 70
     1
102
RTVSPost2010Prop32
280
     0
102
RTVSPost2010PropOp32
 70
     1
102
RTVSPost2010Prop33
280
     0
102
RTVSPost2010PropOp33
 70
     1
102
RTVSPost2010Prop34
280
     0
102
RTVSPost2010PropOp34
 70
     1
102
RTVSPost2010Prop35
280
     0
102
RTVSPost2010PropOp35
 70
     1
102
RTVSPost2010Prop36
280
     0
102
RTVSPost2010PropOp36
 70
     1
102
RTVSPost2010Prop37
 90
       50
102
RTVSPost2010PropOp37
 70
     1
102
RTVSPost2010Prop38
140
0.0
102
RTVSPost2010PropOp38
 70
     1
102
RTVSPost2010Prop39
140
1.0
102
RTVSPost2010PropOp39
 70
     1
102
RTVSPost2010Prop40
 90
        0
102
RTVSPost2010PropOp40
 70
     1
102
RTVSPost2010Prop41ColorIndex
 90
       18
102
RTVSPost2010Prop41ColorRGB
 90
        0
102
RTVSPost2010PropOp41
 70
     1
102
RTVSPost2010Prop42
 90
       50
102
RTVSPost2010PropOp42
 70
     1
102
RTVSPost2010Prop43
 90
        3
102
RTVSPost2010PropOp43
 70
     1
102
RTVSPost2010Prop44ColorIndex
 90
        5
102
RTVSPost2010Prop44ColorRGB
 90
      255
102
RTVSPost2010PropOp44
 70
     1
102
RTVSPost2010Prop45
280
     0
102
RTVSPost2010PropOp45
 70
     1
102
RTVSPost2010Prop46
 90
       50
102
RTVSPost2010PropOp46
 70
     1
102
RTVSPost2010Prop47
 90
       50
102
RTVSPost2010PropOp47
 70
     1
102
RTVSPost2010Prop48
 90
       50
102
RTVSPost2010PropOp48
 70
     1
102
RTVSPost2010Prop49
280
     0
102
RTVSPost2010PropOp49
 70
     1
102
RTVSPost2010Prop50
 90
       50
102
RTVSPost2010PropOp50
 70
     1
102
RTVSPost2010Prop51ColorIndex
 90
      256
102
RTVSPost2010Prop51ColorRGB
 90
-16777216
102
RTVSPost2010PropOp51
 70
     0
102
RTVSPost2010Prop52
140
1.0
102
RTVSPost2010PropOp52
 70
     0
102
RTVSPost2010Prop53
 90
        2
102
RTVSPost2010PropOp53
 70
     1
102
RTVSPost2010Prop54
  1
strokes_ogs.tif
102
RTVSPost2010PropOp54
 70
     1
102
RTVSPost2010Prop55
280
     0
102
RTVSPost2010PropOp55
 70
     1
102
RTVSPost2010Prop56
140
1.0
102
RTVSPost2010PropOp56
 70
     1
102
RTVSPost2010Prop57
140
1.0
102
RTVSPost2010PropOp57
 70
     1
  0
XRECORD
  5
131
102
{ACAD_REACTORS
330
130
102
}
330
130
100
AcDbXrecord
280
     1
102
RTVSPost2010Prop28
280
     0
102
RTVSPost2010PropOp28
 70
     1
102
RTVSPost2010Prop29
280
     1
102
RTVSPost2010PropOp29
 70
     1
102
RTVSPost2010Prop30
280
     1
102
RTVSPost2010PropOp30
 70
     1
102
RTVSPost2010Prop31
280
     0
102
RTVSPost2010PropOp31
 70
     1
102
RTVSPost2010Prop32
280
     0
102
RTVSPost2010PropOp32
 70
     1
102
RTVSPost2010Prop33
280
     0
102
RTVSPost2010PropOp33
 70
     1
102
RTVSPost2010Prop34
280
     0
102
RTVSPost2010PropOp34
 70
     1
102
RTVSPost2010Prop35
280
     0
102
RTVSPost2010PropOp35
 70
     1
102
RTVSPost2010Prop36
280
     0
102
RTVSPost2010PropOp36
 70
     1
102
RTVSPost2010Prop37
 90
       50
102
RTVSPost2010PropOp37
 70
     1
102
RTVSPost2010Prop38
140
0.0
102
RTVSPost2010PropOp38
 70
     1
102
RTVSPost2010Prop39
140
1.0
102
RTVSPost2010PropOp39
 70
     1
102
RTVSPost2010Prop40
 90
        0
102
RTVSPost2010PropOp40
 70
     1
102
RTVSPost2010Prop41ColorIndex
 90
       18
102
RTVSPost2010Prop41ColorRGB
 90
        0
102
RTVSPost2010PropOp41
 70
     1
102
RTVSPost2010Prop42
 90
       50
102
RTVSPost2010PropOp42
 70
     1
102
RTVSPost2010Prop43
 90
        3
102
RTVSPost2010PropOp43
 70
     1
102
RTVSPost2010Prop44ColorIndex
 90
        5
102
RTVSPost2010Prop44ColorRGB
 90
      255
102
RTVSPost2010PropOp44
 70
     1
102
RTVSPost2010Prop45
280
     0
102
RTVSPost2010PropOp45
 70
     1
102
RTVSPost2010Prop46
 90
       50
102
RTVSPost2010PropOp46
 70
     1
102
RTVSPost2010Prop47
 90
       50
102
RTVSPost2010PropOp47
 70
     1
102
RTVSPost2010Prop48
 90
       50
102
RTVSPost2010PropOp48
 70
     1
102
RTVSPost2010Prop49
280
     0
102
RTVSPost2010PropOp49
 70
     1
102
RTVSPost2010Prop50
 90
       50
102
RTVSPost2010PropOp50
 70
     1
102
RTVSPost2010Prop51ColorIndex
 90
      256
102
RTVSPost2010Prop51ColorRGB
 90
-16777216
102
RTVSPost2010PropOp51
 70
     0
102
RTVSPost2010Prop52
140
1.0
102
RTVSPost2010PropOp52
 70
     0
102
RTVSPost2010Prop53
 90
        2
102
RTVSPost2010PropOp53
 70
     1
102
RTVSPost2010Prop54
  1
strokes_ogs.tif
102
RTVSPost2010PropOp54
 70
     1
102
RTVSPost2010Prop55
280
     0
102
RTVSPost2010PropOp55
 70
     1
102
RTVSPost2010Prop56
140
1.0
102
RTVSPost2010PropOp56
 70
     1
102
RTVSPost2010Prop57
140
1.0
102
RTVSPost2010PropOp57
 70
     1
  0
XRECORD
  5
133
102
{ACAD_REACTORS
330
132
102
}
330
132
100
AcDbXrecord
280
     1
102
RTVSPost2010Prop28
280
     0
102
RTVSPost2010PropOp28
 70
     1
102
RTVSPost2010Prop29
280
     1
102
RTVSPost2010PropOp29
 70
     1
102
RTVSPost2010Prop30
280
     1
102
RTVSPost2010PropOp30
 70
     1
102
RTVSPost2010Prop31
280
     0
102
RTVSPost2010PropOp31
 70
     1
102
RTVSPost2010Prop32
280
     0
102
RTVSPost2010PropOp32
 70
     1
102
RTVSPost2010Prop33
280
     0
102
RTVSPost2010PropOp33
 70
     1
102
RTVSPost2010Prop34
280
     0
102
RTVSPost2010PropOp34
 70
     1
102
RTVSPost2010Prop35
280
     0
102
RTVSPost2010PropOp35
 70
     1
102
RTVSPost2010Prop36
280
     0
102
RTVSPost2010PropOp36
 70
     1
102
RTVSPost2010Prop37
 90
       50
102
RTVSPost2010PropOp37
 70
     1
102
RTVSPost2010Prop38
140
0.0
102
RTVSPost2010PropOp38
 70
     1
102
RTVSPost2010Prop39
140
1.0
102
RTVSPost2010PropOp39
 70
     1
102
RTVSPost2010Prop40
 90
        0
102
RTVSPost2010PropOp40
 70
     1
102
RTVSPost2010Prop41ColorIndex
 90
       18
102
RTVSPost2010Prop41ColorRGB
 90
        0
102
RTVSPost2010PropOp41
 70
     1
102
RTVSPost2010Prop42
 90
       50
102
RTVSPost2010PropOp42
 70
     1
102
RTVSPost2010Prop43
 90
        3
102
RTVSPost2010PropOp43
 70
     1
102
RTVSPost2010Prop44ColorIndex
 90
        5
102
RTVSPost2010Prop44ColorRGB
 90
      255
102
RTVSPost2010PropOp44
 70
     1
102
RTVSPost2010Prop45
280
     0
102
RTVSPost2010PropOp45
 70
     1
102
RTVSPost2010Prop46
 90
       50
102
RTVSPost2010PropOp46
 70
     1
102
RTVSPost2010Prop47
 90
       50
102
RTVSPost2010PropOp47
 70
     1
102
RTVSPost2010Prop48
 90
       50
102
RTVSPost2010PropOp48
 70
     1
102
RTVSPost2010Prop49
280
     0
102
RTVSPost2010PropOp49
 70
     1
102
RTVSPost2010Prop50
 90
       50
102
RTVSPost2010PropOp50
 70
     1
102
RTVSPost2010Prop51ColorIndex
 90
      256
102
RTVSPost2010Prop51ColorRGB
 90
-16777216
102
RTVSPost2010PropOp51
 70
     0
102
RTVSPost2010Prop52
140
1.0
102
RTVSPost2010PropOp52
 70
     0
102
RTVSPost2010Prop53
 90
        2
102
RTVSPost2010PropOp53
 70
     1
102
RTVSPost2010Prop54
  1
strokes_ogs.tif
102
RTVSPost2010PropOp54
 70
     1
102
RTVSPost2010Prop55
280
     0
102
RTVSPost2010PropOp55
 70
     1
102
RTVSPost2010Prop56
140
1.0
102
RTVSPost2010PropOp56
 70
     1
102
RTVSPost2010Prop57
140
1.0
102
RTVSPost2010PropOp57
 70
     1
  0
XRECORD
  5
129
102
{ACAD_REACTORS
330
128
102
}
330
128
100
AcDbXrecord
280
     1
102
RTVSPost2010Prop28
280
     0
102
RTVSPost2010PropOp28
 70
     1
102
RTVSPost2010Prop29
280
     1
102
RTVSPost2010PropOp29
 70
     1
102
RTVSPost2010Prop30
280
     1
102
RTVSPost2010PropOp30
 70
     1
102
RTVSPost2010Prop31
280
     0
102
RTVSPost2010PropOp31
 70
     1
102
RTVSPost2010Prop32
280
     0
102
RTVSPost2010PropOp32
 70
     1
102
RTVSPost2010Prop33
280
     0
102
RTVSPost2010PropOp33
 70
     1
102
RTVSPost2010Prop34
280
     0
102
RTVSPost2010PropOp34
 70
     1
102
RTVSPost2010Prop35
280
     0
102
RTVSPost2010PropOp35
 70
     1
102
RTVSPost2010Prop36
280
     0
102
RTVSPost2010PropOp36
 70
     1
102
RTVSPost2010Prop37
 90
       50
102
RTVSPost2010PropOp37
 70
     1
102
RTVSPost2010Prop38
140
0.0
102
RTVSPost2010PropOp38
 70
     1
102
RTVSPost2010Prop39
140
1.0
102
RTVSPost2010PropOp39
 70
     1
102
RTVSPost2010Prop40
 90
        0
102
RTVSPost2010PropOp40
 70
     1
102
RTVSPost2010Prop41ColorIndex
 90
       18
102
RTVSPost2010Prop41ColorRGB
 90
        0
102
RTVSPost2010PropOp41
 70
     1
102
RTVSPost2010Prop42
 90
       50
102
RTVSPost2010PropOp42
 70
     1
102
RTVSPost2010Prop43
 90
        3
102
RTVSPost2010PropOp43
 70
     1
102
RTVSPost2010Prop44ColorIndex
 90
        5
102
RTVSPost2010Prop44ColorRGB
 90
      255
102
RTVSPost2010PropOp44
 70
     1
102
RTVSPost2010Prop45
280
     0
102
RTVSPost2010PropOp45
 70
     1
102
RTVSPost2010Prop46
 90
       50
102
RTVSPost2010PropOp46
 70
     1
102
RTVSPost2010Prop47
 90
       50
102
RTVSPost2010PropOp47
 70
     1
102
RTVSPost2010Prop48
 90
       50
102
RTVSPost2010PropOp48
 70
     1
102
RTVSPost2010Prop49
280
     0
102
RTVSPost2010PropOp49
 70
     1
102
RTVSPost2010Prop50
 90
       50
102
RTVSPost2010PropOp50
 70
     1
102
RTVSPost2010Prop51ColorIndex
 90
      256
102
RTVSPost2010Prop51ColorRGB
 90
-16777216
102
RTVSPost2010PropOp51
 70
     0
102
RTVSPost2010Prop52
140
1.0
102
RTVSPost2010PropOp52
 70
     0
102
RTVSPost2010Prop53
 90
        2
102
RTVSPost2010PropOp53
 70
     1
102
RTVSPost2010Prop54
  1
strokes_ogs.tif
102
RTVSPost2010PropOp54
 70
     1
102
RTVSPost2010Prop55
280
     0
102
RTVSPost2010PropOp55
 70
     1
102
RTVSPost2010Prop56
140
1.0
102
RTVSPost2010PropOp56
 70
     1
102
RTVSPost2010Prop57
140
1.0
102
RTVSPost2010PropOp57
 70
     1
  0
XRECORD
  5
11D
102
{ACAD_REACTORS
330
11C
102
}
330
11C
100
AcDbXrecord
280
     1
102
RTVSPost2010Prop28
280
     0
102
RTVSPost2010PropOp28
 70
     1
102
RTVSPost2010Prop29
280
     1
102
RTVSPost2010PropOp29
 70
     1
102
RTVSPost2010Prop30
280
     1
102
RTVSPost2010PropOp30
 70
     1
102
RTVSPost2010Prop31
280
     0
102
RTVSPost2010PropOp31
 70
     1
102
RTVSPost2010Prop32
280
     0
102
RTVSPost2010PropOp32
 70
     1
102
RTVSPost2010Prop33
280
     0
102
RTVSPost2010PropOp33
 70
     1
102
RTVSPost2010Prop34
280
     0
102
RTVSPost2010PropOp34
 70
     1
102
RTVSPost2010Prop35
280
     0
102
RTVSPost2010PropOp35
 70
     1
102
RTVSPost2010Prop36
280
     0
102
RTVSPost2010PropOp36
 70
     1
102
RTVSPost2010Prop37
 90
       50
102
RTVSPost2010PropOp37
 70
     1
102
RTVSPost2010Prop38
140
0.0
102
RTVSPost2010PropOp38
 70
     1
102
RTVSPost2010Prop39
140
1.0
102
RTVSPost2010PropOp39
 70
     1
102
RTVSPost2010Prop40
 90
        0
102
RTVSPost2010PropOp40
 70
     1
102
RTVSPost2010Prop41ColorIndex
 90
       18
102
RTVSPost2010Prop41ColorRGB
 90
        0
102
RTVSPost2010PropOp41
 70
     1
102
RTVSPost2010Prop42
 90
       50
102
RTVSPost2010PropOp42
 70
     1
102
RTVSPost2010Prop43
 90
        3
102
RTVSPost2010PropOp43
 70
     1
102
RTVSPost2010Prop44ColorIndex
 90
        5
102
RTVSPost2010Prop44ColorRGB
 90
      255
102
RTVSPost2010PropOp44
 70
     1
102
RTVSPost2010Prop45
280
     0
102
RTVSPost2010PropOp45
 70
     1
102
RTVSPost2010Prop46
 90
       50
102
RTVSPost2010PropOp46
 70
     1
102
RTVSPost2010Prop47
 90
       50
102
RTVSPost2010PropOp47
 70
     1
102
RTVSPost2010Prop48
 90
       50
102
RTVSPost2010PropOp48
 70
     1
102
RTVSPost2010Prop49
280
     0
102
RTVSPost2010PropOp49
 70
     1
102
RTVSPost2010Prop50
 90
       50
102
RTVSPost2010PropOp50
 70
     1
102
RTVSPost2010Prop51ColorIndex
 90
      256
102
RTVSPost2010Prop51ColorRGB
 90
-16777216
102
RTVSPost2010PropOp51
 70
     0
102
RTVSPost2010Prop52
140
1.0
102
RTVSPost2010PropOp52
 70
     0
102
RTVSPost2010Prop53
 90
        2
102
RTVSPost2010PropOp53
 70
     1
102
RTVSPost2010Prop54
  1
strokes_ogs.tif
102
RTVSPost2010PropOp54
 70
     1
102
RTVSPost2010Prop55
280
     0
102
RTVSPost2010PropOp55
 70
     1
102
RTVSPost2010Prop56
140
1.0
102
RTVSPost2010PropOp56
 70
     1
102
RTVSPost2010Prop57
140
1.0
102
RTVSPost2010PropOp57
 70
     1
  0
XRECORD
  5
135
102
{ACAD_REACTORS
330
134
102
}
330
134
100
AcDbXrecord
280
     1
102
RTVSPost2010Prop28
280
     0
102
RTVSPost2010PropOp28
 70
     1
102
RTVSPost2010Prop29
280
     1
102
RTVSPost2010PropOp29
 70
     1
102
RTVSPost2010Prop30
280
     1
102
RTVSPost2010PropOp30
 70
     1
102
RTVSPost2010Prop31
280
     0
102
RTVSPost2010PropOp31
 70
     1
102
RTVSPost2010Prop32
280
     0
102
RTVSPost2010PropOp32
 70
     1
102
RTVSPost2010Prop33
280
     0
102
RTVSPost2010PropOp33
 70
     1
102
RTVSPost2010Prop34
280
     0
102
RTVSPost2010PropOp34
 70
     1
102
RTVSPost2010Prop35
280
     0
102
RTVSPost2010PropOp35
 70
     1
102
RTVSPost2010Prop36
280
     0
102
RTVSPost2010PropOp36
 70
     1
102
RTVSPost2010Prop37
 90
       50
102
RTVSPost2010PropOp37
 70
     1
102
RTVSPost2010Prop38
140
0.0
102
RTVSPost2010PropOp38
 70
     1
102
RTVSPost2010Prop39
140
1.0
102
RTVSPost2010PropOp39
 70
     1
102
RTVSPost2010Prop40
 90
        0
102
RTVSPost2010PropOp40
 70
     1
102
RTVSPost2010Prop41ColorIndex
 90
       18
102
RTVSPost2010Prop41ColorRGB
 90
        0
102
RTVSPost2010PropOp41
 70
     1
102
RTVSPost2010Prop42
 90
       50
102
RTVSPost2010PropOp42
 70
     1
102
RTVSPost2010Prop43
 90
        3
102
RTVSPost2010PropOp43
 70
     1
102
RTVSPost2010Prop44ColorIndex
 90
        5
102
RTVSPost2010Prop44ColorRGB
 90
      255
102
RTVSPost2010PropOp44
 70
     1
102
RTVSPost2010Prop45
280
     0
102
RTVSPost2010PropOp45
 70
     1
102
RTVSPost2010Prop46
 90
       50
102
RTVSPost2010PropOp46
 70
     1
102
RTVSPost2010Prop47
 90
       50
102
RTVSPost2010PropOp47
 70
     1
102
RTVSPost2010Prop48
 90
       50
102
RTVSPost2010PropOp48
 70
     1
102
RTVSPost2010Prop49
280
     0
102
RTVSPost2010PropOp49
 70
     1
102
RTVSPost2010Prop50
 90
       50
102
RTVSPost2010PropOp50
 70
     1
102
RTVSPost2010Prop51ColorIndex
 90
      256
102
RTVSPost2010Prop51ColorRGB
 90
-16777216
102
RTVSPost2010PropOp51
 70
     0
102
RTVSPost2010Prop52
140
1.0
102
RTVSPost2010PropOp52
 70
     0
102
RTVSPost2010Prop53
 90
        2
102
RTVSPost2010PropOp53
 70
     1
102
RTVSPost2010Prop54
  1
strokes_ogs.tif
102
RTVSPost2010PropOp54
 70
     1
102
RTVSPost2010Prop55
280
     0
102
RTVSPost2010PropOp55
 70
     1
102
RTVSPost2010Prop56
140
1.0
102
RTVSPost2010PropOp56
 70
     1
102
RTVSPost2010Prop57
140
1.0
102
RTVSPost2010PropOp57
 70
     1
  0
ENDSEC
  0
EOF
