  0
SECTION
  2
HEADER
  9
$ACADVER
  1
AC1024
  9
$ACADMAINTVER
 70
     6
  9
$DWGCODEPAGE
  3
UNDEFINED
  9
$INSBASE
 10
0.0
 20
0.0
 30
0.0
  9
$EXTMIN
 10
1.000000000000000E+20
 20
1.000000000000000E+20
 30
1.000000000000000E+20
  9
$EXTMAX
 10
-1.000000000000000E+20
 20
-1.000000000000000E+20
 30
-1.000000000000000E+20
  9
$LIMMIN
 10
0.0
 20
0.0
  9
$LIMMAX
 10
12.0
 20
9.0
  9
$ORTHOMODE
 70
     0
  9
$REGENMODE
 70
     1
  9
$FILLMODE
 70
     1
  9
$QTEXTMODE
 70
     0
  9
$MIRRTEXT
 70
     1
  9
$LTSCALE
 40
1.0
  9
$ATTMODE
 70
     1
  9
$TEXTSIZE
 40
0.2
  9
$TRACEWID
 40
0.05
  9
$TEXTSTYLE
  7
Standard
  9
$CLAYER
  8
0
  9
$CELTYPE
  6
ByLayer
  9
$CECOLOR
 62
   256
  9
$CELTSCALE
 40
1.0
  9
$DISPSILH
 70
     0
  9
$DIMSCALE
 40
1.0
  9
$DIMASZ
 40
0.18
  9
$DIMEXO
 40
0.0625
  9
$DIMDLI
 40
0.38
  9
$DIMRND
 40
0.0
  9
$DIMDLE
 40
0.0
  9
$DIMEXE
 40
0.18
  9
$DIMTP
 40
0.0
  9
$DIMTM
 40
0.0
  9
$DIMTXT
 40
0.18
  9
$DIMCEN
 40
0.09
  9
$DIMTSZ
 40
0.0
  9
$DIMTOL
 70
     0
  9
$DIMLIM
 70
     0
  9
$DIMTIH
 70
     1
  9
$DIMTOH
 70
     1
  9
$DIMSE1
 70
     0
  9
$DIMSE2
 70
     0
  9
$DIMTAD
 70
     0
  9
$DIMZIN
 70
     0
  9
$DIMBLK
  1

  9
$DIMASO
 70
     1
  9
$DIMSHO
 70
     1
  9
$DIMPOST
  1

  9
$DIMAPOST
  1

  9
$DIMALT
 70
     0
  9
$DIMALTD
 70
     2
  9
$DIMALTF
 40
25.4
  9
$DIMLFAC
 40
1.0
  9
$DIMTOFL
 70
     0
  9
$DIMTVP
 40
0.0
  9
$DIMTIX
 70
     0
  9
$DIMSOXD
 70
     0
  9
$DIMSAH
 70
     0
  9
$DIMBLK1
  1

  9
$DIMBLK2
  1

  9
$DIMSTYLE
  2
Standard
  9
$DIMCLRD
 70
     0
  9
$DIMCLRE
 70
     0
  9
$DIMCLRT
 70
     0
  9
$DIMTFAC
 40
1.0
  9
$DIMGAP
 40
0.09
  9
$DIMJUST
 70
     0
  9
$DIMSD1
 70
     0
  9
$DIMSD2
 70
     0
  9
$DIMTOLJ
 70
     1
  9
$DIMTZIN
 70
     0
  9
$DIMALTZ
 70
     0
  9
$DIMALTTZ
 70
     0
  9
$DIMUPT
 70
     0
  9
$DIMDEC
 70
     4
  9
$DIMTDEC
 70
     4
  9
$DIMALTU
 70
     2
  9
$DIMALTTD
 70
     2
  9
$DIMTXSTY
  7
Standard
  9
$DIMAUNIT
 70
     0
  9
$DIMADEC
 70
     0
  9
$DIMALTRND
 40
0.0
  9
$DIMAZIN
 70
     0
  9
$DIMDSEP
 70
    46
  9
$DIMATFIT
 70
     3
  9
$DIMFRAC
 70
     0
  9
$DIMLDRBLK
  1

  9
$DIMLUNIT
 70
     2
  9
$DIMLWD
 70
    -2
  9
$DIMLWE
 70
    -2
  9
$DIMTMOVE
 70
     0
  9
$DIMFXL
 40
1.0
  9
$DIMFXLON
 70
     0
  9
$DIMJOGANG
 40
0.7853981633974483
  9
$DIMTFILL
 70
     0
  9
$DIMTFILLCLR
 70
     0
  9
$DIMARCSYM
 70
     0
  9
$DIMLTYPE
  6

  9
$DIMLTEX1
  6

  9
$DIMLTEX2
  6

  9
$DIMTXTDIRECTION
 70
     0
  9
$LUNITS
 70
     2
  9
$LUPREC
 70
     4
  9
$SKETCHINC
 40
0.1
  9
$FILLETRAD
 40
0.5
  9
$AUNITS
 70
     0
  9
$AUPREC
 70
     0
  9
$MENU
  1
.
  9
$ELEVATION
 40
0.0
  9
$PELEVATION
 40
0.0
  9
$THICKNESS
 40
0.0
  9
$LIMCHECK
 70
     0
  9
$CHAMFERA
 40
0.5
  9
$CHAMFERB
 40
0.5
  9
$CHAMFERC
 40
1.0
  9
$CHAMFERD
 40
0.0
  9
$SKPOLY
 70
     0
  9
$TDCREATE
 40
2457917.587291667
  9
$TDUCREATE
 40
2457917.212291667
  9
$TDUPDATE
 40
2457917.587291667
  9
$TDUUPDATE
 40
2457917.212291667
  9
$TDINDWG
 40
0.0000000116
  9
$TDUSRTIMER
 40
0.0000000116
  9
$USRTIMER
 70
     1
  9
$ANGBASE
 50
0.0
  9
$ANGDIR
 70
     0
  9
$PDMODE
 70
     0
  9
$PDSIZE
 40
0.0
  9
$PLINEWID
 40
0.0
  9
$SPLFRAME
 70
     0
  9
$SPLINETYPE
 70
     6
  9
$SPLINESEGS
 70
     8
  9
$HANDSEED
  5
FE
  9
$SURFTAB1
 70
     6
  9
$SURFTAB2
 70
     6
  9
$SURFTYPE
 70
     6
  9
$SURFU
 70
     6
  9
$SURFV
 70
     6
  9
$UCSBASE
  2

  9
$UCSNAME
  2

  9
$UCSORG
 10
0.0
 20
0.0
 30
0.0
  9
$UCSXDIR
 10
1.0
 20
0.0
 30
0.0
  9
$UCSYDIR
 10
0.0
 20
1.0
 30
0.0
  9
$UCSORTHOREF
  2

  9
$UCSORTHOVIEW
 70
     0
  9
$UCSORGTOP
 10
0.0
 20
0.0
 30
0.0
  9
$UCSORGBOTTOM
 10
0.0
 20
0.0
 30
0.0
  9
$UCSORGLEFT
 10
0.0
 20
0.0
 30
0.0
  9
$UCSORGRIGHT
 10
0.0
 20
0.0
 30
0.0
  9
$UCSORGFRONT
 10
0.0
 20
0.0
 30
0.0
  9
$UCSORGBACK
 10
0.0
 20
0.0
 30
0.0
  9
$PUCSBASE
  2

  9
$PUCSNAME
  2

  9
$PUCSORG
 10
0.0
 20
0.0
 30
0.0
  9
$PUCSXDIR
 10
1.0
 20
0.0
 30
0.0
  9
$PUCSYDIR
 10
0.0
 20
1.0
 30
0.0
  9
$PUCSORTHOREF
  2

  9
$PUCSORTHOVIEW
 70
     0
  9
$PUCSORGTOP
 10
0.0
 20
0.0
 30
0.0
  9
$PUCSORGBOTTOM
 10
0.0
 20
0.0
 30
0.0
  9
$PUCSORGLEFT
 10
0.0
 20
0.0
 30
0.0
  9
$PUCSORGRIGHT
 10
0.0
 20
0.0
 30
0.0
  9
$PUCSORGFRONT
 10
0.0
 20
0.0
 30
0.0
  9
$PUCSORGBACK
 10
0.0
 20
0.0
 30
0.0
  9
$USERI1
 70
     0
  9
$USERI2
 70
     0
  9
$USERI3
 70
     0
  9
$USERI4
 70
     0
  9
$USERI5
 70
     0
  9
$USERR1
 40
0.0
  9
$USERR2
 40
0.0
  9
$USERR3
 40
0.0
  9
$USERR4
 40
0.0
  9
$USERR5
 40
0.0
  9
$WORLDVIEW
 70
     1
  9
$SHADEDGE
 70
     3
  9
$SHADEDIF
 70
    70
  9
$TILEMODE
 70
     1
  9
$MAXACTVP
 70
    64
  9
$PINSBASE
 10
0.0
 20
0.0
 30
0.0
  9
$PLIMCHECK
 70
     0
  9
$PEXTMIN
 10
1.000000000000000E+20
 20
1.000000000000000E+20
 30
1.000000000000000E+20
  9
$PEXTMAX
 10
-1.000000000000000E+20
 20
-1.000000000000000E+20
 30
-1.000000000000000E+20
  9
$PLIMMIN
 10
0.0
 20
0.0
  9
$PLIMMAX
 10
12.0
 20
9.0
  9
$UNITMODE
 70
     0
  9
$VISRETAIN
 70
     1
  9
$PLINEGEN
 70
     0
  9
$PSLTSCALE
 70
     1
  9
$TREEDEPTH
 70
  3020
  9
$CMLSTYLE
  2
Standard
  9
$CMLJUST
 70
     0
  9
$CMLSCALE
 40
1.0
  9
$PROXYGRAPHICS
 70
     1
  9
$MEASUREMENT
 70
     0
  9
$CELWEIGHT
370
    -1
  9
$ENDCAPS
280
     0
  9
$JOINSTYLE
280
     0
  9
$LWDISPLAY
290
     1
  9
$INSUNITS
 70
     1
  9
$HYPERLINKBASE
  1

  9
$STYLESHEET
  1

  9
$XEDIT
290
     1
  9
$CEPSNTYPE
380
     0
  9
$PSTYLEMODE
290
     1
  9
$FINGERPRINTGUID
  2
{E34BD25C-4C81-26C8-C484-F24822D58D9C}
  9
$VERSIONGUID
  2
{FAEB1C32-E019-11D5-929B-00C0DF256EC4}
  9
$EXTNAMES
290
     1
  9
$PSVPSCALE
 40
0.0
  9
$OLESTARTUP
290
     0
  9
$SORTENTS
280
   127
  9
$INDEXCTL
280
     0
  9
$HIDETEXT
280
     1
  9
$XCLIPFRAME
280
     2
  9
$HALOGAP
280
     0
  9
$OBSCOLOR
 70
   257
  9
$OBSLTYPE
280
     0
  9
$INTERSECTIONDISPLAY
280
     0
  9
$INTERSECTIONCOLOR
 70
   257
  9
$DIMASSOC
280
     2
  9
$PROJECTNAME
  1

  9
$CAMERADISPLAY
290
     0
  9
$LENSLENGTH
 40
50.0
  9
$CAMERAHEIGHT
 40
0.0
  9
$STEPSPERSEC
 40
2.0
  9
$STEPSIZE
 40
6.0
  9
$3DDWFPREC
 40
2.0
  9
$PSOLWIDTH
 40
0.25
  9
$PSOLHEIGHT
 40
4.0
  9
$LOFTANG1
 40
1.570796326794897
  9
$LOFTANG2
 40
1.570796326794897
  9
$LOFTMAG1
 40
0.0
  9
$LOFTMAG2
 40
0.0
  9
$LOFTPARAM
 70
     7
  9
$LOFTNORMALS
280
     1
  9
$LATITUDE
 40
37.795
  9
$LONGITUDE
 40
-122.394
  9
$NORTHDIRECTION
 40
0.0
  9
$TIMEZONE
 70
 -8000
  9
$LIGHTGLYPHDISPLAY
280
     1
  9
$TILEMODELIGHTSYNCH
280
     1
  9
$CMATERIAL
347
3C
  9
$SOLIDHIST
280
     1
  9
$SHOWHIST
280
     1
  9
$DWFFRAME
280
     2
  9
$DGNFRAME
280
     2
  9
$REALWORLDSCALE
290
     1
  9
$INTERFERECOLOR
 62
   256
  9
$CSHADOW
280
     0
  9
$SHADOWPLANELOCATION
 40
0.0
  0
ENDSEC
  0
SECTION
  2
CLASSES
  0
CLASS
  1
ACDBDICTIONARYWDFLT
  2
AcDbDictionaryWithDefault
  3
ObjectDBX Classes
 90
        0
 91
        4
280
     0
281
     0
  0
CLASS
  1
VISUALSTYLE
  2
AcDbVisualStyle
  3
ObjectDBX Classes
 90
     4095
 91
        4
280
     0
281
     0
  0
CLASS
  1
MATERIAL
  2
AcDbMaterial
  3
ObjectDBX Classes
 90
     1153
 91
        4
280
     0
281
     0
  0
CLASS
  1
SUN
  2
AcDbSun
  3
SCENEOE
 90
     1024
 91
        4
280
     0
281
     0
  0
ENDSEC
  0
SECTION
  2
TABLES
  0
TABLE
  2
VPORT
  5
8
330
0
100
AcDbSymbolTable
 70
     1
  0
VPORT
  5
29
330
8
100
AcDbSymbolTableRecord
100
AcDbViewportTableRecord
  2
*Active
 70
     0
 10
0.0
 20
0.0
 11
1.0
 21
1.0
 12
0.0
 22
0.0
 13
0.0
 23
0.0
 14
0.5
 24
0.5
 15
0.5
 25
0.5
 16
0.0
 26
0.0
 36
1.0
 17
105.0008280156501
 27
-148.4999710739862
 37
0.0
 40
296.9999421479724
 41
0.7070764206636528
 42
50.0
 43
0.0
 44
0.0
 50
0.0
 51
0.0
 71
     0
 72
   100
 73
     1
 74
     3
 75
     0
 76
     0
 77
     0
 78
     0
281
     0
 65
     1
110
0.0
120
0.0
130
0.0
111
1.0
121
0.0
131
0.0
112
0.0
122
1.0
132
0.0
 79
     0
146
0.0
 60
     3
 61
     5
292
     1
282
     1
141
0.0
142
0.0
 63
   250
361
3F
  0
ENDTAB
  0
TABLE
  2
LTYPE
  5
5
330
0
100
AcDbSymbolTable
 70
     1
  0
LTYPE
  5
14
330
5
100
AcDbSymbolTableRecord
100
AcDbLinetypeTableRecord
  2
ByBlock
 70
     0
  3

 72
    65
 73
     0
 40
0.0
  0
LTYPE
  5
15
330
5
100
AcDbSymbolTableRecord
100
AcDbLinetypeTableRecord
  2
ByLayer
 70
     0
  3

 72
    65
 73
     0
 40
0.0
  0
LTYPE
  5
16
330
5
100
AcDbSymbolTableRecord
100
AcDbLinetypeTableRecord
  2
Continuous
 70
     0
  3
Solid line
 72
    65
 73
     0
 40
0.0
  0
ENDTAB
  0
TABLE
  2
LAYER
  5
2
330
0
100
AcDbSymbolTable
 70
     2
  0
LAYER
  5
10
330
2
100
AcDbSymbolTableRecord
100
AcDbLayerTableRecord
  2
0
 70
     0
 62
     7
  6
Continuous
370
    -3
390
F
347
3E
  0
LAYER
  5
40
330
2
100
AcDbSymbolTableRecord
100
AcDbLayerTableRecord
  2
_U+30EC_U+30A4_U+30E4_U+30FC 1
 70
     0
 62
     7
  6
Continuous
370
    -3
390
F
347
3E
  0
ENDTAB
  0
TABLE
  2
STYLE
  5
3
330
0
100
AcDbSymbolTable
 70
     1
  0
STYLE
  5
11
330
3
100
AcDbSymbolTableRecord
100
AcDbTextStyleTableRecord
  2
Standard
 70
     0
 40
0.0
 41
1.0
 50
0.0
 71
     0
 42
0.2
  3
txt
  4

  0
ENDTAB
  0
TABLE
  2
VIEW
  5
6
330
0
100
AcDbSymbolTable
 70
     0
  0
ENDTAB
  0
TABLE
  2
UCS
  5
7
330
0
100
AcDbSymbolTable
 70
     0
  0
ENDTAB
  0
TABLE
  2
APPID
  5
9
330
0
100
AcDbSymbolTable
 70
     1
  0
APPID
  5
12
330
9
100
AcDbSymbolTableRecord
100
AcDbRegAppTableRecord
  2
ACAD
 70
     0
  0
ENDTAB
  0
TABLE
  2
DIMSTYLE
  5
A
330
0
100
AcDbSymbolTable
 70
     1
100
AcDbDimStyleTable
  0
DIMSTYLE
105
27
330
A
100
AcDbSymbolTableRecord
100
AcDbDimStyleTableRecord
  2
Standard
 70
     0
178
     0
340
11
  0
ENDTAB
  0
TABLE
  2
BLOCK_RECORD
  5
1
330
0
100
AcDbSymbolTable
 70
     6
  0
BLOCK_RECORD
  5
1F
330
1
100
AcDbSymbolTableRecord
100
AcDbBlockTableRecord
  2
*Model_Space
340
22
 70
     0
280
     1
281
     0
  0
BLOCK_RECORD
  5
1B
330
1
100
AcDbSymbolTableRecord
100
AcDbBlockTableRecord
  2
*Paper_Space
340
1E
 70
     0
280
     1
281
     0
  0
BLOCK_RECORD
  5
23
330
1
100
AcDbSymbolTableRecord
100
AcDbBlockTableRecord
  2
*Paper_Space0
340
26
 70
     0
280
     1
281
     0
  0
BLOCK_RECORD
  5
71
330
1
100
AcDbSymbolTableRecord
100
AcDbBlockTableRecord
  2
block 2
340
0
102
{BLKREFS
331
72
102
}
 70
     0
280
     1
281
     0
  0
BLOCK_RECORD
  5
89
330
1
100
AcDbSymbolTableRecord
100
AcDbBlockTableRecord
  2
block 3
340
0
102
{BLKREFS
331
8A
102
}
 70
     0
280
     1
281
     0
  0
BLOCK_RECORD
  5
BD
330
1
100
AcDbSymbolTableRecord
100
AcDbBlockTableRecord
  2
block 4
340
0
102
{BLKREFS
331
BE
102
}
 70
     0
280
     1
281
     0
  0
BLOCK_RECORD
  5
D5
330
1
100
AcDbSymbolTableRecord
100
AcDbBlockTableRecord
  2
block 5
340
0
102
{BLKREFS
331
D6
102
}
 70
     0
280
     1
281
     0
  0
BLOCK_RECORD
  5
F3
330
1
100
AcDbSymbolTableRecord
100
AcDbBlockTableRecord
  2
block 6
340
0
102
{BLKREFS
331
F4
102
}
 70
     0
280
     1
281
     0
  0
ENDTAB
  0
ENDSEC
  0
SECTION
  2
BLOCKS
  0
BLOCK
  5
20
330
1F
100
AcDbEntity
  8
0
100
AcDbBlockBegin
  2
*Model_Space
 70
     0
 10
0.0
 20
0.0
 30
0.0
  3
*Model_Space
  1

  0
ENDBLK
  5
21
330
1F
100
AcDbEntity
  8
0
100
AcDbBlockEnd
  0
BLOCK
  5
1C
330
1B
100
AcDbEntity
 67
     1
  8
0
100
AcDbBlockBegin
  2
*Paper_Space
 70
     0
 10
0.0
 20
0.0
 30
0.0
  3
*Paper_Space
  1

  0
ENDBLK
  5
1D
330
1B
100
AcDbEntity
 67
     1
  8
0
100
AcDbBlockEnd
  0
BLOCK
  5
24
330
23
100
AcDbEntity
  8
0
100
AcDbBlockBegin
  2
*Paper_Space0
 70
     0
 10
0.0
 20
0.0
 30
0.0
  3
*Paper_Space0
  1

  0
ENDBLK
  5
25
330
23
100
AcDbEntity
  8
0
100
AcDbBlockEnd
  0
BLOCK
  5
73
330
71
100
AcDbEntity
  8
0
100
AcDbBlockBegin
  2
block 2
 70
     0
 10
0.0
 20
0.0
 30
0.0
  3
block 2
  1

  0
SPLINE
  5
75
330
71
100
AcDbEntity
  8
_U+30EC_U+30A4_U+30E4_U+30FC 1
370
     0
100
AcDbSpline
210
0.0
220
0.0
230
1.0
 70
    11
 71
     3
 72
    26
 73
    22
 74
     0
 42
0.0000000001
 43
0.0000000001
 12
1.0
 22
0.0
 32
0.0
 13
1.0
 23
0.0
 33
0.0
 40
0.0
 40
0.0
 40
0.0
 40
0.0
 40
1.0
 40
1.0
 40
1.0
 40
2.0
 40
2.0
 40
2.0
 40
3.0
 40
3.0
 40
3.0
 40
4.0
 40
4.0
 40
4.0
 40
5.0
 40
5.0
 40
5.0
 40
6.0
 40
6.0
 40
6.0
 40
7.0
 40
7.0
 40
7.0
 40
7.0
 10
108.9111816133972
 20
-156.6664062108334
 30
0.0
 10
108.9111816133972
 20
-156.6664062108334
 30
0.0
 10
108.9111816133972
 20
-155.5622531078108
 30
0.0
 10
108.9111816133972
 20
-155.5622531078108
 30
0.0
 10
108.9111816133972
 20
-155.5622531078108
 30
0.0
 10
108.6293728027038
 20
-155.5622531078108
 30
0.0
 10
108.6293728027038
 20
-155.5622531078108
 30
0.0
 10
108.6293728027038
 20
-155.5622531078108
 30
0.0
 10
108.6293728027038
 20
-155.4141140019451
 30
0.0
 10
108.6293728027038
 20
-155.4141140019451
 30
0.0
 10
108.9125596515913
 20
-155.3993000913585
 30
0.0
 10
108.9525227592202
 20
-155.2363470749062
 30
0.0
 10
108.977327446714
 20
-155.1219699047959
 30
0.0
 10
108.977327446714
 20
-155.1219699047959
 30
0.0
 10
109.10203990328
 20
-155.1219699047959
 30
0.0
 10
109.10203990328
 20
-155.1219699047959
 30
0.0
 10
109.10203990328
 20
-155.1219699047959
 30
0.0
 10
109.10203990328
 20
-156.6664062108334
 30
0.0
 10
109.10203990328
 20
-156.6664062108334
 30
0.0
 10
109.10203990328
 20
-156.6664062108334
 30
0.0
 10
108.9111816133972
 20
-156.6664062108334
 30
0.0
 10
108.9111816133972
 20
-156.6664062108334
 30
0.0
  0
HATCH
  5
76
330
71
100
AcDbEntity
  8
_U+30EC_U+30A4_U+30E4_U+30FC 1
 62
   179
420
  2234388
100
AcDbHatch
 10
0.0
 20
0.0
 30
0.0
210
0.0
220
0.0
230
1.0
  2
SOLID
 70
     1
 71
     0
 91
        1
 92
        1
 93
        1
 72
     4
 94
        3
 73
     0
 74
     1
 95
       26
 96
       22
 40
0.0
 40
0.0
 40
0.0
 40
0.0
 40
1.0
 40
1.0
 40
1.0
 40
2.0
 40
2.0
 40
2.0
 40
3.0
 40
3.0
 40
3.0
 40
4.0
 40
4.0
 40
4.0
 40
5.0
 40
5.0
 40
5.0
 40
6.0
 40
6.0
 40
6.0
 40
7.0
 40
7.0
 40
7.0
 40
7.0
 10
108.9111816133972
 20
-156.6664062108334
 10
108.9111816133972
 20
-156.6664062108334
 10
108.9111816133972
 20
-155.5622531078108
 10
108.9111816133972
 20
-155.5622531078108
 10
108.9111816133972
 20
-155.5622531078108
 10
108.6293728027038
 20
-155.5622531078108
 10
108.6293728027038
 20
-155.5622531078108
 10
108.6293728027038
 20
-155.5622531078108
 10
108.6293728027038
 20
-155.4141140019451
 10
108.6293728027038
 20
-155.4141140019451
 10
108.9125596515913
 20
-155.3993000913585
 10
108.9525227592202
 20
-155.2363470749062
 10
108.977327446714
 20
-155.1219699047959
 10
108.977327446714
 20
-155.1219699047959
 10
109.10203990328
 20
-155.1219699047959
 10
109.10203990328
 20
-155.1219699047959
 10
109.10203990328
 20
-155.1219699047959
 10
109.10203990328
 20
-156.6664062108334
 10
109.10203990328
 20
-156.6664062108334
 10
109.10203990328
 20
-156.6664062108334
 10
108.9111816133972
 20
-156.6664062108334
 10
108.9111816133972
 20
-156.6664062108334
 97
        0
 97
        0
 75
     2
 76
     1
 98
        0
  0
SPLINE
  5
77
330
71
100
AcDbEntity
  8
_U+30EC_U+30A4_U+30E4_U+30FC 1
370
     0
100
AcDbSpline
210
0.0
220
0.0
230
1.0
 70
    11
 71
     3
 72
    26
 73
    22
 74
     0
 42
0.0000000001
 43
0.0000000001
 12
1.0
 22
0.0
 32
0.0
 13
1.0
 23
0.0
 33
0.0
 40
0.0
 40
0.0
 40
0.0
 40
0.0
 40
1.0
 40
1.0
 40
1.0
 40
2.0
 40
2.0
 40
2.0
 40
3.0
 40
3.0
 40
3.0
 40
4.0
 40
4.0
 40
4.0
 40
5.0
 40
5.0
 40
5.0
 40
6.0
 40
6.0
 40
6.0
 40
7.0
 40
7.0
 40
7.0
 40
7.0
 10
109.8785644256554
 20
-156.6664062108334
 30
0.0
 10
109.8785644256554
 20
-156.6664062108334
 30
0.0
 10
109.6766818302197
 20
-156.6664062108334
 30
0.0
 10
109.6766818302197
 20
-156.6664062108334
 30
0.0
 10
109.6980414222283
 20
-156.3573811458065
 30
0.0
 10
109.8620279673262
 20
-155.8392387848249
 30
0.0
 10
110.2086045731423
 20
-155.3334987675902
 30
0.0
 10
110.2086045731423
 20
-155.3334987675902
 30
0.0
 10
109.4940917695015
 20
-155.3334987675902
 30
0.0
 10
109.4940917695015
 20
-155.3334987675902
 30
0.0
 10
109.4940917695015
 20
-155.3334987675902
 30
0.0
 10
109.4940917695015
 20
-155.1219699047959
 30
0.0
 10
109.4940917695015
 20
-155.1219699047959
 30
0.0
 10
109.4940917695015
 20
-155.1219699047959
 30
0.0
 10
110.4104871685779
 20
-155.1219699047959
 30
0.0
 10
110.4104871685779
 20
-155.1219699047959
 30
0.0
 10
110.4104871685779
 20
-155.1219699047959
 30
0.0
 10
110.4104871685779
 20
-155.3334987675902
 30
0.0
 10
110.4104871685779
 20
-155.3334987675902
 30
0.0
 10
110.134879529758
 20
-155.6235758074483
 30
0.0
 10
109.9075032277315
 20
-156.2157877213627
 30
0.0
 10
109.8785644256554
 20
-156.6664062108334
 30
0.0
  0
HATCH
  5
78
330
71
100
AcDbEntity
  8
_U+30EC_U+30A4_U+30E4_U+30FC 1
 62
   179
420
  2234388
100
AcDbHatch
 10
0.0
 20
0.0
 30
0.0
210
0.0
220
0.0
230
1.0
  2
SOLID
 70
     1
 71
     0
 91
        1
 92
        1
 93
        1
 72
     4
 94
        3
 73
     0
 74
     1
 95
       26
 96
       22
 40
0.0
 40
0.0
 40
0.0
 40
0.0
 40
1.0
 40
1.0
 40
1.0
 40
2.0
 40
2.0
 40
2.0
 40
3.0
 40
3.0
 40
3.0
 40
4.0
 40
4.0
 40
4.0
 40
5.0
 40
5.0
 40
5.0
 40
6.0
 40
6.0
 40
6.0
 40
7.0
 40
7.0
 40
7.0
 40
7.0
 10
109.8785644256554
 20
-156.6664062108334
 10
109.8785644256554
 20
-156.6664062108334
 10
109.6766818302197
 20
-156.6664062108334
 10
109.6766818302197
 20
-156.6664062108334
 10
109.6980414222283
 20
-156.3573811458065
 10
109.8620279673262
 20
-155.8392387848249
 10
110.2086045731423
 20
-155.3334987675902
 10
110.2086045731423
 20
-155.3334987675902
 10
109.4940917695015
 20
-155.3334987675902
 10
109.4940917695015
 20
-155.3334987675902
 10
109.4940917695015
 20
-155.3334987675902
 10
109.4940917695015
 20
-155.1219699047959
 10
109.4940917695015
 20
-155.1219699047959
 10
109.4940917695015
 20
-155.1219699047959
 10
110.4104871685779
 20
-155.1219699047959
 10
110.4104871685779
 20
-155.1219699047959
 10
110.4104871685779
 20
-155.1219699047959
 10
110.4104871685779
 20
-155.3334987675902
 10
110.4104871685779
 20
-155.3334987675902
 10
110.134879529758
 20
-155.6235758074483
 10
109.9075032277315
 20
-156.2157877213627
 10
109.8785644256554
 20
-156.6664062108334
 97
        0
 97
        0
 75
     2
 76
     1
 98
        0
  0
ENDBLK
  5
74
330
71
100
AcDbEntity
  8
0
100
AcDbBlockEnd
  0
BLOCK
  5
8B
330
89
100
AcDbEntity
  8
0
100
AcDbBlockBegin
  2
block 3
 70
     0
 10
0.0
 20
0.0
 30
0.0
  3
block 3
  1

  0
SPLINE
  5
8D
330
89
100
AcDbEntity
  8
_U+30EC_U+30A4_U+30E4_U+30FC 1
370
     0
100
AcDbSpline
210
0.0
220
0.0
230
1.0
 70
    11
 71
     3
 72
    29
 73
    25
 74
     0
 42
0.0000000001
 43
0.0000000001
 12
1.0
 22
0.0
 32
0.0
 13
1.0
 23
0.0
 33
0.0
 40
0.0
 40
0.0
 40
0.0
 40
0.0
 40
1.0
 40
1.0
 40
1.0
 40
2.0
 40
2.0
 40
2.0
 40
3.0
 40
3.0
 40
3.0
 40
4.0
 40
4.0
 40
4.0
 40
5.0
 40
5.0
 40
5.0
 40
6.0
 40
6.0
 40
6.0
 40
7.0
 40
7.0
 40
7.0
 40
8.0
 40
8.0
 40
8.0
 40
8.0
 10
125.0459418090163
 20
-152.9505262204429
 30
0.0
 10
125.2554036145195
 20
-153.0425102698991
 30
0.0
 10
125.2740071301398
 20
-153.1903048662163
 30
0.0
 10
125.2740071301398
 20
-153.2895236161915
 30
0.0
 10
125.2740071301398
 20
-153.4266384165045
 30
0.0
 10
125.2278428506375
 20
-153.5472167584882
 30
0.0
 10
125.0459418090163
 20
-153.6285210119401
 30
0.0
 10
124.8509494045512
 20
-153.7167154563625
 30
0.0
 10
124.613926835166
 20
-153.7332519146917
 30
0.0
 10
124.4513183282622
 20
-153.7332519146917
 30
0.0
 10
124.3073133369787
 20
-153.7332519146917
 30
0.0
 10
124.0558213665555
 20
-153.7187825136537
 30
0.0
 10
123.8566948475081
 20
-153.6285210119401
 30
0.0
 10
123.6541232329754
 20
-153.5365369624839
 30
0.0
 10
123.6306965836757
 20
-153.399422162171
 30
0.0
 10
123.6306965836757
 20
-153.2895236161915
 30
0.0
 10
123.6306965836757
 20
-153.1541313636212
 30
0.0
 10
123.6747938058869
 20
-153.0314859643463
 30
0.0
 10
123.8566948475081
 20
-152.9505262204429
 30
0.0
 10
124.049620194682
 20
-152.8657768715058
 30
0.0
 10
124.2776855158056
 20
-152.8457953176913
 30
0.0
 10
124.4513183282622
 20
-152.8457953176913
 30
0.0
 10
124.6228840834276
 20
-152.8457953176913
 30
0.0
 10
124.8530164618423
 20
-152.8640543237632
 30
0.0
 10
125.0459418090163
 20
-152.9505262204429
 30
0.0
  0
SPLINE
  5
8E
330
89
100
AcDbEntity
  8
_U+30EC_U+30A4_U+30E4_U+30FC 1
370
     0
100
AcDbSpline
210
0.0
220
0.0
230
1.0
 70
    11
 71
     3
 72
    17
 73
    13
 74
     0
 42
0.0000000001
 43
0.0000000001
 12
1.0
 22
0.0
 32
0.0
 13
1.0
 23
0.0
 33
0.0
 40
0.0
 40
0.0
 40
0.0
 40
0.0
 40
1.0
 40
1.0
 40
1.0
 40
2.0
 40
2.0
 40
2.0
 40
3.0
 40
3.0
 40
3.0
 40
4.0
 40
4.0
 40
4.0
 40
4.0
 10
123.8229329117526
 20
-153.2895236161915
 30
0.0
 10
123.8229329117526
 20
-153.50243051718
 30
0.0
 10
124.1068087797372
 20
-153.5420491152603
 30
0.0
 10
124.4513183282622
 20
-153.5420491152603
 30
0.0
 10
124.7710231892934
 20
-153.5420491152603
 30
0.0
 10
125.0797037447717
 20
-153.5113877654416
 30
0.0
 10
125.0797037447717
 20
-153.2895236161915
 30
0.0
 10
125.0797037447717
 20
-153.0783392629457
 30
0.0
 10
124.7985839531754
 20
-153.0369981171227
 30
0.0
 10
124.4513183282622
 20
-153.0369981171227
 30
0.0
 10
124.131613467231
 20
-153.0369981171227
 30
0.0
 10
123.8229329117526
 20
-153.069382014684
 30
0.0
 10
123.8229329117526
 20
-153.2895236161915
 30
0.0
  0
HATCH
  5
8F
330
89
100
AcDbEntity
  8
_U+30EC_U+30A4_U+30E4_U+30FC 1
 62
   179
420
  2234388
100
AcDbHatch
 10
0.0
 20
0.0
 30
0.0
210
0.0
220
0.0
230
1.0
  2
SOLID
 70
     1
 71
     0
 91
        2
 92
        1
 93
        1
 72
     4
 94
        3
 73
     0
 74
     1
 95
       29
 96
       25
 40
0.0
 40
0.0
 40
0.0
 40
0.0
 40
1.0
 40
1.0
 40
1.0
 40
2.0
 40
2.0
 40
2.0
 40
3.0
 40
3.0
 40
3.0
 40
4.0
 40
4.0
 40
4.0
 40
5.0
 40
5.0
 40
5.0
 40
6.0
 40
6.0
 40
6.0
 40
7.0
 40
7.0
 40
7.0
 40
8.0
 40
8.0
 40
8.0
 40
8.0
 10
125.0459418090163
 20
-152.9505262204429
 10
125.2554036145195
 20
-153.0425102698991
 10
125.2740071301398
 20
-153.1903048662163
 10
125.2740071301398
 20
-153.2895236161915
 10
125.2740071301398
 20
-153.4266384165045
 10
125.2278428506375
 20
-153.5472167584882
 10
125.0459418090163
 20
-153.6285210119401
 10
124.8509494045512
 20
-153.7167154563625
 10
124.613926835166
 20
-153.7332519146917
 10
124.4513183282622
 20
-153.7332519146917
 10
124.3073133369787
 20
-153.7332519146917
 10
124.0558213665555
 20
-153.7187825136537
 10
123.8566948475081
 20
-153.6285210119401
 10
123.6541232329754
 20
-153.5365369624839
 10
123.6306965836757
 20
-153.399422162171
 10
123.6306965836757
 20
-153.2895236161915
 10
123.6306965836757
 20
-153.1541313636212
 10
123.6747938058869
 20
-153.0314859643463
 10
123.8566948475081
 20
-152.9505262204429
 10
124.049620194682
 20
-152.8657768715058
 10
124.2776855158056
 20
-152.8457953176913
 10
124.4513183282622
 20
-152.8457953176913
 10
124.6228840834276
 20
-152.8457953176913
 10
124.8530164618423
 20
-152.8640543237632
 10
125.0459418090163
 20
-152.9505262204429
 97
        0
 97
        0
 92
        1
 93
        1
 72
     4
 94
        3
 73
     0
 74
     1
 95
       17
 96
       13
 40
0.0
 40
0.0
 40
0.0
 40
0.0
 40
1.0
 40
1.0
 40
1.0
 40
2.0
 40
2.0
 40
2.0
 40
3.0
 40
3.0
 40
3.0
 40
4.0
 40
4.0
 40
4.0
 40
4.0
 10
123.8229329117526
 20
-153.2895236161915
 10
123.8229329117526
 20
-153.50243051718
 10
124.1068087797372
 20
-153.5420491152603
 10
124.4513183282622
 20
-153.5420491152603
 10
124.7710231892934
 20
-153.5420491152603
 10
125.0797037447717
 20
-153.5113877654416
 10
125.0797037447717
 20
-153.2895236161915
 10
125.0797037447717
 20
-153.0783392629457
 10
124.7985839531754
 20
-153.0369981171227
 10
124.4513183282622
 20
-153.0369981171227
 10
124.131613467231
 20
-153.0369981171227
 10
123.8229329117526
 20
-153.069382014684
 10
123.8229329117526
 20
-153.2895236161915
 97
        0
 97
        0
 75
     2
 76
     1
 98
        0
  0
POLYLINE
  5
90
330
89
100
AcDbEntity
  8
_U+30EC_U+30A4_U+30E4_U+30FC 1
370
     0
100
AcDb2dPolyline
 66
     1
 10
0.0
 20
0.0
 30
0.0
  0
VERTEX
  5
91
330
90
100
AcDbEntity
  8
_U+30EC_U+30A4_U+30E4_U+30FC 1
370
     0
100
AcDbVertex
100
AcDb2dVertex
 10
125.2237087360552
 20
-152.6628607474246
 30
0.0
  0
VERTEX
  5
92
330
90
100
AcDbEntity
  8
_U+30EC_U+30A4_U+30E4_U+30FC 1
370
     0
100
AcDbVertex
100
AcDb2dVertex
 10
124.9715277465349
 20
-152.6628607474246
 30
0.0
  0
VERTEX
  5
93
330
90
100
AcDbEntity
  8
_U+30EC_U+30A4_U+30E4_U+30FC 1
370
     0
100
AcDbVertex
100
AcDb2dVertex
 10
124.9715277465349
 20
-152.4482312986935
 30
0.0
  0
VERTEX
  5
94
330
90
100
AcDbEntity
  8
_U+30EC_U+30A4_U+30E4_U+30FC 1
370
     0
100
AcDbVertex
100
AcDb2dVertex
 10
125.2237087360552
 20
-152.4482312986935
 30
0.0
  0
VERTEX
  5
95
330
90
100
AcDbEntity
  8
_U+30EC_U+30A4_U+30E4_U+30FC 1
370
     0
100
AcDbVertex
100
AcDb2dVertex
 10
125.2237087360552
 20
-152.6628607474246
 30
0.0
  0
SEQEND
  5
96
330
90
100
AcDbEntity
  8
_U+30EC_U+30A4_U+30E4_U+30FC 1
370
     0
  0
HATCH
  5
97
330
89
100
AcDbEntity
  8
_U+30EC_U+30A4_U+30E4_U+30FC 1
 62
   179
420
  2234388
100
AcDbHatch
 10
0.0
 20
0.0
 30
0.0
210
0.0
220
0.0
230
1.0
  2
SOLID
 70
     1
 71
     0
 91
        1
 92
        1
 93
        4
 72
     1
 10
125.2237087360552
 20
-152.6628607474246
 11
124.9715277465349
 21
-152.6628607474246
 72
     1
 10
124.9715277465349
 20
-152.6628607474246
 11
124.9715277465349
 21
-152.4482312986935
 72
     1
 10
124.9715277465349
 20
-152.4482312986935
 11
125.2237087360552
 21
-152.4482312986935
 72
     1
 10
125.2237087360552
 20
-152.4482312986935
 11
125.2237087360552
 21
-152.6628607474246
 97
        0
 75
     2
 76
     1
 98
        0
  0
POLYLINE
  5
98
330
89
100
AcDbEntity
  8
_U+30EC_U+30A4_U+30E4_U+30FC 1
370
     0
100
AcDb2dPolyline
 66
     1
 10
0.0
 20
0.0
 30
0.0
  0
VERTEX
  5
99
330
98
100
AcDbEntity
  8
_U+30EC_U+30A4_U+30E4_U+30FC 1
370
     0
100
AcDbVertex
100
AcDb2dVertex
 10
124.876443111142
 20
-151.537692561942
 30
0.0
  0
VERTEX
  5
9A
330
98
100
AcDbEntity
  8
_U+30EC_U+30A4_U+30E4_U+30FC 1
370
     0
100
AcDbVertex
100
AcDb2dVertex
 10
125.2237087360552
 20
-151.537692561942
 30
0.0
  0
VERTEX
  5
9B
330
98
100
AcDbEntity
  8
_U+30EC_U+30A4_U+30E4_U+30FC 1
370
     0
100
AcDbVertex
100
AcDb2dVertex
 10
125.2237087360552
 20
-151.7233832085969
 30
0.0
  0
VERTEX
  5
9C
330
98
100
AcDbEntity
  8
_U+30EC_U+30A4_U+30E4_U+30FC 1
370
     0
100
AcDbVertex
100
AcDb2dVertex
 10
124.876443111142
 20
-151.7233832085969
 30
0.0
  0
VERTEX
  5
9D
330
98
100
AcDbEntity
  8
_U+30EC_U+30A4_U+30E4_U+30FC 1
370
     0
100
AcDbVertex
100
AcDb2dVertex
 10
124.876443111142
 20
-152.282522205853
 30
0.0
  0
VERTEX
  5
9E
330
98
100
AcDbEntity
  8
_U+30EC_U+30A4_U+30E4_U+30FC 1
370
     0
100
AcDbVertex
100
AcDb2dVertex
 10
124.6525119046008
 20
-152.282522205853
 30
0.0
  0
VERTEX
  5
9F
330
98
100
AcDbEntity
  8
_U+30EC_U+30A4_U+30E4_U+30FC 1
370
     0
100
AcDbVertex
100
AcDb2dVertex
 10
123.6789279204692
 20
-151.703746164331
 30
0.0
  0
VERTEX
  5
A0
330
98
100
AcDbEntity
  8
_U+30EC_U+30A4_U+30E4_U+30FC 1
370
     0
100
AcDbVertex
100
AcDb2dVertex
 10
123.6789279204692
 20
-151.537692561942
 30
0.0
  0
VERTEX
  5
A1
330
98
100
AcDbEntity
  8
_U+30EC_U+30A4_U+30E4_U+30FC 1
370
     0
100
AcDbVertex
100
AcDb2dVertex
 10
124.6780056111916
 20
-151.537692561942
 30
0.0
  0
VERTEX
  5
A2
330
98
100
AcDbEntity
  8
_U+30EC_U+30A4_U+30E4_U+30FC 1
370
     0
100
AcDbVertex
100
AcDb2dVertex
 10
124.6780056111916
 20
-151.3609591635486
 30
0.0
  0
VERTEX
  5
A3
330
98
100
AcDbEntity
  8
_U+30EC_U+30A4_U+30E4_U+30FC 1
370
     0
100
AcDbVertex
100
AcDb2dVertex
 10
124.876443111142
 20
-151.3609591635486
 30
0.0
  0
VERTEX
  5
A4
330
98
100
AcDbEntity
  8
_U+30EC_U+30A4_U+30E4_U+30FC 1
370
     0
100
AcDbVertex
100
AcDb2dVertex
 10
124.876443111142
 20
-151.537692561942
 30
0.0
  0
SEQEND
  5
A5
330
98
100
AcDbEntity
  8
_U+30EC_U+30A4_U+30E4_U+30FC 1
370
     0
  0
POLYLINE
  5
A6
330
89
100
AcDbEntity
  8
_U+30EC_U+30A4_U+30E4_U+30FC 1
370
     0
100
AcDb2dPolyline
 66
     1
 10
0.0
 20
0.0
 30
0.0
  0
VERTEX
  5
A7
330
A6
100
AcDbEntity
  8
_U+30EC_U+30A4_U+30E4_U+30FC 1
370
     0
100
AcDbVertex
100
AcDb2dVertex
 10
124.0220594308
 20
-151.7233832085969
 30
0.0
  0
VERTEX
  5
A8
330
A6
100
AcDbEntity
  8
_U+30EC_U+30A4_U+30E4_U+30FC 1
370
     0
100
AcDbVertex
100
AcDb2dVertex
 10
124.6780056111916
 20
-152.1130235079787
 30
0.0
  0
VERTEX
  5
A9
330
A6
100
AcDbEntity
  8
_U+30EC_U+30A4_U+30E4_U+30FC 1
370
     0
100
AcDbVertex
100
AcDb2dVertex
 10
124.6780056111916
 20
-151.7233832085969
 30
0.0
  0
VERTEX
  5
AA
330
A6
100
AcDbEntity
  8
_U+30EC_U+30A4_U+30E4_U+30FC 1
370
     0
100
AcDbVertex
100
AcDb2dVertex
 10
124.0220594308
 20
-151.7233832085969
 30
0.0
  0
SEQEND
  5
AB
330
A6
100
AcDbEntity
  8
_U+30EC_U+30A4_U+30E4_U+30FC 1
370
     0
  0
HATCH
  5
AC
330
89
100
AcDbEntity
  8
_U+30EC_U+30A4_U+30E4_U+30FC 1
 62
   179
420
  2234388
100
AcDbHatch
 10
0.0
 20
0.0
 30
0.0
210
0.0
220
0.0
230
1.0
  2
SOLID
 70
     1
 71
     0
 91
        2
 92
        1
 93
       11
 72
     1
 10
124.876443111142
 20
-151.537692561942
 11
125.2237087360552
 21
-151.537692561942
 72
     1
 10
125.2237087360552
 20
-151.537692561942
 11
125.2237087360552
 21
-151.7233832085969
 72
     1
 10
125.2237087360552
 20
-151.7233832085969
 11
124.876443111142
 21
-151.7233832085969
 72
     1
 10
124.876443111142
 20
-151.7233832085969
 11
124.876443111142
 21
-152.282522205853
 72
     1
 10
124.876443111142
 20
-152.282522205853
 11
124.6525119046008
 21
-152.282522205853
 72
     1
 10
124.6525119046008
 20
-152.282522205853
 11
123.6789279204692
 21
-151.703746164331
 72
     1
 10
123.6789279204692
 20
-151.703746164331
 11
123.6789279204692
 21
-151.537692561942
 72
     1
 10
123.6789279204692
 20
-151.537692561942
 11
124.6780056111916
 21
-151.537692561942
 72
     1
 10
124.6780056111916
 20
-151.537692561942
 11
124.6780056111916
 21
-151.3609591635486
 72
     1
 10
124.6780056111916
 20
-151.3609591635486
 11
124.876443111142
 21
-151.3609591635486
 72
     1
 10
124.876443111142
 20
-151.3609591635486
 11
124.876443111142
 21
-151.537692561942
 97
        0
 92
        1
 93
        3
 72
     1
 10
124.0220594308
 20
-151.7233832085969
 11
124.6780056111916
 21
-152.1130235079787
 72
     1
 10
124.6780056111916
 20
-152.1130235079787
 11
124.6780056111916
 21
-151.7233832085969
 72
     1
 10
124.6780056111916
 20
-151.7233832085969
 11
124.0220594308
 21
-151.7233832085969
 97
        0
 75
     2
 76
     1
 98
        0
  0
ENDBLK
  5
8C
330
89
100
AcDbEntity
  8
0
100
AcDbBlockEnd
  0
BLOCK
  5
BF
330
BD
100
AcDbEntity
  8
0
100
AcDbBlockBegin
  2
block 4
 70
     0
 10
0.0
 20
0.0
 30
0.0
  3
block 4
  1

  0
SPLINE
  5
C1
330
BD
100
AcDbEntity
  8
_U+30EC_U+30A4_U+30E4_U+30FC 1
370
     0
100
AcDbSpline
210
0.0
220
0.0
230
1.0
 70
    11
 71
     3
 72
    26
 73
    22
 74
     0
 42
0.0000000001
 43
0.0000000001
 12
1.0
 22
0.0
 32
0.0
 13
1.0
 23
0.0
 33
0.0
 40
0.0
 40
0.0
 40
0.0
 40
0.0
 40
1.0
 40
1.0
 40
1.0
 40
2.0
 40
2.0
 40
2.0
 40
3.0
 40
3.0
 40
3.0
 40
4.0
 40
4.0
 40
4.0
 40
5.0
 40
5.0
 40
5.0
 40
6.0
 40
6.0
 40
6.0
 40
7.0
 40
7.0
 40
7.0
 40
7.0
 10
86.6951388672151
 20
-141.6061712970638
 30
0.0
 10
86.6951388672151
 20
-141.6061712970638
 30
0.0
 10
85.59081350941827
 20
-141.6061712970638
 30
0.0
 10
85.59081350941827
 20
-141.6061712970638
 30
0.0
 10
85.59081350941827
 20
-141.6061712970638
 30
0.0
 10
85.59081350941827
 20
-141.8876355982086
 30
0.0
 10
85.59081350941827
 20
-141.8876355982086
 30
0.0
 10
85.59081350941827
 20
-141.8876355982086
 30
0.0
 10
85.44267440355253
 20
-141.8876355982086
 30
0.0
 10
85.44267440355253
 20
-141.8876355982086
 30
0.0
 10
85.42803274774022
 20
-141.6044487493211
 30
0.0
 10
85.2650797312879
 20
-141.5648301512408
 30
0.0
 10
85.15087481595187
 20
-141.5396809541984
 30
0.0
 10
85.15087481595187
 20
-141.5396809541984
 30
0.0
 10
85.15087481595187
 20
-141.4149684976324
 30
0.0
 10
85.15087481595187
 20
-141.4149684976324
 30
0.0
 10
85.15087481595187
 20
-141.4149684976324
 30
0.0
 10
86.6951388672151
 20
-141.4149684976324
 30
0.0
 10
86.6951388672151
 20
-141.4149684976324
 30
0.0
 10
86.6951388672151
 20
-141.4149684976324
 30
0.0
 10
86.6951388672151
 20
-141.6061712970638
 30
0.0
 10
86.6951388672151
 20
-141.6061712970638
 30
0.0
  0
HATCH
  5
C2
330
BD
100
AcDbEntity
  8
_U+30EC_U+30A4_U+30E4_U+30FC 1
 62
   179
420
  2234388
100
AcDbHatch
 10
0.0
 20
0.0
 30
0.0
210
0.0
220
0.0
230
1.0
  2
SOLID
 70
     1
 71
     0
 91
        1
 92
        1
 93
        1
 72
     4
 94
        3
 73
     0
 74
     1
 95
       26
 96
       22
 40
0.0
 40
0.0
 40
0.0
 40
0.0
 40
1.0
 40
1.0
 40
1.0
 40
2.0
 40
2.0
 40
2.0
 40
3.0
 40
3.0
 40
3.0
 40
4.0
 40
4.0
 40
4.0
 40
5.0
 40
5.0
 40
5.0
 40
6.0
 40
6.0
 40
6.0
 40
7.0
 40
7.0
 40
7.0
 40
7.0
 10
86.6951388672151
 20
-141.6061712970638
 10
86.6951388672151
 20
-141.6061712970638
 10
85.59081350941827
 20
-141.6061712970638
 10
85.59081350941827
 20
-141.6061712970638
 10
85.59081350941827
 20
-141.6061712970638
 10
85.59081350941827
 20
-141.8876355982086
 10
85.59081350941827
 20
-141.8876355982086
 10
85.59081350941827
 20
-141.8876355982086
 10
85.44267440355253
 20
-141.8876355982086
 10
85.44267440355253
 20
-141.8876355982086
 10
85.42803274774022
 20
-141.6044487493211
 10
85.2650797312879
 20
-141.5648301512408
 10
85.15087481595187
 20
-141.5396809541984
 10
85.15087481595187
 20
-141.5396809541984
 10
85.15087481595187
 20
-141.4149684976324
 10
85.15087481595187
 20
-141.4149684976324
 10
85.15087481595187
 20
-141.4149684976324
 10
86.6951388672151
 20
-141.4149684976324
 10
86.6951388672151
 20
-141.4149684976324
 10
86.6951388672151
 20
-141.4149684976324
 10
86.6951388672151
 20
-141.6061712970638
 10
86.6951388672151
 20
-141.6061712970638
 97
        0
 97
        0
 75
     2
 76
     1
 98
        0
  0
POLYLINE
  5
C3
330
BD
100
AcDbEntity
  8
_U+30EC_U+30A4_U+30E4_U+30FC 1
370
     0
100
AcDb2dPolyline
 66
     1
 10
0.0
 20
0.0
 30
0.0
  0
VERTEX
  5
C4
330
C3
100
AcDbEntity
  8
_U+30EC_U+30A4_U+30E4_U+30FC 1
370
     0
100
AcDbVertex
100
AcDb2dVertex
 10
86.6951388672151
 20
-140.9381672824738
 30
0.0
  0
VERTEX
  5
C5
330
C3
100
AcDbEntity
  8
_U+30EC_U+30A4_U+30E4_U+30FC 1
370
     0
100
AcDbVertex
100
AcDb2dVertex
 10
86.4434746420176
 20
-140.9381672824738
 30
0.0
  0
VERTEX
  5
C6
330
C3
100
AcDbEntity
  8
_U+30EC_U+30A4_U+30E4_U+30FC 1
370
     0
100
AcDbVertex
100
AcDb2dVertex
 10
86.4434746420176
 20
-140.7235378337427
 30
0.0
  0
VERTEX
  5
C7
330
C3
100
AcDbEntity
  8
_U+30EC_U+30A4_U+30E4_U+30FC 1
370
     0
100
AcDbVertex
100
AcDb2dVertex
 10
86.6951388672151
 20
-140.7235378337427
 30
0.0
  0
VERTEX
  5
C8
330
C3
100
AcDbEntity
  8
_U+30EC_U+30A4_U+30E4_U+30FC 1
370
     0
100
AcDbVertex
100
AcDb2dVertex
 10
86.6951388672151
 20
-140.9381672824738
 30
0.0
  0
SEQEND
  5
C9
330
C3
100
AcDbEntity
  8
_U+30EC_U+30A4_U+30E4_U+30FC 1
370
     0
  0
HATCH
  5
CA
330
BD
100
AcDbEntity
  8
_U+30EC_U+30A4_U+30E4_U+30FC 1
 62
   179
420
  2234388
100
AcDbHatch
 10
0.0
 20
0.0
 30
0.0
210
0.0
220
0.0
230
1.0
  2
SOLID
 70
     1
 71
     0
 91
        1
 92
        1
 93
        4
 72
     1
 10
86.6951388672151
 20
-140.9381672824738
 11
86.4434746420176
 21
-140.9381672824738
 72
     1
 10
86.4434746420176
 20
-140.9381672824738
 11
86.4434746420176
 21
-140.7235378337427
 72
     1
 10
86.4434746420176
 20
-140.7235378337427
 11
86.6951388672151
 21
-140.7235378337427
 72
     1
 10
86.6951388672151
 20
-140.7235378337427
 11
86.6951388672151
 21
-140.9381672824738
 97
        0
 75
     2
 76
     1
 98
        0
  0
SPLINE
  5
CB
330
BD
100
AcDbEntity
  8
_U+30EC_U+30A4_U+30E4_U+30FC 1
370
     0
100
AcDbSpline
210
0.0
220
0.0
230
1.0
 70
    11
 71
     3
 72
    26
 73
    22
 74
     0
 42
0.0000000001
 43
0.0000000001
 12
1.0
 22
0.0
 32
0.0
 13
1.0
 23
0.0
 33
0.0
 40
0.0
 40
0.0
 40
0.0
 40
0.0
 40
1.0
 40
1.0
 40
1.0
 40
2.0
 40
2.0
 40
2.0
 40
3.0
 40
3.0
 40
3.0
 40
4.0
 40
4.0
 40
4.0
 40
5.0
 40
5.0
 40
5.0
 40
6.0
 40
6.0
 40
6.0
 40
7.0
 40
7.0
 40
7.0
 40
7.0
 10
86.6951388672151
 20
-140.1375270917017
 30
0.0
 10
86.6951388672151
 20
-140.1375270917017
 30
0.0
 10
85.59081350941827
 20
-140.1375270917017
 30
0.0
 10
85.59081350941827
 20
-140.1375270917017
 30
0.0
 10
85.59081350941827
 20
-140.1375270917017
 30
0.0
 10
85.59081350941827
 20
-140.4189913928466
 30
0.0
 10
85.59081350941827
 20
-140.4189913928466
 30
0.0
 10
85.59081350941827
 20
-140.4189913928466
 30
0.0
 10
85.44267440355253
 20
-140.4189913928466
 30
0.0
 10
85.44267440355253
 20
-140.4189913928466
 30
0.0
 10
85.42803274774022
 20
-140.1358045439591
 30
0.0
 10
85.2650797312879
 20
-140.0961859458787
 30
0.0
 10
85.15087481595187
 20
-140.0710367488364
 30
0.0
 10
85.15087481595187
 20
-140.0710367488364
 30
0.0
 10
85.15087481595187
 20
-139.9463242922704
 30
0.0
 10
85.15087481595187
 20
-139.9463242922704
 30
0.0
 10
85.15087481595187
 20
-139.9463242922704
 30
0.0
 10
86.6951388672151
 20
-139.9463242922704
 30
0.0
 10
86.6951388672151
 20
-139.9463242922704
 30
0.0
 10
86.6951388672151
 20
-139.9463242922704
 30
0.0
 10
86.6951388672151
 20
-140.1375270917017
 30
0.0
 10
86.6951388672151
 20
-140.1375270917017
 30
0.0
  0
HATCH
  5
CC
330
BD
100
AcDbEntity
  8
_U+30EC_U+30A4_U+30E4_U+30FC 1
 62
   179
420
  2234388
100
AcDbHatch
 10
0.0
 20
0.0
 30
0.0
210
0.0
220
0.0
230
1.0
  2
SOLID
 70
     1
 71
     0
 91
        1
 92
        1
 93
        1
 72
     4
 94
        3
 73
     0
 74
     1
 95
       26
 96
       22
 40
0.0
 40
0.0
 40
0.0
 40
0.0
 40
1.0
 40
1.0
 40
1.0
 40
2.0
 40
2.0
 40
2.0
 40
3.0
 40
3.0
 40
3.0
 40
4.0
 40
4.0
 40
4.0
 40
5.0
 40
5.0
 40
5.0
 40
6.0
 40
6.0
 40
6.0
 40
7.0
 40
7.0
 40
7.0
 40
7.0
 10
86.6951388672151
 20
-140.1375270917017
 10
86.6951388672151
 20
-140.1375270917017
 10
85.59081350941827
 20
-140.1375270917017
 10
85.59081350941827
 20
-140.1375270917017
 10
85.59081350941827
 20
-140.1375270917017
 10
85.59081350941827
 20
-140.4189913928466
 10
85.59081350941827
 20
-140.4189913928466
 10
85.59081350941827
 20
-140.4189913928466
 10
85.44267440355253
 20
-140.4189913928466
 10
85.44267440355253
 20
-140.4189913928466
 10
85.42803274774022
 20
-140.1358045439591
 10
85.2650797312879
 20
-140.0961859458787
 10
85.15087481595187
 20
-140.0710367488364
 10
85.15087481595187
 20
-140.0710367488364
 10
85.15087481595187
 20
-139.9463242922704
 10
85.15087481595187
 20
-139.9463242922704
 10
85.15087481595187
 20
-139.9463242922704
 10
86.6951388672151
 20
-139.9463242922704
 10
86.6951388672151
 20
-139.9463242922704
 10
86.6951388672151
 20
-139.9463242922704
 10
86.6951388672151
 20
-140.1375270917017
 10
86.6951388672151
 20
-140.1375270917017
 97
        0
 97
        0
 75
     2
 76
     1
 98
        0
  0
ENDBLK
  5
C0
330
BD
100
AcDbEntity
  8
0
100
AcDbBlockEnd
  0
BLOCK
  5
D7
330
D5
100
AcDbEntity
  8
0
100
AcDbBlockBegin
  2
block 5
 70
     0
 10
0.0
 20
0.0
 30
0.0
  3
block 5
  1

  0
SPLINE
  5
D9
330
D5
100
AcDbEntity
  8
_U+30EC_U+30A4_U+30E4_U+30FC 1
370
     0
100
AcDbSpline
210
0.0
220
0.0
230
1.0
 70
    11
 71
     3
 72
    29
 73
    25
 74
     0
 42
0.0000000001
 43
0.0000000001
 12
1.0
 22
0.0
 32
0.0
 13
1.0
 23
0.0
 33
0.0
 40
0.0
 40
0.0
 40
0.0
 40
0.0
 40
1.0
 40
1.0
 40
1.0
 40
2.0
 40
2.0
 40
2.0
 40
3.0
 40
3.0
 40
3.0
 40
4.0
 40
4.0
 40
4.0
 40
5.0
 40
5.0
 40
5.0
 40
6.0
 40
6.0
 40
6.0
 40
7.0
 40
7.0
 40
7.0
 40
8.0
 40
8.0
 40
8.0
 40
8.0
 10
121.746229353244
 20
-148.8146890904005
 30
0.0
 10
121.746229353244
 20
-149.0417208828785
 30
0.0
 10
121.608425533834
 20
-149.2580728793521
 30
0.0
 10
121.2597818707267
 20
-149.2580728793521
 30
0.0
 10
121.0034667666241
 20
-149.2580728793521
 30
0.0
 10
120.9083821312312
 20
-149.1374945373684
 30
0.0
 10
120.8470594315938
 20
-149.0472330356549
 30
0.0
 10
120.7878037892475
 20
-149.1536864861491
 30
0.0
 10
120.6734266191372
 20
-149.2184542812718
 30
0.0
 10
120.5128851695246
 20
-149.2184542812718
 30
0.0
 10
120.2379665498016
 20
-149.2184542812718
 30
0.0
 10
120.1022297876828
 20
-149.0489555833975
 30
0.0
 10
120.1022297876828
 20
-148.8146890904005
 30
0.0
 10
120.1022297876828
 20
-148.572843387336
 30
0.0
 10
120.2462347789662
 20
-148.4105793899807
 30
0.0
 10
120.5128851695246
 20
-148.4105793899807
 30
0.0
 10
120.6734266191372
 20
-148.4105793899807
 30
0.0
 10
120.7878037892475
 20
-148.4774142423945
 30
0.0
 10
120.8470594315938
 20
-148.5838676928888
 30
0.0
 10
120.8980468447755
 20
-148.5080755922133
 30
0.0
 10
120.9931314801684
 20
-148.3726833396429
 30
0.0
 10
121.2556477561444
 20
-148.3726833396429
 30
0.0
 10
121.6297851258426
 20
-148.3726833396429
 30
0.0
 10
121.746229353244
 20
-148.6107394376737
 30
0.0
 10
121.746229353244
 20
-148.8146890904005
 30
0.0
  0
SPLINE
  5
DA
330
D5
100
AcDbEntity
  8
_U+30EC_U+30A4_U+30E4_U+30FC 1
370
     0
100
AcDbSpline
210
0.0
220
0.0
230
1.0
 70
    11
 71
     3
 72
    17
 73
    13
 74
     0
 42
0.0000000001
 43
0.0000000001
 12
1.0
 22
0.0
 32
0.0
 13
1.0
 23
0.0
 33
0.0
 40
0.0
 40
0.0
 40
0.0
 40
0.0
 40
1.0
 40
1.0
 40
1.0
 40
2.0
 40
2.0
 40
2.0
 40
3.0
 40
3.0
 40
3.0
 40
4.0
 40
4.0
 40
4.0
 40
4.0
 10
120.2951551348568
 20
-148.8146890904005
 30
0.0
 10
120.2951551348568
 20
-148.9552489861987
 30
0.0
 10
120.3902397702497
 20
-149.0272514818404
 30
0.0
 10
120.5252875132715
 20
-149.0272514818404
 30
0.0
 10
120.6479329125464
 20
-149.0272514818404
 30
0.0
 10
120.766444197239
 20
-148.9662732917515
 30
0.0
 10
120.766444197239
 20
-148.8146890904005
 30
0.0
 10
120.766444197239
 20
-148.6631048890495
 30
0.0
 10
120.6479329125464
 20
-148.6017821894121
 30
0.0
 10
120.5252875132715
 20
-148.6017821894121
 30
0.0
 10
120.3902397702497
 20
-148.6017821894121
 30
0.0
 10
120.2951551348568
 20
-148.6758517423449
 30
0.0
 10
120.2951551348568
 20
-148.8146890904005
 30
0.0
  0
SPLINE
  5
DB
330
D5
100
AcDbEntity
  8
_U+30EC_U+30A4_U+30E4_U+30FC 1
370
     0
100
AcDbSpline
210
0.0
220
0.0
230
1.0
 70
    11
 71
     3
 72
    17
 73
    13
 74
     0
 42
0.0000000001
 43
0.0000000001
 12
1.0
 22
0.0
 32
0.0
 13
1.0
 23
0.0
 33
0.0
 40
0.0
 40
0.0
 40
0.0
 40
0.0
 40
1.0
 40
1.0
 40
1.0
 40
2.0
 40
2.0
 40
2.0
 40
3.0
 40
3.0
 40
3.0
 40
4.0
 40
4.0
 40
4.0
 40
4.0
 10
120.9552354298306
 20
-148.8146890904005
 30
0.0
 10
120.9552354298306
 20
-148.9373344896754
 30
0.0
 10
121.0420518360589
 20
-149.0672145894693
 30
0.0
 10
121.2446234505916
 20
-149.0672145894693
 30
0.0
 10
121.4499511415125
 20
-149.0672145894693
 30
0.0
 10
121.5512369487789
 20
-148.9590385912325
 30
0.0
 10
121.5512369487789
 20
-148.8146890904005
 30
0.0
 10
121.5512369487789
 20
-148.6558701885305
 30
0.0
 10
121.428591549504
 20
-148.5621635913317
 30
0.0
 10
121.2508246224651
 20
-148.5621635913317
 30
0.0
 10
121.028960473215
 20
-148.5621635913317
 30
0.0
 10
120.9552354298306
 20
-148.7010009393873
 30
0.0
 10
120.9552354298306
 20
-148.8146890904005
 30
0.0
  0
HATCH
  5
DC
330
D5
100
AcDbEntity
  8
_U+30EC_U+30A4_U+30E4_U+30FC 1
 62
   179
420
  2234388
100
AcDbHatch
 10
0.0
 20
0.0
 30
0.0
210
0.0
220
0.0
230
1.0
  2
SOLID
 70
     1
 71
     0
 91
        3
 92
        1
 93
        1
 72
     4
 94
        3
 73
     0
 74
     1
 95
       29
 96
       25
 40
0.0
 40
0.0
 40
0.0
 40
0.0
 40
1.0
 40
1.0
 40
1.0
 40
2.0
 40
2.0
 40
2.0
 40
3.0
 40
3.0
 40
3.0
 40
4.0
 40
4.0
 40
4.0
 40
5.0
 40
5.0
 40
5.0
 40
6.0
 40
6.0
 40
6.0
 40
7.0
 40
7.0
 40
7.0
 40
8.0
 40
8.0
 40
8.0
 40
8.0
 10
121.746229353244
 20
-148.8146890904005
 10
121.746229353244
 20
-149.0417208828785
 10
121.608425533834
 20
-149.2580728793521
 10
121.2597818707267
 20
-149.2580728793521
 10
121.0034667666241
 20
-149.2580728793521
 10
120.9083821312312
 20
-149.1374945373684
 10
120.8470594315938
 20
-149.0472330356549
 10
120.7878037892475
 20
-149.1536864861491
 10
120.6734266191372
 20
-149.2184542812718
 10
120.5128851695246
 20
-149.2184542812718
 10
120.2379665498016
 20
-149.2184542812718
 10
120.1022297876828
 20
-149.0489555833975
 10
120.1022297876828
 20
-148.8146890904005
 10
120.1022297876828
 20
-148.572843387336
 10
120.2462347789662
 20
-148.4105793899807
 10
120.5128851695246
 20
-148.4105793899807
 10
120.6734266191372
 20
-148.4105793899807
 10
120.7878037892475
 20
-148.4774142423945
 10
120.8470594315938
 20
-148.5838676928888
 10
120.8980468447755
 20
-148.5080755922133
 10
120.9931314801684
 20
-148.3726833396429
 10
121.2556477561444
 20
-148.3726833396429
 10
121.6297851258426
 20
-148.3726833396429
 10
121.746229353244
 20
-148.6107394376737
 10
121.746229353244
 20
-148.8146890904005
 97
        0
 97
        0
 92
        1
 93
        1
 72
     4
 94
        3
 73
     0
 74
     1
 95
       17
 96
       13
 40
0.0
 40
0.0
 40
0.0
 40
0.0
 40
1.0
 40
1.0
 40
1.0
 40
2.0
 40
2.0
 40
2.0
 40
3.0
 40
3.0
 40
3.0
 40
4.0
 40
4.0
 40
4.0
 40
4.0
 10
120.2951551348568
 20
-148.8146890904005
 10
120.2951551348568
 20
-148.9552489861987
 10
120.3902397702497
 20
-149.0272514818404
 10
120.5252875132715
 20
-149.0272514818404
 10
120.6479329125464
 20
-149.0272514818404
 10
120.766444197239
 20
-148.9662732917515
 10
120.766444197239
 20
-148.8146890904005
 10
120.766444197239
 20
-148.6631048890495
 10
120.6479329125464
 20
-148.6017821894121
 10
120.5252875132715
 20
-148.6017821894121
 10
120.3902397702497
 20
-148.6017821894121
 10
120.2951551348568
 20
-148.6758517423449
 10
120.2951551348568
 20
-148.8146890904005
 97
        0
 97
        0
 92
        1
 93
        1
 72
     4
 94
        3
 73
     0
 74
     1
 95
       17
 96
       13
 40
0.0
 40
0.0
 40
0.0
 40
0.0
 40
1.0
 40
1.0
 40
1.0
 40
2.0
 40
2.0
 40
2.0
 40
3.0
 40
3.0
 40
3.0
 40
4.0
 40
4.0
 40
4.0
 40
4.0
 10
120.9552354298306
 20
-148.8146890904005
 10
120.9552354298306
 20
-148.9373344896754
 10
121.0420518360589
 20
-149.0672145894693
 10
121.2446234505916
 20
-149.0672145894693
 10
121.4499511415125
 20
-149.0672145894693
 10
121.5512369487789
 20
-148.9590385912325
 10
121.5512369487789
 20
-148.8146890904005
 10
121.5512369487789
 20
-148.6558701885305
 10
121.428591549504
 20
-148.5621635913317
 10
121.2508246224651
 20
-148.5621635913317
 10
121.028960473215
 20
-148.5621635913317
 10
120.9552354298306
 20
-148.7010009393873
 10
120.9552354298306
 20
-148.8146890904005
 97
        0
 97
        0
 75
     2
 76
     1
 98
        0
  0
POLYLINE
  5
DD
330
D5
100
AcDbEntity
  8
_U+30EC_U+30A4_U+30E4_U+30FC 1
370
     0
100
AcDb2dPolyline
 66
     1
 10
0.0
 20
0.0
 30
0.0
  0
VERTEX
  5
DE
330
DD
100
AcDbEntity
  8
_U+30EC_U+30A4_U+30E4_U+30FC 1
370
     0
100
AcDbVertex
100
AcDb2dVertex
 10
121.6952419400623
 20
-148.1880262216335
 30
0.0
  0
VERTEX
  5
DF
330
DD
100
AcDbEntity
  8
_U+30EC_U+30A4_U+30E4_U+30FC 1
370
     0
100
AcDbVertex
100
AcDb2dVertex
 10
121.4437499696391
 20
-148.1880262216335
 30
0.0
  0
VERTEX
  5
E0
330
DD
100
AcDbEntity
  8
_U+30EC_U+30A4_U+30E4_U+30FC 1
370
     0
100
AcDbVertex
100
AcDb2dVertex
 10
121.4437499696391
 20
-147.9733967729025
 30
0.0
  0
VERTEX
  5
E1
330
DD
100
AcDbEntity
  8
_U+30EC_U+30A4_U+30E4_U+30FC 1
370
     0
100
AcDbVertex
100
AcDb2dVertex
 10
121.6952419400623
 20
-147.9733967729025
 30
0.0
  0
VERTEX
  5
E2
330
DD
100
AcDbEntity
  8
_U+30EC_U+30A4_U+30E4_U+30FC 1
370
     0
100
AcDbVertex
100
AcDb2dVertex
 10
121.6952419400623
 20
-148.1880262216335
 30
0.0
  0
SEQEND
  5
E3
330
DD
100
AcDbEntity
  8
_U+30EC_U+30A4_U+30E4_U+30FC 1
370
     0
  0
HATCH
  5
E4
330
D5
100
AcDbEntity
  8
_U+30EC_U+30A4_U+30E4_U+30FC 1
 62
   179
420
  2234388
100
AcDbHatch
 10
0.0
 20
0.0
 30
0.0
210
0.0
220
0.0
230
1.0
  2
SOLID
 70
     1
 71
     0
 91
        1
 92
        1
 93
        4
 72
     1
 10
121.6952419400623
 20
-148.1880262216335
 11
121.4437499696391
 21
-148.1880262216335
 72
     1
 10
121.4437499696391
 20
-148.1880262216335
 11
121.4437499696391
 21
-147.9733967729025
 72
     1
 10
121.4437499696391
 20
-147.9733967729025
 11
121.6952419400623
 21
-147.9733967729025
 72
     1
 10
121.6952419400623
 20
-147.9733967729025
 11
121.6952419400623
 21
-148.1880262216335
 97
        0
 75
     2
 76
     1
 98
        0
  0
SPLINE
  5
E5
330
D5
100
AcDbEntity
  8
_U+30EC_U+30A4_U+30E4_U+30FC 1
370
     0
100
AcDbSpline
210
0.0
220
0.0
230
1.0
 70
    11
 71
     3
 72
    53
 73
    49
 74
     0
 42
0.0000000001
 43
0.0000000001
 12
1.0
 22
0.0
 32
0.0
 13
1.0
 23
0.0
 33
0.0
 40
0.0
 40
0.0
 40
0.0
 40
0.0
 40
1.0
 40
1.0
 40
1.0
 40
2.0
 40
2.0
 40
2.0
 40
3.0
 40
3.0
 40
3.0
 40
4.0
 40
4.0
 40
4.0
 40
5.0
 40
5.0
 40
5.0
 40
6.0
 40
6.0
 40
6.0
 40
7.0
 40
7.0
 40
7.0
 40
8.0
 40
8.0
 40
8.0
 40
9.0
 40
9.0
 40
9.0
 40
10.0
 40
10.0
 40
10.0
 40
11.0
 40
11.0
 40
11.0
 40
12.0
 40
12.0
 40
12.0
 40
13.0
 40
13.0
 40
13.0
 40
14.0
 40
14.0
 40
14.0
 40
15.0
 40
15.0
 40
15.0
 40
16.0
 40
16.0
 40
16.0
 40
16.0
 10
121.746229353244
 20
-147.3622368338192
 30
0.0
 10
121.746229353244
 20
-147.429071686233
 30
0.0
 10
121.7290038758178
 20
-147.5155435829128
 30
0.0
 10
121.6656141188892
 20
-147.6020154795926
 30
0.0
 10
121.5560600824582
 20
-147.7498100759098
 30
0.0
 10
121.4244574349217
 20
-147.7680690819816
 30
0.0
 10
121.3169704557819
 20
-147.7842610307623
 30
0.0
 10
121.3169704557819
 20
-147.7842610307623
 30
0.0
 10
121.3169704557819
 20
-147.5947807790735
 30
0.0
 10
121.3169704557819
 20
-147.5947807790735
 30
0.0
 10
121.5154079557323
 20
-147.5479274804741
 30
0.0
 10
121.5450357769054
 20
-147.4397514822373
 30
0.0
 10
121.5450357769054
 20
-147.3605142860766
 30
0.0
 10
121.5450357769054
 20
-147.2413139822869
 30
0.0
 10
121.4458170269302
 20
-147.111433882493
 30
0.0
 10
121.2129285721273
 20
-147.111433882493
 30
0.0
 10
120.9573024871218
 20
-147.111433882493
 30
0.0
 10
120.8870225392227
 20
-147.2647406315866
 30
0.0
 10
120.8870225392227
 20
-147.3677489865956
 30
0.0
 10
120.8870225392227
 20
-147.3946207313805
 30
0.0
 10
120.8870225392227
 20
-147.5155435829128
 30
0.0
 10
121.0165581294681
 20
-147.5913356835883
 30
0.0
 10
121.0165581294681
 20
-147.5913356835883
 30
0.0
 10
120.9972655947507
 20
-147.7408528276481
 30
0.0
 10
120.9972655947507
 20
-147.7408528276481
 30
0.0
 10
120.9972655947507
 20
-147.7408528276481
 30
0.0
 10
120.1511501435733
 20
-147.6381889821877
 30
0.0
 10
120.1511501435733
 20
-147.6381889821877
 30
0.0
 10
120.1511501435733
 20
-147.6381889821877
 30
0.0
 10
120.1511501435733
 20
-146.9746635917286
 30
0.0
 10
120.1511501435733
 20
-146.9746635917286
 30
0.0
 10
120.1511501435733
 20
-146.9746635917286
 30
0.0
 10
120.3454535289414
 20
-146.9746635917286
 30
0.0
 10
120.3454535289414
 20
-146.9746635917286
 30
0.0
 10
120.3454535289414
 20
-146.9746635917286
 30
0.0
 10
120.3454535289414
 20
-147.4993516341321
 30
0.0
 10
120.3454535289414
 20
-147.4993516341321
 30
0.0
 10
120.3454535289414
 20
-147.4993516341321
 30
0.0
 10
120.7685112545301
 20
-147.5551621809932
 30
0.0
 10
120.7685112545301
 20
-147.5551621809932
 30
0.0
 10
120.7347493187746
 20
-147.5027967296174
 30
0.0
 10
120.6947862111458
 20
-147.4325167817183
 30
0.0
 10
120.6947862111458
 20
-147.3315754840004
 30
0.0
 10
120.6947862111458
 20
-147.1152234875267
 30
0.0
 10
120.8808213673492
 20
-146.9133408920911
 30
0.0
 10
121.194325056507
 20
-146.9133408920911
 30
0.0
 10
121.51127384115
 20
-146.9133408920911
 30
0.0
 10
121.746229353244
 20
-147.104199181974
 30
0.0
 10
121.746229353244
 20
-147.3622368338192
 30
0.0
  0
HATCH
  5
E6
330
D5
100
AcDbEntity
  8
_U+30EC_U+30A4_U+30E4_U+30FC 1
 62
   179
420
  2234388
100
AcDbHatch
 10
0.0
 20
0.0
 30
0.0
210
0.0
220
0.0
230
1.0
  2
SOLID
 70
     1
 71
     0
 91
        1
 92
        1
 93
        1
 72
     4
 94
        3
 73
     0
 74
     1
 95
       53
 96
       49
 40
0.0
 40
0.0
 40
0.0
 40
0.0
 40
1.0
 40
1.0
 40
1.0
 40
2.0
 40
2.0
 40
2.0
 40
3.0
 40
3.0
 40
3.0
 40
4.0
 40
4.0
 40
4.0
 40
5.0
 40
5.0
 40
5.0
 40
6.0
 40
6.0
 40
6.0
 40
7.0
 40
7.0
 40
7.0
 40
8.0
 40
8.0
 40
8.0
 40
9.0
 40
9.0
 40
9.0
 40
10.0
 40
10.0
 40
10.0
 40
11.0
 40
11.0
 40
11.0
 40
12.0
 40
12.0
 40
12.0
 40
13.0
 40
13.0
 40
13.0
 40
14.0
 40
14.0
 40
14.0
 40
15.0
 40
15.0
 40
15.0
 40
16.0
 40
16.0
 40
16.0
 40
16.0
 10
121.746229353244
 20
-147.3622368338192
 10
121.746229353244
 20
-147.429071686233
 10
121.7290038758178
 20
-147.5155435829128
 10
121.6656141188892
 20
-147.6020154795926
 10
121.5560600824582
 20
-147.7498100759098
 10
121.4244574349217
 20
-147.7680690819816
 10
121.3169704557819
 20
-147.7842610307623
 10
121.3169704557819
 20
-147.7842610307623
 10
121.3169704557819
 20
-147.5947807790735
 10
121.3169704557819
 20
-147.5947807790735
 10
121.5154079557323
 20
-147.5479274804741
 10
121.5450357769054
 20
-147.4397514822373
 10
121.5450357769054
 20
-147.3605142860766
 10
121.5450357769054
 20
-147.2413139822869
 10
121.4458170269302
 20
-147.111433882493
 10
121.2129285721273
 20
-147.111433882493
 10
120.9573024871218
 20
-147.111433882493
 10
120.8870225392227
 20
-147.2647406315866
 10
120.8870225392227
 20
-147.3677489865956
 10
120.8870225392227
 20
-147.3946207313805
 10
120.8870225392227
 20
-147.5155435829128
 10
121.0165581294681
 20
-147.5913356835883
 10
121.0165581294681
 20
-147.5913356835883
 10
120.9972655947507
 20
-147.7408528276481
 10
120.9972655947507
 20
-147.7408528276481
 10
120.9972655947507
 20
-147.7408528276481
 10
120.1511501435733
 20
-147.6381889821877
 10
120.1511501435733
 20
-147.6381889821877
 10
120.1511501435733
 20
-147.6381889821877
 10
120.1511501435733
 20
-146.9746635917286
 10
120.1511501435733
 20
-146.9746635917286
 10
120.1511501435733
 20
-146.9746635917286
 10
120.3454535289414
 20
-146.9746635917286
 10
120.3454535289414
 20
-146.9746635917286
 10
120.3454535289414
 20
-146.9746635917286
 10
120.3454535289414
 20
-147.4993516341321
 10
120.3454535289414
 20
-147.4993516341321
 10
120.3454535289414
 20
-147.4993516341321
 10
120.7685112545301
 20
-147.5551621809932
 10
120.7685112545301
 20
-147.5551621809932
 10
120.7347493187746
 20
-147.5027967296174
 10
120.6947862111458
 20
-147.4325167817183
 10
120.6947862111458
 20
-147.3315754840004
 10
120.6947862111458
 20
-147.1152234875267
 10
120.8808213673492
 20
-146.9133408920911
 10
121.194325056507
 20
-146.9133408920911
 10
121.51127384115
 20
-146.9133408920911
 10
121.746229353244
 20
-147.104199181974
 10
121.746229353244
 20
-147.3622368338192
 97
        0
 97
        0
 75
     2
 76
     1
 98
        0
  0
ENDBLK
  5
D8
330
D5
100
AcDbEntity
  8
0
100
AcDbBlockEnd
  0
BLOCK
  5
F5
330
F3
100
AcDbEntity
  8
0
100
AcDbBlockBegin
  2
block 6
 70
     0
 10
0.0
 20
0.0
 30
0.0
  3
block 6
  1

  0
SPLINE
  5
F7
330
F3
100
AcDbEntity
  8
_U+30EC_U+30A4_U+30E4_U+30FC 1
370
     0
100
AcDbSpline
210
0.0
220
0.0
230
1.0
 70
    11
 71
     3
 72
    26
 73
    22
 74
     0
 42
0.0000000001
 43
0.0000000001
 12
1.0
 22
0.0
 32
0.0
 13
1.0
 23
0.0
 33
0.0
 40
0.0
 40
0.0
 40
0.0
 40
0.0
 40
1.0
 40
1.0
 40
1.0
 40
2.0
 40
2.0
 40
2.0
 40
3.0
 40
3.0
 40
3.0
 40
4.0
 40
4.0
 40
4.0
 40
5.0
 40
5.0
 40
5.0
 40
6.0
 40
6.0
 40
6.0
 40
7.0
 40
7.0
 40
7.0
 40
7.0
 10
95.49925263454533
 20
-156.6664062108334
 30
0.0
 10
95.49925263454533
 20
-156.6664062108334
 30
0.0
 10
95.49925263454533
 20
-155.5622531078108
 30
0.0
 10
95.49925263454533
 20
-155.5622531078108
 30
0.0
 10
95.49925263454533
 20
-155.5622531078108
 30
0.0
 10
95.21778833340042
 20
-155.5622531078108
 30
0.0
 10
95.21778833340042
 20
-155.5622531078108
 30
0.0
 10
95.21778833340042
 20
-155.5622531078108
 30
0.0
 10
95.21778833340042
 20
-155.4141140019451
 30
0.0
 10
95.21778833340042
 20
-155.4141140019451
 30
0.0
 10
95.50097518228796
 20
-155.3993000913585
 30
0.0
 10
95.54059378036833
 20
-155.2363470749062
 30
0.0
 10
95.56574297741065
 20
-155.1219699047959
 30
0.0
 10
95.56574297741065
 20
-155.1219699047959
 30
0.0
 10
95.6904554339767
 20
-155.1219699047959
 30
0.0
 10
95.6904554339767
 20
-155.1219699047959
 30
0.0
 10
95.6904554339767
 20
-155.1219699047959
 30
0.0
 10
95.6904554339767
 20
-156.6664062108334
 30
0.0
 10
95.6904554339767
 20
-156.6664062108334
 30
0.0
 10
95.6904554339767
 20
-156.6664062108334
 30
0.0
 10
95.49925263454533
 20
-156.6664062108334
 30
0.0
 10
95.49925263454533
 20
-156.6664062108334
 30
0.0
  0
HATCH
  5
F8
330
F3
100
AcDbEntity
  8
_U+30EC_U+30A4_U+30E4_U+30FC 1
 62
   179
420
  2234388
100
AcDbHatch
 10
0.0
 20
0.0
 30
0.0
210
0.0
220
0.0
230
1.0
  2
SOLID
 70
     1
 71
     0
 91
        1
 92
        1
 93
        1
 72
     4
 94
        3
 73
     0
 74
     1
 95
       26
 96
       22
 40
0.0
 40
0.0
 40
0.0
 40
0.0
 40
1.0
 40
1.0
 40
1.0
 40
2.0
 40
2.0
 40
2.0
 40
3.0
 40
3.0
 40
3.0
 40
4.0
 40
4.0
 40
4.0
 40
5.0
 40
5.0
 40
5.0
 40
6.0
 40
6.0
 40
6.0
 40
7.0
 40
7.0
 40
7.0
 40
7.0
 10
95.49925263454533
 20
-156.6664062108334
 10
95.49925263454533
 20
-156.6664062108334
 10
95.49925263454533
 20
-155.5622531078108
 10
95.49925263454533
 20
-155.5622531078108
 10
95.49925263454533
 20
-155.5622531078108
 10
95.21778833340042
 20
-155.5622531078108
 10
95.21778833340042
 20
-155.5622531078108
 10
95.21778833340042
 20
-155.5622531078108
 10
95.21778833340042
 20
-155.4141140019451
 10
95.21778833340042
 20
-155.4141140019451
 10
95.50097518228796
 20
-155.3993000913585
 10
95.54059378036833
 20
-155.2363470749062
 10
95.56574297741065
 20
-155.1219699047959
 10
95.56574297741065
 20
-155.1219699047959
 10
95.6904554339767
 20
-155.1219699047959
 10
95.6904554339767
 20
-155.1219699047959
 10
95.6904554339767
 20
-155.1219699047959
 10
95.6904554339767
 20
-156.6664062108334
 10
95.6904554339767
 20
-156.6664062108334
 10
95.6904554339767
 20
-156.6664062108334
 10
95.49925263454533
 20
-156.6664062108334
 10
95.49925263454533
 20
-156.6664062108334
 97
        0
 97
        0
 75
     2
 76
     1
 98
        0
  0
SPLINE
  5
F9
330
F3
100
AcDbEntity
  8
_U+30EC_U+30A4_U+30E4_U+30FC 1
370
     0
100
AcDbSpline
210
0.0
220
0.0
230
1.0
 70
    11
 71
     3
 72
    29
 73
    25
 74
     0
 42
0.0000000001
 43
0.0000000001
 12
1.0
 22
0.0
 32
0.0
 13
1.0
 23
0.0
 33
0.0
 40
0.0
 40
0.0
 40
0.0
 40
0.0
 40
1.0
 40
1.0
 40
1.0
 40
2.0
 40
2.0
 40
2.0
 40
3.0
 40
3.0
 40
3.0
 40
4.0
 40
4.0
 40
4.0
 40
5.0
 40
5.0
 40
5.0
 40
6.0
 40
6.0
 40
6.0
 40
7.0
 40
7.0
 40
7.0
 40
8.0
 40
8.0
 40
8.0
 40
8.0
 10
96.88142494322757
 20
-156.4886392837945
 30
0.0
 10
96.7894408937714
 20
-156.6981010892977
 30
0.0
 10
96.64164629745417
 20
-156.7170491144666
 30
0.0
 10
96.54242754747898
 20
-156.7170491144666
 30
0.0
 10
96.40531274716604
 20
-156.7170491144666
 30
0.0
 10
96.28473440518229
 20
-156.6705403254157
 30
0.0
 10
96.2034301517304
 20
-156.4886392837945
 30
0.0
 10
96.115235707308
 20
-156.2939913888779
 30
0.0
 10
96.09904375852733
 20
-156.0573133290412
 30
0.0
 10
96.09904375852733
 20
-155.8943603125889
 30
0.0
 10
96.09904375852733
 20
-155.7503553213055
 30
0.0
 10
96.11316865001685
 20
-155.4985188413337
 30
0.0
 10
96.2034301517304
 20
-155.2997368318348
 30
0.0
 10
96.29541420118657
 20
-155.0968207077536
 30
0.0
 10
96.43252900149952
 20
-155.0733940584539
 30
0.0
 10
96.54242754747898
 20
-155.0733940584539
 30
0.0
 10
96.6778198000493
 20
-155.0733940584539
 30
0.0
 10
96.8004651993242
 20
-155.1178357902136
 30
0.0
 10
96.88142494322757
 20
-155.2997368318348
 30
0.0
 10
96.96617429216471
 20
-155.4923176694602
 30
0.0
 10
96.98615584597916
 20
-155.7207275001323
 30
0.0
 10
96.98615584597916
 20
-155.8943603125889
 30
0.0
 10
96.98615584597916
 20
-156.0655815582058
 30
0.0
 10
96.96789683990734
 20
-156.296058446169
 30
0.0
 10
96.88142494322757
 20
-156.4886392837945
 30
0.0
  0
SPLINE
  5
FA
330
F3
100
AcDbEntity
  8
_U+30EC_U+30A4_U+30E4_U+30FC 1
370
     0
100
AcDbSpline
210
0.0
220
0.0
230
1.0
 70
    11
 71
     3
 72
    17
 73
    13
 74
     0
 42
0.0000000001
 43
0.0000000001
 12
1.0
 22
0.0
 32
0.0
 13
1.0
 23
0.0
 33
0.0
 40
0.0
 40
0.0
 40
0.0
 40
0.0
 40
1.0
 40
1.0
 40
1.0
 40
2.0
 40
2.0
 40
2.0
 40
3.0
 40
3.0
 40
3.0
 40
4.0
 40
4.0
 40
4.0
 40
4.0
 10
96.54242754747898
 20
-155.2659748960793
 30
0.0
 10
96.32986515603906
 20
-155.2659748960793
 30
0.0
 10
96.28990204841017
 20
-155.5495062545154
 30
0.0
 10
96.28990204841017
 20
-155.8943603125889
 30
0.0
 10
96.28990204841017
 20
-156.2137206640716
 30
0.0
 10
96.32056339822888
 20
-156.5224012195499
 30
0.0
 10
96.54242754747898
 20
-156.5224012195499
 30
0.0
 10
96.75361190072479
 20
-156.5224012195499
 30
0.0
 10
96.79495304654779
 20
-156.2412814279536
 30
0.0
 10
96.79495304654779
 20
-155.8943603125889
 30
0.0
 10
96.79495304654779
 20
-155.5746554515577
 30
0.0
 10
96.76256914898644
 20
-155.2659748960793
 30
0.0
 10
96.54242754747898
 20
-155.2659748960793
 30
0.0
  0
HATCH
  5
FB
330
F3
100
AcDbEntity
  8
_U+30EC_U+30A4_U+30E4_U+30FC 1
 62
   179
420
  2234388
100
AcDbHatch
 10
0.0
 20
0.0
 30
0.0
210
0.0
220
0.0
230
1.0
  2
SOLID
 70
     1
 71
     0
 91
        2
 92
        1
 93
        1
 72
     4
 94
        3
 73
     0
 74
     1
 95
       29
 96
       25
 40
0.0
 40
0.0
 40
0.0
 40
0.0
 40
1.0
 40
1.0
 40
1.0
 40
2.0
 40
2.0
 40
2.0
 40
3.0
 40
3.0
 40
3.0
 40
4.0
 40
4.0
 40
4.0
 40
5.0
 40
5.0
 40
5.0
 40
6.0
 40
6.0
 40
6.0
 40
7.0
 40
7.0
 40
7.0
 40
8.0
 40
8.0
 40
8.0
 40
8.0
 10
96.88142494322757
 20
-156.4886392837945
 10
96.7894408937714
 20
-156.6981010892977
 10
96.64164629745417
 20
-156.7170491144666
 10
96.54242754747898
 20
-156.7170491144666
 10
96.40531274716604
 20
-156.7170491144666
 10
96.28473440518229
 20
-156.6705403254157
 10
96.2034301517304
 20
-156.4886392837945
 10
96.115235707308
 20
-156.2939913888779
 10
96.09904375852733
 20
-156.0573133290412
 10
96.09904375852733
 20
-155.8943603125889
 10
96.09904375852733
 20
-155.7503553213055
 10
96.11316865001685
 20
-155.4985188413337
 10
96.2034301517304
 20
-155.2997368318348
 10
96.29541420118657
 20
-155.0968207077536
 10
96.43252900149952
 20
-155.0733940584539
 10
96.54242754747898
 20
-155.0733940584539
 10
96.6778198000493
 20
-155.0733940584539
 10
96.8004651993242
 20
-155.1178357902136
 10
96.88142494322757
 20
-155.2997368318348
 10
96.96617429216471
 20
-155.4923176694602
 10
96.98615584597916
 20
-155.7207275001323
 10
96.98615584597916
 20
-155.8943603125889
 10
96.98615584597916
 20
-156.0655815582058
 10
96.96789683990734
 20
-156.296058446169
 10
96.88142494322757
 20
-156.4886392837945
 97
        0
 97
        0
 92
        1
 93
        1
 72
     4
 94
        3
 73
     0
 74
     1
 95
       17
 96
       13
 40
0.0
 40
0.0
 40
0.0
 40
0.0
 40
1.0
 40
1.0
 40
1.0
 40
2.0
 40
2.0
 40
2.0
 40
3.0
 40
3.0
 40
3.0
 40
4.0
 40
4.0
 40
4.0
 40
4.0
 10
96.54242754747898
 20
-155.2659748960793
 10
96.32986515603906
 20
-155.2659748960793
 10
96.28990204841017
 20
-155.5495062545154
 10
96.28990204841017
 20
-155.8943603125889
 10
96.28990204841017
 20
-156.2137206640716
 10
96.32056339822888
 20
-156.5224012195499
 10
96.54242754747898
 20
-156.5224012195499
 10
96.75361190072479
 20
-156.5224012195499
 10
96.79495304654779
 20
-156.2412814279536
 10
96.79495304654779
 20
-155.8943603125889
 10
96.79495304654779
 20
-155.5746554515577
 10
96.76256914898644
 20
-155.2659748960793
 10
96.54242754747898
 20
-155.2659748960793
 97
        0
 97
        0
 75
     2
 76
     1
 98
        0
  0
ENDBLK
  5
F6
330
F3
100
AcDbEntity
  8
0
100
AcDbBlockEnd
  0
ENDSEC
  0
SECTION
  2
ENTITIES
  0
POLYLINE
  5
41
330
1F
100
AcDbEntity
  8
_U+30EC_U+30A4_U+30E4_U+30FC 1
 62
   179
420
  2234388
370
    25
100
AcDb2dPolyline
 66
     1
 10
0.0
 20
0.0
 30
0.0
  0
VERTEX
  5
42
330
41
100
AcDbEntity
  8
_U+30EC_U+30A4_U+30E4_U+30FC 1
 62
   179
420
  2234388
370
    25
100
AcDbVertex
100
AcDb2dVertex
 10
91.29193683761532
 20
-143.6627174640843
 30
0.0
  0
VERTEX
  5
43
330
41
100
AcDbEntity
  8
_U+30EC_U+30A4_U+30E4_U+30FC 1
 62
   179
420
  2234388
370
    25
100
AcDbVertex
100
AcDb2dVertex
 10
102.3916659988821
 20
-143.6627174640843
 30
0.0
  0
SEQEND
  5
44
330
41
100
AcDbEntity
  8
_U+30EC_U+30A4_U+30E4_U+30FC 1
 62
   179
420
  2234388
370
    25
  0
POLYLINE
  5
45
330
1F
100
AcDbEntity
  8
_U+30EC_U+30A4_U+30E4_U+30FC 1
 62
   179
420
  2234388
370
    25
100
AcDb2dPolyline
 66
     1
 10
0.0
 20
0.0
 30
0.0
  0
VERTEX
  5
46
330
45
100
AcDbEntity
  8
_U+30EC_U+30A4_U+30E4_U+30FC 1
 62
   179
420
  2234388
370
    25
100
AcDbVertex
100
AcDb2dVertex
 10
101.2920249746771
 20
-144.7631019082537
 30
0.0
  0
VERTEX
  5
47
330
45
100
AcDbEntity
  8
_U+30EC_U+30A4_U+30E4_U+30FC 1
 62
   179
420
  2234388
370
    25
100
AcDbVertex
100
AcDb2dVertex
 10
101.2920249746771
 20
-153.2626474616841
 30
0.0
  0
SEQEND
  5
48
330
45
100
AcDbEntity
  8
_U+30EC_U+30A4_U+30E4_U+30FC 1
 62
   179
420
  2234388
370
    25
  0
POLYLINE
  5
49
330
1F
100
AcDbEntity
  8
_U+30EC_U+30A4_U+30E4_U+30FC 1
 62
   179
420
  2234388
370
    25
100
AcDb2dPolyline
 66
     1
 10
0.0
 20
0.0
 30
0.0
  0
VERTEX
  5
4A
330
49
100
AcDbEntity
  8
_U+30EC_U+30A4_U+30E4_U+30FC 1
 62
   179
420
  2234388
370
    25
100
AcDbVertex
100
AcDb2dVertex
 10
91.29193683761532
 20
-144.7631019082537
 30
0.0
  0
VERTEX
  5
4B
330
49
100
AcDbEntity
  8
_U+30EC_U+30A4_U+30E4_U+30FC 1
 62
   179
420
  2234388
370
    25
100
AcDbVertex
100
AcDb2dVertex
 10
101.2920249746771
 20
-144.7631019082537
 30
0.0
  0
SEQEND
  5
4C
330
49
100
AcDbEntity
  8
_U+30EC_U+30A4_U+30E4_U+30FC 1
 62
   179
420
  2234388
370
    25
  0
POLYLINE
  5
4D
330
1F
100
AcDbEntity
  8
_U+30EC_U+30A4_U+30E4_U+30FC 1
 62
   179
420
  2234388
370
    25
100
AcDb2dPolyline
 66
     1
 10
0.0
 20
0.0
 30
0.0
  0
VERTEX
  5
4E
330
4D
100
AcDbEntity
  8
_U+30EC_U+30A4_U+30E4_U+30FC 1
 62
   179
420
  2234388
370
    25
100
AcDbVertex
100
AcDb2dVertex
 10
91.29193683761532
 20
-143.6627174640843
 30
0.0
  0
VERTEX
  5
4F
330
4D
100
AcDbEntity
  8
_U+30EC_U+30A4_U+30E4_U+30FC 1
 62
   179
420
  2234388
370
    25
100
AcDbVertex
100
AcDb2dVertex
 10
91.29193683761532
 20
-144.7631019082537
 30
0.0
  0
SEQEND
  5
50
330
4D
100
AcDbEntity
  8
_U+30EC_U+30A4_U+30E4_U+30FC 1
 62
   179
420
  2234388
370
    25
  0
POLYLINE
  5
51
330
1F
100
AcDbEntity
  8
_U+30EC_U+30A4_U+30E4_U+30FC 1
 62
   179
420
  2234388
370
    25
100
AcDb2dPolyline
 66
     1
 10
0.0
 20
0.0
 30
0.0
  0
VERTEX
  5
52
330
51
100
AcDbEntity
  8
_U+30EC_U+30A4_U+30E4_U+30FC 1
 62
   179
420
  2234388
370
    25
100
AcDbVertex
100
AcDb2dVertex
 10
102.3916659988821
 20
-143.6627174640843
 30
0.0
  0
VERTEX
  5
53
330
51
100
AcDbEntity
  8
_U+30EC_U+30A4_U+30E4_U+30FC 1
 62
   179
420
  2234388
370
    25
100
AcDbVertex
100
AcDb2dVertex
 10
102.3916659988821
 20
-152.1629685730706
 30
0.0
  0
SEQEND
  5
54
330
51
100
AcDbEntity
  8
_U+30EC_U+30A4_U+30E4_U+30FC 1
 62
   179
420
  2234388
370
    25
  0
POLYLINE
  5
55
330
1F
100
AcDbEntity
  8
_U+30EC_U+30A4_U+30E4_U+30FC 1
 62
   179
420
  2234388
370
    25
100
AcDb2dPolyline
 66
     1
 10
0.0
 20
0.0
 30
0.0
  0
VERTEX
  5
56
330
55
100
AcDbEntity
  8
_U+30EC_U+30A4_U+30E4_U+30FC 1
 62
   179
420
  2234388
370
    25
100
AcDbVertex
100
AcDb2dVertex
 10
118.2921714265597
 20
-152.1629685730706
 30
0.0
  0
VERTEX
  5
57
330
55
100
AcDbEntity
  8
_U+30EC_U+30A4_U+30E4_U+30FC 1
 62
   179
420
  2234388
370
    25
100
AcDbVertex
100
AcDb2dVertex
 10
118.2921714265597
 20
-152.5625952396371
 30
0.0
  0
SEQEND
  5
58
330
55
100
AcDbEntity
  8
_U+30EC_U+30A4_U+30E4_U+30FC 1
 62
   179
420
  2234388
370
    25
  0
POLYLINE
  5
59
330
1F
100
AcDbEntity
  8
_U+30EC_U+30A4_U+30E4_U+30FC 1
 62
   179
420
  2234388
370
    25
100
AcDb2dPolyline
 66
     1
 10
0.0
 20
0.0
 30
0.0
  0
VERTEX
  5
5A
330
59
100
AcDbEntity
  8
_U+30EC_U+30A4_U+30E4_U+30FC 1
 62
   179
420
  2234388
370
    25
100
AcDbVertex
100
AcDb2dVertex
 10
102.3916659988821
 20
-152.1629685730706
 30
0.0
  0
VERTEX
  5
5B
330
59
100
AcDbEntity
  8
_U+30EC_U+30A4_U+30E4_U+30FC 1
 62
   179
420
  2234388
370
    25
100
AcDbVertex
100
AcDb2dVertex
 10
118.2921714265597
 20
-152.1629685730706
 30
0.0
  0
SEQEND
  5
5C
330
59
100
AcDbEntity
  8
_U+30EC_U+30A4_U+30E4_U+30FC 1
 62
   179
420
  2234388
370
    25
  0
POLYLINE
  5
5D
330
1F
100
AcDbEntity
  8
_U+30EC_U+30A4_U+30E4_U+30FC 1
 62
   179
420
  2234388
370
    25
100
AcDb2dPolyline
 66
     1
 10
0.0
 20
0.0
 30
0.0
  0
VERTEX
  5
5E
330
5D
100
AcDbEntity
  8
_U+30EC_U+30A4_U+30E4_U+30FC 1
 62
   179
420
  2234388
370
    25
100
AcDbVertex
100
AcDb2dVertex
 10
118.2921714265597
 20
-152.5625952396371
 30
0.0
  0
VERTEX
  5
5F
330
5D
100
AcDbEntity
  8
_U+30EC_U+30A4_U+30E4_U+30FC 1
 62
   179
420
  2234388
370
    25
100
AcDbVertex
100
AcDb2dVertex
 10
101.2920249746771
 20
-153.2626474616841
 30
0.0
  0
SEQEND
  5
60
330
5D
100
AcDbEntity
  8
_U+30EC_U+30A4_U+30E4_U+30FC 1
 62
   179
420
  2234388
370
    25
  0
SPLINE
  5
61
330
1F
100
AcDbEntity
  8
_U+30EC_U+30A4_U+30E4_U+30FC 1
 62
   179
420
  2234388
370
     9
100
AcDbSpline
210
0.0
220
0.0
230
1.0
 70
    11
 71
     3
 72
    17
 73
    13
 74
     0
 42
0.0000000001
 43
0.0000000001
 12
1.0
 22
0.0
 32
0.0
 13
1.0
 23
0.0
 33
0.0
 40
0.0
 40
0.0
 40
0.0
 40
0.0
 40
1.0
 40
1.0
 40
1.0
 40
2.0
 40
2.0
 40
2.0
 40
3.0
 40
3.0
 40
3.0
 40
4.0
 40
4.0
 40
4.0
 40
4.0
 10
122.3918371553019
 20
-143.6627174640843
 30
0.0
 10
122.3918371553019
 20
-143.6076135752091
 30
0.0
 10
122.3470343786671
 20
-143.5628107974427
 30
0.0
 10
122.291930491184
 20
-143.5628107974427
 30
0.0
 10
122.2367944138851
 20
-143.5628107974427
 30
0.0
 10
122.1920238270662
 20
-143.6076135752091
 30
0.0
 10
122.1920238270662
 20
-143.6627174640843
 30
0.0
 10
122.1920238270662
 20
-143.7178566307371
 30
0.0
 10
122.2367944138851
 20
-143.762624130726
 30
0.0
 10
122.291930491184
 20
-143.762624130726
 30
0.0
 10
122.3470343786671
 20
-143.762624130726
 30
0.0
 10
122.3918371553019
 20
-143.7178566307371
 30
0.0
 10
122.3918371553019
 20
-143.6627174640843
 30
0.0
  0
SPLINE
  5
62
330
1F
100
AcDbEntity
  8
_U+30EC_U+30A4_U+30E4_U+30FC 1
 62
   179
420
  2234388
370
     9
100
AcDbSpline
210
0.0
220
0.0
230
1.0
 70
    11
 71
     3
 72
    17
 73
    13
 74
     0
 42
0.0000000001
 43
0.0000000001
 12
1.0
 22
0.0
 32
0.0
 13
1.0
 23
0.0
 33
0.0
 40
0.0
 40
0.0
 40
0.0
 40
0.0
 40
1.0
 40
1.0
 40
1.0
 40
2.0
 40
2.0
 40
2.0
 40
3.0
 40
3.0
 40
3.0
 40
4.0
 40
4.0
 40
4.0
 40
4.0
 10
122.3918371553019
 20
-152.1629685730706
 30
0.0
 10
122.3918371553019
 20
-152.1071591286401
 30
0.0
 10
122.3470343786671
 20
-152.062391628651
 30
0.0
 10
122.291930491184
 20
-152.062391628651
 30
0.0
 10
122.2367944138851
 20
-152.062391628651
 30
0.0
 10
122.1920238270662
 20
-152.1071591286401
 30
0.0
 10
122.1920238270662
 20
-152.1629685730706
 30
0.0
 10
122.1920238270662
 20
-152.218107739723
 30
0.0
 10
122.2367944138851
 20
-152.2628752397122
 30
0.0
 10
122.291930491184
 20
-152.2628752397122
 30
0.0
 10
122.3470343786671
 20
-152.2628752397122
 30
0.0
 10
122.3918371553019
 20
-152.218107739723
 30
0.0
 10
122.3918371553019
 20
-152.1629685730706
 30
0.0
  0
SPLINE
  5
63
330
1F
100
AcDbEntity
  8
_U+30EC_U+30A4_U+30E4_U+30FC 1
 62
   179
420
  2234388
370
     9
100
AcDbSpline
210
0.0
220
0.0
230
1.0
 70
    11
 71
     3
 72
    17
 73
    13
 74
     0
 42
0.0000000001
 43
0.0000000001
 12
1.0
 22
0.0
 32
0.0
 13
1.0
 23
0.0
 33
0.0
 40
0.0
 40
0.0
 40
0.0
 40
0.0
 40
1.0
 40
1.0
 40
1.0
 40
2.0
 40
2.0
 40
2.0
 40
3.0
 40
3.0
 40
3.0
 40
4.0
 40
4.0
 40
4.0
 40
4.0
 10
122.3918371553019
 20
-152.5625952396371
 30
0.0
 10
122.3918371553019
 20
-152.5074913507622
 30
0.0
 10
122.3470343786671
 20
-152.4626885729955
 30
0.0
 10
122.291930491184
 20
-152.4626885729955
 30
0.0
 10
122.2367944138851
 20
-152.4626885729955
 30
0.0
 10
122.1920238270662
 20
-152.5074913507622
 30
0.0
 10
122.1920238270662
 20
-152.5625952396371
 30
0.0
 10
122.1920238270662
 20
-152.6177344062902
 30
0.0
 10
122.2367944138851
 20
-152.6625019062788
 30
0.0
 10
122.291930491184
 20
-152.6625019062788
 30
0.0
 10
122.3470343786671
 20
-152.6625019062788
 30
0.0
 10
122.3918371553019
 20
-152.6177344062902
 30
0.0
 10
122.3918371553019
 20
-152.5625952396371
 30
0.0
  0
SPLINE
  5
64
330
1F
100
AcDbEntity
  8
_U+30EC_U+30A4_U+30E4_U+30FC 1
 62
   179
420
  2234388
370
     9
100
AcDbSpline
210
0.0
220
0.0
230
1.0
 70
    11
 71
     3
 72
    17
 73
    13
 74
     0
 42
0.0000000001
 43
0.0000000001
 12
1.0
 22
0.0
 32
0.0
 13
1.0
 23
0.0
 33
0.0
 40
0.0
 40
0.0
 40
0.0
 40
0.0
 40
1.0
 40
1.0
 40
1.0
 40
2.0
 40
2.0
 40
2.0
 40
3.0
 40
3.0
 40
3.0
 40
4.0
 40
4.0
 40
4.0
 40
4.0
 10
118.3920780906776
 20
-157.262406627351
 30
0.0
 10
118.3920780906776
 20
-157.2073027384761
 30
0.0
 10
118.3473105918197
 20
-157.1624999607094
 30
0.0
 10
118.2921714265597
 20
-157.1624999607094
 30
0.0
 10
118.2363619835391
 20
-157.1624999607094
 30
0.0
 10
118.1915944846812
 20
-157.2073027384761
 30
0.0
 10
118.1915944846812
 20
-157.262406627351
 30
0.0
 10
118.1915944846812
 20
-157.3175457940041
 30
0.0
 10
118.2363619835391
 20
-157.3623132939927
 30
0.0
 10
118.2921714265597
 20
-157.3623132939927
 30
0.0
 10
118.3473105918197
 20
-157.3623132939927
 30
0.0
 10
118.3920780906776
 20
-157.3175457940041
 30
0.0
 10
118.3920780906776
 20
-157.262406627351
 30
0.0
  0
SPLINE
  5
65
330
1F
100
AcDbEntity
  8
_U+30EC_U+30A4_U+30E4_U+30FC 1
 62
   179
420
  2234388
370
     9
100
AcDbSpline
210
0.0
220
0.0
230
1.0
 70
    11
 71
     3
 72
    17
 73
    13
 74
     0
 42
0.0000000001
 43
0.0000000001
 12
1.0
 22
0.0
 32
0.0
 13
1.0
 23
0.0
 33
0.0
 40
0.0
 40
0.0
 40
0.0
 40
0.0
 40
1.0
 40
1.0
 40
1.0
 40
2.0
 40
2.0
 40
2.0
 40
3.0
 40
3.0
 40
3.0
 40
4.0
 40
4.0
 40
4.0
 40
4.0
 10
91.39184350173316
 20
-157.262406627351
 30
0.0
 10
91.39184350173316
 20
-157.2073027384761
 30
0.0
 10
91.3470407250984
 20
-157.1624999607094
 30
0.0
 10
91.29193683761532
 20
-157.1624999607094
 30
0.0
 10
91.23644719941296
 20
-157.1624999607094
 30
0.0
 10
91.1916773957287
 20
-157.2073027384761
 30
0.0
 10
91.1916773957287
 20
-157.262406627351
 30
0.0
 10
91.1916773957287
 20
-157.3175457940041
 30
0.0
 10
91.23644719941296
 20
-157.3623132939927
 30
0.0
 10
91.29193683761532
 20
-157.3623132939927
 30
0.0
 10
91.3470407250984
 20
-157.3623132939927
 30
0.0
 10
91.39184350173316
 20
-157.3175457940041
 30
0.0
 10
91.39184350173316
 20
-157.262406627351
 30
0.0
  0
SPLINE
  5
66
330
1F
100
AcDbEntity
  8
_U+30EC_U+30A4_U+30E4_U+30FC 1
 62
   179
420
  2234388
370
     9
100
AcDbSpline
210
0.0
220
0.0
230
1.0
 70
    11
 71
     3
 72
    17
 73
    13
 74
     0
 42
0.0000000001
 43
0.0000000001
 12
1.0
 22
0.0
 32
0.0
 13
1.0
 23
0.0
 33
0.0
 40
0.0
 40
0.0
 40
0.0
 40
0.0
 40
1.0
 40
1.0
 40
1.0
 40
2.0
 40
2.0
 40
2.0
 40
3.0
 40
3.0
 40
3.0
 40
4.0
 40
4.0
 40
4.0
 40
4.0
 10
87.39173165934007
 20
-143.6627174640843
 30
0.0
 10
87.39173165934007
 20
-143.6076135752091
 30
0.0
 10
87.34696416048219
 20
-143.5628107974427
 30
0.0
 10
87.29182499522223
 20
-143.5628107974427
 30
0.0
 10
87.23672110773916
 20
-143.5628107974427
 30
0.0
 10
87.1919183311044
 20
-143.6076135752091
 30
0.0
 10
87.1919183311044
 20
-143.6627174640843
 30
0.0
 10
87.1919183311044
 20
-143.7178566307371
 30
0.0
 10
87.23672110773916
 20
-143.762624130726
 30
0.0
 10
87.29182499522223
 20
-143.762624130726
 30
0.0
 10
87.34696416048219
 20
-143.762624130726
 30
0.0
 10
87.39173165934007
 20
-143.7178566307371
 30
0.0
 10
87.39173165934007
 20
-143.6627174640843
 30
0.0
  0
SPLINE
  5
67
330
1F
100
AcDbEntity
  8
_U+30EC_U+30A4_U+30E4_U+30FC 1
 62
   179
420
  2234388
370
     9
100
AcDbSpline
210
0.0
220
0.0
230
1.0
 70
    11
 71
     3
 72
    17
 73
    13
 74
     0
 42
0.0000000001
 43
0.0000000001
 12
1.0
 22
0.0
 32
0.0
 13
1.0
 23
0.0
 33
0.0
 40
0.0
 40
0.0
 40
0.0
 40
0.0
 40
1.0
 40
1.0
 40
1.0
 40
2.0
 40
2.0
 40
2.0
 40
3.0
 40
3.0
 40
3.0
 40
4.0
 40
4.0
 40
4.0
 40
4.0
 10
87.39173165934007
 20
-144.7631019082537
 30
0.0
 10
87.39173165934007
 20
-144.7079627416009
 30
0.0
 10
87.34696416048219
 20
-144.6631599638342
 30
0.0
 10
87.29182499522223
 20
-144.6631599638342
 30
0.0
 10
87.23672110773916
 20
-144.6631599638342
 30
0.0
 10
87.1919183311044
 20
-144.7079627416009
 30
0.0
 10
87.1919183311044
 20
-144.7631019082537
 30
0.0
 10
87.1919183311044
 20
-144.8182057971289
 30
0.0
 10
87.23672110773916
 20
-144.8630085748953
 30
0.0
 10
87.29182499522223
 20
-144.8630085748953
 30
0.0
 10
87.34696416048219
 20
-144.8630085748953
 30
0.0
 10
87.39173165934007
 20
-144.8182057971289
 30
0.0
 10
87.39173165934007
 20
-144.7631019082537
 30
0.0
  0
SPLINE
  5
68
330
1F
100
AcDbEntity
  8
_U+30EC_U+30A4_U+30E4_U+30FC 1
 62
   179
420
  2234388
370
     9
100
AcDbSpline
210
0.0
220
0.0
230
1.0
 70
    11
 71
     3
 72
    17
 73
    13
 74
     0
 42
0.0000000001
 43
0.0000000001
 12
1.0
 22
0.0
 32
0.0
 13
1.0
 23
0.0
 33
0.0
 40
0.0
 40
0.0
 40
0.0
 40
0.0
 40
1.0
 40
1.0
 40
1.0
 40
2.0
 40
2.0
 40
2.0
 40
3.0
 40
3.0
 40
3.0
 40
4.0
 40
4.0
 40
4.0
 40
4.0
 10
101.3919290799431
 20
-157.262406627351
 30
0.0
 10
101.3919290799431
 20
-157.2073027384761
 30
0.0
 10
101.3471263033083
 20
-157.1624999607094
 30
0.0
 10
101.2920249746771
 20
-157.1624999607094
 30
0.0
 10
101.2368832505653
 20
-157.1624999607094
 30
0.0
 10
101.1921157517074
 20
-157.2073027384761
 30
0.0
 10
101.1921157517074
 20
-157.262406627351
 30
0.0
 10
101.1921157517074
 20
-157.3175457940041
 30
0.0
 10
101.2368832505653
 20
-157.3623132939927
 30
0.0
 10
101.2920249746771
 20
-157.3623132939927
 30
0.0
 10
101.3471263033083
 20
-157.3623132939927
 30
0.0
 10
101.3919290799431
 20
-157.3175457940041
 30
0.0
 10
101.3919290799431
 20
-157.262406627351
 30
0.0
  0
POLYLINE
  5
69
330
1F
100
AcDbEntity
  8
_U+30EC_U+30A4_U+30E4_U+30FC 1
 62
   179
420
  2234388
370
     9
100
AcDb2dPolyline
 66
     1
 10
0.0
 20
0.0
 30
0.0
  0
VERTEX
  5
6A
330
69
100
AcDbEntity
  8
_U+30EC_U+30A4_U+30E4_U+30FC 1
 62
   179
420
  2234388
370
     9
100
AcDbVertex
100
AcDb2dVertex
 10
101.2920249746771
 20
-157.262406627351
 30
0.0
  0
VERTEX
  5
6B
330
69
100
AcDbEntity
  8
_U+30EC_U+30A4_U+30E4_U+30FC 1
 62
   179
420
  2234388
370
     9
100
AcDbVertex
100
AcDb2dVertex
 10
118.2921714265597
 20
-157.262406627351
 30
0.0
  0
SEQEND
  5
6C
330
69
100
AcDbEntity
  8
_U+30EC_U+30A4_U+30E4_U+30FC 1
 62
   179
420
  2234388
370
     9
  0
POLYLINE
  5
6D
330
1F
100
AcDbEntity
  8
_U+30EC_U+30A4_U+30E4_U+30FC 1
 62
   179
420
  2234388
370
     9
100
AcDb2dPolyline
 66
     1
 10
0.0
 20
0.0
 30
0.0
  0
VERTEX
  5
6E
330
6D
100
AcDbEntity
  8
_U+30EC_U+30A4_U+30E4_U+30FC 1
 62
   179
420
  2234388
370
     9
100
AcDbVertex
100
AcDb2dVertex
 10
118.2921714265597
 20
-155.1023482945579
 30
0.0
  0
VERTEX
  5
6F
330
6D
100
AcDbEntity
  8
_U+30EC_U+30A4_U+30E4_U+30FC 1
 62
   179
420
  2234388
370
     9
100
AcDbVertex
100
AcDb2dVertex
 10
118.2921714265597
 20
-158.2628491271009
 30
0.0
  0
SEQEND
  5
70
330
6D
100
AcDbEntity
  8
_U+30EC_U+30A4_U+30E4_U+30FC 1
 62
   179
420
  2234388
370
     9
  0
INSERT
  5
72
330
1F
100
AcDbEntity
  8
_U+30EC_U+30A4_U+30E4_U+30FC 1
100
AcDbBlockReference
  2
block 2
 10
0.0
 20
0.0
 30
0.0
  0
POLYLINE
  5
79
330
1F
100
AcDbEntity
  8
_U+30EC_U+30A4_U+30E4_U+30FC 1
 62
   179
420
  2234388
370
     9
100
AcDb2dPolyline
 66
     1
 10
0.0
 20
0.0
 30
0.0
  0
VERTEX
  5
7A
330
79
100
AcDbEntity
  8
_U+30EC_U+30A4_U+30E4_U+30FC 1
 62
   179
420
  2234388
370
     9
100
AcDbVertex
100
AcDb2dVertex
 10
122.291930491184
 20
-152.5625952396371
 30
0.0
  0
VERTEX
  5
7B
330
79
100
AcDbEntity
  8
_U+30EC_U+30A4_U+30E4_U+30FC 1
 62
   179
420
  2234388
370
     9
100
AcDbVertex
100
AcDb2dVertex
 10
122.291930491184
 20
-153.5623674616097
 30
0.0
  0
SEQEND
  5
7C
330
79
100
AcDbEntity
  8
_U+30EC_U+30A4_U+30E4_U+30FC 1
 62
   179
420
  2234388
370
     9
  0
POLYLINE
  5
7D
330
1F
100
AcDbEntity
  8
_U+30EC_U+30A4_U+30E4_U+30FC 1
 62
   179
420
  2234388
370
     9
100
AcDb2dPolyline
 66
     1
 10
0.0
 20
0.0
 30
0.0
  0
VERTEX
  5
7E
330
7D
100
AcDbEntity
  8
_U+30EC_U+30A4_U+30E4_U+30FC 1
 62
   179
420
  2234388
370
     9
100
AcDbVertex
100
AcDb2dVertex
 10
122.291930491184
 20
-152.1629685730706
 30
0.0
  0
VERTEX
  5
7F
330
7D
100
AcDbEntity
  8
_U+30EC_U+30A4_U+30E4_U+30FC 1
 62
   179
420
  2234388
370
     9
100
AcDbVertex
100
AcDb2dVertex
 10
122.291930491184
 20
-152.5625952396371
 30
0.0
  0
SEQEND
  5
80
330
7D
100
AcDbEntity
  8
_U+30EC_U+30A4_U+30E4_U+30FC 1
 62
   179
420
  2234388
370
     9
  0
POLYLINE
  5
81
330
1F
100
AcDbEntity
  8
_U+30EC_U+30A4_U+30E4_U+30FC 1
 62
   179
420
  2234388
370
     9
100
AcDb2dPolyline
 66
     1
 10
0.0
 20
0.0
 30
0.0
  0
VERTEX
  5
82
330
81
100
AcDbEntity
  8
_U+30EC_U+30A4_U+30E4_U+30FC 1
 62
   179
420
  2234388
370
     9
100
AcDbVertex
100
AcDb2dVertex
 10
120.8318891395439
 20
-152.1629685730706
 30
0.0
  0
VERTEX
  5
83
330
81
100
AcDbEntity
  8
_U+30EC_U+30A4_U+30E4_U+30FC 1
 62
   179
420
  2234388
370
     9
100
AcDbVertex
100
AcDb2dVertex
 10
123.2917026878999
 20
-152.1629685730706
 30
0.0
  0
SEQEND
  5
84
330
81
100
AcDbEntity
  8
_U+30EC_U+30A4_U+30E4_U+30FC 1
 62
   179
420
  2234388
370
     9
  0
POLYLINE
  5
85
330
1F
100
AcDbEntity
  8
_U+30EC_U+30A4_U+30E4_U+30FC 1
 62
   179
420
  2234388
370
     9
100
AcDb2dPolyline
 66
     1
 10
0.0
 20
0.0
 30
0.0
  0
VERTEX
  5
86
330
85
100
AcDbEntity
  8
_U+30EC_U+30A4_U+30E4_U+30FC 1
 62
   179
420
  2234388
370
     9
100
AcDbVertex
100
AcDb2dVertex
 10
120.8318891395439
 20
-152.5625952396371
 30
0.0
  0
VERTEX
  5
87
330
85
100
AcDbEntity
  8
_U+30EC_U+30A4_U+30E4_U+30FC 1
 62
   179
420
  2234388
370
     9
100
AcDbVertex
100
AcDb2dVertex
 10
123.2917026878999
 20
-152.5625952396371
 30
0.0
  0
SEQEND
  5
88
330
85
100
AcDbEntity
  8
_U+30EC_U+30A4_U+30E4_U+30FC 1
 62
   179
420
  2234388
370
     9
  0
INSERT
  5
8A
330
1F
100
AcDbEntity
  8
_U+30EC_U+30A4_U+30E4_U+30FC 1
100
AcDbBlockReference
  2
block 3
 10
0.0
 20
0.0
 30
0.0
  0
POLYLINE
  5
AD
330
1F
100
AcDbEntity
  8
_U+30EC_U+30A4_U+30E4_U+30FC 1
 62
   179
420
  2234388
370
     9
100
AcDb2dPolyline
 66
     1
 10
0.0
 20
0.0
 30
0.0
  0
VERTEX
  5
AE
330
AD
100
AcDbEntity
  8
_U+30EC_U+30A4_U+30E4_U+30FC 1
 62
   179
420
  2234388
370
     9
100
AcDbVertex
100
AcDb2dVertex
 10
87.29182499522223
 20
-143.6627174640843
 30
0.0
  0
VERTEX
  5
AF
330
AD
100
AcDbEntity
  8
_U+30EC_U+30A4_U+30E4_U+30FC 1
 62
   179
420
  2234388
370
     9
100
AcDbVertex
100
AcDb2dVertex
 10
87.29182499522223
 20
-142.6629452421121
 30
0.0
  0
SEQEND
  5
B0
330
AD
100
AcDbEntity
  8
_U+30EC_U+30A4_U+30E4_U+30FC 1
 62
   179
420
  2234388
370
     9
  0
POLYLINE
  5
B1
330
1F
100
AcDbEntity
  8
_U+30EC_U+30A4_U+30E4_U+30FC 1
 62
   179
420
  2234388
370
     9
100
AcDb2dPolyline
 66
     1
 10
0.0
 20
0.0
 30
0.0
  0
VERTEX
  5
B2
330
B1
100
AcDbEntity
  8
_U+30EC_U+30A4_U+30E4_U+30FC 1
 62
   179
420
  2234388
370
     9
100
AcDbVertex
100
AcDb2dVertex
 10
87.29182499522223
 20
-143.6627174640843
 30
0.0
  0
VERTEX
  5
B3
330
B1
100
AcDbEntity
  8
_U+30EC_U+30A4_U+30E4_U+30FC 1
 62
   179
420
  2234388
370
     9
100
AcDbVertex
100
AcDb2dVertex
 10
87.29182499522223
 20
-145.7628388524481
 30
0.0
  0
SEQEND
  5
B4
330
B1
100
AcDbEntity
  8
_U+30EC_U+30A4_U+30E4_U+30FC 1
 62
   179
420
  2234388
370
     9
  0
POLYLINE
  5
B5
330
1F
100
AcDbEntity
  8
_U+30EC_U+30A4_U+30E4_U+30FC 1
 62
   179
420
  2234388
370
     9
100
AcDb2dPolyline
 66
     1
 10
0.0
 20
0.0
 30
0.0
  0
VERTEX
  5
B6
330
B5
100
AcDbEntity
  8
_U+30EC_U+30A4_U+30E4_U+30FC 1
 62
   179
420
  2234388
370
     9
100
AcDbVertex
100
AcDb2dVertex
 10
88.75186634686236
 20
-143.6627174640843
 30
0.0
  0
VERTEX
  5
B7
330
B5
100
AcDbEntity
  8
_U+30EC_U+30A4_U+30E4_U+30FC 1
 62
   179
420
  2234388
370
     9
100
AcDbVertex
100
AcDb2dVertex
 10
86.29205279850632
 20
-143.6627174640843
 30
0.0
  0
SEQEND
  5
B8
330
B5
100
AcDbEntity
  8
_U+30EC_U+30A4_U+30E4_U+30FC 1
 62
   179
420
  2234388
370
     9
  0
POLYLINE
  5
B9
330
1F
100
AcDbEntity
  8
_U+30EC_U+30A4_U+30E4_U+30FC 1
 62
   179
420
  2234388
370
     9
100
AcDb2dPolyline
 66
     1
 10
0.0
 20
0.0
 30
0.0
  0
VERTEX
  5
BA
330
B9
100
AcDbEntity
  8
_U+30EC_U+30A4_U+30E4_U+30FC 1
 62
   179
420
  2234388
370
     9
100
AcDbVertex
100
AcDb2dVertex
 10
88.75186634686236
 20
-144.7631019082537
 30
0.0
  0
VERTEX
  5
BB
330
B9
100
AcDbEntity
  8
_U+30EC_U+30A4_U+30E4_U+30FC 1
 62
   179
420
  2234388
370
     9
100
AcDbVertex
100
AcDb2dVertex
 10
86.29205279850632
 20
-144.7631019082537
 30
0.0
  0
SEQEND
  5
BC
330
B9
100
AcDbEntity
  8
_U+30EC_U+30A4_U+30E4_U+30FC 1
 62
   179
420
  2234388
370
     9
  0
INSERT
  5
BE
330
1F
100
AcDbEntity
  8
_U+30EC_U+30A4_U+30E4_U+30FC 1
100
AcDbBlockReference
  2
block 4
 10
0.0
 20
0.0
 30
0.0
  0
POLYLINE
  5
CD
330
1F
100
AcDbEntity
  8
_U+30EC_U+30A4_U+30E4_U+30FC 1
 62
   179
420
  2234388
370
     9
100
AcDb2dPolyline
 66
     1
 10
0.0
 20
0.0
 30
0.0
  0
VERTEX
  5
CE
330
CD
100
AcDbEntity
  8
_U+30EC_U+30A4_U+30E4_U+30FC 1
 62
   179
420
  2234388
370
     9
100
AcDbVertex
100
AcDb2dVertex
 10
122.291930491184
 20
-143.6627174640843
 30
0.0
  0
VERTEX
  5
CF
330
CD
100
AcDbEntity
  8
_U+30EC_U+30A4_U+30E4_U+30FC 1
 62
   179
420
  2234388
370
     9
100
AcDbVertex
100
AcDb2dVertex
 10
122.291930491184
 20
-152.1629685730706
 30
0.0
  0
SEQEND
  5
D0
330
CD
100
AcDbEntity
  8
_U+30EC_U+30A4_U+30E4_U+30FC 1
 62
   179
420
  2234388
370
     9
  0
POLYLINE
  5
D1
330
1F
100
AcDbEntity
  8
_U+30EC_U+30A4_U+30E4_U+30FC 1
 62
   179
420
  2234388
370
     9
100
AcDb2dPolyline
 66
     1
 10
0.0
 20
0.0
 30
0.0
  0
VERTEX
  5
D2
330
D1
100
AcDbEntity
  8
_U+30EC_U+30A4_U+30E4_U+30FC 1
 62
   179
420
  2234388
370
     9
100
AcDbVertex
100
AcDb2dVertex
 10
104.9320892674038
 20
-143.6627174640843
 30
0.0
  0
VERTEX
  5
D3
330
D1
100
AcDbEntity
  8
_U+30EC_U+30A4_U+30E4_U+30FC 1
 62
   179
420
  2234388
370
     9
100
AcDbVertex
100
AcDb2dVertex
 10
123.2917026878999
 20
-143.6627174640843
 30
0.0
  0
SEQEND
  5
D4
330
D1
100
AcDbEntity
  8
_U+30EC_U+30A4_U+30E4_U+30FC 1
 62
   179
420
  2234388
370
     9
  0
INSERT
  5
D6
330
1F
100
AcDbEntity
  8
_U+30EC_U+30A4_U+30E4_U+30FC 1
100
AcDbBlockReference
  2
block 5
 10
0.0
 20
0.0
 30
0.0
  0
POLYLINE
  5
E7
330
1F
100
AcDbEntity
  8
_U+30EC_U+30A4_U+30E4_U+30FC 1
 62
   179
420
  2234388
370
     9
100
AcDb2dPolyline
 66
     1
 10
0.0
 20
0.0
 30
0.0
  0
VERTEX
  5
E8
330
E7
100
AcDbEntity
  8
_U+30EC_U+30A4_U+30E4_U+30FC 1
 62
   179
420
  2234388
370
     9
100
AcDbVertex
100
AcDb2dVertex
 10
101.2920249746771
 20
-157.262406627351
 30
0.0
  0
VERTEX
  5
E9
330
E7
100
AcDbEntity
  8
_U+30EC_U+30A4_U+30E4_U+30FC 1
 62
   179
420
  2234388
370
     9
100
AcDbVertex
100
AcDb2dVertex
 10
91.29193683761532
 20
-157.262406627351
 30
0.0
  0
SEQEND
  5
EA
330
E7
100
AcDbEntity
  8
_U+30EC_U+30A4_U+30E4_U+30FC 1
 62
   179
420
  2234388
370
     9
  0
POLYLINE
  5
EB
330
1F
100
AcDbEntity
  8
_U+30EC_U+30A4_U+30E4_U+30FC 1
 62
   179
420
  2234388
370
     9
100
AcDb2dPolyline
 66
     1
 10
0.0
 20
0.0
 30
0.0
  0
VERTEX
  5
EC
330
EB
100
AcDbEntity
  8
_U+30EC_U+30A4_U+30E4_U+30FC 1
 62
   179
420
  2234388
370
     9
100
AcDbVertex
100
AcDb2dVertex
 10
101.2920249746771
 20
-155.8023652388273
 30
0.0
  0
VERTEX
  5
ED
330
EB
100
AcDbEntity
  8
_U+30EC_U+30A4_U+30E4_U+30FC 1
 62
   179
420
  2234388
370
     9
100
AcDbVertex
100
AcDb2dVertex
 10
101.2920249746771
 20
-158.2628491271009
 30
0.0
  0
SEQEND
  5
EE
330
EB
100
AcDbEntity
  8
_U+30EC_U+30A4_U+30E4_U+30FC 1
 62
   179
420
  2234388
370
     9
  0
POLYLINE
  5
EF
330
1F
100
AcDbEntity
  8
_U+30EC_U+30A4_U+30E4_U+30FC 1
 62
   179
420
  2234388
370
     9
100
AcDb2dPolyline
 66
     1
 10
0.0
 20
0.0
 30
0.0
  0
VERTEX
  5
F0
330
EF
100
AcDbEntity
  8
_U+30EC_U+30A4_U+30E4_U+30FC 1
 62
   179
420
  2234388
370
     9
100
AcDbVertex
100
AcDb2dVertex
 10
91.29193683761532
 20
-147.3028196853965
 30
0.0
  0
VERTEX
  5
F1
330
EF
100
AcDbEntity
  8
_U+30EC_U+30A4_U+30E4_U+30FC 1
 62
   179
420
  2234388
370
     9
100
AcDbVertex
100
AcDb2dVertex
 10
91.29193683761532
 20
-158.2628491271009
 30
0.0
  0
SEQEND
  5
F2
330
EF
100
AcDbEntity
  8
_U+30EC_U+30A4_U+30E4_U+30FC 1
 62
   179
420
  2234388
370
     9
  0
INSERT
  5
F4
330
1F
100
AcDbEntity
  8
_U+30EC_U+30A4_U+30E4_U+30FC 1
100
AcDbBlockReference
  2
block 6
 10
0.0
 20
0.0
 30
0.0
  0
ENDSEC
  0
SECTION
  2
OBJECTS
  0
DICTIONARY
  5
C
330
0
100
AcDbDictionary
281
     1
  3
ACAD_GROUP
350
D
  3
ACAD_LAYOUT
350
1A
  3
ACAD_MATERIAL
350
3B
  3
ACAD_MLEADERSTYLE
350
FD
  3
ACAD_MLINESTYLE
350
17
  3
ACAD_PLOTSETTINGS
350
19
  3
ACAD_PLOTSTYLENAME
350
E
  3
ACAD_TABLESTYLE
350
FC
  3
ACAD_VISUALSTYLE
350
2A
  0
SUN
  5
3F
330
29
100
AcDbSun
 90
        1
290
     0
 63
     7
421
 16777215
 40
1.0
291
     1
 91
  2455826
 92
 54000000
292
     0
 70
     2
 71
   256
280
     1
  0
DICTIONARY
  5
D
102
{ACAD_REACTORS
330
C
102
}
330
C
100
AcDbDictionary
281
     1
  0
DICTIONARY
  5
1A
102
{ACAD_REACTORS
330
C
102
}
330
C
100
AcDbDictionary
281
     1
  3
Layout1
350
1E
  3
Layout2
350
26
  3
Model
350
22
  0
DICTIONARY
  5
3B
102
{ACAD_REACTORS
330
C
102
}
330
C
100
AcDbDictionary
281
     1
  3
ByBlock
350
3D
  3
ByLayer
350
3C
  3
Global
350
3E
  0
DICTIONARY
  5
FD
102
{ACAD_REACTORS
330
C
102
}
330
C
100
AcDbDictionary
281
     1
  0
DICTIONARY
  5
17
102
{ACAD_REACTORS
330
C
102
}
330
C
100
AcDbDictionary
281
     1
  3
Standard
350
18
  0
DICTIONARY
  5
19
102
{ACAD_REACTORS
330
C
102
}
330
C
100
AcDbDictionary
281
     1
  0
ACDBDICTIONARYWDFLT
  5
E
102
{ACAD_REACTORS
330
C
102
}
330
C
100
AcDbDictionary
281
     1
  3
Normal
350
F
100
AcDbDictionaryWithDefault
340
F
  0
DICTIONARY
  5
FC
102
{ACAD_REACTORS
330
C
102
}
330
C
100
AcDbDictionary
281
     1
  0
DICTIONARY
  5
2A
102
{ACAD_REACTORS
330
C
102
}
330
C
100
AcDbDictionary
281
     1
  3
2dWireframe
350
2F
  3
3D Hidden
350
31
  3
3dWireframe
350
30
  3
Basic
350
32
  3
Brighten
350
36
  3
ColorChange
350
3A
  3
Conceptual
350
34
  3
Dim
350
35
  3
Facepattern
350
39
  3
Flat
350
2B
  3
FlatWithEdges
350
2C
  3
Gouraud
350
2D
  3
GouraudWithEdges
350
2E
  3
Linepattern
350
38
  3
Realistic
350
33
  3
Thicken
350
37
  0
LAYOUT
  5
1E
102
{ACAD_REACTORS
330
1A
102
}
330
1A
100
AcDbPlotSettings
  1

  2
none_device
  4

  6

 40
0.0
 41
0.0
 42
0.0
 43
0.0
 44
0.0
 45
0.0
 46
0.0
 47
0.0
 48
0.0
 49
0.0
140
0.0
141
0.0
142
1.0
143
1.0
 70
   688
 72
     0
 73
     0
 74
     5
  7

 75
    16
 76
     0
 77
     2
 78
   300
147
1.0
148
0.0
149
0.0
100
AcDbLayout
  1
Layout1
 70
     1
 71
     1
 10
0.0
 20
0.0
 11
12.0
 21
9.0
 12
0.0
 22
0.0
 32
0.0
 14
1.000000000000000E+20
 24
1.000000000000000E+20
 34
1.000000000000000E+20
 15
-1.000000000000000E+20
 25
-1.000000000000000E+20
 35
-1.000000000000000E+20
146
0.0
 13
0.0
 23
0.0
 33
0.0
 16
1.0
 26
0.0
 36
0.0
 17
0.0
 27
1.0
 37
0.0
 76
     0
330
1B
  0
LAYOUT
  5
26
102
{ACAD_REACTORS
330
1A
102
}
330
1A
100
AcDbPlotSettings
  1

  2
none_device
  4

  6

 40
0.0
 41
0.0
 42
0.0
 43
0.0
 44
0.0
 45
0.0
 46
0.0
 47
0.0
 48
0.0
 49
0.0
140
0.0
141
0.0
142
1.0
143
1.0
 70
   688
 72
     0
 73
     0
 74
     5
  7

 75
    16
 76
     0
 77
     2
 78
   300
147
1.0
148
0.0
149
0.0
100
AcDbLayout
  1
Layout2
 70
     1
 71
     2
 10
0.0
 20
0.0
 11
0.0
 21
0.0
 12
0.0
 22
0.0
 32
0.0
 14
0.0
 24
0.0
 34
0.0
 15
0.0
 25
0.0
 35
0.0
146
0.0
 13
0.0
 23
0.0
 33
0.0
 16
1.0
 26
0.0
 36
0.0
 17
0.0
 27
1.0
 37
0.0
 76
     0
330
23
  0
LAYOUT
  5
22
102
{ACAD_REACTORS
330
1A
102
}
330
1A
100
AcDbPlotSettings
  1

  2
none_device
  4

  6

 40
0.0
 41
0.0
 42
0.0
 43
0.0
 44
0.0
 45
0.0
 46
0.0
 47
0.0
 48
0.0
 49
0.0
140
0.0
141
0.0
142
1.0
143
1.0
 70
  1712
 72
     0
 73
     0
 74
     0
  7

 75
     0
 76
     0
 77
     2
 78
   300
147
1.0
148
0.0
149
0.0
100
AcDbLayout
  1
Model
 70
     1
 71
     0
 10
0.0
 20
0.0
 11
12.0
 21
9.0
 12
0.0
 22
0.0
 32
0.0
 14
1.000000000000000E+20
 24
1.000000000000000E+20
 34
1.000000000000000E+20
 15
-1.000000000000000E+20
 25
-1.000000000000000E+20
 35
-1.000000000000000E+20
146
0.0
 13
0.0
 23
0.0
 33
0.0
 16
1.0
 26
0.0
 36
0.0
 17
0.0
 27
1.0
 37
0.0
 76
     0
330
1F
331
29
  0
MATERIAL
  5
3D
102
{ACAD_REACTORS
330
3B
102
}
330
3B
100
AcDbMaterial
  1
ByBlock
 72
     1
 94
      127
  0
MATERIAL
  5
3C
102
{ACAD_REACTORS
330
3B
102
}
330
3B
100
AcDbMaterial
  1
ByLayer
 72
     1
 94
      127
  0
MATERIAL
  5
3E
102
{ACAD_REACTORS
330
3B
102
}
330
3B
100
AcDbMaterial
  1
Global
 72
     1
 94
      127
  0
MLINESTYLE
  5
18
102
{ACAD_REACTORS
330
17
102
}
330
17
100
AcDbMlineStyle
  2
Standard
 70
     0
  3

 62
   256
 51
90.0
 52
90.0
 71
     2
 49
0.5
 62
   256
  6
BYLAYER
 49
-0.5
 62
   256
  6
BYLAYER
  0
ACDBPLACEHOLDER
  5
F
102
{ACAD_REACTORS
330
E
102
}
330
E
  0
VISUALSTYLE
  5
2F
102
{ACAD_REACTORS
330
2A
102
}
330
2A
100
AcDbVisualStyle
  2
2dWireframe
 70
     4
177
     2
291
     0
 71
     0
176
     1
 72
     2
176
     1
 73
     0
176
     1
 90
        0
176
     1
 40
-0.6
176
     1
 41
-30.0
176
     1
 62
     5
 63
     7
421
 16777215
176
     1
 74
     1
176
     1
 91
        4
176
     1
 64
     7
176
     1
 65
   257
176
     1
 75
     1
176
     1
175
     1
176
     1
 42
1.0
176
     1
 92
        0
176
     1
 66
   257
176
     1
 43
1.0
176
     1
 76
     1
176
     1
 77
     6
176
     1
 78
     2
176
     1
 67
     7
176
     1
 79
     5
176
     1
170
     0
176
     1
171
     0
176
     1
290
     0
176
     1
 93
        1
176
     1
 44
0.0
176
     1
173
     0
176
     1
  0
VISUALSTYLE
  5
31
102
{ACAD_REACTORS
330
2A
102
}
330
2A
100
AcDbVisualStyle
  2
3D Hidden
 70
     6
177
     2
291
     0
 71
     1
176
     1
 72
     2
176
     1
 73
     2
176
     1
 90
        0
176
     1
 40
-0.6
176
     1
 41
-30.0
176
     1
 62
     5
 63
     7
421
 16777215
176
     1
 74
     2
176
     1
 91
        2
176
     1
 64
     7
176
     1
 65
   257
176
     1
 75
     2
176
     1
175
     1
176
     1
 42
40.0
176
     1
 92
        0
176
     1
 66
   257
176
     1
 43
1.0
176
     1
 76
     1
176
     1
 77
     6
176
     1
 78
     2
176
     1
 67
     7
176
     1
 79
     3
176
     1
170
     0
176
     1
171
     0
176
     1
290
     0
176
     1
 93
        1
176
     1
 44
0.0
176
     1
173
     0
176
     1
  0
VISUALSTYLE
  5
30
102
{ACAD_REACTORS
330
2A
102
}
330
2A
100
AcDbVisualStyle
  2
3dWireframe
 70
     5
177
     2
291
     0
 71
     0
176
     1
 72
     2
176
     1
 73
     0
176
     1
 90
        0
176
     1
 40
-0.6
176
     1
 41
-30.0
176
     1
 62
     5
 63
     7
421
 16777215
176
     1
 74
     1
176
     1
 91
        4
176
     1
 64
     7
176
     1
 65
   257
176
     1
 75
     1
176
     1
175
     1
176
     1
 42
1.0
176
     1
 92
        0
176
     1
 66
   257
176
     1
 43
1.0
176
     1
 76
     1
176
     1
 77
     6
176
     1
 78
     2
176
     1
 67
     7
176
     1
 79
     5
176
     1
170
     0
176
     1
171
     0
176
     1
290
     0
176
     1
 93
        1
176
     1
 44
0.0
176
     1
173
     0
176
     1
  0
VISUALSTYLE
  5
32
102
{ACAD_REACTORS
330
2A
102
}
330
2A
100
AcDbVisualStyle
  2
Basic
 70
     7
177
     2
291
     1
 71
     1
176
     1
 72
     0
176
     1
 73
     1
176
     1
 90
        0
176
     1
 40
-0.6
176
     1
 41
-30.0
176
     1
 62
     5
 63
     7
421
 16777215
176
     1
 74
     0
176
     1
 91
        4
176
     1
 64
     7
176
     1
 65
   257
176
     1
 75
     1
176
     1
175
     1
176
     1
 42
1.0
176
     1
 92
        8
176
     1
 66
     7
176
     1
 43
1.0
176
     1
 76
     1
176
     1
 77
     6
176
     1
 78
     2
176
     1
 67
     7
176
     1
 79
     5
176
     1
170
     0
176
     1
171
     0
176
     1
290
     0
176
     1
 93
        1
176
     1
 44
0.0
176
     1
173
     0
176
     1
  0
VISUALSTYLE
  5
36
102
{ACAD_REACTORS
330
2A
102
}
330
2A
100
AcDbVisualStyle
  2
Brighten
 70
    12
177
     2
291
     1
 71
     2
176
     1
 72
     2
176
     1
 73
     0
176
     1
 90
        0
176
     1
 40
-0.6
176
     1
 41
-30.0
176
     1
 62
     5
 63
     7
421
 16777215
176
     1
 74
     1
176
     1
 91
        4
176
     1
 64
     7
176
     1
 65
   257
176
     1
 75
     1
176
     1
175
     1
176
     1
 42
1.0
176
     1
 92
        8
176
     1
 66
     7
176
     1
 43
1.0
176
     1
 76
     1
176
     1
 77
     6
176
     1
 78
     2
176
     1
 67
     7
176
     1
 79
     5
176
     1
170
     0
176
     1
171
     0
176
     1
290
     0
176
     1
 93
        1
176
     1
 44
50.0
176
     1
173
     0
176
     1
  0
VISUALSTYLE
  5
3A
102
{ACAD_REACTORS
330
2A
102
}
330
2A
100
AcDbVisualStyle
  2
ColorChange
 70
    16
177
     2
291
     1
 71
     2
176
     1
 72
     2
176
     1
 73
     3
176
     1
 90
        0
176
     1
 40
-0.6
176
     1
 41
-30.0
176
     1
 62
     5
 63
     8
421
  8421504
176
     1
 74
     1
176
     1
 91
        4
176
     1
 64
     7
176
     1
 65
   257
176
     1
 75
     1
176
     1
175
     1
176
     1
 42
1.0
176
     1
 92
        8
176
     1
 66
     8
424
  8421504
176
     1
 43
1.0
176
     1
 76
     1
176
     1
 77
     6
176
     1
 78
     2
176
     1
 67
     7
176
     1
 79
     5
176
     1
170
     0
176
     1
171
     0
176
     1
290
     0
176
     1
 93
        1
176
     1
 44
0.0
176
     1
173
     0
176
     1
  0
VISUALSTYLE
  5
34
102
{ACAD_REACTORS
330
2A
102
}
330
2A
100
AcDbVisualStyle
  2
Conceptual
 70
     9
177
     2
291
     0
 71
     3
176
     1
 72
     2
176
     1
 73
     0
176
     1
 90
        0
176
     1
 40
-0.6
176
     1
 41
-30.0
176
     1
 62
     5
 63
     7
421
 16777215
176
     1
 74
     2
176
     1
 91
        2
176
     1
 64
     7
176
     1
 65
   257
176
     1
 75
     1
176
     1
175
     1
176
     1
 42
40.0
176
     1
 92
        8
176
     1
 66
     7
176
     1
 43
1.0
176
     1
 76
     1
176
     1
 77
     6
176
     1
 78
     2
176
     1
 67
     7
176
     1
 79
     3
176
     1
170
     0
176
     1
171
     0
176
     1
290
     0
176
     1
 93
        1
176
     1
 44
0.0
176
     1
173
     0
176
     1
  0
VISUALSTYLE
  5
35
102
{ACAD_REACTORS
330
2A
102
}
330
2A
100
AcDbVisualStyle
  2
Dim
 70
    11
177
     2
291
     1
 71
     2
176
     1
 72
     2
176
     1
 73
     0
176
     1
 90
        0
176
     1
 40
-0.6
176
     1
 41
-30.0
176
     1
 62
     5
 63
     7
421
 16777215
176
     1
 74
     1
176
     1
 91
        4
176
     1
 64
     7
176
     1
 65
   257
176
     1
 75
     1
176
     1
175
     1
176
     1
 42
1.0
176
     1
 92
        8
176
     1
 66
     7
176
     1
 43
1.0
176
     1
 76
     1
176
     1
 77
     6
176
     1
 78
     2
176
     1
 67
     7
176
     1
 79
     5
176
     1
170
     0
176
     1
171
     0
176
     1
290
     0
176
     1
 93
        1
176
     1
 44
-50.0
176
     1
173
     0
176
     1
  0
VISUALSTYLE
  5
39
102
{ACAD_REACTORS
330
2A
102
}
330
2A
100
AcDbVisualStyle
  2
Facepattern
 70
    15
177
     2
291
     1
 71
     2
176
     1
 72
     2
176
     1
 73
     0
176
     1
 90
        0
176
     1
 40
-0.6
176
     1
 41
-30.0
176
     1
 62
     5
 63
     7
421
 16777215
176
     1
 74
     1
176
     1
 91
        4
176
     1
 64
     7
176
     1
 65
   257
176
     1
 75
     1
176
     1
175
     1
176
     1
 42
1.0
176
     1
 92
        8
176
     1
 66
     7
176
     1
 43
1.0
176
     1
 76
     1
176
     1
 77
     6
176
     1
 78
     2
176
     1
 67
     7
176
     1
 79
     5
176
     1
170
     0
176
     1
171
     0
176
     1
290
     0
176
     1
 93
        1
176
     1
 44
0.0
176
     1
173
     0
176
     1
  0
VISUALSTYLE
  5
2B
102
{ACAD_REACTORS
330
2A
102
}
330
2A
100
AcDbVisualStyle
  2
Flat
 70
     0
177
     2
291
     1
 71
     2
176
     1
 72
     1
176
     1
 73
     1
176
     1
 90
        2
176
     1
 40
-0.6
176
     1
 41
30.0
176
     1
 62
     5
 63
     7
421
 16777215
176
     1
 74
     0
176
     1
 91
        4
176
     1
 64
     7
176
     1
 65
   257
176
     1
 75
     1
176
     1
175
     1
176
     1
 42
1.0
176
     1
 92
        8
176
     1
 66
     7
176
     1
 43
1.0
176
     1
 76
     1
176
     1
 77
     6
176
     1
 78
     2
176
     1
 67
     7
176
     1
 79
     5
176
     1
170
     0
176
     1
171
     0
176
     1
290
     0
176
     1
 93
       13
176
     1
 44
0.0
176
     1
173
     0
176
     1
  0
VISUALSTYLE
  5
2C
102
{ACAD_REACTORS
330
2A
102
}
330
2A
100
AcDbVisualStyle
  2
FlatWithEdges
 70
     1
177
     2
291
     1
 71
     2
176
     1
 72
     1
176
     1
 73
     1
176
     1
 90
        2
176
     1
 40
-0.6
176
     1
 41
30.0
176
     1
 62
     5
 63
     7
421
 16777215
176
     1
 74
     1
176
     1
 91
        4
176
     1
 64
     7
176
     1
 65
   257
176
     1
 75
     1
176
     1
175
     1
176
     1
 42
1.0
176
     1
 92
        0
176
     1
 66
   257
176
     1
 43
1.0
176
     1
 76
     1
176
     1
 77
     6
176
     1
 78
     2
176
     1
 67
     7
176
     1
 79
     5
176
     1
170
     0
176
     1
171
     0
176
     1
290
     0
176
     1
 93
       13
176
     1
 44
0.0
176
     1
173
     0
176
     1
  0
VISUALSTYLE
  5
2D
102
{ACAD_REACTORS
330
2A
102
}
330
2A
100
AcDbVisualStyle
  2
Gouraud
 70
     2
177
     2
291
     1
 71
     2
176
     1
 72
     2
176
     1
 73
     1
176
     1
 90
        2
176
     1
 40
-0.6
176
     1
 41
30.0
176
     1
 62
     5
 63
     7
421
 16777215
176
     1
 74
     0
176
     1
 91
        4
176
     1
 64
     7
176
     1
 65
   257
176
     1
 75
     1
176
     1
175
     1
176
     1
 42
1.0
176
     1
 92
        0
176
     1
 66
     7
176
     1
 43
1.0
176
     1
 76
     1
176
     1
 77
     6
176
     1
 78
     2
176
     1
 67
     7
176
     1
 79
     5
176
     1
170
     0
176
     1
171
     0
176
     1
290
     0
176
     1
 93
       13
176
     1
 44
0.0
176
     1
173
     0
176
     1
  0
VISUALSTYLE
  5
2E
102
{ACAD_REACTORS
330
2A
102
}
330
2A
100
AcDbVisualStyle
  2
GouraudWithEdges
 70
     3
177
     2
291
     1
 71
     2
176
     1
 72
     2
176
     1
 73
     1
176
     1
 90
        2
176
     1
 40
-0.6
176
     1
 41
30.0
176
     1
 62
     5
 63
     7
421
 16777215
176
     1
 74
     1
176
     1
 91
        4
176
     1
 64
     7
176
     1
 65
   257
176
     1
 75
     1
176
     1
175
     1
176
     1
 42
1.0
176
     1
 92
        0
176
     1
 66
   257
176
     1
 43
1.0
176
     1
 76
     1
176
     1
 77
     6
176
     1
 78
     2
176
     1
 67
     7
176
     1
 79
     5
176
     1
170
     0
176
     1
171
     0
176
     1
290
     0
176
     1
 93
       13
176
     1
 44
0.0
176
     1
173
     0
176
     1
  0
VISUALSTYLE
  5
38
102
{ACAD_REACTORS
330
2A
102
}
330
2A
100
AcDbVisualStyle
  2
Linepattern
 70
    14
177
     2
291
     1
 71
     2
176
     1
 72
     2
176
     1
 73
     0
176
     1
 90
        0
176
     1
 40
-0.6
176
     1
 41
-30.0
176
     1
 62
     5
 63
     7
421
 16777215
176
     1
 74
     1
176
     1
 91
        4
176
     1
 64
     7
176
     1
 65
   257
176
     1
 75
     7
176
     1
175
     7
176
     1
 42
1.0
176
     1
 92
        8
176
     1
 66
     7
176
     1
 43
1.0
176
     1
 76
     1
176
     1
 77
     6
176
     1
 78
     2
176
     1
 67
     7
176
     1
 79
     5
176
     1
170
     0
176
     1
171
     0
176
     1
290
     0
176
     1
 93
        1
176
     1
 44
0.0
176
     1
173
     0
176
     1
  0
VISUALSTYLE
  5
33
102
{ACAD_REACTORS
330
2A
102
}
330
2A
100
AcDbVisualStyle
  2
Realistic
 70
     8
177
     2
291
     0
 71
     2
176
     1
 72
     2
176
     1
 73
     0
176
     1
 90
        0
176
     1
 40
-0.6
176
     1
 41
-30.0
176
     1
 62
     5
 63
     7
421
 16777215
176
     1
 74
     1
176
     1
 91
        0
176
     1
 64
     7
176
     1
 65
   257
176
     1
 75
     1
176
     1
175
     1
176
     1
 42
1.0
176
     1
 92
        8
176
     1
 66
     8
424
  7895160
176
     1
 43
1.0
176
     1
 76
     1
176
     1
 77
     6
176
     1
 78
     2
176
     1
 67
     7
176
     1
 79
     5
176
     1
170
     0
176
     1
171
     0
176
     1
290
     0
176
     1
 93
       13
176
     1
 44
0.0
176
     1
173
     0
176
     1
  0
VISUALSTYLE
  5
37
102
{ACAD_REACTORS
330
2A
102
}
330
2A
100
AcDbVisualStyle
  2
Thicken
 70
    13
177
     2
291
     1
 71
     2
176
     1
 72
     2
176
     1
 73
     0
176
     1
 90
        0
176
     1
 40
-0.6
176
     1
 41
-30.0
176
     1
 62
     5
 63
     7
421
 16777215
176
     1
 74
     1
176
     1
 91
        4
176
     1
 64
     7
176
     1
 65
   257
176
     1
 75
     1
176
     1
175
     1
176
     1
 42
1.0
176
     1
 92
       12
176
     1
 66
     7
176
     1
 43
1.0
176
     1
 76
     1
176
     1
 77
     6
176
     1
 78
     2
176
     1
 67
     7
176
     1
 79
     5
176
     1
170
     0
176
     1
171
     0
176
     1
290
     0
176
     1
 93
        1
176
     1
 44
0.0
176
     1
173
     0
176
     1
  0
ENDSEC
  0
EOF
