  0
SECTION
  2
HEADER
  9
$ACADVER
  1
AC1024
  9
$ACADMAINTVER
 70
   226
  9
$DWGCODEPAGE
  3
ANSI_932
  9
$INSBASE
 10
0.0
 20
0.0
 30
0.0
  9
$EXTMIN
 10
1.000000000000000E+20
 20
1.000000000000000E+20
 30
1.000000000000000E+20
  9
$EXTMAX
 10
-1.000000000000000E+20
 20
-1.000000000000000E+20
 30
-1.000000000000000E+20
  9
$LIMMIN
 10
0.0
 20
0.0
  9
$LIMMAX
 10
12.0
 20
9.0
  9
$ORTHOMODE
 70
     0
  9
$REGENMODE
 70
     1
  9
$FILLMODE
 70
     1
  9
$QTEXTMODE
 70
     0
  9
$MIRRTEXT
 70
     0
  9
$LTSCALE
 40
1.0
  9
$ATTMODE
 70
     1
  9
$TEXTSIZE
 40
0.2
  9
$TRACEWID
 40
0.05
  9
$TEXTSTYLE
  7
Standard
  9
$CLAYER
  8
0
  9
$CELTYPE
  6
ByLayer
  9
$CECOLOR
 62
   256
  9
$CELTSCALE
 40
1.0
  9
$DISPSILH
 70
     0
  9
$DIMSCALE
 40
1.0
  9
$DIMASZ
 40
0.18
  9
$DIMEXO
 40
0.0625
  9
$DIMDLI
 40
0.38
  9
$DIMRND
 40
0.0
  9
$DIMDLE
 40
0.0
  9
$DIMEXE
 40
0.18
  9
$DIMTP
 40
0.0
  9
$DIMTM
 40
0.0
  9
$DIMTXT
 40
0.18
  9
$DIMCEN
 40
0.09
  9
$DIMTSZ
 40
0.0
  9
$DIMTOL
 70
     0
  9
$DIMLIM
 70
     0
  9
$DIMTIH
 70
     1
  9
$DIMTOH
 70
     1
  9
$DIMSE1
 70
     0
  9
$DIMSE2
 70
     0
  9
$DIMTAD
 70
     0
  9
$DIMZIN
 70
     0
  9
$DIMBLK
  1

  9
$DIMASO
 70
     1
  9
$DIMSHO
 70
     1
  9
$DIMPOST
  1

  9
$DIMAPOST
  1

  9
$DIMALT
 70
     0
  9
$DIMALTD
 70
     2
  9
$DIMALTF
 40
25.4
  9
$DIMLFAC
 40
1.0
  9
$DIMTOFL
 70
     0
  9
$DIMTVP
 40
0.0
  9
$DIMTIX
 70
     0
  9
$DIMSOXD
 70
     0
  9
$DIMSAH
 70
     0
  9
$DIMBLK1
  1

  9
$DIMBLK2
  1

  9
$DIMSTYLE
  2
Standard
  9
$DIMCLRD
 70
     0
  9
$DIMCLRE
 70
     0
  9
$DIMCLRT
 70
     0
  9
$DIMTFAC
 40
1.0
  9
$DIMGAP
 40
0.09
  9
$DIMJUST
 70
     0
  9
$DIMSD1
 70
     0
  9
$DIMSD2
 70
     0
  9
$DIMTOLJ
 70
     1
  9
$DIMTZIN
 70
     0
  9
$DIMALTZ
 70
     0
  9
$DIMALTTZ
 70
     0
  9
$DIMUPT
 70
     0
  9
$DIMDEC
 70
     4
  9
$DIMTDEC
 70
     4
  9
$DIMALTU
 70
     2
  9
$DIMALTTD
 70
     2
  9
$DIMTXSTY
  7
Standard
  9
$DIMAUNIT
 70
     0
  9
$DIMADEC
 70
     0
  9
$DIMALTRND
 40
0.0
  9
$DIMAZIN
 70
     0
  9
$DIMDSEP
 70
    46
  9
$DIMATFIT
 70
     3
  9
$DIMFRAC
 70
     0
  9
$DIMLDRBLK
  1

  9
$DIMLUNIT
 70
     2
  9
$DIMLWD
 70
    -2
  9
$DIMLWE
 70
    -2
  9
$DIMTMOVE
 70
     0
  9
$DIMFXL
 40
1.0
  9
$DIMFXLON
 70
     0
  9
$DIMJOGANG
 40
0.7853981633974483
  9
$DIMTFILL
 70
     0
  9
$DIMTFILLCLR
 70
     0
  9
$DIMARCSYM
 70
     0
  9
$DIMLTYPE
  6

  9
$DIMLTEX1
  6

  9
$DIMLTEX2
  6

  9
$DIMTXTDIRECTION
 70
     0
  9
$LUNITS
 70
     2
  9
$LUPREC
 70
     4
  9
$SKETCHINC
 40
0.1
  9
$FILLETRAD
 40
0.0
  9
$AUNITS
 70
     0
  9
$AUPREC
 70
     0
  9
$MENU
  1
.
  9
$ELEVATION
 40
0.0
  9
$PELEVATION
 40
0.0
  9
$THICKNESS
 40
0.0
  9
$LIMCHECK
 70
     0
  9
$CHAMFERA
 40
0.0
  9
$CHAMFERB
 40
0.0
  9
$CHAMFERC
 40
0.0
  9
$CHAMFERD
 40
0.0
  9
$SKPOLY
 70
     0
  9
$TDCREATE
 40
2459676.424606481
  9
$TDUCREATE
 40
2459676.049606482
  9
$TDUPDATE
 40
2459676.424606481
  9
$TDUUPDATE
 40
2459676.049606482
  9
$TDINDWG
 40
0.0000000000
  9
$TDUSRTIMER
 40
0.0000000000
  9
$USRTIMER
 70
     1
  9
$ANGBASE
 50
0.0
  9
$ANGDIR
 70
     0
  9
$PDMODE
 70
     0
  9
$PDSIZE
 40
0.0
  9
$PLINEWID
 40
0.0
  9
$SPLFRAME
 70
     0
  9
$SPLINETYPE
 70
     6
  9
$SPLINESEGS
 70
     8
  9
$HANDSEED
  5
145
  9
$SURFTAB1
 70
     6
  9
$SURFTAB2
 70
     6
  9
$SURFTYPE
 70
     6
  9
$SURFU
 70
     6
  9
$SURFV
 70
     6
  9
$UCSBASE
  2

  9
$UCSNAME
  2

  9
$UCSORG
 10
0.0
 20
0.0
 30
0.0
  9
$UCSXDIR
 10
1.0
 20
0.0
 30
0.0
  9
$UCSYDIR
 10
0.0
 20
1.0
 30
0.0
  9
$UCSORTHOREF
  2

  9
$UCSORTHOVIEW
 70
     0
  9
$UCSORGTOP
 10
0.0
 20
0.0
 30
0.0
  9
$UCSORGBOTTOM
 10
0.0
 20
0.0
 30
0.0
  9
$UCSORGLEFT
 10
0.0
 20
0.0
 30
0.0
  9
$UCSORGRIGHT
 10
0.0
 20
0.0
 30
0.0
  9
$UCSORGFRONT
 10
0.0
 20
0.0
 30
0.0
  9
$UCSORGBACK
 10
0.0
 20
0.0
 30
0.0
  9
$PUCSBASE
  2

  9
$PUCSNAME
  2

  9
$PUCSORG
 10
0.0
 20
0.0
 30
0.0
  9
$PUCSXDIR
 10
1.0
 20
0.0
 30
0.0
  9
$PUCSYDIR
 10
0.0
 20
1.0
 30
0.0
  9
$PUCSORTHOREF
  2

  9
$PUCSORTHOVIEW
 70
     0
  9
$PUCSORGTOP
 10
0.0
 20
0.0
 30
0.0
  9
$PUCSORGBOTTOM
 10
0.0
 20
0.0
 30
0.0
  9
$PUCSORGLEFT
 10
0.0
 20
0.0
 30
0.0
  9
$PUCSORGRIGHT
 10
0.0
 20
0.0
 30
0.0
  9
$PUCSORGFRONT
 10
0.0
 20
0.0
 30
0.0
  9
$PUCSORGBACK
 10
0.0
 20
0.0
 30
0.0
  9
$USERI1
 70
     0
  9
$USERI2
 70
     0
  9
$USERI3
 70
     0
  9
$USERI4
 70
     0
  9
$USERI5
 70
     0
  9
$USERR1
 40
0.0
  9
$USERR2
 40
0.0
  9
$USERR3
 40
0.0
  9
$USERR4
 40
0.0
  9
$USERR5
 40
0.0
  9
$WORLDVIEW
 70
     1
  9
$SHADEDGE
 70
     3
  9
$SHADEDIF
 70
    70
  9
$TILEMODE
 70
     1
  9
$MAXACTVP
 70
    64
  9
$PINSBASE
 10
0.0
 20
0.0
 30
0.0
  9
$PLIMCHECK
 70
     0
  9
$PEXTMIN
 10
1.000000000000000E+20
 20
1.000000000000000E+20
 30
1.000000000000000E+20
  9
$PEXTMAX
 10
-1.000000000000000E+20
 20
-1.000000000000000E+20
 30
-1.000000000000000E+20
  9
$PLIMMIN
 10
0.0
 20
0.0
  9
$PLIMMAX
 10
12.0
 20
9.0
  9
$UNITMODE
 70
     0
  9
$VISRETAIN
 70
     1
  9
$PLINEGEN
 70
     0
  9
$PSLTSCALE
 70
     1
  9
$TREEDEPTH
 70
  3020
  9
$CMLSTYLE
  2
Standard
  9
$CMLJUST
 70
     0
  9
$CMLSCALE
 40
1.0
  9
$PROXYGRAPHICS
 70
     1
  9
$MEASUREMENT
 70
     0
  9
$CELWEIGHT
370
    -1
  9
$ENDCAPS
280
     0
  9
$JOINSTYLE
280
     0
  9
$LWDISPLAY
290
     1
  9
$INSUNITS
 70
     4
  9
$HYPERLINKBASE
  1

  9
$STYLESHEET
  1

  9
$XEDIT
290
     1
  9
$CEPSNTYPE
380
     0
  9
$PSTYLEMODE
290
     1
  9
$FINGERPRINTGUID
  2
{41A87FF8-805B-7347-8516-2912E7A5783A}
  9
$VERSIONGUID
  2
{0495B13A-1E4F-6D41-969A-3A5F75B4F529}
  9
$EXTNAMES
290
     1
  9
$PSVPSCALE
 40
0.0
  9
$OLESTARTUP
290
     0
  9
$SORTENTS
280
   127
  9
$INDEXCTL
280
     0
  9
$HIDETEXT
280
     1
  9
$XCLIPFRAME
280
     2
  9
$HALOGAP
280
     0
  9
$OBSCOLOR
 70
   257
  9
$OBSLTYPE
280
     0
  9
$INTERSECTIONDISPLAY
280
     0
  9
$INTERSECTIONCOLOR
 70
   257
  9
$DIMASSOC
280
     2
  9
$PROJECTNAME
  1

  9
$CAMERADISPLAY
290
     0
  9
$LENSLENGTH
 40
50.0
  9
$CAMERAHEIGHT
 40
0.0
  9
$STEPSPERSEC
 40
2.0
  9
$STEPSIZE
 40
6.0
  9
$3DDWFPREC
 40
2.0
  9
$PSOLWIDTH
 40
0.25
  9
$PSOLHEIGHT
 40
4.0
  9
$LOFTANG1
 40
1.570796326794896
  9
$LOFTANG2
 40
1.570796326794896
  9
$LOFTMAG1
 40
0.0
  9
$LOFTMAG2
 40
0.0
  9
$LOFTPARAM
 70
     7
  9
$LOFTNORMALS
280
     1
  9
$LATITUDE
 40
37.795
  9
$LONGITUDE
 40
-122.394
  9
$NORTHDIRECTION
 40
0.0
  9
$TIMEZONE
 70
 -8000
  9
$LIGHTGLYPHDISPLAY
280
     1
  9
$TILEMODELIGHTSYNCH
280
     1
  9
$CMATERIAL
347
11
  9
$SOLIDHIST
280
     0
  9
$SHOWHIST
280
     1
  9
$DWFFRAME
280
     2
  9
$DGNFRAME
280
     0
  9
$REALWORLDSCALE
290
     1
  9
$INTERFERECOLOR
 62
     1
  9
$INTERFEREOBJVS
345
33
  9
$INTERFEREVPVS
346
30
  9
$CSHADOW
280
     0
  9
$SHADOWPLANELOCATION
 40
0.0
  0
ENDSEC
  0
SECTION
  2
CLASSES
  0
CLASS
  1
ACDBDICTIONARYWDFLT
  2
AcDbDictionaryWithDefault
  3
ObjectDBX Classes
 90
        0
 91
        1
280
     0
281
     0
  0
CLASS
  1
MATERIAL
  2
AcDbMaterial
  3
ObjectDBX Classes
 90
     1153
 91
        3
280
     0
281
     0
  0
CLASS
  1
VISUALSTYLE
  2
AcDbVisualStyle
  3
ObjectDBX Classes
 90
     4095
 91
       24
280
     0
281
     0
  0
CLASS
  1
SCALE
  2
AcDbScale
  3
ObjectDBX Classes
 90
     1153
 91
       17
280
     0
281
     0
  0
CLASS
  1
TABLESTYLE
  2
AcDbTableStyle
  3
ObjectDBX Classes
 90
     4095
 91
        1
280
     0
281
     0
  0
CLASS
  1
MLEADERSTYLE
  2
AcDbMLeaderStyle
  3
ACDB_MLEADERSTYLE_CLASS
 90
     4095
 91
        1
280
     0
281
     0
  0
CLASS
  1
ACDBSECTIONVIEWSTYLE
  2
AcDbSectionViewStyle
  3
ObjectDBX Classes
 90
     1025
 91
        1
280
     0
281
     0
  0
CLASS
  1
ACDBDETAILVIEWSTYLE
  2
AcDbDetailViewStyle
  3
ObjectDBX Classes
 90
     1025
 91
        1
280
     0
281
     0
  0
CLASS
  1
DICTIONARYVAR
  2
AcDbDictionaryVar
  3
ObjectDBX Classes
 90
        0
 91
        5
280
     0
281
     0
  0
CLASS
  1
CELLSTYLEMAP
  2
AcDbCellStyleMap
  3
ObjectDBX Classes
 90
     1152
 91
        1
280
     0
281
     0
  0
ENDSEC
  0
SECTION
  2
TABLES
  0
TABLE
  2
VPORT
  5
8
330
0
100
AcDbSymbolTable
 70
     1
  0
VPORT
  5
57
330
8
100
AcDbSymbolTableRecord
100
AcDbViewportTableRecord
  2
*Active
 70
     0
 10
0.0
 20
0.0
 11
1.0
 21
1.0
 12
0.0
 22
0.0
 13
0.0
 23
0.0
 14
1.0
 24
1.0
 15
0.0
 25
0.0
 16
0.0
 26
0.0
 36
1.0
 17
104.9999999737534
 27
-148.4999999628701
 37
0.0
 40
302.939999924255
 41
0.7070707070707534
 42
50.0
 43
0.0
 44
0.0
 50
0.0
 51
0.0
 71
     0
 72
   100
 73
     1
 74
     0
 75
     1
 76
     0
 77
     0
 78
     0
281
     0
 65
     1
110
0.0
120
0.0
130
0.0
111
1.0
121
0.0
131
0.0
112
0.0
122
1.0
132
0.0
 79
     0
146
0.0
 60
     3
 61
     5
292
     1
282
     1
141
0.0
142
0.0
 63
   250
421
  3355443
  0
ENDTAB
  0
TABLE
  2
LTYPE
  5
5
330
0
100
AcDbSymbolTable
 70
     2
  0
LTYPE
  5
5B
330
5
100
AcDbSymbolTableRecord
100
AcDbLinetypeTableRecord
  2
ByBlock
 70
     0
  3

 72
    65
 73
     0
 40
0.0
  0
LTYPE
  5
5C
330
5
100
AcDbSymbolTableRecord
100
AcDbLinetypeTableRecord
  2
ByLayer
 70
     0
  3

 72
    65
 73
     0
 40
0.0
  0
LTYPE
  5
5D
330
5
100
AcDbSymbolTableRecord
100
AcDbLinetypeTableRecord
  2
Continuous
 70
     0
  3
Solid line
 72
    65
 73
     0
 40
0.0
  0
LTYPE
  5
7E
330
5
100
AcDbSymbolTableRecord
100
AcDbLinetypeTableRecord
  2
AI-Linetype-0
 70
     0
  3
Adobe Illustrator Linetype No. 0
 72
    65
 73
     2
 40
1.411111110758333
 49
0.7055555553791667
 74
     0
 49
-0.7055555553791667
 74
     0
  0
ENDTAB
  0
TABLE
  2
LAYER
  5
2
330
0
100
AcDbSymbolTable
 70
     2
  0
LAYER
  5
54
330
2
100
AcDbSymbolTableRecord
100
AcDbLayerTableRecord
  2
0
 70
     0
 62
     7
  6
Continuous
370
    -3
390
F
347
21
  0
LAYER
  5
78
330
2
100
AcDbSymbolTableRecord
100
AcDbLayerTableRecord
  2
レイヤー 1
 70
     0
 62
     7
  6
Continuous
370
     0
390
F
347
21
  0
ENDTAB
  0
TABLE
  2
STYLE
  5
3
330
0
100
AcDbSymbolTable
 70
     2
  0
STYLE
  5
55
330
3
100
AcDbSymbolTableRecord
100
AcDbTextStyleTableRecord
  2
Standard
 70
     0
 40
0.0
 41
1.0
 50
0.0
 71
     0
 42
0.2
  3
txt
  4

  0
STYLE
  5
5A
330
3
100
AcDbSymbolTableRecord
100
AcDbTextStyleTableRecord
  2
Annotative
 70
     0
 40
0.0
 41
1.0
 50
0.0
 71
     0
 42
0.2
  3
txt
  4

1001
AcadAnnotative
1000
AnnotativeData
1002
{
1070
     1
1070
     1
1002
}
  0
ENDTAB
  0
TABLE
  2
VIEW
  5
6
330
0
100
AcDbSymbolTable
 70
     0
  0
ENDTAB
  0
TABLE
  2
UCS
  5
7
330
0
100
AcDbSymbolTable
 70
     0
  0
ENDTAB
  0
TABLE
  2
APPID
  5
9
330
0
100
AcDbSymbolTable
 70
     2
  0
APPID
  5
56
330
9
100
AcDbSymbolTableRecord
100
AcDbRegAppTableRecord
  2
ACAD
 70
     0
  0
APPID
  5
5E
330
9
100
AcDbSymbolTableRecord
100
AcDbRegAppTableRecord
  2
AcadAnnotative
 70
     0
  0
ENDTAB
  0
TABLE
  2
DIMSTYLE
  5
A
330
0
100
AcDbSymbolTable
 70
     2
100
AcDbDimStyleTable
 71
     0
  0
DIMSTYLE
105
58
330
A
100
AcDbSymbolTableRecord
100
AcDbDimStyleTableRecord
  2
Standard
 70
     0
340
55
  0
DIMSTYLE
105
59
330
A
100
AcDbSymbolTableRecord
100
AcDbDimStyleTableRecord
  2
Annotative
 70
     0
340
55
1001
AcadAnnotative
1000
AnnotativeData
1002
{
1070
     1
1070
     1
1002
}
  0
ENDTAB
  0
TABLE
  2
BLOCK_RECORD
  5
1
330
0
100
AcDbSymbolTable
 70
    15
  0
BLOCK_RECORD
  5
70
330
1
100
AcDbSymbolTableRecord
100
AcDbBlockTableRecord
  2
*Model_Space
340
73
 70
     0
280
     1
281
     0
  0
BLOCK_RECORD
  5
6C
330
1
100
AcDbSymbolTableRecord
100
AcDbBlockTableRecord
  2
*Paper_Space
340
6F
 70
     0
280
     1
281
     0
  0
BLOCK_RECORD
  5
74
330
1
100
AcDbSymbolTableRecord
100
AcDbBlockTableRecord
  2
*Paper_Space0
340
77
 70
     0
280
     1
281
     0
  0
BLOCK_RECORD
  5
79
330
1
100
AcDbSymbolTableRecord
100
AcDbBlockTableRecord
  2
Block_0
340
0
102
{BLKREFS
331
7A
102
}
 70
     0
280
     1
281
     0
  0
BLOCK_RECORD
  5
7F
330
1
100
AcDbSymbolTableRecord
100
AcDbBlockTableRecord
  2
Block_1
340
0
102
{BLKREFS
331
80
102
}
 70
     0
280
     1
281
     0
  0
BLOCK_RECORD
  5
86
330
1
100
AcDbSymbolTableRecord
100
AcDbBlockTableRecord
  2
Block_2
340
0
102
{BLKREFS
331
87
102
}
 70
     0
280
     1
281
     0
  0
BLOCK_RECORD
  5
8A
330
1
100
AcDbSymbolTableRecord
100
AcDbBlockTableRecord
  2
Block_3
340
0
102
{BLKREFS
331
8B
102
}
 70
     0
280
     1
281
     0
  0
BLOCK_RECORD
  5
B7
330
1
100
AcDbSymbolTableRecord
100
AcDbBlockTableRecord
  2
Block_4
340
0
102
{BLKREFS
331
B8
102
}
 70
     0
280
     1
281
     0
  0
BLOCK_RECORD
  5
BB
330
1
100
AcDbSymbolTableRecord
100
AcDbBlockTableRecord
  2
Block_5
340
0
102
{BLKREFS
331
BC
102
}
 70
     0
280
     1
281
     0
  0
BLOCK_RECORD
  5
CB
330
1
100
AcDbSymbolTableRecord
100
AcDbBlockTableRecord
  2
Block_6
340
0
102
{BLKREFS
331
CC
102
}
 70
     0
280
     1
281
     0
  0
BLOCK_RECORD
  5
CF
330
1
100
AcDbSymbolTableRecord
100
AcDbBlockTableRecord
  2
Block_7
340
0
102
{BLKREFS
331
D0
102
}
 70
     0
280
     1
281
     0
  0
BLOCK_RECORD
  5
DB
330
1
100
AcDbSymbolTableRecord
100
AcDbBlockTableRecord
  2
Block_8
340
0
102
{BLKREFS
331
DC
102
}
 70
     0
280
     1
281
     0
  0
BLOCK_RECORD
  5
DF
330
1
100
AcDbSymbolTableRecord
100
AcDbBlockTableRecord
  2
Block_9
340
0
102
{BLKREFS
331
E0
102
}
 70
     0
280
     1
281
     0
  0
BLOCK_RECORD
  5
EE
330
1
100
AcDbSymbolTableRecord
100
AcDbBlockTableRecord
  2
Block_10
340
0
102
{BLKREFS
331
EF
102
}
 70
     0
280
     1
281
     0
  0
BLOCK_RECORD
  5
F2
330
1
100
AcDbSymbolTableRecord
100
AcDbBlockTableRecord
  2
Block_11
340
0
102
{BLKREFS
331
F3
102
}
 70
     0
280
     1
281
     0
  0
BLOCK_RECORD
  5
FA
330
1
100
AcDbSymbolTableRecord
100
AcDbBlockTableRecord
  2
Block_12
340
0
102
{BLKREFS
331
FB
102
}
 70
     0
280
     1
281
     0
  0
BLOCK_RECORD
  5
FE
330
1
100
AcDbSymbolTableRecord
100
AcDbBlockTableRecord
  2
Block_13
340
0
102
{BLKREFS
331
FF
102
}
 70
     0
280
     1
281
     0
  0
ENDTAB
  0
ENDSEC
  0
SECTION
  2
BLOCKS
  0
BLOCK
  5
71
330
70
100
AcDbEntity
  8
0
100
AcDbBlockBegin
  2
*Model_Space
 70
     0
 10
0.0
 20
0.0
 30
0.0
  3
*Model_Space
  1

  0
ENDBLK
  5
72
330
70
100
AcDbEntity
  8
0
100
AcDbBlockEnd
  0
BLOCK
  5
6D
330
6C
100
AcDbEntity
 67
     1
  8
0
100
AcDbBlockBegin
  2
*Paper_Space
 70
     0
 10
0.0
 20
0.0
 30
0.0
  3
*Paper_Space
  1

  0
ENDBLK
  5
6E
330
6C
100
AcDbEntity
 67
     1
  8
0
100
AcDbBlockEnd
  0
BLOCK
  5
75
330
74
100
AcDbEntity
 67
     1
  8
0
100
AcDbBlockBegin
  2
*Paper_Space0
 70
     0
 10
0.0
 20
0.0
 30
0.0
  3
*Paper_Space0
  1

  0
ENDBLK
  5
76
330
74
100
AcDbEntity
 67
     1
  8
0
100
AcDbBlockEnd
  0
BLOCK
  5
7B
330
79
100
AcDbEntity
  8
0
100
AcDbBlockBegin
  2
Block_0
 70
     0
 10
0.0
 20
0.0
 30
0.0
  3
Block_0
  1

  0
LINE
  5
7D
330
79
100
AcDbEntity
  8
レイヤー 1
  6
AI-Linetype-0
 62
   154
420
    23468
370
    25
100
AcDbLine
 10
108.125301738087
 20
-151.1852536765356
 30
0.0
 11
118.1711561138969
 21
-151.1852536765356
 31
0.0
  0
INSERT
  5
80
330
79
100
AcDbEntity
  8
レイヤー 1
100
AcDbBlockReference
  2
Block_1
 10
0.0
 20
0.0
 30
0.0
  0
INSERT
  5
87
330
79
100
AcDbEntity
  8
レイヤー 1
100
AcDbBlockReference
  2
Block_2
 10
0.0
 20
0.0
 30
0.0
  0
ENDBLK
  5
7C
330
79
100
AcDbEntity
  8
0
100
AcDbBlockEnd
  0
BLOCK
  5
81
330
7F
100
AcDbEntity
  8
0
100
AcDbBlockBegin
  2
Block_1
 70
     0
 10
0.0
 20
0.0
 30
0.0
  3
Block_1
  1

  0
LINE
  5
83
330
7F
100
AcDbEntity
  8
レイヤー 1
 62
    18
420
        0
370
     9
100
AcDbLine
 10
112.9322792884023
 20
-150.9791760130083
 30
0.0
 11
112.665434430542
 21
-150.0154037797372
 31
0.0
  0
LINE
  5
84
330
7F
100
AcDbEntity
  8
レイヤー 1
 62
    18
420
        0
370
     9
100
AcDbLine
 10
112.9322792884023
 20
-150.9791760130083
 30
0.0
 11
112.8978450810253
 21
-149.3652154502035
 31
0.0
  0
LINE
  5
85
330
7F
100
AcDbEntity
  8
レイヤー 1
 62
    18
420
        0
370
     9
100
AcDbLine
 10
112.9322792884023
 20
-150.9791760130083
 30
0.0
 11
113.1831273659082
 21
-150.0109955576208
 31
0.0
  0
ENDBLK
  5
82
330
7F
100
AcDbEntity
  8
0
100
AcDbBlockEnd
  0
BLOCK
  5
88
330
86
100
AcDbEntity
  8
0
100
AcDbBlockBegin
  2
Block_2
 70
     0
 10
0.0
 20
0.0
 30
0.0
  3
Block_2
  1

  0
INSERT
  5
8B
330
86
100
AcDbEntity
  8
レイヤー 1
100
AcDbBlockReference
  2
Block_3
 10
0.0
 20
0.0
 30
0.0
  0
ENDBLK
  5
89
330
86
100
AcDbEntity
  8
0
100
AcDbBlockEnd
  0
BLOCK
  5
8C
330
8A
100
AcDbEntity
  8
0
100
AcDbBlockBegin
  2
Block_3
 70
     0
 10
0.0
 20
0.0
 30
0.0
  3
Block_3
  1

  0
SPLINE
  5
8E
330
8A
100
AcDbEntity
  8
レイヤー 1
100
AcDbSpline
210
0.0
220
0.0
230
1.0
 70
     9
 71
     3
 72
    17
 73
    13
 74
     0
 42
0.0000000001
 43
0.0000000001
 40
0.0
 40
0.0
 40
0.0
 40
0.0
 40
1.0
 40
1.0
 40
1.0
 40
2.0
 40
2.0
 40
2.0
 40
3.0
 40
3.0
 40
3.0
 40
4.0
 40
4.0
 40
4.0
 40
4.0
 10
108.9463215873467
 20
-148.2989582962586
 30
0.0
 10
108.9290961099205
 20
-148.3284138626575
 30
0.0
 10
108.8784532062873
 20
-148.4216036955335
 30
0.0
 10
108.867773410283
 20
-148.4405517207023
 30
0.0
 10
109.0582871906174
 20
-148.4998073630486
 30
0.0
 10
109.0793022730774
 20
-148.5061807896963
 30
0.0
 10
109.1513047687191
 20
-148.5337415535784
 30
0.0
 10
109.2064262964831
 20
-148.44692514735
 30
0.0
 10
109.2295084362343
 20
-148.3728555944172
 30
0.0
 10
109.2443223468208
 20
-148.2989582962586
 30
0.0
 10
109.2443223468208
 20
-148.2989582962586
 30
0.0
 10
108.9463215873467
 20
-148.2989582962586
 30
0.0
 10
108.9463215873467
 20
-148.2989582962586
 30
0.0
  0
SPLINE
  5
8F
330
8A
100
AcDbEntity
  8
レイヤー 1
100
AcDbSpline
210
0.0
220
0.0
230
1.0
 70
    11
 71
     3
 72
    20
 73
    16
 74
     0
 42
0.0000000001
 43
0.0000000001
 40
0.0
 40
0.0
 40
0.0
 40
0.0
 40
1.0
 40
1.0
 40
1.0
 40
2.0
 40
2.0
 40
2.0
 40
3.0
 40
3.0
 40
3.0
 40
4.0
 40
4.0
 40
4.0
 40
5.0
 40
5.0
 40
5.0
 40
5.0
 10
108.8825873208696
 20
-147.4485364757246
 30
0.0
 10
108.8825873208696
 20
-147.4485364757246
 30
0.0
 10
108.8508924424053
 20
-147.4485364757246
 30
0.0
 10
108.8508924424053
 20
-147.4485364757246
 30
0.0
 10
108.8974012314562
 20
-147.5479274804741
 30
0.0
 10
108.9290961099205
 20
-147.6281982052804
 30
0.0
 10
108.9632025552245
 20
-147.7551499739119
 30
0.0
 10
108.9632025552245
 20
-147.7551499739119
 30
0.0
 10
109.170252793888
 20
-147.7551499739119
 30
0.0
 10
109.170252793888
 20
-147.7551499739119
 30
0.0
 10
109.2022921819008
 20
-147.6621323958102
 30
0.0
 10
109.225374321652
 20
-147.5775553016473
 30
0.0
 10
109.2488009709517
 20
-147.4485364757246
 30
0.0
 10
109.2488009709517
 20
-147.4485364757246
 30
0.0
 10
108.8825873208696
 20
-147.4485364757246
 30
0.0
 10
108.8825873208696
 20
-147.4485364757246
 30
0.0
  0
SPLINE
  5
90
330
8A
100
AcDbEntity
  8
レイヤー 1
100
AcDbSpline
210
0.0
220
0.0
230
1.0
 70
     9
 71
     3
 72
   242
 73
   238
 74
     0
 42
0.0000000001
 43
0.0000000001
 40
0.0
 40
0.0
 40
0.0
 40
0.0
 40
1.0
 40
1.0
 40
1.0
 40
2.0
 40
2.0
 40
2.0
 40
3.0
 40
3.0
 40
3.0
 40
4.0
 40
4.0
 40
4.0
 40
5.0
 40
5.0
 40
5.0
 40
6.0
 40
6.0
 40
6.0
 40
7.0
 40
7.0
 40
7.0
 40
8.0
 40
8.0
 40
8.0
 40
9.0
 40
9.0
 40
9.0
 40
10.0
 40
10.0
 40
10.0
 40
11.0
 40
11.0
 40
11.0
 40
12.0
 40
12.0
 40
12.0
 40
13.0
 40
13.0
 40
13.0
 40
14.0
 40
14.0
 40
14.0
 40
15.0
 40
15.0
 40
15.0
 40
16.0
 40
16.0
 40
16.0
 40
17.0
 40
17.0
 40
17.0
 40
18.0
 40
18.0
 40
18.0
 40
19.0
 40
19.0
 40
19.0
 40
20.0
 40
20.0
 40
20.0
 40
21.0
 40
21.0
 40
21.0
 40
22.0
 40
22.0
 40
22.0
 40
23.0
 40
23.0
 40
23.0
 40
24.0
 40
24.0
 40
24.0
 40
25.0
 40
25.0
 40
25.0
 40
26.0
 40
26.0
 40
26.0
 40
27.0
 40
27.0
 40
27.0
 40
28.0
 40
28.0
 40
28.0
 40
29.0
 40
29.0
 40
29.0
 40
30.0
 40
30.0
 40
30.0
 40
31.0
 40
31.0
 40
31.0
 40
32.0
 40
32.0
 40
32.0
 40
33.0
 40
33.0
 40
33.0
 40
34.0
 40
34.0
 40
34.0
 40
35.0
 40
35.0
 40
35.0
 40
36.0
 40
36.0
 40
36.0
 40
37.0
 40
37.0
 40
37.0
 40
38.0
 40
38.0
 40
38.0
 40
39.0
 40
39.0
 40
39.0
 40
40.0
 40
40.0
 40
40.0
 40
41.0
 40
41.0
 40
41.0
 40
42.0
 40
42.0
 40
42.0
 40
43.0
 40
43.0
 40
43.0
 40
44.0
 40
44.0
 40
44.0
 40
45.0
 40
45.0
 40
45.0
 40
46.0
 40
46.0
 40
46.0
 40
47.0
 40
47.0
 40
47.0
 40
48.0
 40
48.0
 40
48.0
 40
49.0
 40
49.0
 40
49.0
 40
50.0
 40
50.0
 40
50.0
 40
51.0
 40
51.0
 40
51.0
 40
52.0
 40
52.0
 40
52.0
 40
53.0
 40
53.0
 40
53.0
 40
54.0
 40
54.0
 40
54.0
 40
55.0
 40
55.0
 40
55.0
 40
56.0
 40
56.0
 40
56.0
 40
57.0
 40
57.0
 40
57.0
 40
58.0
 40
58.0
 40
58.0
 40
59.0
 40
59.0
 40
59.0
 40
60.0
 40
60.0
 40
60.0
 40
61.0
 40
61.0
 40
61.0
 40
62.0
 40
62.0
 40
62.0
 40
63.0
 40
63.0
 40
63.0
 40
64.0
 40
64.0
 40
64.0
 40
65.0
 40
65.0
 40
65.0
 40
66.0
 40
66.0
 40
66.0
 40
67.0
 40
67.0
 40
67.0
 40
68.0
 40
68.0
 40
68.0
 40
69.0
 40
69.0
 40
69.0
 40
70.0
 40
70.0
 40
70.0
 40
71.0
 40
71.0
 40
71.0
 40
72.0
 40
72.0
 40
72.0
 40
73.0
 40
73.0
 40
73.0
 40
74.0
 40
74.0
 40
74.0
 40
75.0
 40
75.0
 40
75.0
 40
76.0
 40
76.0
 40
76.0
 40
77.0
 40
77.0
 40
77.0
 40
78.0
 40
78.0
 40
78.0
 40
79.0
 40
79.0
 40
79.0
 40
79.0
 10
109.5109727373792
 20
-147.9137966210076
 30
0.0
 10
109.5109727373792
 20
-147.9137966210076
 30
0.0
 10
109.2570692001163
 20
-147.9137966210076
 30
0.0
 10
109.2570692001163
 20
-147.9137966210076
 30
0.0
 10
109.2570692001163
 20
-147.9137966210076
 30
0.0
 10
108.9800835231022
 20
-147.9137966210076
 30
0.0
 10
108.9800835231022
 20
-147.9137966210076
 30
0.0
 10
108.9800835231022
 20
-147.9137966210076
 30
0.0
 10
109.1068630369594
 20
-147.9561712954762
 30
0.0
 10
109.1068630369594
 20
-147.9561712954762
 30
0.0
 10
109.1175428329637
 20
-147.9604776648328
 30
0.0
 10
109.1302896862591
 20
-147.9666788367062
 30
0.0
 10
109.1302896862591
 20
-147.9794256900017
 30
0.0
 10
109.1302896862591
 20
-148.0006130272359
 30
0.0
 10
109.0985948077948
 20
-148.0069864538837
 30
0.0
 10
109.0772352157862
 20
-148.0111205684659
 30
0.0
 10
109.0668999293305
 20
-148.0343749629914
 30
0.0
 10
109.0372721081573
 20
-148.1000040319854
 30
0.0
 10
109.0179795734399
 20
-148.1444457637451
 30
0.0
 10
109.0179795734399
 20
-148.1444457637451
 30
0.0
 10
109.2887640785806
 20
-148.1444457637451
 30
0.0
 10
109.2887640785806
 20
-148.1444457637451
 30
0.0
 10
109.3797145993912
 20
-148.1444457637451
 30
0.0
 10
109.5764295515989
 20
-148.1401393943885
 30
0.0
 10
109.7183674855912
 20
-148.1316989104497
 30
0.0
 10
109.7183674855912
 20
-148.1316989104497
 30
0.0
 10
109.7183674855912
 20
-148.3094658374886
 30
0.0
 10
109.7183674855912
 20
-148.3094658374886
 30
0.0
 10
109.6356851939452
 20
-148.305159468132
 30
0.0
 10
109.6146701114852
 20
-148.305159468132
 30
0.0
 10
109.4348361271552
 20
-148.3010253535497
 30
0.0
 10
109.4031412486909
 20
-148.4553656312889
 30
0.0
 10
109.3586995169312
 20
-148.5358086108695
 30
0.0
 10
109.3142577851714
 20
-148.6055717944458
 30
0.0
 10
109.4348361271552
 20
-148.6648274367921
 30
0.0
 10
109.5406005585523
 20
-148.7325235630773
 30
0.0
 10
109.6442979326583
 20
-148.815033599949
 30
0.0
 10
109.6442979326583
 20
-148.815033599949
 30
0.0
 10
109.5257866479657
 20
-148.9821207309836
 30
0.0
 10
109.5257866479657
 20
-148.9821207309836
 30
0.0
 10
109.5027045082146
 20
-148.9631727058148
 30
0.0
 10
109.4899576549192
 20
-148.9545599671016
 30
0.0
 10
109.3776475421
 20
-148.8699828729387
 30
0.0
 10
109.329071695758
 20
-148.8319145678267
 30
0.0
 10
109.2698160534117
 20
-148.7960855747801
 30
0.0
 10
109.1895453286054
 20
-148.7516438430204
 30
0.0
 10
108.978016465811
 20
-148.9376789992239
 30
0.0
 10
108.7726887748901
 20
-148.9611056485236
 30
0.0
 10
108.4829562445806
 20
-148.9907334696968
 30
0.0
 10
108.4829562445806
 20
-148.9907334696968
 30
0.0
 10
108.3792588704746
 20
-148.8108994853667
 30
0.0
 10
108.3792588704746
 20
-148.8108994853667
 30
0.0
 10
108.6965521646661
 20
-148.8065931160101
 30
0.0
 10
108.8722520344139
 20
-148.7812716641936
 30
0.0
 10
109.0245252548619
 20
-148.6712008634398
 30
0.0
 10
108.9060139701693
 20
-148.6203857050324
 30
0.0
 10
108.8171305066499
 20
-148.5929971959247
 30
0.0
 10
108.7813015136033
 20
-148.5802503426292
 30
0.0
 10
108.7620089788859
 20
-148.6078111065112
 30
0.0
 10
108.7471950682993
 20
-148.6267591316801
 30
0.0
 10
108.7196343044173
 20
-148.6606933222098
 30
0.0
 10
108.7196343044173
 20
-148.6606933222098
 30
0.0
 10
108.5229193522095
 20
-148.5781832853381
 30
0.0
 10
108.5229193522095
 20
-148.5781832853381
 30
0.0
 10
108.6056016438555
 20
-148.4977403057575
 30
0.0
 10
108.666924343493
 20
-148.4024834155903
 30
0.0
 10
108.7241129285481
 20
-148.3010253535497
 30
0.0
 10
108.5335991482138
 20
-148.305159468132
 30
0.0
 10
108.5125840657538
 20
-148.305159468132
 30
0.0
 10
108.4299017741078
 20
-148.3094658374886
 30
0.0
 10
108.4299017741078
 20
-148.3094658374886
 30
0.0
 10
108.4299017741078
 20
-148.1316989104497
 30
0.0
 10
108.4299017741078
 20
-148.1316989104497
 30
0.0
 10
108.5694281412604
 20
-148.1380723370974
 30
0.0
 10
108.7788899467636
 20
-148.142378706454
 30
0.0
 10
108.8043836533544
 20
-148.142378706454
 30
0.0
 10
108.8212646212322
 20
-148.1084445159243
 30
0.0
 10
108.8763861489962
 20
-147.9878661739405
 30
0.0
 10
108.895334174165
 20
-147.9137966210076
 30
0.0
 10
108.8763861489962
 20
-147.9137966210076
 30
0.0
 10
108.6986192219573
 20
-147.9201700476554
 30
0.0
 10
108.5039713270407
 20
-147.9329169009508
 30
0.0
 10
108.5039713270407
 20
-147.9329169009508
 30
0.0
 10
108.5039713270407
 20
-148.06624209623
 30
0.0
 10
108.5039713270407
 20
-148.06624209623
 30
0.0
 10
108.4553954806986
 20
-148.0915635480466
 30
0.0
 10
108.3961398383523
 20
-148.1232584265108
 30
0.0
 10
108.2628146430732
 20
-148.1888874955048
 30
0.0
 10
108.2628146430732
 20
-148.1888874955048
 30
0.0
 10
108.2628146430732
 20
-148.3347872893052
 30
0.0
 10
108.2628146430732
 20
-148.3347872893052
 30
0.0
 10
108.2628146430732
 20
-148.3347872893052
 30
0.0
 10
108.2628146430732
 20
-148.8024590014279
 30
0.0
 10
108.2628146430732
 20
-148.8024590014279
 30
0.0
 10
108.2628146430732
 20
-148.9290662605108
 30
0.0
 10
108.2269856500266
 20
-148.9883219028571
 30
0.0
 10
107.9434542915905
 20
-148.9800536736925
 30
0.0
 10
107.9434542915905
 20
-148.9800536736925
 30
0.0
 10
107.8397569174845
 20
-148.7728311802547
 30
0.0
 10
107.8397569174845
 20
-148.7728311802547
 30
0.0
 10
107.9031466744131
 20
-148.7854057787759
 30
0.0
 10
107.9517225207551
 20
-148.7897121481324
 30
0.0
 10
107.9920301379325
 20
-148.7897121481324
 30
0.0
 10
108.0681667481566
 20
-148.7897121481324
 30
0.0
 10
108.0788465441608
 20
-148.766457753607
 30
0.0
 10
108.0788465441608
 20
-148.700828684613
 30
0.0
 10
108.0788465441608
 20
-148.700828684613
 30
0.0
 10
108.0788465441608
 20
-148.2713975323766
 30
0.0
 10
108.0788465441608
 20
-148.2713975323766
 30
0.0
 10
107.9813503419283
 20
-148.3115328947797
 30
0.0
 10
107.9644693740505
 20
-148.3179063214274
 30
0.0
 10
107.9179605849996
 20
-148.3370266013706
 30
0.0
 10
107.9138264704174
 20
-148.3580416838306
 30
0.0
 10
107.909692355835
 20
-148.3876695050037
 30
0.0
 10
107.8903998211176
 20
-148.3876695050037
 30
0.0
 10
107.8821315919531
 20
-148.3876695050037
 30
0.0
 10
107.8714517959488
 20
-148.3835353904215
 30
0.0
 10
107.8652506240753
 20
-148.360280995896
 30
0.0
 10
107.8652506240753
 20
-148.360280995896
 30
0.0
 10
107.8121961536025
 20
-148.1677001582706
 30
0.0
 10
107.8121961536025
 20
-148.1677001582706
 30
0.0
 10
107.9582682021771
 20
-148.1211913692197
 30
0.0
 10
108.0237250163968
 20
-148.0979369746943
 30
0.0
 10
108.0788465441608
 20
-148.07674963746
 30
0.0
 10
108.0788465441608
 20
-148.07674963746
 30
0.0
 10
108.0788465441608
 20
-147.6641994531013
 30
0.0
 10
108.0788465441608
 20
-147.6641994531013
 30
0.0
 10
108.0788465441608
 20
-147.6641994531013
 30
0.0
 10
108.025792073688
 20
-147.6641994531013
 30
0.0
 10
108.025792073688
 20
-147.6641994531013
 30
0.0
 10
108.025792073688
 20
-147.6641994531013
 30
0.0
 10
107.9475884061728
 20
-147.6641994531013
 30
0.0
 10
107.9475884061728
 20
-147.6641994531013
 30
0.0
 10
107.8800645346619
 20
-147.6641994531013
 30
0.0
 10
107.8714517959488
 20
-147.6641994531013
 30
0.0
 10
107.8356228029022
 20
-147.670572879749
 30
0.0
 10
107.8356228029022
 20
-147.670572879749
 30
0.0
 10
107.8356228029022
 20
-147.4759249848324
 30
0.0
 10
107.8356228029022
 20
-147.4759249848324
 30
0.0
 10
107.8631835667842
 20
-147.4822984114801
 30
0.0
 10
107.8714517959488
 20
-147.4822984114801
 30
0.0
 10
107.9413872342994
 20
-147.4822984114801
 30
0.0
 10
107.9413872342994
 20
-147.4822984114801
 30
0.0
 10
108.0747124295785
 20
-147.4822984114801
 30
0.0
 10
108.0747124295785
 20
-147.4822984114801
 30
0.0
 10
108.0747124295785
 20
-147.4125352279038
 30
0.0
 10
108.0747124295785
 20
-147.3300251910321
 30
0.0
 10
108.0723008627388
 20
-147.3257188216755
 30
0.0
 10
108.0640326335742
 20
-147.1458848373455
 30
0.0
 10
108.0640326335742
 20
-147.1269368121766
 30
0.0
 10
108.0619655762831
 20
-147.0804280231257
 30
0.0
 10
108.0619655762831
 20
-147.0804280231257
 30
0.0
 10
108.2776285536597
 20
-147.0888685070646
 30
0.0
 10
108.2776285536597
 20
-147.0888685070646
 30
0.0
 10
108.288308349664
 20
-147.0888685070646
 30
0.0
 10
108.309323432124
 20
-147.0909355643557
 30
0.0
 10
108.309323432124
 20
-147.1078165322334
 30
0.0
 10
108.309323432124
 20
-147.1269368121766
 30
0.0
 10
108.2945095215375
 20
-147.1374443534066
 30
0.0
 10
108.2693603244951
 20
-147.1565646333497
 30
0.0
 10
108.2693603244951
 20
-147.2072075369829
 30
0.0
 10
108.2628146430732
 20
-147.4357896224292
 30
0.0
 10
108.2648817003643
 20
-147.4822984114801
 30
0.0
 10
108.3940727810612
 20
-147.4822984114801
 30
0.0
 10
108.4068196343566
 20
-147.4822984114801
 30
0.0
 10
108.5039713270407
 20
-147.4738579275413
 30
0.0
 10
108.5039713270407
 20
-147.4738579275413
 30
0.0
 10
108.5039713270407
 20
-147.6685058224579
 30
0.0
 10
108.5039713270407
 20
-147.6685058224579
 30
0.0
 10
108.4660752767029
 20
-147.6662665103924
 30
0.0
 10
108.3982068956435
 20
-147.6621323958102
 30
0.0
 10
108.2628146430732
 20
-147.6641994531013
 30
0.0
 10
108.2628146430732
 20
-147.6641994531013
 30
0.0
 10
108.2628146430732
 20
-148.0026800845271
 30
0.0
 10
108.2628146430732
 20
-148.0026800845271
 30
0.0
 10
108.3179361708372
 20
-147.9794256900017
 30
0.0
 10
108.3833929850569
 20
-147.9518649261196
 30
0.0
 10
108.4319688313989
 20
-147.9286105315942
 30
0.0
 10
108.4319688313989
 20
-147.9286105315942
 30
0.0
 10
108.4319688313989
 20
-147.7510158593296
 30
0.0
 10
108.4319688313989
 20
-147.7510158593296
 30
0.0
 10
108.5463460015092
 20
-147.7635904578507
 30
0.0
 10
108.6648572862018
 20
-147.7635904578507
 30
0.0
 10
108.7813015136033
 20
-147.7635904578507
 30
0.0
 10
108.7578748643036
 20
-147.6685058224579
 30
0.0
 10
108.7303141004216
 20
-147.5859957855861
 30
0.0
 10
108.666924343493
 20
-147.452670590307
 30
0.0
 10
108.6224826117333
 20
-147.4547376475981
 30
0.0
 10
108.5401448296358
 20
-147.4590440169547
 30
0.0
 10
108.5019042697495
 20
-147.4611110742458
 30
0.0
 10
108.5019042697495
 20
-147.4611110742458
 30
0.0
 10
108.5019042697495
 20
-147.2812770899158
 30
0.0
 10
108.5019042697495
 20
-147.2812770899158
 30
0.0
 10
108.6266167263155
 20
-147.2897175738546
 30
0.0
 10
108.8002495387721
 20
-147.2940239432112
 30
0.0
 10
108.8825873208696
 20
-147.2940239432112
 30
0.0
 10
108.8825873208696
 20
-147.2940239432112
 30
0.0
 10
108.9652696125156
 20
-147.2940239432112
 30
0.0
 10
108.9652696125156
 20
-147.2940239432112
 30
0.0
 10
108.9652696125156
 20
-147.1310709267589
 30
0.0
 10
108.9652696125156
 20
-147.1205633855289
 30
0.0
 10
108.9632025552245
 20
-147.0656141125391
 30
0.0
 10
108.9632025552245
 20
-147.0656141125391
 30
0.0
 10
109.1874782713142
 20
-147.0909355643557
 30
0.0
 10
109.1874782713142
 20
-147.0909355643557
 30
0.0
 10
109.1916123858965
 20
-147.0909355643557
 30
0.0
 10
109.2126274683566
 20
-147.0930026216469
 30
0.0
 10
109.2126274683566
 20
-147.1098835895246
 30
0.0
 10
109.2126274683566
 20
-147.1246975001112
 30
0.0
 10
109.2022921819008
 20
-147.1333102388243
 30
0.0
 10
109.1747314180188
 20
-147.1481241494109
 30
0.0
 10
109.1681857365968
 20
-147.2135809636306
 30
0.0
 10
109.1661186793057
 20
-147.2347683008649
 30
0.0
 10
109.1661186793057
 20
-147.2940239432112
 30
0.0
 10
109.1661186793057
 20
-147.2940239432112
 30
0.0
 10
109.2612033146986
 20
-147.2940239432112
 30
0.0
 10
109.2612033146986
 20
-147.2940239432112
 30
0.0
 10
109.3438856063446
 20
-147.2940239432112
 30
0.0
 10
109.5171739092526
 20
-147.2897175738546
 30
0.0
 10
109.6422308753672
 20
-147.2812770899158
 30
0.0
 10
109.6422308753672
 20
-147.2812770899158
 30
0.0
 10
109.6422308753672
 20
-147.4611110742458
 30
0.0
 10
109.6422308753672
 20
-147.4611110742458
 30
0.0
 10
109.6126030541941
 20
-147.4590440169547
 30
0.0
 10
109.4940917695015
 20
-147.4547376475981
 30
0.0
 10
109.453784152324
 20
-147.452670590307
 30
0.0
 10
109.4389702417374
 20
-147.5034857487144
 30
0.0
 10
109.405208305982
 20
-147.6156236067593
 30
0.0
 10
109.3397514917623
 20
-147.7551499739119
 30
0.0
 10
109.3817816566823
 20
-147.7551499739119
 30
0.0
 10
109.6591118432449
 20
-147.736201948743
 30
0.0
 10
109.7204345428824
 20
-147.7339626366776
 30
0.0
 10
109.7204345428824
 20
-147.7339626366776
 30
0.0
 10
109.7204345428824
 20
-147.9181029903642
 30
0.0
 10
109.7204345428824
 20
-147.9181029903642
 30
0.0
 10
109.6908067217092
 20
-147.9181029903642
 30
0.0
 10
109.6739257538315
 20
-147.9137966210076
 30
0.0
 10
109.5109727373792
 20
-147.9137966210076
 30
0.0
  0
HATCH
  5
91
330
8A
100
AcDbEntity
  8
レイヤー 1
 62
    18
420
        0
440
 33554687
100
AcDbHatch
 10
0.0
 20
0.0
 30
0.0
210
0.0
220
0.0
230
1.0
  2
SOLID
 70
     1
 71
     1
 91
        3
 92
        1
 93
        1
 72
     4
 94
        3
 73
     0
 74
     0
 95
       17
 96
       13
 40
0.0
 40
0.0
 40
0.0
 40
0.0
 40
1.0
 40
1.0
 40
1.0
 40
2.0
 40
2.0
 40
2.0
 40
3.0
 40
3.0
 40
3.0
 40
4.0
 40
4.0
 40
4.0
 40
4.0
 10
108.9463215873467
 20
-148.2989582962586
 10
108.9290961099205
 20
-148.3284138626575
 10
108.8784532062873
 20
-148.4216036955335
 10
108.867773410283
 20
-148.4405517207023
 10
109.0582871906174
 20
-148.4998073630486
 10
109.0793022730774
 20
-148.5061807896963
 10
109.1513047687191
 20
-148.5337415535784
 10
109.2064262964831
 20
-148.44692514735
 10
109.2295084362343
 20
-148.3728555944172
 10
109.2443223468208
 20
-148.2989582962586
 10
109.2443223468208
 20
-148.2989582962586
 10
108.9463215873467
 20
-148.2989582962586
 10
108.9463215873467
 20
-148.2989582962586
 97
        0
 97
        1
330
8E
 92
        1
 93
        1
 72
     4
 94
        3
 73
     0
 74
     0
 95
       20
 96
       16
 40
0.0
 40
0.0
 40
0.0
 40
0.0
 40
1.0
 40
1.0
 40
1.0
 40
2.0
 40
2.0
 40
2.0
 40
3.0
 40
3.0
 40
3.0
 40
4.0
 40
4.0
 40
4.0
 40
5.0
 40
5.0
 40
5.0
 40
5.0
 10
108.8825873208696
 20
-147.4485364757246
 10
108.8825873208696
 20
-147.4485364757246
 10
108.8508924424053
 20
-147.4485364757246
 10
108.8508924424053
 20
-147.4485364757246
 10
108.8974012314562
 20
-147.5479274804741
 10
108.9290961099205
 20
-147.6281982052804
 10
108.9632025552245
 20
-147.7551499739119
 10
108.9632025552245
 20
-147.7551499739119
 10
109.170252793888
 20
-147.7551499739119
 10
109.170252793888
 20
-147.7551499739119
 10
109.2022921819008
 20
-147.6621323958102
 10
109.225374321652
 20
-147.5775553016473
 10
109.2488009709517
 20
-147.4485364757246
 10
109.2488009709517
 20
-147.4485364757246
 10
108.8825873208696
 20
-147.4485364757246
 10
108.8825873208696
 20
-147.4485364757246
 97
        0
 97
        1
330
8F
 92
        1
 93
        1
 72
     4
 94
        3
 73
     0
 74
     0
 95
      242
 96
      238
 40
0.0
 40
0.0
 40
0.0
 40
0.0
 40
1.0
 40
1.0
 40
1.0
 40
2.0
 40
2.0
 40
2.0
 40
3.0
 40
3.0
 40
3.0
 40
4.0
 40
4.0
 40
4.0
 40
5.0
 40
5.0
 40
5.0
 40
6.0
 40
6.0
 40
6.0
 40
7.0
 40
7.0
 40
7.0
 40
8.0
 40
8.0
 40
8.0
 40
9.0
 40
9.0
 40
9.0
 40
10.0
 40
10.0
 40
10.0
 40
11.0
 40
11.0
 40
11.0
 40
12.0
 40
12.0
 40
12.0
 40
13.0
 40
13.0
 40
13.0
 40
14.0
 40
14.0
 40
14.0
 40
15.0
 40
15.0
 40
15.0
 40
16.0
 40
16.0
 40
16.0
 40
17.0
 40
17.0
 40
17.0
 40
18.0
 40
18.0
 40
18.0
 40
19.0
 40
19.0
 40
19.0
 40
20.0
 40
20.0
 40
20.0
 40
21.0
 40
21.0
 40
21.0
 40
22.0
 40
22.0
 40
22.0
 40
23.0
 40
23.0
 40
23.0
 40
24.0
 40
24.0
 40
24.0
 40
25.0
 40
25.0
 40
25.0
 40
26.0
 40
26.0
 40
26.0
 40
27.0
 40
27.0
 40
27.0
 40
28.0
 40
28.0
 40
28.0
 40
29.0
 40
29.0
 40
29.0
 40
30.0
 40
30.0
 40
30.0
 40
31.0
 40
31.0
 40
31.0
 40
32.0
 40
32.0
 40
32.0
 40
33.0
 40
33.0
 40
33.0
 40
34.0
 40
34.0
 40
34.0
 40
35.0
 40
35.0
 40
35.0
 40
36.0
 40
36.0
 40
36.0
 40
37.0
 40
37.0
 40
37.0
 40
38.0
 40
38.0
 40
38.0
 40
39.0
 40
39.0
 40
39.0
 40
40.0
 40
40.0
 40
40.0
 40
41.0
 40
41.0
 40
41.0
 40
42.0
 40
42.0
 40
42.0
 40
43.0
 40
43.0
 40
43.0
 40
44.0
 40
44.0
 40
44.0
 40
45.0
 40
45.0
 40
45.0
 40
46.0
 40
46.0
 40
46.0
 40
47.0
 40
47.0
 40
47.0
 40
48.0
 40
48.0
 40
48.0
 40
49.0
 40
49.0
 40
49.0
 40
50.0
 40
50.0
 40
50.0
 40
51.0
 40
51.0
 40
51.0
 40
52.0
 40
52.0
 40
52.0
 40
53.0
 40
53.0
 40
53.0
 40
54.0
 40
54.0
 40
54.0
 40
55.0
 40
55.0
 40
55.0
 40
56.0
 40
56.0
 40
56.0
 40
57.0
 40
57.0
 40
57.0
 40
58.0
 40
58.0
 40
58.0
 40
59.0
 40
59.0
 40
59.0
 40
60.0
 40
60.0
 40
60.0
 40
61.0
 40
61.0
 40
61.0
 40
62.0
 40
62.0
 40
62.0
 40
63.0
 40
63.0
 40
63.0
 40
64.0
 40
64.0
 40
64.0
 40
65.0
 40
65.0
 40
65.0
 40
66.0
 40
66.0
 40
66.0
 40
67.0
 40
67.0
 40
67.0
 40
68.0
 40
68.0
 40
68.0
 40
69.0
 40
69.0
 40
69.0
 40
70.0
 40
70.0
 40
70.0
 40
71.0
 40
71.0
 40
71.0
 40
72.0
 40
72.0
 40
72.0
 40
73.0
 40
73.0
 40
73.0
 40
74.0
 40
74.0
 40
74.0
 40
75.0
 40
75.0
 40
75.0
 40
76.0
 40
76.0
 40
76.0
 40
77.0
 40
77.0
 40
77.0
 40
78.0
 40
78.0
 40
78.0
 40
79.0
 40
79.0
 40
79.0
 40
79.0
 10
109.5109727373792
 20
-147.9137966210076
 10
109.5109727373792
 20
-147.9137966210076
 10
109.2570692001163
 20
-147.9137966210076
 10
109.2570692001163
 20
-147.9137966210076
 10
109.2570692001163
 20
-147.9137966210076
 10
108.9800835231022
 20
-147.9137966210076
 10
108.9800835231022
 20
-147.9137966210076
 10
108.9800835231022
 20
-147.9137966210076
 10
109.1068630369594
 20
-147.9561712954762
 10
109.1068630369594
 20
-147.9561712954762
 10
109.1175428329637
 20
-147.9604776648328
 10
109.1302896862591
 20
-147.9666788367062
 10
109.1302896862591
 20
-147.9794256900017
 10
109.1302896862591
 20
-148.0006130272359
 10
109.0985948077948
 20
-148.0069864538837
 10
109.0772352157862
 20
-148.0111205684659
 10
109.0668999293305
 20
-148.0343749629914
 10
109.0372721081573
 20
-148.1000040319854
 10
109.0179795734399
 20
-148.1444457637451
 10
109.0179795734399
 20
-148.1444457637451
 10
109.2887640785806
 20
-148.1444457637451
 10
109.2887640785806
 20
-148.1444457637451
 10
109.3797145993912
 20
-148.1444457637451
 10
109.5764295515989
 20
-148.1401393943885
 10
109.7183674855912
 20
-148.1316989104497
 10
109.7183674855912
 20
-148.1316989104497
 10
109.7183674855912
 20
-148.3094658374886
 10
109.7183674855912
 20
-148.3094658374886
 10
109.6356851939452
 20
-148.305159468132
 10
109.6146701114852
 20
-148.305159468132
 10
109.4348361271552
 20
-148.3010253535497
 10
109.4031412486909
 20
-148.4553656312889
 10
109.3586995169312
 20
-148.5358086108695
 10
109.3142577851714
 20
-148.6055717944458
 10
109.4348361271552
 20
-148.6648274367921
 10
109.5406005585523
 20
-148.7325235630773
 10
109.6442979326583
 20
-148.815033599949
 10
109.6442979326583
 20
-148.815033599949
 10
109.5257866479657
 20
-148.9821207309836
 10
109.5257866479657
 20
-148.9821207309836
 10
109.5027045082146
 20
-148.9631727058148
 10
109.4899576549192
 20
-148.9545599671016
 10
109.3776475421
 20
-148.8699828729387
 10
109.329071695758
 20
-148.8319145678267
 10
109.2698160534117
 20
-148.7960855747801
 10
109.1895453286054
 20
-148.7516438430204
 10
108.978016465811
 20
-148.9376789992239
 10
108.7726887748901
 20
-148.9611056485236
 10
108.4829562445806
 20
-148.9907334696968
 10
108.4829562445806
 20
-148.9907334696968
 10
108.3792588704746
 20
-148.8108994853667
 10
108.3792588704746
 20
-148.8108994853667
 10
108.6965521646661
 20
-148.8065931160101
 10
108.8722520344139
 20
-148.7812716641936
 10
109.0245252548619
 20
-148.6712008634398
 10
108.9060139701693
 20
-148.6203857050324
 10
108.8171305066499
 20
-148.5929971959247
 10
108.7813015136033
 20
-148.5802503426292
 10
108.7620089788859
 20
-148.6078111065112
 10
108.7471950682993
 20
-148.6267591316801
 10
108.7196343044173
 20
-148.6606933222098
 10
108.7196343044173
 20
-148.6606933222098
 10
108.5229193522095
 20
-148.5781832853381
 10
108.5229193522095
 20
-148.5781832853381
 10
108.6056016438555
 20
-148.4977403057575
 10
108.666924343493
 20
-148.4024834155903
 10
108.7241129285481
 20
-148.3010253535497
 10
108.5335991482138
 20
-148.305159468132
 10
108.5125840657538
 20
-148.305159468132
 10
108.4299017741078
 20
-148.3094658374886
 10
108.4299017741078
 20
-148.3094658374886
 10
108.4299017741078
 20
-148.1316989104497
 10
108.4299017741078
 20
-148.1316989104497
 10
108.5694281412604
 20
-148.1380723370974
 10
108.7788899467636
 20
-148.142378706454
 10
108.8043836533544
 20
-148.142378706454
 10
108.8212646212322
 20
-148.1084445159243
 10
108.8763861489962
 20
-147.9878661739405
 10
108.895334174165
 20
-147.9137966210076
 10
108.8763861489962
 20
-147.9137966210076
 10
108.6986192219573
 20
-147.9201700476554
 10
108.5039713270407
 20
-147.9329169009508
 10
108.5039713270407
 20
-147.9329169009508
 10
108.5039713270407
 20
-148.06624209623
 10
108.5039713270407
 20
-148.06624209623
 10
108.4553954806986
 20
-148.0915635480466
 10
108.3961398383523
 20
-148.1232584265108
 10
108.2628146430732
 20
-148.1888874955048
 10
108.2628146430732
 20
-148.1888874955048
 10
108.2628146430732
 20
-148.3347872893052
 10
108.2628146430732
 20
-148.3347872893052
 10
108.2628146430732
 20
-148.3347872893052
 10
108.2628146430732
 20
-148.8024590014279
 10
108.2628146430732
 20
-148.8024590014279
 10
108.2628146430732
 20
-148.9290662605108
 10
108.2269856500266
 20
-148.9883219028571
 10
107.9434542915905
 20
-148.9800536736925
 10
107.9434542915905
 20
-148.9800536736925
 10
107.8397569174845
 20
-148.7728311802547
 10
107.8397569174845
 20
-148.7728311802547
 10
107.9031466744131
 20
-148.7854057787759
 10
107.9517225207551
 20
-148.7897121481324
 10
107.9920301379325
 20
-148.7897121481324
 10
108.0681667481566
 20
-148.7897121481324
 10
108.0788465441608
 20
-148.766457753607
 10
108.0788465441608
 20
-148.700828684613
 10
108.0788465441608
 20
-148.700828684613
 10
108.0788465441608
 20
-148.2713975323766
 10
108.0788465441608
 20
-148.2713975323766
 10
107.9813503419283
 20
-148.3115328947797
 10
107.9644693740505
 20
-148.3179063214274
 10
107.9179605849996
 20
-148.3370266013706
 10
107.9138264704174
 20
-148.3580416838306
 10
107.909692355835
 20
-148.3876695050037
 10
107.8903998211176
 20
-148.3876695050037
 10
107.8821315919531
 20
-148.3876695050037
 10
107.8714517959488
 20
-148.3835353904215
 10
107.8652506240753
 20
-148.360280995896
 10
107.8652506240753
 20
-148.360280995896
 10
107.8121961536025
 20
-148.1677001582706
 10
107.8121961536025
 20
-148.1677001582706
 10
107.9582682021771
 20
-148.1211913692197
 10
108.0237250163968
 20
-148.0979369746943
 10
108.0788465441608
 20
-148.07674963746
 10
108.0788465441608
 20
-148.07674963746
 10
108.0788465441608
 20
-147.6641994531013
 10
108.0788465441608
 20
-147.6641994531013
 10
108.0788465441608
 20
-147.6641994531013
 10
108.025792073688
 20
-147.6641994531013
 10
108.025792073688
 20
-147.6641994531013
 10
108.025792073688
 20
-147.6641994531013
 10
107.9475884061728
 20
-147.6641994531013
 10
107.9475884061728
 20
-147.6641994531013
 10
107.8800645346619
 20
-147.6641994531013
 10
107.8714517959488
 20
-147.6641994531013
 10
107.8356228029022
 20
-147.670572879749
 10
107.8356228029022
 20
-147.670572879749
 10
107.8356228029022
 20
-147.4759249848324
 10
107.8356228029022
 20
-147.4759249848324
 10
107.8631835667842
 20
-147.4822984114801
 10
107.8714517959488
 20
-147.4822984114801
 10
107.9413872342994
 20
-147.4822984114801
 10
107.9413872342994
 20
-147.4822984114801
 10
108.0747124295785
 20
-147.4822984114801
 10
108.0747124295785
 20
-147.4822984114801
 10
108.0747124295785
 20
-147.4125352279038
 10
108.0747124295785
 20
-147.3300251910321
 10
108.0723008627388
 20
-147.3257188216755
 10
108.0640326335742
 20
-147.1458848373455
 10
108.0640326335742
 20
-147.1269368121766
 10
108.0619655762831
 20
-147.0804280231257
 10
108.0619655762831
 20
-147.0804280231257
 10
108.2776285536597
 20
-147.0888685070646
 10
108.2776285536597
 20
-147.0888685070646
 10
108.288308349664
 20
-147.0888685070646
 10
108.309323432124
 20
-147.0909355643557
 10
108.309323432124
 20
-147.1078165322334
 10
108.309323432124
 20
-147.1269368121766
 10
108.2945095215375
 20
-147.1374443534066
 10
108.2693603244951
 20
-147.1565646333497
 10
108.2693603244951
 20
-147.2072075369829
 10
108.2628146430732
 20
-147.4357896224292
 10
108.2648817003643
 20
-147.4822984114801
 10
108.3940727810612
 20
-147.4822984114801
 10
108.4068196343566
 20
-147.4822984114801
 10
108.5039713270407
 20
-147.4738579275413
 10
108.5039713270407
 20
-147.4738579275413
 10
108.5039713270407
 20
-147.6685058224579
 10
108.5039713270407
 20
-147.6685058224579
 10
108.4660752767029
 20
-147.6662665103924
 10
108.3982068956435
 20
-147.6621323958102
 10
108.2628146430732
 20
-147.6641994531013
 10
108.2628146430732
 20
-147.6641994531013
 10
108.2628146430732
 20
-148.0026800845271
 10
108.2628146430732
 20
-148.0026800845271
 10
108.3179361708372
 20
-147.9794256900017
 10
108.3833929850569
 20
-147.9518649261196
 10
108.4319688313989
 20
-147.9286105315942
 10
108.4319688313989
 20
-147.9286105315942
 10
108.4319688313989
 20
-147.7510158593296
 10
108.4319688313989
 20
-147.7510158593296
 10
108.5463460015092
 20
-147.7635904578507
 10
108.6648572862018
 20
-147.7635904578507
 10
108.7813015136033
 20
-147.7635904578507
 10
108.7578748643036
 20
-147.6685058224579
 10
108.7303141004216
 20
-147.5859957855861
 10
108.666924343493
 20
-147.452670590307
 10
108.6224826117333
 20
-147.4547376475981
 10
108.5401448296358
 20
-147.4590440169547
 10
108.5019042697495
 20
-147.4611110742458
 10
108.5019042697495
 20
-147.4611110742458
 10
108.5019042697495
 20
-147.2812770899158
 10
108.5019042697495
 20
-147.2812770899158
 10
108.6266167263155
 20
-147.2897175738546
 10
108.8002495387721
 20
-147.2940239432112
 10
108.8825873208696
 20
-147.2940239432112
 10
108.8825873208696
 20
-147.2940239432112
 10
108.9652696125156
 20
-147.2940239432112
 10
108.9652696125156
 20
-147.2940239432112
 10
108.9652696125156
 20
-147.1310709267589
 10
108.9652696125156
 20
-147.1205633855289
 10
108.9632025552245
 20
-147.0656141125391
 10
108.9632025552245
 20
-147.0656141125391
 10
109.1874782713142
 20
-147.0909355643557
 10
109.1874782713142
 20
-147.0909355643557
 10
109.1916123858965
 20
-147.0909355643557
 10
109.2126274683566
 20
-147.0930026216469
 10
109.2126274683566
 20
-147.1098835895246
 10
109.2126274683566
 20
-147.1246975001112
 10
109.2022921819008
 20
-147.1333102388243
 10
109.1747314180188
 20
-147.1481241494109
 10
109.1681857365968
 20
-147.2135809636306
 10
109.1661186793057
 20
-147.2347683008649
 10
109.1661186793057
 20
-147.2940239432112
 10
109.1661186793057
 20
-147.2940239432112
 10
109.2612033146986
 20
-147.2940239432112
 10
109.2612033146986
 20
-147.2940239432112
 10
109.3438856063446
 20
-147.2940239432112
 10
109.5171739092526
 20
-147.2897175738546
 10
109.6422308753672
 20
-147.2812770899158
 10
109.6422308753672
 20
-147.2812770899158
 10
109.6422308753672
 20
-147.4611110742458
 10
109.6422308753672
 20
-147.4611110742458
 10
109.6126030541941
 20
-147.4590440169547
 10
109.4940917695015
 20
-147.4547376475981
 10
109.453784152324
 20
-147.452670590307
 10
109.4389702417374
 20
-147.5034857487144
 10
109.405208305982
 20
-147.6156236067593
 10
109.3397514917623
 20
-147.7551499739119
 10
109.3817816566823
 20
-147.7551499739119
 10
109.6591118432449
 20
-147.736201948743
 10
109.7204345428824
 20
-147.7339626366776
 10
109.7204345428824
 20
-147.7339626366776
 10
109.7204345428824
 20
-147.9181029903642
 10
109.7204345428824
 20
-147.9181029903642
 10
109.6908067217092
 20
-147.9181029903642
 10
109.6739257538315
 20
-147.9137966210076
 10
109.5109727373792
 20
-147.9137966210076
 97
        0
 97
        1
330
90
 75
     2
 76
     1
 98
        1
 10
0.0
 20
0.0
450
        0
451
        0
460
0.0
461
0.0
452
        0
462
0.0
453
        0
470

  0
SPLINE
  5
92
330
8A
100
AcDbEntity
  8
レイヤー 1
100
AcDbSpline
210
0.0
220
0.0
230
1.0
 70
    11
 71
     3
 72
    17
 73
    13
 74
     0
 42
0.0000000001
 43
0.0000000001
 40
0.0
 40
0.0
 40
0.0
 40
0.0
 40
1.0
 40
1.0
 40
1.0
 40
2.0
 40
2.0
 40
2.0
 40
3.0
 40
3.0
 40
3.0
 40
4.0
 40
4.0
 40
4.0
 40
4.0
 10
111.3675346943803
 20
-148.7135755379084
 30
0.0
 10
111.3675346943803
 20
-148.7135755379084
 30
0.0
 10
110.6609456103556
 20
-148.7135755379084
 30
0.0
 10
110.6609456103556
 20
-148.7135755379084
 30
0.0
 10
110.6609456103556
 20
-148.7135755379084
 30
0.0
 10
110.6609456103556
 20
-148.8277804532444
 30
0.0
 10
110.6609456103556
 20
-148.8277804532444
 30
0.0
 10
110.6609456103556
 20
-148.8277804532444
 30
0.0
 10
111.3675346943803
 20
-148.8277804532444
 30
0.0
 10
111.3675346943803
 20
-148.8277804532444
 30
0.0
 10
111.3675346943803
 20
-148.8277804532444
 30
0.0
 10
111.3675346943803
 20
-148.7135755379084
 30
0.0
 10
111.3675346943803
 20
-148.7135755379084
 30
0.0
  0
SPLINE
  5
93
330
8A
100
AcDbEntity
  8
レイヤー 1
100
AcDbSpline
210
0.0
220
0.0
230
1.0
 70
    11
 71
     3
 72
    17
 73
    13
 74
     0
 42
0.0000000001
 43
0.0000000001
 40
0.0
 40
0.0
 40
0.0
 40
0.0
 40
1.0
 40
1.0
 40
1.0
 40
2.0
 40
2.0
 40
2.0
 40
3.0
 40
3.0
 40
3.0
 40
4.0
 40
4.0
 40
4.0
 40
4.0
 10
111.3675346943803
 20
-148.4701795418755
 30
0.0
 10
111.3675346943803
 20
-148.4701795418755
 30
0.0
 10
110.6609456103556
 20
-148.4701795418755
 30
0.0
 10
110.6609456103556
 20
-148.4701795418755
 30
0.0
 10
110.6609456103556
 20
-148.4701795418755
 30
0.0
 10
110.6609456103556
 20
-148.5845567119858
 30
0.0
 10
110.6609456103556
 20
-148.5845567119858
 30
0.0
 10
110.6609456103556
 20
-148.5845567119858
 30
0.0
 10
111.3675346943803
 20
-148.5845567119858
 30
0.0
 10
111.3675346943803
 20
-148.5845567119858
 30
0.0
 10
111.3675346943803
 20
-148.5845567119858
 30
0.0
 10
111.3675346943803
 20
-148.4701795418755
 30
0.0
 10
111.3675346943803
 20
-148.4701795418755
 30
0.0
  0
SPLINE
  5
94
330
8A
100
AcDbEntity
  8
レイヤー 1
100
AcDbSpline
210
0.0
220
0.0
230
1.0
 70
    11
 71
     3
 72
    17
 73
    13
 74
     0
 42
0.0000000001
 43
0.0000000001
 40
0.0
 40
0.0
 40
0.0
 40
0.0
 40
1.0
 40
1.0
 40
1.0
 40
2.0
 40
2.0
 40
2.0
 40
3.0
 40
3.0
 40
3.0
 40
4.0
 40
4.0
 40
4.0
 40
4.0
 10
111.3675346943803
 20
-148.2374633418469
 30
0.0
 10
111.3675346943803
 20
-148.2374633418469
 30
0.0
 10
110.6609456103556
 20
-148.2374633418469
 30
0.0
 10
110.6609456103556
 20
-148.2374633418469
 30
0.0
 10
110.6609456103556
 20
-148.2374633418469
 30
0.0
 10
110.6609456103556
 20
-148.3454670853095
 30
0.0
 10
110.6609456103556
 20
-148.3454670853095
 30
0.0
 10
110.6609456103556
 20
-148.3454670853095
 30
0.0
 10
111.3675346943803
 20
-148.3454670853095
 30
0.0
 10
111.3675346943803
 20
-148.3454670853095
 30
0.0
 10
111.3675346943803
 20
-148.3454670853095
 30
0.0
 10
111.3675346943803
 20
-148.2374633418469
 30
0.0
 10
111.3675346943803
 20
-148.2374633418469
 30
0.0
  0
SPLINE
  5
95
330
8A
100
AcDbEntity
  8
レイヤー 1
100
AcDbSpline
210
0.0
220
0.0
230
1.0
 70
     9
 71
     3
 72
   203
 73
   199
 74
     0
 42
0.0000000001
 43
0.0000000001
 40
0.0
 40
0.0
 40
0.0
 40
0.0
 40
1.0
 40
1.0
 40
1.0
 40
2.0
 40
2.0
 40
2.0
 40
3.0
 40
3.0
 40
3.0
 40
4.0
 40
4.0
 40
4.0
 40
5.0
 40
5.0
 40
5.0
 40
6.0
 40
6.0
 40
6.0
 40
7.0
 40
7.0
 40
7.0
 40
8.0
 40
8.0
 40
8.0
 40
9.0
 40
9.0
 40
9.0
 40
10.0
 40
10.0
 40
10.0
 40
11.0
 40
11.0
 40
11.0
 40
12.0
 40
12.0
 40
12.0
 40
13.0
 40
13.0
 40
13.0
 40
14.0
 40
14.0
 40
14.0
 40
15.0
 40
15.0
 40
15.0
 40
16.0
 40
16.0
 40
16.0
 40
17.0
 40
17.0
 40
17.0
 40
18.0
 40
18.0
 40
18.0
 40
19.0
 40
19.0
 40
19.0
 40
20.0
 40
20.0
 40
20.0
 40
21.0
 40
21.0
 40
21.0
 40
22.0
 40
22.0
 40
22.0
 40
23.0
 40
23.0
 40
23.0
 40
24.0
 40
24.0
 40
24.0
 40
25.0
 40
25.0
 40
25.0
 40
26.0
 40
26.0
 40
26.0
 40
27.0
 40
27.0
 40
27.0
 40
28.0
 40
28.0
 40
28.0
 40
29.0
 40
29.0
 40
29.0
 40
30.0
 40
30.0
 40
30.0
 40
31.0
 40
31.0
 40
31.0
 40
32.0
 40
32.0
 40
32.0
 40
33.0
 40
33.0
 40
33.0
 40
34.0
 40
34.0
 40
34.0
 40
35.0
 40
35.0
 40
35.0
 40
36.0
 40
36.0
 40
36.0
 40
37.0
 40
37.0
 40
37.0
 40
38.0
 40
38.0
 40
38.0
 40
39.0
 40
39.0
 40
39.0
 40
40.0
 40
40.0
 40
40.0
 40
41.0
 40
41.0
 40
41.0
 40
42.0
 40
42.0
 40
42.0
 40
43.0
 40
43.0
 40
43.0
 40
44.0
 40
44.0
 40
44.0
 40
45.0
 40
45.0
 40
45.0
 40
46.0
 40
46.0
 40
46.0
 40
47.0
 40
47.0
 40
47.0
 40
48.0
 40
48.0
 40
48.0
 40
49.0
 40
49.0
 40
49.0
 40
50.0
 40
50.0
 40
50.0
 40
51.0
 40
51.0
 40
51.0
 40
52.0
 40
52.0
 40
52.0
 40
53.0
 40
53.0
 40
53.0
 40
54.0
 40
54.0
 40
54.0
 40
55.0
 40
55.0
 40
55.0
 40
56.0
 40
56.0
 40
56.0
 40
57.0
 40
57.0
 40
57.0
 40
58.0
 40
58.0
 40
58.0
 40
59.0
 40
59.0
 40
59.0
 40
60.0
 40
60.0
 40
60.0
 40
61.0
 40
61.0
 40
61.0
 40
62.0
 40
62.0
 40
62.0
 40
63.0
 40
63.0
 40
63.0
 40
64.0
 40
64.0
 40
64.0
 40
65.0
 40
65.0
 40
65.0
 40
66.0
 40
66.0
 40
66.0
 40
66.0
 10
111.2025146206369
 20
-147.9814927472928
 30
0.0
 10
111.2025146206369
 20
-147.9814927472928
 30
0.0
 10
110.6440646424778
 20
-147.9814927472928
 30
0.0
 10
110.6440646424778
 20
-147.9814927472928
 30
0.0
 10
110.6333848464736
 20
-148.0259344790525
 30
0.0
 10
110.6247721077604
 20
-148.0576293575168
 30
0.0
 10
110.6123697640136
 20
-148.0958699174031
 30
0.0
 10
110.6375189610559
 20
-148.0958699174031
 30
0.0
 10
110.6523328716424
 20
-148.0979369746943
 30
0.0
 10
110.6588785530644
 20
-148.0979369746943
 30
0.0
 10
110.6588785530644
 20
-148.0979369746943
 30
0.0
 10
110.8469807665591
 20
-148.0979369746943
 30
0.0
 10
110.8469807665591
 20
-148.0979369746943
 30
0.0
 10
110.8469807665591
 20
-148.0979369746943
 30
0.0
 10
111.2214626458057
 20
-148.0979369746943
 30
0.0
 10
111.2214626458057
 20
-148.0979369746943
 30
0.0
 10
111.2721055494389
 20
-148.0979369746943
 30
0.0
 10
111.5556369078749
 20
-148.0851901213988
 30
0.0
 10
111.5873317863393
 20
-148.0851901213988
 30
0.0
 10
111.5852647290481
 20
-148.1127508852808
 30
0.0
 10
111.5831976717569
 20
-148.1316989104497
 30
0.0
 10
111.5831976717569
 20
-148.1613267316228
 30
0.0
 10
111.5811306144658
 20
-148.1930216100871
 30
0.0
 10
111.5811306144658
 20
-148.3284138626575
 30
0.0
 10
111.5811306144658
 20
-148.3559746265395
 30
0.0
 10
111.5811306144658
 20
-148.3559746265395
 30
0.0
 10
111.5811306144658
 20
-148.6014376798635
 30
0.0
 10
111.5811306144658
 20
-148.6014376798635
 30
0.0
 10
111.5811306144658
 20
-148.6458794116233
 30
0.0
 10
111.5852647290481
 20
-148.842594363831
 30
0.0
 10
111.5897433531789
 20
-148.994867584279
 30
0.0
 10
111.5897433531789
 20
-148.994867584279
 30
0.0
 10
111.3630560702495
 20
-148.994867584279
 30
0.0
 10
111.3630560702495
 20
-148.994867584279
 30
0.0
 10
111.3630560702495
 20
-148.994867584279
 30
0.0
 10
111.3654676370892
 20
-148.9611056485236
 30
0.0
 10
111.3654676370892
 20
-148.9611056485236
 30
0.0
 10
111.3654676370892
 20
-148.9611056485236
 30
0.0
 10
110.6630126676467
 20
-148.9611056485236
 30
0.0
 10
110.6630126676467
 20
-148.9611056485236
 30
0.0
 10
110.6630126676467
 20
-148.9611056485236
 30
0.0
 10
110.6650797249379
 20
-148.994867584279
 30
0.0
 10
110.6650797249379
 20
-148.994867584279
 30
0.0
 10
110.6650797249379
 20
-148.994867584279
 30
0.0
 10
110.4473496902701
 20
-148.994867584279
 30
0.0
 10
110.4473496902701
 20
-148.994867584279
 30
0.0
 10
110.4514838048524
 20
-148.939746056515
 30
0.0
 10
110.4514838048524
 20
-148.9269992032196
 30
0.0
 10
110.4576849767258
 20
-148.8129665426578
 30
0.0
 10
110.459752034017
 20
-148.7854057787759
 30
0.0
 10
110.4621636008566
 20
-148.652252838271
 30
0.0
 10
110.4621636008566
 20
-148.6331325583278
 30
0.0
 10
110.4621636008566
 20
-148.6331325583278
 30
0.0
 10
110.4621636008566
 20
-148.4300441794723
 30
0.0
 10
110.4621636008566
 20
-148.4300441794723
 30
0.0
 10
110.3222927241555
 20
-148.6796413473787
 30
0.0
 10
110.1531385358297
 20
-148.8108994853667
 30
0.0
 10
110.0473741044326
 20
-148.8763562995864
 30
0.0
 10
110.0473741044326
 20
-148.8763562995864
 30
0.0
 10
109.873741291976
 20
-148.7368299324338
 30
0.0
 10
109.873741291976
 20
-148.7368299324338
 30
0.0
 10
109.9626247554954
 20
-148.6860147740264
 30
0.0
 10
110.1066297467789
 20
-148.5991983677981
 30
0.0
 10
110.2440890566404
 20
-148.4047227276558
 30
0.0
 10
110.3350395774509
 20
-148.2777709590243
 30
0.0
 10
110.4008409012192
 20
-148.1339382225151
 30
0.0
 10
110.4346028369747
 20
-147.9814927472928
 30
0.0
 10
110.2061930063026
 20
-147.9837320593582
 30
0.0
 10
110.0263590219725
 20
-147.9901054860059
 30
0.0
 10
109.9309298770311
 20
-147.9921725432971
 30
0.0
 10
109.9309298770311
 20
-147.9921725432971
 30
0.0
 10
109.9309298770311
 20
-147.8144056162582
 30
0.0
 10
109.9309298770311
 20
-147.8144056162582
 30
0.0
 10
110.1276448292389
 20
-147.8207790429059
 30
0.0
 10
110.4111761876749
 20
-147.8250854122625
 30
0.0
 10
110.5613823508319
 20
-147.8250854122625
 30
0.0
 10
110.5613823508319
 20
-147.8250854122625
 30
0.0
 10
110.7749782709174
 20
-147.8250854122625
 30
0.0
 10
110.7749782709174
 20
-147.8250854122625
 30
0.0
 10
110.7749782709174
 20
-147.8250854122625
 30
0.0
 10
110.7749782709174
 20
-147.7170816687999
 30
0.0
 10
110.7749782709174
 20
-147.7170816687999
 30
0.0
 10
110.7749782709174
 20
-147.7170816687999
 30
0.0
 10
110.6292507318913
 20
-147.7170816687999
 30
0.0
 10
110.6292507318913
 20
-147.7170816687999
 30
0.0
 10
110.459752034017
 20
-147.7170816687999
 30
0.0
 10
110.2905978456912
 20
-147.7213880381565
 30
0.0
 10
110.1235107146566
 20
-147.7277614648042
 30
0.0
 10
110.1235107146566
 20
-147.7277614648042
 30
0.0
 10
110.1235107146566
 20
-147.556367964413
 30
0.0
 10
110.1235107146566
 20
-147.556367964413
 30
0.0
 10
110.2778509923958
 20
-147.566875505643
 30
0.0
 10
110.4642306581478
 20
-147.566875505643
 30
0.0
 10
110.6292507318913
 20
-147.566875505643
 30
0.0
 10
110.6292507318913
 20
-147.566875505643
 30
0.0
 10
110.7749782709174
 20
-147.566875505643
 30
0.0
 10
110.7749782709174
 20
-147.566875505643
 30
0.0
 10
110.7749782709174
 20
-147.566875505643
 30
0.0
 10
110.7749782709174
 20
-147.4485364757246
 30
0.0
 10
110.7749782709174
 20
-147.4485364757246
 30
0.0
 10
110.7749782709174
 20
-147.4485364757246
 30
0.0
 10
110.6440646424778
 20
-147.4485364757246
 30
0.0
 10
110.6440646424778
 20
-147.4485364757246
 30
0.0
 10
110.597555853427
 20
-147.4485364757246
 30
0.0
 10
110.3942952197972
 20
-147.4569769596635
 30
0.0
 10
110.3519205453287
 20
-147.4569769596635
 30
0.0
 10
110.1490044212475
 20
-147.4611110742458
 30
0.0
 10
110.0728678110234
 20
-147.463178131537
 30
0.0
 10
109.9946641435083
 20
-147.4654174436024
 30
0.0
 10
109.9946641435083
 20
-147.4654174436024
 30
0.0
 10
109.9946641435083
 20
-147.2812770899158
 30
0.0
 10
109.9946641435083
 20
-147.2812770899158
 30
0.0
 10
110.10869680407
 20
-147.2897175738546
 30
0.0
 10
110.1531385358297
 20
-147.2897175738546
 30
0.0
 10
110.5362331537895
 20
-147.2983303125678
 30
0.0
 10
110.4724988873124
 20
-147.2030734224006
 30
0.0
 10
110.4449381234304
 20
-147.1755126585186
 30
0.0
 10
110.4091091303838
 20
-147.1395114106977
 30
0.0
 10
110.4091091303838
 20
-147.1395114106977
 30
0.0
 10
110.5848090001316
 20
-147.057001373826
 30
0.0
 10
110.5848090001316
 20
-147.057001373826
 30
0.0
 10
110.6247721077604
 20
-147.0930026216469
 30
0.0
 10
110.6692138395202
 20
-147.1353772961155
 30
0.0
 10
110.743283392453
 20
-147.2452758420949
 30
0.0
 10
110.743283392453
 20
-147.2452758420949
 30
0.0
 10
110.6292507318913
 20
-147.3003973698589
 30
0.0
 10
110.6292507318913
 20
-147.3003973698589
 30
0.0
 10
110.6292507318913
 20
-147.3003973698589
 30
0.0
 10
110.639586018347
 20
-147.3003973698589
 30
0.0
 10
110.639586018347
 20
-147.3003973698589
 30
0.0
 10
110.639586018347
 20
-147.3003973698589
 30
0.0
 10
111.1622070034594
 20
-147.3003973698589
 30
0.0
 10
111.1622070034594
 20
-147.3003973698589
 30
0.0
 10
111.1622070034594
 20
-147.3003973698589
 30
0.0
 10
111.0671223680665
 20
-147.2559556380992
 30
0.0
 10
111.0671223680665
 20
-147.2559556380992
 30
0.0
 10
111.0946831319485
 20
-147.2178873329872
 30
0.0
 10
111.1515272074552
 20
-147.1374443534066
 30
0.0
 10
111.1663411180417
 20
-147.0633748004737
 30
0.0
 10
111.1663411180417
 20
-147.0633748004737
 30
0.0
 10
111.3802815476757
 20
-147.1269368121766
 30
0.0
 10
111.3802815476757
 20
-147.1269368121766
 30
0.0
 10
111.3885497768403
 20
-147.1290038694677
 30
0.0
 10
111.4099093688489
 20
-147.1395114106977
 30
0.0
 10
111.4099093688489
 20
-147.160698747932
 30
0.0
 10
111.4099093688489
 20
-147.198767053044
 30
0.0
 10
111.3441080450806
 20
-147.198767053044
 30
0.0
 10
111.3251600199117
 20
-147.198767053044
 30
0.0
 10
111.3144802239075
 20
-147.2178873329872
 30
0.0
 10
111.2913980841563
 20
-147.2580226953903
 30
0.0
 10
111.2617702629832
 20
-147.2983303125678
 30
0.0
 10
111.6614013392721
 20
-147.2919568859201
 30
0.0
 10
111.6910291604453
 20
-147.2897175738546
 30
0.0
 10
111.7671657706693
 20
-147.2835164019812
 30
0.0
 10
111.7671657706693
 20
-147.2835164019812
 30
0.0
 10
111.7671657706693
 20
-147.4654174436024
 30
0.0
 10
111.7671657706693
 20
-147.4654174436024
 30
0.0
 10
111.7482177455004
 20
-147.4654174436024
 30
0.0
 10
111.7227240389096
 20
-147.463178131537
 30
0.0
 10
111.5029269469506
 20
-147.4547376475981
 30
0.0
 10
111.4519395337689
 20
-147.452670590307
 30
0.0
 10
111.23214244181
 20
-147.4485364757246
 30
0.0
 10
111.1877007100503
 20
-147.4485364757246
 30
0.0
 10
111.1877007100503
 20
-147.4485364757246
 30
0.0
 10
110.9716932231251
 20
-147.4485364757246
 30
0.0
 10
110.9716932231251
 20
-147.4485364757246
 30
0.0
 10
110.9716932231251
 20
-147.4485364757246
 30
0.0
 10
110.9716932231251
 20
-147.566875505643
 30
0.0
 10
110.9716932231251
 20
-147.566875505643
 30
0.0
 10
110.9716932231251
 20
-147.566875505643
 30
0.0
 10
111.1453260355817
 20
-147.566875505643
 30
0.0
 10
111.1453260355817
 20
-147.566875505643
 30
0.0
 10
111.308279052034
 20
-147.566875505643
 30
0.0
 10
111.4984483228198
 20
-147.566875505643
 30
0.0
 10
111.6552001673987
 20
-147.556367964413
 30
0.0
 10
111.6552001673987
 20
-147.556367964413
 30
0.0
 10
111.6552001673987
 20
-147.7277614648042
 30
0.0
 10
111.6552001673987
 20
-147.7277614648042
 30
0.0
 10
111.4457383618955
 20
-147.7193209808653
 30
0.0
 10
111.2490234096877
 20
-147.7170816687999
 30
0.0
 10
111.1453260355817
 20
-147.7170816687999
 30
0.0
 10
111.1453260355817
 20
-147.7170816687999
 30
0.0
 10
110.9716932231251
 20
-147.7170816687999
 30
0.0
 10
110.9716932231251
 20
-147.7170816687999
 30
0.0
 10
110.9716932231251
 20
-147.7170816687999
 30
0.0
 10
110.9716932231251
 20
-147.8250854122625
 30
0.0
 10
110.9716932231251
 20
-147.8250854122625
 30
0.0
 10
110.9716932231251
 20
-147.8250854122625
 30
0.0
 10
111.2025146206369
 20
-147.8250854122625
 30
0.0
 10
111.2025146206369
 20
-147.8250854122625
 30
0.0
 10
111.335839815916
 20
-147.8250854122625
 30
0.0
 10
111.6235052889344
 20
-147.8207790429059
 30
0.0
 10
111.8329670944376
 20
-147.8144056162582
 30
0.0
 10
111.8329670944376
 20
-147.8144056162582
 30
0.0
 10
111.8329670944376
 20
-147.9921725432971
 30
0.0
 10
111.8329670944376
 20
-147.9921725432971
 30
0.0
 10
111.6403862568121
 20
-147.9857991166494
 30
0.0
 10
111.3272270772029
 20
-147.9814927472928
 30
0.0
 10
111.2025146206369
 20
-147.9814927472928
 30
0.0
  0
HATCH
  5
96
330
8A
100
AcDbEntity
  8
レイヤー 1
 62
    18
420
        0
440
 33554687
100
AcDbHatch
 10
0.0
 20
0.0
 30
0.0
210
0.0
220
0.0
230
1.0
  2
SOLID
 70
     1
 71
     1
 91
        4
 92
        1
 93
        1
 72
     4
 94
        3
 73
     0
 74
     0
 95
       17
 96
       13
 40
0.0
 40
0.0
 40
0.0
 40
0.0
 40
1.0
 40
1.0
 40
1.0
 40
2.0
 40
2.0
 40
2.0
 40
3.0
 40
3.0
 40
3.0
 40
4.0
 40
4.0
 40
4.0
 40
4.0
 10
111.3675346943803
 20
-148.7135755379084
 10
111.3675346943803
 20
-148.7135755379084
 10
110.6609456103556
 20
-148.7135755379084
 10
110.6609456103556
 20
-148.7135755379084
 10
110.6609456103556
 20
-148.7135755379084
 10
110.6609456103556
 20
-148.8277804532444
 10
110.6609456103556
 20
-148.8277804532444
 10
110.6609456103556
 20
-148.8277804532444
 10
111.3675346943803
 20
-148.8277804532444
 10
111.3675346943803
 20
-148.8277804532444
 10
111.3675346943803
 20
-148.8277804532444
 10
111.3675346943803
 20
-148.7135755379084
 10
111.3675346943803
 20
-148.7135755379084
 97
        0
 97
        1
330
92
 92
        1
 93
        1
 72
     4
 94
        3
 73
     0
 74
     0
 95
       17
 96
       13
 40
0.0
 40
0.0
 40
0.0
 40
0.0
 40
1.0
 40
1.0
 40
1.0
 40
2.0
 40
2.0
 40
2.0
 40
3.0
 40
3.0
 40
3.0
 40
4.0
 40
4.0
 40
4.0
 40
4.0
 10
111.3675346943803
 20
-148.4701795418755
 10
111.3675346943803
 20
-148.4701795418755
 10
110.6609456103556
 20
-148.4701795418755
 10
110.6609456103556
 20
-148.4701795418755
 10
110.6609456103556
 20
-148.4701795418755
 10
110.6609456103556
 20
-148.5845567119858
 10
110.6609456103556
 20
-148.5845567119858
 10
110.6609456103556
 20
-148.5845567119858
 10
111.3675346943803
 20
-148.5845567119858
 10
111.3675346943803
 20
-148.5845567119858
 10
111.3675346943803
 20
-148.5845567119858
 10
111.3675346943803
 20
-148.4701795418755
 10
111.3675346943803
 20
-148.4701795418755
 97
        0
 97
        1
330
93
 92
        1
 93
        1
 72
     4
 94
        3
 73
     0
 74
     0
 95
       17
 96
       13
 40
0.0
 40
0.0
 40
0.0
 40
0.0
 40
1.0
 40
1.0
 40
1.0
 40
2.0
 40
2.0
 40
2.0
 40
3.0
 40
3.0
 40
3.0
 40
4.0
 40
4.0
 40
4.0
 40
4.0
 10
111.3675346943803
 20
-148.2374633418469
 10
111.3675346943803
 20
-148.2374633418469
 10
110.6609456103556
 20
-148.2374633418469
 10
110.6609456103556
 20
-148.2374633418469
 10
110.6609456103556
 20
-148.2374633418469
 10
110.6609456103556
 20
-148.3454670853095
 10
110.6609456103556
 20
-148.3454670853095
 10
110.6609456103556
 20
-148.3454670853095
 10
111.3675346943803
 20
-148.3454670853095
 10
111.3675346943803
 20
-148.3454670853095
 10
111.3675346943803
 20
-148.3454670853095
 10
111.3675346943803
 20
-148.2374633418469
 10
111.3675346943803
 20
-148.2374633418469
 97
        0
 97
        1
330
94
 92
        1
 93
        1
 72
     4
 94
        3
 73
     0
 74
     0
 95
      203
 96
      199
 40
0.0
 40
0.0
 40
0.0
 40
0.0
 40
1.0
 40
1.0
 40
1.0
 40
2.0
 40
2.0
 40
2.0
 40
3.0
 40
3.0
 40
3.0
 40
4.0
 40
4.0
 40
4.0
 40
5.0
 40
5.0
 40
5.0
 40
6.0
 40
6.0
 40
6.0
 40
7.0
 40
7.0
 40
7.0
 40
8.0
 40
8.0
 40
8.0
 40
9.0
 40
9.0
 40
9.0
 40
10.0
 40
10.0
 40
10.0
 40
11.0
 40
11.0
 40
11.0
 40
12.0
 40
12.0
 40
12.0
 40
13.0
 40
13.0
 40
13.0
 40
14.0
 40
14.0
 40
14.0
 40
15.0
 40
15.0
 40
15.0
 40
16.0
 40
16.0
 40
16.0
 40
17.0
 40
17.0
 40
17.0
 40
18.0
 40
18.0
 40
18.0
 40
19.0
 40
19.0
 40
19.0
 40
20.0
 40
20.0
 40
20.0
 40
21.0
 40
21.0
 40
21.0
 40
22.0
 40
22.0
 40
22.0
 40
23.0
 40
23.0
 40
23.0
 40
24.0
 40
24.0
 40
24.0
 40
25.0
 40
25.0
 40
25.0
 40
26.0
 40
26.0
 40
26.0
 40
27.0
 40
27.0
 40
27.0
 40
28.0
 40
28.0
 40
28.0
 40
29.0
 40
29.0
 40
29.0
 40
30.0
 40
30.0
 40
30.0
 40
31.0
 40
31.0
 40
31.0
 40
32.0
 40
32.0
 40
32.0
 40
33.0
 40
33.0
 40
33.0
 40
34.0
 40
34.0
 40
34.0
 40
35.0
 40
35.0
 40
35.0
 40
36.0
 40
36.0
 40
36.0
 40
37.0
 40
37.0
 40
37.0
 40
38.0
 40
38.0
 40
38.0
 40
39.0
 40
39.0
 40
39.0
 40
40.0
 40
40.0
 40
40.0
 40
41.0
 40
41.0
 40
41.0
 40
42.0
 40
42.0
 40
42.0
 40
43.0
 40
43.0
 40
43.0
 40
44.0
 40
44.0
 40
44.0
 40
45.0
 40
45.0
 40
45.0
 40
46.0
 40
46.0
 40
46.0
 40
47.0
 40
47.0
 40
47.0
 40
48.0
 40
48.0
 40
48.0
 40
49.0
 40
49.0
 40
49.0
 40
50.0
 40
50.0
 40
50.0
 40
51.0
 40
51.0
 40
51.0
 40
52.0
 40
52.0
 40
52.0
 40
53.0
 40
53.0
 40
53.0
 40
54.0
 40
54.0
 40
54.0
 40
55.0
 40
55.0
 40
55.0
 40
56.0
 40
56.0
 40
56.0
 40
57.0
 40
57.0
 40
57.0
 40
58.0
 40
58.0
 40
58.0
 40
59.0
 40
59.0
 40
59.0
 40
60.0
 40
60.0
 40
60.0
 40
61.0
 40
61.0
 40
61.0
 40
62.0
 40
62.0
 40
62.0
 40
63.0
 40
63.0
 40
63.0
 40
64.0
 40
64.0
 40
64.0
 40
65.0
 40
65.0
 40
65.0
 40
66.0
 40
66.0
 40
66.0
 40
66.0
 10
111.2025146206369
 20
-147.9814927472928
 10
111.2025146206369
 20
-147.9814927472928
 10
110.6440646424778
 20
-147.9814927472928
 10
110.6440646424778
 20
-147.9814927472928
 10
110.6333848464736
 20
-148.0259344790525
 10
110.6247721077604
 20
-148.0576293575168
 10
110.6123697640136
 20
-148.0958699174031
 10
110.6375189610559
 20
-148.0958699174031
 10
110.6523328716424
 20
-148.0979369746943
 10
110.6588785530644
 20
-148.0979369746943
 10
110.6588785530644
 20
-148.0979369746943
 10
110.8469807665591
 20
-148.0979369746943
 10
110.8469807665591
 20
-148.0979369746943
 10
110.8469807665591
 20
-148.0979369746943
 10
111.2214626458057
 20
-148.0979369746943
 10
111.2214626458057
 20
-148.0979369746943
 10
111.2721055494389
 20
-148.0979369746943
 10
111.5556369078749
 20
-148.0851901213988
 10
111.5873317863393
 20
-148.0851901213988
 10
111.5852647290481
 20
-148.1127508852808
 10
111.5831976717569
 20
-148.1316989104497
 10
111.5831976717569
 20
-148.1613267316228
 10
111.5811306144658
 20
-148.1930216100871
 10
111.5811306144658
 20
-148.3284138626575
 10
111.5811306144658
 20
-148.3559746265395
 10
111.5811306144658
 20
-148.3559746265395
 10
111.5811306144658
 20
-148.6014376798635
 10
111.5811306144658
 20
-148.6014376798635
 10
111.5811306144658
 20
-148.6458794116233
 10
111.5852647290481
 20
-148.842594363831
 10
111.5897433531789
 20
-148.994867584279
 10
111.5897433531789
 20
-148.994867584279
 10
111.3630560702495
 20
-148.994867584279
 10
111.3630560702495
 20
-148.994867584279
 10
111.3630560702495
 20
-148.994867584279
 10
111.3654676370892
 20
-148.9611056485236
 10
111.3654676370892
 20
-148.9611056485236
 10
111.3654676370892
 20
-148.9611056485236
 10
110.6630126676467
 20
-148.9611056485236
 10
110.6630126676467
 20
-148.9611056485236
 10
110.6630126676467
 20
-148.9611056485236
 10
110.6650797249379
 20
-148.994867584279
 10
110.6650797249379
 20
-148.994867584279
 10
110.6650797249379
 20
-148.994867584279
 10
110.4473496902701
 20
-148.994867584279
 10
110.4473496902701
 20
-148.994867584279
 10
110.4514838048524
 20
-148.939746056515
 10
110.4514838048524
 20
-148.9269992032196
 10
110.4576849767258
 20
-148.8129665426578
 10
110.459752034017
 20
-148.7854057787759
 10
110.4621636008566
 20
-148.652252838271
 10
110.4621636008566
 20
-148.6331325583278
 10
110.4621636008566
 20
-148.6331325583278
 10
110.4621636008566
 20
-148.4300441794723
 10
110.4621636008566
 20
-148.4300441794723
 10
110.3222927241555
 20
-148.6796413473787
 10
110.1531385358297
 20
-148.8108994853667
 10
110.0473741044326
 20
-148.8763562995864
 10
110.0473741044326
 20
-148.8763562995864
 10
109.873741291976
 20
-148.7368299324338
 10
109.873741291976
 20
-148.7368299324338
 10
109.9626247554954
 20
-148.6860147740264
 10
110.1066297467789
 20
-148.5991983677981
 10
110.2440890566404
 20
-148.4047227276558
 10
110.3350395774509
 20
-148.2777709590243
 10
110.4008409012192
 20
-148.1339382225151
 10
110.4346028369747
 20
-147.9814927472928
 10
110.2061930063026
 20
-147.9837320593582
 10
110.0263590219725
 20
-147.9901054860059
 10
109.9309298770311
 20
-147.9921725432971
 10
109.9309298770311
 20
-147.9921725432971
 10
109.9309298770311
 20
-147.8144056162582
 10
109.9309298770311
 20
-147.8144056162582
 10
110.1276448292389
 20
-147.8207790429059
 10
110.4111761876749
 20
-147.8250854122625
 10
110.5613823508319
 20
-147.8250854122625
 10
110.5613823508319
 20
-147.8250854122625
 10
110.7749782709174
 20
-147.8250854122625
 10
110.7749782709174
 20
-147.8250854122625
 10
110.7749782709174
 20
-147.8250854122625
 10
110.7749782709174
 20
-147.7170816687999
 10
110.7749782709174
 20
-147.7170816687999
 10
110.7749782709174
 20
-147.7170816687999
 10
110.6292507318913
 20
-147.7170816687999
 10
110.6292507318913
 20
-147.7170816687999
 10
110.459752034017
 20
-147.7170816687999
 10
110.2905978456912
 20
-147.7213880381565
 10
110.1235107146566
 20
-147.7277614648042
 10
110.1235107146566
 20
-147.7277614648042
 10
110.1235107146566
 20
-147.556367964413
 10
110.1235107146566
 20
-147.556367964413
 10
110.2778509923958
 20
-147.566875505643
 10
110.4642306581478
 20
-147.566875505643
 10
110.6292507318913
 20
-147.566875505643
 10
110.6292507318913
 20
-147.566875505643
 10
110.7749782709174
 20
-147.566875505643
 10
110.7749782709174
 20
-147.566875505643
 10
110.7749782709174
 20
-147.566875505643
 10
110.7749782709174
 20
-147.4485364757246
 10
110.7749782709174
 20
-147.4485364757246
 10
110.7749782709174
 20
-147.4485364757246
 10
110.6440646424778
 20
-147.4485364757246
 10
110.6440646424778
 20
-147.4485364757246
 10
110.597555853427
 20
-147.4485364757246
 10
110.3942952197972
 20
-147.4569769596635
 10
110.3519205453287
 20
-147.4569769596635
 10
110.1490044212475
 20
-147.4611110742458
 10
110.0728678110234
 20
-147.463178131537
 10
109.9946641435083
 20
-147.4654174436024
 10
109.9946641435083
 20
-147.4654174436024
 10
109.9946641435083
 20
-147.2812770899158
 10
109.9946641435083
 20
-147.2812770899158
 10
110.10869680407
 20
-147.2897175738546
 10
110.1531385358297
 20
-147.2897175738546
 10
110.5362331537895
 20
-147.2983303125678
 10
110.4724988873124
 20
-147.2030734224006
 10
110.4449381234304
 20
-147.1755126585186
 10
110.4091091303838
 20
-147.1395114106977
 10
110.4091091303838
 20
-147.1395114106977
 10
110.5848090001316
 20
-147.057001373826
 10
110.5848090001316
 20
-147.057001373826
 10
110.6247721077604
 20
-147.0930026216469
 10
110.6692138395202
 20
-147.1353772961155
 10
110.743283392453
 20
-147.2452758420949
 10
110.743283392453
 20
-147.2452758420949
 10
110.6292507318913
 20
-147.3003973698589
 10
110.6292507318913
 20
-147.3003973698589
 10
110.6292507318913
 20
-147.3003973698589
 10
110.639586018347
 20
-147.3003973698589
 10
110.639586018347
 20
-147.3003973698589
 10
110.639586018347
 20
-147.3003973698589
 10
111.1622070034594
 20
-147.3003973698589
 10
111.1622070034594
 20
-147.3003973698589
 10
111.1622070034594
 20
-147.3003973698589
 10
111.0671223680665
 20
-147.2559556380992
 10
111.0671223680665
 20
-147.2559556380992
 10
111.0946831319485
 20
-147.2178873329872
 10
111.1515272074552
 20
-147.1374443534066
 10
111.1663411180417
 20
-147.0633748004737
 10
111.1663411180417
 20
-147.0633748004737
 10
111.3802815476757
 20
-147.1269368121766
 10
111.3802815476757
 20
-147.1269368121766
 10
111.3885497768403
 20
-147.1290038694677
 10
111.4099093688489
 20
-147.1395114106977
 10
111.4099093688489
 20
-147.160698747932
 10
111.4099093688489
 20
-147.198767053044
 10
111.3441080450806
 20
-147.198767053044
 10
111.3251600199117
 20
-147.198767053044
 10
111.3144802239075
 20
-147.2178873329872
 10
111.2913980841563
 20
-147.2580226953903
 10
111.2617702629832
 20
-147.2983303125678
 10
111.6614013392721
 20
-147.2919568859201
 10
111.6910291604453
 20
-147.2897175738546
 10
111.7671657706693
 20
-147.2835164019812
 10
111.7671657706693
 20
-147.2835164019812
 10
111.7671657706693
 20
-147.4654174436024
 10
111.7671657706693
 20
-147.4654174436024
 10
111.7482177455004
 20
-147.4654174436024
 10
111.7227240389096
 20
-147.463178131537
 10
111.5029269469506
 20
-147.4547376475981
 10
111.4519395337689
 20
-147.452670590307
 10
111.23214244181
 20
-147.4485364757246
 10
111.1877007100503
 20
-147.4485364757246
 10
111.1877007100503
 20
-147.4485364757246
 10
110.9716932231251
 20
-147.4485364757246
 10
110.9716932231251
 20
-147.4485364757246
 10
110.9716932231251
 20
-147.4485364757246
 10
110.9716932231251
 20
-147.566875505643
 10
110.9716932231251
 20
-147.566875505643
 10
110.9716932231251
 20
-147.566875505643
 10
111.1453260355817
 20
-147.566875505643
 10
111.1453260355817
 20
-147.566875505643
 10
111.308279052034
 20
-147.566875505643
 10
111.4984483228198
 20
-147.566875505643
 10
111.6552001673987
 20
-147.556367964413
 10
111.6552001673987
 20
-147.556367964413
 10
111.6552001673987
 20
-147.7277614648042
 10
111.6552001673987
 20
-147.7277614648042
 10
111.4457383618955
 20
-147.7193209808653
 10
111.2490234096877
 20
-147.7170816687999
 10
111.1453260355817
 20
-147.7170816687999
 10
111.1453260355817
 20
-147.7170816687999
 10
110.9716932231251
 20
-147.7170816687999
 10
110.9716932231251
 20
-147.7170816687999
 10
110.9716932231251
 20
-147.7170816687999
 10
110.9716932231251
 20
-147.8250854122625
 10
110.9716932231251
 20
-147.8250854122625
 10
110.9716932231251
 20
-147.8250854122625
 10
111.2025146206369
 20
-147.8250854122625
 10
111.2025146206369
 20
-147.8250854122625
 10
111.335839815916
 20
-147.8250854122625
 10
111.6235052889344
 20
-147.8207790429059
 10
111.8329670944376
 20
-147.8144056162582
 10
111.8329670944376
 20
-147.8144056162582
 10
111.8329670944376
 20
-147.9921725432971
 10
111.8329670944376
 20
-147.9921725432971
 10
111.6403862568121
 20
-147.9857991166494
 10
111.3272270772029
 20
-147.9814927472928
 10
111.2025146206369
 20
-147.9814927472928
 97
        0
 97
        1
330
95
 75
     2
 76
     1
 98
        1
 10
0.0
 20
0.0
450
        0
451
        0
460
0.0
461
0.0
452
        0
462
0.0
453
        0
470

  0
SPLINE
  5
97
330
8A
100
AcDbEntity
  8
レイヤー 1
100
AcDbSpline
210
0.0
220
0.0
230
1.0
 70
     9
 71
     3
 72
    29
 73
    25
 74
     0
 42
0.0000000001
 43
0.0000000001
 40
0.0
 40
0.0
 40
0.0
 40
0.0
 40
1.0
 40
1.0
 40
1.0
 40
2.0
 40
2.0
 40
2.0
 40
3.0
 40
3.0
 40
3.0
 40
4.0
 40
4.0
 40
4.0
 40
5.0
 40
5.0
 40
5.0
 40
6.0
 40
6.0
 40
6.0
 40
7.0
 40
7.0
 40
7.0
 40
8.0
 40
8.0
 40
8.0
 40
8.0
 10
113.0780246028069
 20
-147.4294161957815
 30
0.0
 10
113.0780246028069
 20
-147.4294161957815
 30
0.0
 10
112.7245578060202
 20
-147.4294161957815
 30
0.0
 10
112.7245578060202
 20
-147.4294161957815
 30
0.0
 10
112.6125922027496
 20
-147.4294161957815
 30
0.0
 10
112.473065835597
 20
-147.4357896224292
 30
0.0
 10
112.3648898373601
 20
-147.4485364757246
 30
0.0
 10
112.3648898373601
 20
-147.4485364757246
 30
0.0
 10
112.3648898373601
 20
-147.2135809636306
 30
0.0
 10
112.3648898373601
 20
-147.2135809636306
 30
0.0
 10
112.4834011220527
 20
-147.2283948742172
 30
0.0
 10
112.6673692209651
 20
-147.2327012435738
 30
0.0
 10
112.7245578060202
 20
-147.2327012435738
 30
0.0
 10
112.7245578060202
 20
-147.2327012435738
 30
0.0
 10
113.0780246028069
 20
-147.2327012435738
 30
0.0
 10
113.0780246028069
 20
-147.2327012435738
 30
0.0
 10
113.0969726279757
 20
-147.2327012435738
 30
0.0
 10
113.3002332616055
 20
-147.2327012435738
 30
0.0
 10
113.4418266860492
 20
-147.2135809636306
 30
0.0
 10
113.4418266860492
 20
-147.2135809636306
 30
0.0
 10
113.4418266860492
 20
-147.4485364757246
 30
0.0
 10
113.4418266860492
 20
-147.4485364757246
 30
0.0
 10
113.2854193510189
 20
-147.4294161957815
 30
0.0
 10
113.0949055706846
 20
-147.4294161957815
 30
0.0
 10
113.0780246028069
 20
-147.4294161957815
 30
0.0
  0
SPLINE
  5
98
330
8A
100
AcDbEntity
  8
レイヤー 1
100
AcDbSpline
210
0.0
220
0.0
230
1.0
 70
     9
 71
     3
 72
    47
 73
    43
 74
     0
 42
0.0000000001
 43
0.0000000001
 40
0.0
 40
0.0
 40
0.0
 40
0.0
 40
1.0
 40
1.0
 40
1.0
 40
2.0
 40
2.0
 40
2.0
 40
3.0
 40
3.0
 40
3.0
 40
4.0
 40
4.0
 40
4.0
 40
5.0
 40
5.0
 40
5.0
 40
6.0
 40
6.0
 40
6.0
 40
7.0
 40
7.0
 40
7.0
 40
8.0
 40
8.0
 40
8.0
 40
9.0
 40
9.0
 40
9.0
 40
10.0
 40
10.0
 40
10.0
 40
11.0
 40
11.0
 40
11.0
 40
12.0
 40
12.0
 40
12.0
 40
13.0
 40
13.0
 40
13.0
 40
14.0
 40
14.0
 40
14.0
 40
14.0
 10
113.1793104100732
 20
-147.9582383527674
 30
0.0
 10
113.1793104100732
 20
-147.9582383527674
 30
0.0
 10
113.0780246028069
 20
-147.9582383527674
 30
0.0
 10
113.0780246028069
 20
-147.9582383527674
 30
0.0
 10
113.0780246028069
 20
-148.0450547589957
 30
0.0
 10
113.0566650107983
 20
-148.4343505488289
 30
0.0
 10
112.8599500585905
 20
-148.6543198955621
 30
0.0
 10
112.7076768381425
 20
-148.8234740838879
 30
0.0
 10
112.5002820899305
 20
-148.8932372674642
 30
0.0
 10
112.4158772505418
 20
-148.9207980313462
 30
0.0
 10
112.4158772505418
 20
-148.9207980313462
 30
0.0
 10
112.2212293556252
 20
-148.7537109003115
 30
0.0
 10
112.2212293556252
 20
-148.7537109003115
 30
0.0
 10
112.3183810483093
 20
-148.7409640470161
 30
0.0
 10
112.494080918057
 20
-148.7177096524907
 30
0.0
 10
112.6821831315517
 20
-148.5294351842218
 30
0.0
 10
112.7562526844845
 20
-148.4576049433544
 30
0.0
 10
112.8599500585905
 20
-148.3179063214274
 30
0.0
 10
112.8599500585905
 20
-147.9582383527674
 30
0.0
 10
112.8599500585905
 20
-147.9582383527674
 30
0.0
 10
112.6294731706273
 20
-147.9582383527674
 30
0.0
 10
112.6294731706273
 20
-147.9582383527674
 30
0.0
 10
112.4434380144238
 20
-147.9582383527674
 30
0.0
 10
112.2570583486718
 20
-147.962544722124
 30
0.0
 10
112.0710231924683
 20
-147.9773586327105
 30
0.0
 10
112.0710231924683
 20
-147.9773586327105
 30
0.0
 10
112.0710231924683
 20
-147.7573892859773
 30
0.0
 10
112.0710231924683
 20
-147.7573892859773
 30
0.0
 10
112.259125405963
 20
-147.7722031965639
 30
0.0
 10
112.5447238216902
 20
-147.7763373111462
 30
0.0
 10
112.6294731706273
 20
-147.7763373111462
 30
0.0
 10
112.6294731706273
 20
-147.7763373111462
 30
0.0
 10
113.1793104100732
 20
-147.7763373111462
 30
0.0
 10
113.1793104100732
 20
-147.7763373111462
 30
0.0
 10
113.1986029447906
 20
-147.7763373111462
 30
0.0
 10
113.5158962389821
 20
-147.7763373111462
 30
0.0
 10
113.7443060696542
 20
-147.7573892859773
 30
0.0
 10
113.7443060696542
 20
-147.7573892859773
 30
0.0
 10
113.7443060696542
 20
-147.9773586327105
 30
0.0
 10
113.7443060696542
 20
-147.9773586327105
 30
0.0
 10
113.5562038561595
 20
-147.962544722124
 30
0.0
 10
113.3677571331164
 20
-147.9582383527674
 30
0.0
 10
113.1793104100732
 20
-147.9582383527674
 30
0.0
  0
HATCH
  5
99
330
8A
100
AcDbEntity
  8
レイヤー 1
 62
    18
420
        0
440
 33554687
100
AcDbHatch
 10
0.0
 20
0.0
 30
0.0
210
0.0
220
0.0
230
1.0
  2
SOLID
 70
     1
 71
     1
 91
        2
 92
        1
 93
        1
 72
     4
 94
        3
 73
     0
 74
     0
 95
       29
 96
       25
 40
0.0
 40
0.0
 40
0.0
 40
0.0
 40
1.0
 40
1.0
 40
1.0
 40
2.0
 40
2.0
 40
2.0
 40
3.0
 40
3.0
 40
3.0
 40
4.0
 40
4.0
 40
4.0
 40
5.0
 40
5.0
 40
5.0
 40
6.0
 40
6.0
 40
6.0
 40
7.0
 40
7.0
 40
7.0
 40
8.0
 40
8.0
 40
8.0
 40
8.0
 10
113.0780246028069
 20
-147.4294161957815
 10
113.0780246028069
 20
-147.4294161957815
 10
112.7245578060202
 20
-147.4294161957815
 10
112.7245578060202
 20
-147.4294161957815
 10
112.6125922027496
 20
-147.4294161957815
 10
112.473065835597
 20
-147.4357896224292
 10
112.3648898373601
 20
-147.4485364757246
 10
112.3648898373601
 20
-147.4485364757246
 10
112.3648898373601
 20
-147.2135809636306
 10
112.3648898373601
 20
-147.2135809636306
 10
112.4834011220527
 20
-147.2283948742172
 10
112.6673692209651
 20
-147.2327012435738
 10
112.7245578060202
 20
-147.2327012435738
 10
112.7245578060202
 20
-147.2327012435738
 10
113.0780246028069
 20
-147.2327012435738
 10
113.0780246028069
 20
-147.2327012435738
 10
113.0969726279757
 20
-147.2327012435738
 10
113.3002332616055
 20
-147.2327012435738
 10
113.4418266860492
 20
-147.2135809636306
 10
113.4418266860492
 20
-147.2135809636306
 10
113.4418266860492
 20
-147.4485364757246
 10
113.4418266860492
 20
-147.4485364757246
 10
113.2854193510189
 20
-147.4294161957815
 10
113.0949055706846
 20
-147.4294161957815
 10
113.0780246028069
 20
-147.4294161957815
 97
        0
 97
        1
330
97
 92
        1
 93
        1
 72
     4
 94
        3
 73
     0
 74
     0
 95
       47
 96
       43
 40
0.0
 40
0.0
 40
0.0
 40
0.0
 40
1.0
 40
1.0
 40
1.0
 40
2.0
 40
2.0
 40
2.0
 40
3.0
 40
3.0
 40
3.0
 40
4.0
 40
4.0
 40
4.0
 40
5.0
 40
5.0
 40
5.0
 40
6.0
 40
6.0
 40
6.0
 40
7.0
 40
7.0
 40
7.0
 40
8.0
 40
8.0
 40
8.0
 40
9.0
 40
9.0
 40
9.0
 40
10.0
 40
10.0
 40
10.0
 40
11.0
 40
11.0
 40
11.0
 40
12.0
 40
12.0
 40
12.0
 40
13.0
 40
13.0
 40
13.0
 40
14.0
 40
14.0
 40
14.0
 40
14.0
 10
113.1793104100732
 20
-147.9582383527674
 10
113.1793104100732
 20
-147.9582383527674
 10
113.0780246028069
 20
-147.9582383527674
 10
113.0780246028069
 20
-147.9582383527674
 10
113.0780246028069
 20
-148.0450547589957
 10
113.0566650107983
 20
-148.4343505488289
 10
112.8599500585905
 20
-148.6543198955621
 10
112.7076768381425
 20
-148.8234740838879
 10
112.5002820899305
 20
-148.8932372674642
 10
112.4158772505418
 20
-148.9207980313462
 10
112.4158772505418
 20
-148.9207980313462
 10
112.2212293556252
 20
-148.7537109003115
 10
112.2212293556252
 20
-148.7537109003115
 10
112.3183810483093
 20
-148.7409640470161
 10
112.494080918057
 20
-148.7177096524907
 10
112.6821831315517
 20
-148.5294351842218
 10
112.7562526844845
 20
-148.4576049433544
 10
112.8599500585905
 20
-148.3179063214274
 10
112.8599500585905
 20
-147.9582383527674
 10
112.8599500585905
 20
-147.9582383527674
 10
112.6294731706273
 20
-147.9582383527674
 10
112.6294731706273
 20
-147.9582383527674
 10
112.4434380144238
 20
-147.9582383527674
 10
112.2570583486718
 20
-147.962544722124
 10
112.0710231924683
 20
-147.9773586327105
 10
112.0710231924683
 20
-147.9773586327105
 10
112.0710231924683
 20
-147.7573892859773
 10
112.0710231924683
 20
-147.7573892859773
 10
112.259125405963
 20
-147.7722031965639
 10
112.5447238216902
 20
-147.7763373111462
 10
112.6294731706273
 20
-147.7763373111462
 10
112.6294731706273
 20
-147.7763373111462
 10
113.1793104100732
 20
-147.7763373111462
 10
113.1793104100732
 20
-147.7763373111462
 10
113.1986029447906
 20
-147.7763373111462
 10
113.5158962389821
 20
-147.7763373111462
 10
113.7443060696542
 20
-147.7573892859773
 10
113.7443060696542
 20
-147.7573892859773
 10
113.7443060696542
 20
-147.9773586327105
 10
113.7443060696542
 20
-147.9773586327105
 10
113.5562038561595
 20
-147.962544722124
 10
113.3677571331164
 20
-147.9582383527674
 10
113.1793104100732
 20
-147.9582383527674
 97
        0
 97
        1
330
98
 75
     2
 76
     1
 98
        1
 10
0.0
 20
0.0
450
        0
451
        0
460
0.0
461
0.0
452
        0
462
0.0
453
        0
470

  0
SPLINE
  5
9A
330
8A
100
AcDbEntity
  8
レイヤー 1
100
AcDbSpline
210
0.0
220
0.0
230
1.0
 70
     9
 71
     3
 72
    29
 73
    25
 74
     0
 42
0.0000000001
 43
0.0000000001
 40
0.0
 40
0.0
 40
0.0
 40
0.0
 40
1.0
 40
1.0
 40
1.0
 40
2.0
 40
2.0
 40
2.0
 40
3.0
 40
3.0
 40
3.0
 40
4.0
 40
4.0
 40
4.0
 40
5.0
 40
5.0
 40
5.0
 40
6.0
 40
6.0
 40
6.0
 40
7.0
 40
7.0
 40
7.0
 40
8.0
 40
8.0
 40
8.0
 40
8.0
 10
115.0251925710701
 20
-148.1211913692197
 30
0.0
 10
115.0251925710701
 20
-148.1211913692197
 30
0.0
 10
114.5408121458439
 20
-148.1211913692197
 30
0.0
 10
114.5408121458439
 20
-148.1211913692197
 30
0.0
 10
114.513251381962
 20
-148.1211913692197
 30
0.0
 10
114.1959580877704
 20
-148.1211913692197
 30
0.0
 10
113.9844292249761
 20
-148.1465128210363
 30
0.0
 10
113.9844292249761
 20
-148.1465128210363
 30
0.0
 10
113.9844292249761
 20
-147.9160359330731
 30
0.0
 10
113.9844292249761
 20
-147.9160359330731
 30
0.0
 10
114.1432481268461
 20
-147.9392903275985
 30
0.0
 10
114.3334173976319
 20
-147.9413573848896
 30
0.0
 10
114.5408121458439
 20
-147.9413573848896
 30
0.0
 10
114.5408121458439
 20
-147.9413573848896
 30
0.0
 10
115.0251925710701
 20
-147.9413573848896
 30
0.0
 10
115.0251925710701
 20
-147.9413573848896
 30
0.0
 10
115.2115722368221
 20
-147.9413573848896
 30
0.0
 10
115.3976073930256
 20
-147.9392903275985
 30
0.0
 10
115.5815754919379
 20
-147.9160359330731
 30
0.0
 10
115.5815754919379
 20
-147.9160359330731
 30
0.0
 10
115.5815754919379
 20
-148.1465128210363
 30
0.0
 10
115.5815754919379
 20
-148.1465128210363
 30
0.0
 10
115.3976073930256
 20
-148.1232584265108
 30
0.0
 10
115.1502495371846
 20
-148.1211913692197
 30
0.0
 10
115.0251925710701
 20
-148.1211913692197
 30
0.0
  0
HATCH
  5
9B
330
8A
100
AcDbEntity
  8
レイヤー 1
 62
    18
420
        0
440
 33554687
100
AcDbHatch
 10
0.0
 20
0.0
 30
0.0
210
0.0
220
0.0
230
1.0
  2
SOLID
 70
     1
 71
     1
 91
        1
 92
        1
 93
        1
 72
     4
 94
        3
 73
     0
 74
     0
 95
       29
 96
       25
 40
0.0
 40
0.0
 40
0.0
 40
0.0
 40
1.0
 40
1.0
 40
1.0
 40
2.0
 40
2.0
 40
2.0
 40
3.0
 40
3.0
 40
3.0
 40
4.0
 40
4.0
 40
4.0
 40
5.0
 40
5.0
 40
5.0
 40
6.0
 40
6.0
 40
6.0
 40
7.0
 40
7.0
 40
7.0
 40
8.0
 40
8.0
 40
8.0
 40
8.0
 10
115.0251925710701
 20
-148.1211913692197
 10
115.0251925710701
 20
-148.1211913692197
 10
114.5408121458439
 20
-148.1211913692197
 10
114.5408121458439
 20
-148.1211913692197
 10
114.513251381962
 20
-148.1211913692197
 10
114.1959580877704
 20
-148.1211913692197
 10
113.9844292249761
 20
-148.1465128210363
 10
113.9844292249761
 20
-148.1465128210363
 10
113.9844292249761
 20
-147.9160359330731
 10
113.9844292249761
 20
-147.9160359330731
 10
114.1432481268461
 20
-147.9392903275985
 10
114.3334173976319
 20
-147.9413573848896
 10
114.5408121458439
 20
-147.9413573848896
 10
114.5408121458439
 20
-147.9413573848896
 10
115.0251925710701
 20
-147.9413573848896
 10
115.0251925710701
 20
-147.9413573848896
 10
115.2115722368221
 20
-147.9413573848896
 10
115.3976073930256
 20
-147.9392903275985
 10
115.5815754919379
 20
-147.9160359330731
 10
115.5815754919379
 20
-147.9160359330731
 10
115.5815754919379
 20
-148.1465128210363
 10
115.5815754919379
 20
-148.1465128210363
 10
115.3976073930256
 20
-148.1232584265108
 10
115.1502495371846
 20
-148.1211913692197
 10
115.0251925710701
 20
-148.1211913692197
 97
        0
 97
        1
330
9A
 75
     2
 76
     1
 98
        1
 10
0.0
 20
0.0
450
        0
451
        0
460
0.0
461
0.0
452
        0
462
0.0
453
        0
470

  0
SPLINE
  5
9C
330
8A
100
AcDbEntity
  8
レイヤー 1
100
AcDbSpline
210
0.0
220
0.0
230
1.0
 70
     9
 71
     3
 72
    47
 73
    43
 74
     0
 42
0.0000000001
 43
0.0000000001
 40
0.0
 40
0.0
 40
0.0
 40
0.0
 40
1.0
 40
1.0
 40
1.0
 40
2.0
 40
2.0
 40
2.0
 40
3.0
 40
3.0
 40
3.0
 40
4.0
 40
4.0
 40
4.0
 40
5.0
 40
5.0
 40
5.0
 40
6.0
 40
6.0
 40
6.0
 40
7.0
 40
7.0
 40
7.0
 40
8.0
 40
8.0
 40
8.0
 40
9.0
 40
9.0
 40
9.0
 40
10.0
 40
10.0
 40
10.0
 40
11.0
 40
11.0
 40
11.0
 40
12.0
 40
12.0
 40
12.0
 40
13.0
 40
13.0
 40
13.0
 40
14.0
 40
14.0
 40
14.0
 40
14.0
 10
117.2455566113136
 20
-147.5267401432398
 30
0.0
 10
117.175621172963
 20
-147.8059651323193
 30
0.0
 10
117.099484562739
 20
-148.1106838279897
 30
0.0
 10
116.7863253831298
 20
-148.4427910327678
 30
0.0
 10
116.5493028137446
 20
-148.6923882006741
 30
0.0
 10
116.3040120151948
 20
-148.7917792054236
 30
0.0
 10
116.1982475837976
 20
-148.8341538798922
 30
0.0
 10
116.1982475837976
 20
-148.8341538798922
 30
0.0
 10
116.003599688881
 20
-148.652252838271
 30
0.0
 10
116.003599688881
 20
-148.652252838271
 30
0.0
 10
116.1896348450845
 20
-148.6055717944458
 30
0.0
 10
116.5517143805843
 20
-148.5125542163441
 30
0.0
 10
116.8476480827672
 20
-148.0174939951137
 30
0.0
 10
117.0085340419284
 20
-147.7510158593296
 30
0.0
 10
117.0212808952238
 20
-147.5775553016473
 30
0.0
 10
117.0295491243884
 20
-147.4866047808367
 30
0.0
 10
117.0295491243884
 20
-147.4866047808367
 30
0.0
 10
116.5241536167023
 20
-147.4866047808367
 30
0.0
 10
116.5241536167023
 20
-147.4866047808367
 30
0.0
 10
116.4056423320097
 20
-147.4866047808367
 30
0.0
 10
115.9846516637121
 20
-147.5055528060055
 30
0.0
 10
115.8323784432641
 20
-147.5160603472355
 30
0.0
 10
115.8323784432641
 20
-147.5160603472355
 30
0.0
 10
115.8323784432641
 20
-147.3067707965066
 30
0.0
 10
115.8323784432641
 20
-147.3067707965066
 30
0.0
 10
115.9739718677079
 20
-147.3193453950278
 30
0.0
 10
116.2513020542705
 20
-147.3236517643844
 30
0.0
 10
116.3674017721234
 20
-147.3236517643844
 30
0.0
 10
116.3674017721234
 20
-147.3236517643844
 30
0.0
 10
116.7229356262012
 20
-147.3236517643844
 30
0.0
 10
116.7229356262012
 20
-147.3236517643844
 30
0.0
 10
116.7504963900832
 20
-147.3236517643844
 30
0.0
 10
116.9110378396958
 20
-147.3215847070932
 30
0.0
 10
117.0212808952238
 20
-147.3067707965066
 30
0.0
 10
117.078469480279
 20
-147.3003973698589
 30
0.0
 10
117.0953504481567
 20
-147.2812770899158
 30
0.0
 10
117.1184325879079
 20
-147.2580226953903
 30
0.0
 10
117.1184325879079
 20
-147.2580226953903
 30
0.0
 10
117.306879310951
 20
-147.4082288585472
 30
0.0
 10
117.306879310951
 20
-147.4082288585472
 30
0.0
 10
117.2920654003645
 20
-147.4378566797204
 30
0.0
 10
117.2813856043602
 20
-147.4569769596635
 30
0.0
 10
117.2455566113136
 20
-147.5267401432398
 30
0.0
  0
HATCH
  5
9D
330
8A
100
AcDbEntity
  8
レイヤー 1
 62
    18
420
        0
440
 33554687
100
AcDbHatch
 10
0.0
 20
0.0
 30
0.0
210
0.0
220
0.0
230
1.0
  2
SOLID
 70
     1
 71
     1
 91
        1
 92
        1
 93
        1
 72
     4
 94
        3
 73
     0
 74
     0
 95
       47
 96
       43
 40
0.0
 40
0.0
 40
0.0
 40
0.0
 40
1.0
 40
1.0
 40
1.0
 40
2.0
 40
2.0
 40
2.0
 40
3.0
 40
3.0
 40
3.0
 40
4.0
 40
4.0
 40
4.0
 40
5.0
 40
5.0
 40
5.0
 40
6.0
 40
6.0
 40
6.0
 40
7.0
 40
7.0
 40
7.0
 40
8.0
 40
8.0
 40
8.0
 40
9.0
 40
9.0
 40
9.0
 40
10.0
 40
10.0
 40
10.0
 40
11.0
 40
11.0
 40
11.0
 40
12.0
 40
12.0
 40
12.0
 40
13.0
 40
13.0
 40
13.0
 40
14.0
 40
14.0
 40
14.0
 40
14.0
 10
117.2455566113136
 20
-147.5267401432398
 10
117.175621172963
 20
-147.8059651323193
 10
117.099484562739
 20
-148.1106838279897
 10
116.7863253831298
 20
-148.4427910327678
 10
116.5493028137446
 20
-148.6923882006741
 10
116.3040120151948
 20
-148.7917792054236
 10
116.1982475837976
 20
-148.8341538798922
 10
116.1982475837976
 20
-148.8341538798922
 10
116.003599688881
 20
-148.652252838271
 10
116.003599688881
 20
-148.652252838271
 10
116.1896348450845
 20
-148.6055717944458
 10
116.5517143805843
 20
-148.5125542163441
 10
116.8476480827672
 20
-148.0174939951137
 10
117.0085340419284
 20
-147.7510158593296
 10
117.0212808952238
 20
-147.5775553016473
 10
117.0295491243884
 20
-147.4866047808367
 10
117.0295491243884
 20
-147.4866047808367
 10
116.5241536167023
 20
-147.4866047808367
 10
116.5241536167023
 20
-147.4866047808367
 10
116.4056423320097
 20
-147.4866047808367
 10
115.9846516637121
 20
-147.5055528060055
 10
115.8323784432641
 20
-147.5160603472355
 10
115.8323784432641
 20
-147.5160603472355
 10
115.8323784432641
 20
-147.3067707965066
 10
115.8323784432641
 20
-147.3067707965066
 10
115.9739718677079
 20
-147.3193453950278
 10
116.2513020542705
 20
-147.3236517643844
 10
116.3674017721234
 20
-147.3236517643844
 10
116.3674017721234
 20
-147.3236517643844
 10
116.7229356262012
 20
-147.3236517643844
 10
116.7229356262012
 20
-147.3236517643844
 10
116.7504963900832
 20
-147.3236517643844
 10
116.9110378396958
 20
-147.3215847070932
 10
117.0212808952238
 20
-147.3067707965066
 10
117.078469480279
 20
-147.3003973698589
 10
117.0953504481567
 20
-147.2812770899158
 10
117.1184325879079
 20
-147.2580226953903
 10
117.1184325879079
 20
-147.2580226953903
 10
117.306879310951
 20
-147.4082288585472
 10
117.306879310951
 20
-147.4082288585472
 10
117.2920654003645
 20
-147.4378566797204
 10
117.2813856043602
 20
-147.4569769596635
 10
117.2455566113136
 20
-147.5267401432398
 97
        0
 97
        1
330
9C
 75
     2
 76
     1
 98
        1
 10
0.0
 20
0.0
450
        0
451
        0
460
0.0
461
0.0
452
        0
462
0.0
453
        0
470

  0
SPLINE
  5
9E
330
8A
100
AcDbEntity
  8
レイヤー 1
100
AcDbSpline
210
0.0
220
0.0
230
1.0
 70
    11
 71
     3
 72
    17
 73
    13
 74
     0
 42
0.0000000001
 43
0.0000000001
 40
0.0
 40
0.0
 40
0.0
 40
0.0
 40
1.0
 40
1.0
 40
1.0
 40
2.0
 40
2.0
 40
2.0
 40
3.0
 40
3.0
 40
3.0
 40
4.0
 40
4.0
 40
4.0
 40
4.0
 10
117.6358859297924
 20
-147.3088378537978
 30
0.0
 10
117.6358859297924
 20
-147.3680934961441
 30
0.0
 10
117.6823947188433
 20
-147.414602285195
 30
0.0
 10
117.7416503611896
 20
-147.414602285195
 30
0.0
 10
117.8009060035359
 20
-147.414602285195
 30
0.0
 10
117.8494818498779
 20
-147.3680934961441
 30
0.0
 10
117.8494818498779
 20
-147.3088378537978
 30
0.0
 10
117.8494818498779
 20
-147.2495822114515
 30
0.0
 10
117.8009060035359
 20
-147.2010063651094
 30
0.0
 10
117.7416503611896
 20
-147.2010063651094
 30
0.0
 10
117.6823947188433
 20
-147.2010063651094
 30
0.0
 10
117.6358859297924
 20
-147.2495822114515
 30
0.0
 10
117.6358859297924
 20
-147.3088378537978
 30
0.0
  0
SPLINE
  5
9F
330
8A
100
AcDbEntity
  8
レイヤー 1
100
AcDbSpline
210
0.0
220
0.0
230
1.0
 70
     9
 71
     3
 72
    17
 73
    13
 74
     0
 42
0.0000000001
 43
0.0000000001
 40
0.0
 40
0.0
 40
0.0
 40
0.0
 40
1.0
 40
1.0
 40
1.0
 40
2.0
 40
2.0
 40
2.0
 40
3.0
 40
3.0
 40
3.0
 40
4.0
 40
4.0
 40
4.0
 40
4.0
 10
117.9507676571442
 20
-147.3088378537978
 30
0.0
 10
117.9507676571442
 20
-147.4230427691338
 30
0.0
 10
117.8577500790425
 20
-147.518299659301
 30
0.0
 10
117.7416503611896
 20
-147.518299659301
 30
0.0
 10
117.6272731910793
 20
-147.518299659301
 30
0.0
 10
117.5321885556864
 20
-147.4230427691338
 30
0.0
 10
117.5321885556864
 20
-147.3088378537978
 30
0.0
 10
117.5321885556864
 20
-147.1923936263963
 30
0.0
 10
117.6272731910793
 20
-147.0993760482946
 30
0.0
 10
117.7416503611896
 20
-147.0993760482946
 30
0.0
 10
117.8556830217513
 20
-147.0993760482946
 30
0.0
 10
117.9507676571442
 20
-147.1923936263963
 30
0.0
 10
117.9507676571442
 20
-147.3088378537978
 30
0.0
  0
HATCH
  5
A0
330
8A
100
AcDbEntity
  8
レイヤー 1
 62
    18
420
        0
440
 33554687
100
AcDbHatch
 10
0.0
 20
0.0
 30
0.0
210
0.0
220
0.0
230
1.0
  2
SOLID
 70
     1
 71
     1
 91
        2
 92
        1
 93
        1
 72
     4
 94
        3
 73
     0
 74
     0
 95
       17
 96
       13
 40
0.0
 40
0.0
 40
0.0
 40
0.0
 40
1.0
 40
1.0
 40
1.0
 40
2.0
 40
2.0
 40
2.0
 40
3.0
 40
3.0
 40
3.0
 40
4.0
 40
4.0
 40
4.0
 40
4.0
 10
117.6358859297924
 20
-147.3088378537978
 10
117.6358859297924
 20
-147.3680934961441
 10
117.6823947188433
 20
-147.414602285195
 10
117.7416503611896
 20
-147.414602285195
 10
117.8009060035359
 20
-147.414602285195
 10
117.8494818498779
 20
-147.3680934961441
 10
117.8494818498779
 20
-147.3088378537978
 10
117.8494818498779
 20
-147.2495822114515
 10
117.8009060035359
 20
-147.2010063651094
 10
117.7416503611896
 20
-147.2010063651094
 10
117.6823947188433
 20
-147.2010063651094
 10
117.6358859297924
 20
-147.2495822114515
 10
117.6358859297924
 20
-147.3088378537978
 97
        0
 97
        1
330
9E
 92
        1
 93
        1
 72
     4
 94
        3
 73
     0
 74
     0
 95
       17
 96
       13
 40
0.0
 40
0.0
 40
0.0
 40
0.0
 40
1.0
 40
1.0
 40
1.0
 40
2.0
 40
2.0
 40
2.0
 40
3.0
 40
3.0
 40
3.0
 40
4.0
 40
4.0
 40
4.0
 40
4.0
 10
117.9507676571442
 20
-147.3088378537978
 10
117.9507676571442
 20
-147.4230427691338
 10
117.8577500790425
 20
-147.518299659301
 10
117.7416503611896
 20
-147.518299659301
 10
117.6272731910793
 20
-147.518299659301
 10
117.5321885556864
 20
-147.4230427691338
 10
117.5321885556864
 20
-147.3088378537978
 10
117.5321885556864
 20
-147.1923936263963
 10
117.6272731910793
 20
-147.0993760482946
 10
117.7416503611896
 20
-147.0993760482946
 10
117.8556830217513
 20
-147.0993760482946
 10
117.9507676571442
 20
-147.1923936263963
 10
117.9507676571442
 20
-147.3088378537978
 97
        0
 97
        1
330
9F
 75
     2
 76
     1
 98
        1
 10
0.0
 20
0.0
450
        0
451
        0
460
0.0
461
0.0
452
        0
462
0.0
453
        0
470

  0
ENDBLK
  5
8D
330
8A
100
AcDbEntity
  8
0
100
AcDbBlockEnd
  0
BLOCK
  5
B9
330
B7
100
AcDbEntity
  8
0
100
AcDbBlockBegin
  2
Block_4
 70
     0
 10
0.0
 20
0.0
 30
0.0
  3
Block_4
  1

  0
INSERT
  5
BC
330
B7
100
AcDbEntity
  8
レイヤー 1
100
AcDbBlockReference
  2
Block_5
 10
0.0
 20
0.0
 30
0.0
  0
ENDBLK
  5
BA
330
B7
100
AcDbEntity
  8
0
100
AcDbBlockEnd
  0
BLOCK
  5
BD
330
BB
100
AcDbEntity
  8
0
100
AcDbBlockBegin
  2
Block_5
 70
     0
 10
0.0
 20
0.0
 30
0.0
  3
Block_5
  1

  0
SPLINE
  5
BF
330
BB
100
AcDbEntity
  8
レイヤー 1
100
AcDbSpline
210
0.0
220
0.0
230
1.0
 70
     9
 71
     3
 72
    17
 73
    13
 74
     0
 42
0.0000000001
 43
0.0000000001
 40
0.0
 40
0.0
 40
0.0
 40
0.0
 40
1.0
 40
1.0
 40
1.0
 40
2.0
 40
2.0
 40
2.0
 40
3.0
 40
3.0
 40
3.0
 40
4.0
 40
4.0
 40
4.0
 40
4.0
 10
123.7130343657731
 20
-152.7689696883703
 30
0.0
 10
123.7130343657731
 20
-153.0183946015023
 30
0.0
 10
123.9965657242092
 20
-153.0652479001017
 30
0.0
 10
124.3414197822827
 20
-153.0652479001017
 30
0.0
 10
124.6607801337654
 20
-153.0652479001017
 30
0.0
 10
124.9694606892437
 20
-153.0290743975066
 30
0.0
 10
124.9694606892437
 20
-152.7689696883703
 30
0.0
 10
124.9694606892437
 20
-152.5212673229808
 30
0.0
 10
124.6883408976473
 20
-152.4726914766388
 30
0.0
 10
124.3414197822827
 20
-152.4726914766388
 30
0.0
 10
124.0217149212515
 20
-152.4726914766388
 30
0.0
 10
123.7130343657731
 20
-152.510932036525
 30
0.0
 10
123.7130343657731
 20
-152.7689696883703
 30
0.0
  0
SPLINE
  5
C0
330
BB
100
AcDbEntity
  8
レイヤー 1
100
AcDbSpline
210
0.0
220
0.0
230
1.0
 70
     9
 71
     3
 72
    29
 73
    25
 74
     0
 42
0.0000000001
 43
0.0000000001
 40
0.0
 40
0.0
 40
0.0
 40
0.0
 40
1.0
 40
1.0
 40
1.0
 40
2.0
 40
2.0
 40
2.0
 40
3.0
 40
3.0
 40
3.0
 40
4.0
 40
4.0
 40
4.0
 40
5.0
 40
5.0
 40
5.0
 40
6.0
 40
6.0
 40
6.0
 40
7.0
 40
7.0
 40
7.0
 40
8.0
 40
8.0
 40
8.0
 40
8.0
 10
124.9356987534883
 20
-152.3710611598239
 30
0.0
 10
125.1451605589915
 20
-152.4792371580607
 30
0.0
 10
125.1641085841604
 20
-152.6525254609688
 30
0.0
 10
125.1641085841604
 20
-152.7689696883703
 30
0.0
 10
125.1641085841604
 20
-152.9298556475314
 30
0.0
 10
125.1175997951095
 20
-153.0714490719752
 30
0.0
 10
124.9356987534883
 20
-153.1665337073681
 30
0.0
 10
124.7410508585717
 20
-153.2702310814741
 30
0.0
 10
124.5040282891865
 20
-153.289179106643
 30
0.0
 10
124.3414197822827
 20
-153.289179106643
 30
0.0
 10
124.1974147909992
 20
-153.289179106643
 30
0.0
 10
123.9455783110275
 20
-153.2722981387653
 30
0.0
 10
123.7467963015286
 20
-153.1665337073681
 30
0.0
 10
123.5438801774473
 20
-153.0587022186797
 30
0.0
 10
123.5204535281476
 20
-152.8978162595186
 30
0.0
 10
123.5204535281476
 20
-152.7689696883703
 30
0.0
 10
123.5204535281476
 20
-152.6101507865002
 30
0.0
 10
123.5648952599074
 20
-152.4664903047653
 30
0.0
 10
123.7467963015286
 20
-152.3710611598239
 30
0.0
 10
123.939377139154
 20
-152.2718424098487
 30
0.0
 10
124.1677869698261
 20
-152.248415760549
 30
0.0
 10
124.3414197822827
 20
-152.248415760549
 30
0.0
 10
124.5126410278996
 20
-152.248415760549
 30
0.0
 10
124.7431179158628
 20
-152.2697753525575
 30
0.0
 10
124.9356987534883
 20
-152.3710611598239
 30
0.0
  0
HATCH
  5
C1
330
BB
100
AcDbEntity
  8
レイヤー 1
 62
    18
420
        0
440
 33554687
100
AcDbHatch
 10
0.0
 20
0.0
 30
0.0
210
0.0
220
0.0
230
1.0
  2
SOLID
 70
     1
 71
     1
 91
        2
 92
        1
 93
        1
 72
     4
 94
        3
 73
     0
 74
     0
 95
       17
 96
       13
 40
0.0
 40
0.0
 40
0.0
 40
0.0
 40
1.0
 40
1.0
 40
1.0
 40
2.0
 40
2.0
 40
2.0
 40
3.0
 40
3.0
 40
3.0
 40
4.0
 40
4.0
 40
4.0
 40
4.0
 10
123.7130343657731
 20
-152.7689696883703
 10
123.7130343657731
 20
-153.0183946015023
 10
123.9965657242092
 20
-153.0652479001017
 10
124.3414197822827
 20
-153.0652479001017
 10
124.6607801337654
 20
-153.0652479001017
 10
124.9694606892437
 20
-153.0290743975066
 10
124.9694606892437
 20
-152.7689696883703
 10
124.9694606892437
 20
-152.5212673229808
 10
124.6883408976473
 20
-152.4726914766388
 10
124.3414197822827
 20
-152.4726914766388
 10
124.0217149212515
 20
-152.4726914766388
 10
123.7130343657731
 20
-152.510932036525
 10
123.7130343657731
 20
-152.7689696883703
 97
        0
 97
        1
330
BF
 92
        1
 93
        1
 72
     4
 94
        3
 73
     0
 74
     0
 95
       29
 96
       25
 40
0.0
 40
0.0
 40
0.0
 40
0.0
 40
1.0
 40
1.0
 40
1.0
 40
2.0
 40
2.0
 40
2.0
 40
3.0
 40
3.0
 40
3.0
 40
4.0
 40
4.0
 40
4.0
 40
5.0
 40
5.0
 40
5.0
 40
6.0
 40
6.0
 40
6.0
 40
7.0
 40
7.0
 40
7.0
 40
8.0
 40
8.0
 40
8.0
 40
8.0
 10
124.9356987534883
 20
-152.3710611598239
 10
125.1451605589915
 20
-152.4792371580607
 10
125.1641085841604
 20
-152.6525254609688
 10
125.1641085841604
 20
-152.7689696883703
 10
125.1641085841604
 20
-152.9298556475314
 10
125.1175997951095
 20
-153.0714490719752
 10
124.9356987534883
 20
-153.1665337073681
 10
124.7410508585717
 20
-153.2702310814741
 10
124.5040282891865
 20
-153.289179106643
 10
124.3414197822827
 20
-153.289179106643
 10
124.1974147909992
 20
-153.289179106643
 10
123.9455783110275
 20
-153.2722981387653
 10
123.7467963015286
 20
-153.1665337073681
 10
123.5438801774473
 20
-153.0587022186797
 10
123.5204535281476
 20
-152.8978162595186
 10
123.5204535281476
 20
-152.7689696883703
 10
123.5204535281476
 20
-152.6101507865002
 10
123.5648952599074
 20
-152.4664903047653
 10
123.7467963015286
 20
-152.3710611598239
 10
123.939377139154
 20
-152.2718424098487
 10
124.1677869698261
 20
-152.248415760549
 10
124.3414197822827
 20
-152.248415760549
 10
124.5126410278996
 20
-152.248415760549
 10
124.7431179158628
 20
-152.2697753525575
 10
124.9356987534883
 20
-152.3710611598239
 97
        0
 97
        1
330
C0
 75
     2
 76
     1
 98
        1
 10
0.0
 20
0.0
450
        0
451
        0
460
0.0
461
0.0
452
        0
462
0.0
453
        0
470

  0
SPLINE
  5
C2
330
BB
100
AcDbEntity
  8
レイヤー 1
100
AcDbSpline
210
0.0
220
0.0
230
1.0
 70
    11
 71
     3
 72
    17
 73
    13
 74
     0
 42
0.0000000001
 43
0.0000000001
 40
0.0
 40
0.0
 40
0.0
 40
0.0
 40
1.0
 40
1.0
 40
1.0
 40
2.0
 40
2.0
 40
2.0
 40
3.0
 40
3.0
 40
3.0
 40
4.0
 40
4.0
 40
4.0
 40
4.0
 10
125.1134656805272
 20
-152.0320637640753
 30
0.0
 10
125.1134656805272
 20
-152.0320637640753
 30
0.0
 10
124.8616292005554
 20
-152.0320637640753
 30
0.0
 10
124.8616292005554
 20
-152.0320637640753
 30
0.0
 10
124.8616292005554
 20
-152.0320637640753
 30
0.0
 10
124.8616292005554
 20
-151.7802272841036
 30
0.0
 10
124.8616292005554
 20
-151.7802272841036
 30
0.0
 10
124.8616292005554
 20
-151.7802272841036
 30
0.0
 10
125.1134656805272
 20
-151.7802272841036
 30
0.0
 10
125.1134656805272
 20
-151.7802272841036
 30
0.0
 10
125.1134656805272
 20
-151.7802272841036
 30
0.0
 10
125.1134656805272
 20
-152.0320637640753
 30
0.0
 10
125.1134656805272
 20
-152.0320637640753
 30
0.0
  0
HATCH
  5
C3
330
BB
100
AcDbEntity
  8
レイヤー 1
 62
    18
420
        0
440
 33554687
100
AcDbHatch
 10
0.0
 20
0.0
 30
0.0
210
0.0
220
0.0
230
1.0
  2
SOLID
 70
     1
 71
     1
 91
        1
 92
        1
 93
        1
 72
     4
 94
        3
 73
     0
 74
     0
 95
       17
 96
       13
 40
0.0
 40
0.0
 40
0.0
 40
0.0
 40
1.0
 40
1.0
 40
1.0
 40
2.0
 40
2.0
 40
2.0
 40
3.0
 40
3.0
 40
3.0
 40
4.0
 40
4.0
 40
4.0
 40
4.0
 10
125.1134656805272
 20
-152.0320637640753
 10
125.1134656805272
 20
-152.0320637640753
 10
124.8616292005554
 20
-152.0320637640753
 10
124.8616292005554
 20
-152.0320637640753
 10
124.8616292005554
 20
-152.0320637640753
 10
124.8616292005554
 20
-151.7802272841036
 10
124.8616292005554
 20
-151.7802272841036
 10
124.8616292005554
 20
-151.7802272841036
 10
125.1134656805272
 20
-151.7802272841036
 10
125.1134656805272
 20
-151.7802272841036
 10
125.1134656805272
 20
-151.7802272841036
 10
125.1134656805272
 20
-152.0320637640753
 10
125.1134656805272
 20
-152.0320637640753
 97
        0
 97
        1
330
C2
 75
     2
 76
     1
 98
        1
 10
0.0
 20
0.0
450
        0
451
        0
460
0.0
461
0.0
452
        0
462
0.0
453
        0
470

  0
SPLINE
  5
C4
330
BB
100
AcDbEntity
  8
レイヤー 1
100
AcDbSpline
210
0.0
220
0.0
230
1.0
 70
    11
 71
     3
 72
    14
 73
    10
 74
     0
 42
0.0000000001
 43
0.0000000001
 40
0.0
 40
0.0
 40
0.0
 40
0.0
 40
1.0
 40
1.0
 40
1.0
 40
2.0
 40
2.0
 40
2.0
 40
3.0
 40
3.0
 40
3.0
 40
3.0
 10
123.911816375272
 20
-150.9296332087953
 30
0.0
 10
123.911816375272
 20
-150.9296332087953
 30
0.0
 10
124.5677625556636
 20
-151.386797379688
 30
0.0
 10
124.5677625556636
 20
-151.386797379688
 30
0.0
 10
124.5677625556636
 20
-151.386797379688
 30
0.0
 10
124.5677625556636
 20
-150.9296332087953
 30
0.0
 10
124.5677625556636
 20
-150.9296332087953
 30
0.0
 10
124.5677625556636
 20
-150.9296332087953
 30
0.0
 10
123.911816375272
 20
-150.9296332087953
 30
0.0
 10
123.911816375272
 20
-150.9296332087953
 30
0.0
  0
SPLINE
  5
C5
330
BB
100
AcDbEntity
  8
レイヤー 1
100
AcDbSpline
210
0.0
220
0.0
230
1.0
 70
    11
 71
     3
 72
    38
 73
    34
 74
     0
 42
0.0000000001
 43
0.0000000001
 40
0.0
 40
0.0
 40
0.0
 40
0.0
 40
1.0
 40
1.0
 40
1.0
 40
2.0
 40
2.0
 40
2.0
 40
3.0
 40
3.0
 40
3.0
 40
4.0
 40
4.0
 40
4.0
 40
5.0
 40
5.0
 40
5.0
 40
6.0
 40
6.0
 40
6.0
 40
7.0
 40
7.0
 40
7.0
 40
8.0
 40
8.0
 40
8.0
 40
9.0
 40
9.0
 40
9.0
 40
10.0
 40
10.0
 40
10.0
 40
11.0
 40
11.0
 40
11.0
 40
11.0
 10
124.7665445651625
 20
-150.7119031741276
 30
0.0
 10
124.7665445651625
 20
-150.7119031741276
 30
0.0
 10
125.1134656805272
 20
-150.7119031741276
 30
0.0
 10
125.1134656805272
 20
-150.7119031741276
 30
0.0
 10
125.1134656805272
 20
-150.7119031741276
 30
0.0
 10
125.1134656805272
 20
-150.9296332087953
 30
0.0
 10
125.1134656805272
 20
-150.9296332087953
 30
0.0
 10
125.1134656805272
 20
-150.9296332087953
 30
0.0
 10
124.7665445651625
 20
-150.9296332087953
 30
0.0
 10
124.7665445651625
 20
-150.9296332087953
 30
0.0
 10
124.7665445651625
 20
-150.9296332087953
 30
0.0
 10
124.7665445651625
 20
-151.5855793891869
 30
0.0
 10
124.7665445651625
 20
-151.5855793891869
 30
0.0
 10
124.7665445651625
 20
-151.5855793891869
 30
0.0
 10
124.5422688490728
 20
-151.5855793891869
 30
0.0
 10
124.5422688490728
 20
-151.5855793891869
 30
0.0
 10
124.5422688490728
 20
-151.5855793891869
 30
0.0
 10
123.5690293744897
 20
-150.9065510690442
 30
0.0
 10
123.5690293744897
 20
-150.9065510690442
 30
0.0
 10
123.5690293744897
 20
-150.9065510690442
 30
0.0
 10
123.5690293744897
 20
-150.7119031741276
 30
0.0
 10
123.5690293744897
 20
-150.7119031741276
 30
0.0
 10
123.5690293744897
 20
-150.7119031741276
 30
0.0
 10
124.5677625556636
 20
-150.7119031741276
 30
0.0
 10
124.5677625556636
 20
-150.7119031741276
 30
0.0
 10
124.5677625556636
 20
-150.7119031741276
 30
0.0
 10
124.5677625556636
 20
-150.5045084259155
 30
0.0
 10
124.5677625556636
 20
-150.5045084259155
 30
0.0
 10
124.5677625556636
 20
-150.5045084259155
 30
0.0
 10
124.7665445651625
 20
-150.5045084259155
 30
0.0
 10
124.7665445651625
 20
-150.5045084259155
 30
0.0
 10
124.7665445651625
 20
-150.5045084259155
 30
0.0
 10
124.7665445651625
 20
-150.7119031741276
 30
0.0
 10
124.7665445651625
 20
-150.7119031741276
 30
0.0
  0
HATCH
  5
C6
330
BB
100
AcDbEntity
  8
レイヤー 1
 62
    18
420
        0
440
 33554687
100
AcDbHatch
 10
0.0
 20
0.0
 30
0.0
210
0.0
220
0.0
230
1.0
  2
SOLID
 70
     1
 71
     1
 91
        2
 92
        1
 93
        1
 72
     4
 94
        3
 73
     0
 74
     0
 95
       14
 96
       10
 40
0.0
 40
0.0
 40
0.0
 40
0.0
 40
1.0
 40
1.0
 40
1.0
 40
2.0
 40
2.0
 40
2.0
 40
3.0
 40
3.0
 40
3.0
 40
3.0
 10
123.911816375272
 20
-150.9296332087953
 10
123.911816375272
 20
-150.9296332087953
 10
124.5677625556636
 20
-151.386797379688
 10
124.5677625556636
 20
-151.386797379688
 10
124.5677625556636
 20
-151.386797379688
 10
124.5677625556636
 20
-150.9296332087953
 10
124.5677625556636
 20
-150.9296332087953
 10
124.5677625556636
 20
-150.9296332087953
 10
123.911816375272
 20
-150.9296332087953
 10
123.911816375272
 20
-150.9296332087953
 97
        0
 97
        1
330
C4
 92
        1
 93
        1
 72
     4
 94
        3
 73
     0
 74
     0
 95
       38
 96
       34
 40
0.0
 40
0.0
 40
0.0
 40
0.0
 40
1.0
 40
1.0
 40
1.0
 40
2.0
 40
2.0
 40
2.0
 40
3.0
 40
3.0
 40
3.0
 40
4.0
 40
4.0
 40
4.0
 40
5.0
 40
5.0
 40
5.0
 40
6.0
 40
6.0
 40
6.0
 40
7.0
 40
7.0
 40
7.0
 40
8.0
 40
8.0
 40
8.0
 40
9.0
 40
9.0
 40
9.0
 40
10.0
 40
10.0
 40
10.0
 40
11.0
 40
11.0
 40
11.0
 40
11.0
 10
124.7665445651625
 20
-150.7119031741276
 10
124.7665445651625
 20
-150.7119031741276
 10
125.1134656805272
 20
-150.7119031741276
 10
125.1134656805272
 20
-150.7119031741276
 10
125.1134656805272
 20
-150.7119031741276
 10
125.1134656805272
 20
-150.9296332087953
 10
125.1134656805272
 20
-150.9296332087953
 10
125.1134656805272
 20
-150.9296332087953
 10
124.7665445651625
 20
-150.9296332087953
 10
124.7665445651625
 20
-150.9296332087953
 10
124.7665445651625
 20
-150.9296332087953
 10
124.7665445651625
 20
-151.5855793891869
 10
124.7665445651625
 20
-151.5855793891869
 10
124.7665445651625
 20
-151.5855793891869
 10
124.5422688490728
 20
-151.5855793891869
 10
124.5422688490728
 20
-151.5855793891869
 10
124.5422688490728
 20
-151.5855793891869
 10
123.5690293744897
 20
-150.9065510690442
 10
123.5690293744897
 20
-150.9065510690442
 10
123.5690293744897
 20
-150.9065510690442
 10
123.5690293744897
 20
-150.7119031741276
 10
123.5690293744897
 20
-150.7119031741276
 10
123.5690293744897
 20
-150.7119031741276
 10
124.5677625556636
 20
-150.7119031741276
 10
124.5677625556636
 20
-150.7119031741276
 10
124.5677625556636
 20
-150.7119031741276
 10
124.5677625556636
 20
-150.5045084259155
 10
124.5677625556636
 20
-150.5045084259155
 10
124.5677625556636
 20
-150.5045084259155
 10
124.7665445651625
 20
-150.5045084259155
 10
124.7665445651625
 20
-150.5045084259155
 10
124.7665445651625
 20
-150.5045084259155
 10
124.7665445651625
 20
-150.7119031741276
 10
124.7665445651625
 20
-150.7119031741276
 97
        0
 97
        1
330
C5
 75
     2
 76
     1
 98
        1
 10
0.0
 20
0.0
450
        0
451
        0
460
0.0
461
0.0
452
        0
462
0.0
453
        0
470

  0
ENDBLK
  5
BE
330
BB
100
AcDbEntity
  8
0
100
AcDbBlockEnd
  0
BLOCK
  5
CD
330
CB
100
AcDbEntity
  8
0
100
AcDbBlockBegin
  2
Block_6
 70
     0
 10
0.0
 20
0.0
 30
0.0
  3
Block_6
  1

  0
INSERT
  5
D0
330
CB
100
AcDbEntity
  8
レイヤー 1
100
AcDbBlockReference
  2
Block_7
 10
0.0
 20
0.0
 30
0.0
  0
ENDBLK
  5
CE
330
CB
100
AcDbEntity
  8
0
100
AcDbBlockEnd
  0
BLOCK
  5
D1
330
CF
100
AcDbEntity
  8
0
100
AcDbBlockBegin
  2
Block_7
 70
     0
 10
0.0
 20
0.0
 30
0.0
  3
Block_7
  1

  0
SPLINE
  5
D3
330
CF
100
AcDbEntity
  8
レイヤー 1
100
AcDbSpline
210
0.0
220
0.0
230
1.0
 70
    11
 71
     3
 72
    26
 73
    22
 74
     0
 42
0.0000000001
 43
0.0000000001
 40
0.0
 40
0.0
 40
0.0
 40
0.0
 40
1.0
 40
1.0
 40
1.0
 40
2.0
 40
2.0
 40
2.0
 40
3.0
 40
3.0
 40
3.0
 40
4.0
 40
4.0
 40
4.0
 40
5.0
 40
5.0
 40
5.0
 40
6.0
 40
6.0
 40
6.0
 40
7.0
 40
7.0
 40
7.0
 40
7.0
 10
86.21368677315144
 20
-142.0929632891295
 30
0.0
 10
86.21368677315144
 20
-142.0929632891295
 30
0.0
 10
85.10936141535461
 20
-142.0929632891295
 30
0.0
 10
85.10936141535461
 20
-142.0929632891295
 30
0.0
 10
85.10936141535461
 20
-142.0929632891295
 30
0.0
 10
85.10936141535461
 20
-142.4230034366165
 30
0.0
 10
85.10936141535461
 20
-142.4230034366165
 30
0.0
 10
85.10936141535461
 20
-142.4230034366165
 30
0.0
 10
84.96122230948886
 20
-142.4230034366165
 30
0.0
 10
84.96122230948886
 20
-142.4230034366165
 30
0.0
 10
84.94658065367655
 20
-142.0908962318384
 30
0.0
 10
84.78362763722424
 20
-142.0443874427875
 30
0.0
 10
84.66942272188822
 20
-142.0147596216143
 30
0.0
 10
84.66942272188822
 20
-142.0147596216143
 30
0.0
 10
84.66942272188822
 20
-141.8686875730398
 30
0.0
 10
84.66942272188822
 20
-141.8686875730398
 30
0.0
 10
84.66942272188822
 20
-141.8686875730398
 30
0.0
 10
86.21368677315144
 20
-141.8686875730398
 30
0.0
 10
86.21368677315144
 20
-141.8686875730398
 30
0.0
 10
86.21368677315144
 20
-141.8686875730398
 30
0.0
 10
86.21368677315144
 20
-142.0929632891295
 30
0.0
 10
86.21368677315144
 20
-142.0929632891295
 30
0.0
  0
HATCH
  5
D4
330
CF
100
AcDbEntity
  8
レイヤー 1
 62
    18
420
        0
440
 33554687
100
AcDbHatch
 10
0.0
 20
0.0
 30
0.0
210
0.0
220
0.0
230
1.0
  2
SOLID
 70
     1
 71
     1
 91
        1
 92
        1
 93
        1
 72
     4
 94
        3
 73
     0
 74
     0
 95
       26
 96
       22
 40
0.0
 40
0.0
 40
0.0
 40
0.0
 40
1.0
 40
1.0
 40
1.0
 40
2.0
 40
2.0
 40
2.0
 40
3.0
 40
3.0
 40
3.0
 40
4.0
 40
4.0
 40
4.0
 40
5.0
 40
5.0
 40
5.0
 40
6.0
 40
6.0
 40
6.0
 40
7.0
 40
7.0
 40
7.0
 40
7.0
 10
86.21368677315144
 20
-142.0929632891295
 10
86.21368677315144
 20
-142.0929632891295
 10
85.10936141535461
 20
-142.0929632891295
 10
85.10936141535461
 20
-142.0929632891295
 10
85.10936141535461
 20
-142.0929632891295
 10
85.10936141535461
 20
-142.4230034366165
 10
85.10936141535461
 20
-142.4230034366165
 10
85.10936141535461
 20
-142.4230034366165
 10
84.96122230948886
 20
-142.4230034366165
 10
84.96122230948886
 20
-142.4230034366165
 10
84.94658065367655
 20
-142.0908962318384
 10
84.78362763722424
 20
-142.0443874427875
 10
84.66942272188822
 20
-142.0147596216143
 10
84.66942272188822
 20
-142.0147596216143
 10
84.66942272188822
 20
-141.8686875730398
 10
84.66942272188822
 20
-141.8686875730398
 10
84.66942272188822
 20
-141.8686875730398
 10
86.21368677315144
 20
-141.8686875730398
 10
86.21368677315144
 20
-141.8686875730398
 10
86.21368677315144
 20
-141.8686875730398
 10
86.21368677315144
 20
-142.0929632891295
 10
86.21368677315144
 20
-142.0929632891295
 97
        0
 97
        1
330
D3
 75
     2
 76
     1
 98
        1
 10
0.0
 20
0.0
450
        0
451
        0
460
0.0
461
0.0
452
        0
462
0.0
453
        0
470

  0
SPLINE
  5
D5
330
CF
100
AcDbEntity
  8
レイヤー 1
100
AcDbSpline
210
0.0
220
0.0
230
1.0
 70
    11
 71
     3
 72
    17
 73
    13
 74
     0
 42
0.0000000001
 43
0.0000000001
 40
0.0
 40
0.0
 40
0.0
 40
0.0
 40
1.0
 40
1.0
 40
1.0
 40
2.0
 40
2.0
 40
2.0
 40
3.0
 40
3.0
 40
3.0
 40
4.0
 40
4.0
 40
4.0
 40
4.0
 10
86.21368677315144
 20
-141.3074815184925
 30
0.0
 10
86.21368677315144
 20
-141.3074815184925
 30
0.0
 10
85.96202254795393
 20
-141.3074815184925
 30
0.0
 10
85.96202254795393
 20
-141.3074815184925
 30
0.0
 10
85.96202254795393
 20
-141.3074815184925
 30
0.0
 10
85.96202254795393
 20
-141.0556450385208
 30
0.0
 10
85.96202254795393
 20
-141.0556450385208
 30
0.0
 10
85.96202254795393
 20
-141.0556450385208
 30
0.0
 10
86.21368677315144
 20
-141.0556450385208
 30
0.0
 10
86.21368677315144
 20
-141.0556450385208
 30
0.0
 10
86.21368677315144
 20
-141.0556450385208
 30
0.0
 10
86.21368677315144
 20
-141.3074815184925
 30
0.0
 10
86.21368677315144
 20
-141.3074815184925
 30
0.0
  0
HATCH
  5
D6
330
CF
100
AcDbEntity
  8
レイヤー 1
 62
    18
420
        0
440
 33554687
100
AcDbHatch
 10
0.0
 20
0.0
 30
0.0
210
0.0
220
0.0
230
1.0
  2
SOLID
 70
     1
 71
     1
 91
        1
 92
        1
 93
        1
 72
     4
 94
        3
 73
     0
 74
     0
 95
       17
 96
       13
 40
0.0
 40
0.0
 40
0.0
 40
0.0
 40
1.0
 40
1.0
 40
1.0
 40
2.0
 40
2.0
 40
2.0
 40
3.0
 40
3.0
 40
3.0
 40
4.0
 40
4.0
 40
4.0
 40
4.0
 10
86.21368677315144
 20
-141.3074815184925
 10
86.21368677315144
 20
-141.3074815184925
 10
85.96202254795393
 20
-141.3074815184925
 10
85.96202254795393
 20
-141.3074815184925
 10
85.96202254795393
 20
-141.3074815184925
 10
85.96202254795393
 20
-141.0556450385208
 10
85.96202254795393
 20
-141.0556450385208
 10
85.96202254795393
 20
-141.0556450385208
 10
86.21368677315144
 20
-141.0556450385208
 10
86.21368677315144
 20
-141.0556450385208
 10
86.21368677315144
 20
-141.0556450385208
 10
86.21368677315144
 20
-141.3074815184925
 10
86.21368677315144
 20
-141.3074815184925
 97
        0
 97
        1
330
D5
 75
     2
 76
     1
 98
        1
 10
0.0
 20
0.0
450
        0
451
        0
460
0.0
461
0.0
452
        0
462
0.0
453
        0
470

  0
SPLINE
  5
D7
330
CF
100
AcDbEntity
  8
レイヤー 1
100
AcDbSpline
210
0.0
220
0.0
230
1.0
 70
    11
 71
     3
 72
    26
 73
    22
 74
     0
 42
0.0000000001
 43
0.0000000001
 40
0.0
 40
0.0
 40
0.0
 40
0.0
 40
1.0
 40
1.0
 40
1.0
 40
2.0
 40
2.0
 40
2.0
 40
3.0
 40
3.0
 40
3.0
 40
4.0
 40
4.0
 40
4.0
 40
5.0
 40
5.0
 40
5.0
 40
6.0
 40
6.0
 40
6.0
 40
7.0
 40
7.0
 40
7.0
 40
7.0
 10
86.21368677315144
 20
-140.3680039796649
 30
0.0
 10
86.21368677315144
 20
-140.3680039796649
 30
0.0
 10
85.10936141535461
 20
-140.3680039796649
 30
0.0
 10
85.10936141535461
 20
-140.3680039796649
 30
0.0
 10
85.10936141535461
 20
-140.3680039796649
 30
0.0
 10
85.10936141535461
 20
-140.6980441271519
 30
0.0
 10
85.10936141535461
 20
-140.6980441271519
 30
0.0
 10
85.10936141535461
 20
-140.6980441271519
 30
0.0
 10
84.96122230948886
 20
-140.6980441271519
 30
0.0
 10
84.96122230948886
 20
-140.6980441271519
 30
0.0
 10
84.94658065367655
 20
-140.3659369223738
 30
0.0
 10
84.78362763722424
 20
-140.3194281333229
 30
0.0
 10
84.66942272188822
 20
-140.2898003121497
 30
0.0
 10
84.66942272188822
 20
-140.2898003121497
 30
0.0
 10
84.66942272188822
 20
-140.1437282635752
 30
0.0
 10
84.66942272188822
 20
-140.1437282635752
 30
0.0
 10
84.66942272188822
 20
-140.1437282635752
 30
0.0
 10
86.21368677315144
 20
-140.1437282635752
 30
0.0
 10
86.21368677315144
 20
-140.1437282635752
 30
0.0
 10
86.21368677315144
 20
-140.1437282635752
 30
0.0
 10
86.21368677315144
 20
-140.3680039796649
 30
0.0
 10
86.21368677315144
 20
-140.3680039796649
 30
0.0
  0
HATCH
  5
D8
330
CF
100
AcDbEntity
  8
レイヤー 1
 62
    18
420
        0
440
 33554687
100
AcDbHatch
 10
0.0
 20
0.0
 30
0.0
210
0.0
220
0.0
230
1.0
  2
SOLID
 70
     1
 71
     1
 91
        1
 92
        1
 93
        1
 72
     4
 94
        3
 73
     0
 74
     0
 95
       26
 96
       22
 40
0.0
 40
0.0
 40
0.0
 40
0.0
 40
1.0
 40
1.0
 40
1.0
 40
2.0
 40
2.0
 40
2.0
 40
3.0
 40
3.0
 40
3.0
 40
4.0
 40
4.0
 40
4.0
 40
5.0
 40
5.0
 40
5.0
 40
6.0
 40
6.0
 40
6.0
 40
7.0
 40
7.0
 40
7.0
 40
7.0
 10
86.21368677315144
 20
-140.3680039796649
 10
86.21368677315144
 20
-140.3680039796649
 10
85.10936141535461
 20
-140.3680039796649
 10
85.10936141535461
 20
-140.3680039796649
 10
85.10936141535461
 20
-140.3680039796649
 10
85.10936141535461
 20
-140.6980441271519
 10
85.10936141535461
 20
-140.6980441271519
 10
85.10936141535461
 20
-140.6980441271519
 10
84.96122230948886
 20
-140.6980441271519
 10
84.96122230948886
 20
-140.6980441271519
 10
84.94658065367655
 20
-140.3659369223738
 10
84.78362763722424
 20
-140.3194281333229
 10
84.66942272188822
 20
-140.2898003121497
 10
84.66942272188822
 20
-140.2898003121497
 10
84.66942272188822
 20
-140.1437282635752
 10
84.66942272188822
 20
-140.1437282635752
 10
84.66942272188822
 20
-140.1437282635752
 10
86.21368677315144
 20
-140.1437282635752
 10
86.21368677315144
 20
-140.1437282635752
 10
86.21368677315144
 20
-140.1437282635752
 10
86.21368677315144
 20
-140.3680039796649
 10
86.21368677315144
 20
-140.3680039796649
 97
        0
 97
        1
330
D7
 75
     2
 76
     1
 98
        1
 10
0.0
 20
0.0
450
        0
451
        0
460
0.0
461
0.0
452
        0
462
0.0
453
        0
470

  0
ENDBLK
  5
D2
330
CF
100
AcDbEntity
  8
0
100
AcDbBlockEnd
  0
BLOCK
  5
DD
330
DB
100
AcDbEntity
  8
0
100
AcDbBlockBegin
  2
Block_8
 70
     0
 10
0.0
 20
0.0
 30
0.0
  3
Block_8
  1

  0
INSERT
  5
E0
330
DB
100
AcDbEntity
  8
レイヤー 1
100
AcDbBlockReference
  2
Block_9
 10
0.0
 20
0.0
 30
0.0
  0
ENDBLK
  5
DE
330
DB
100
AcDbEntity
  8
0
100
AcDbBlockEnd
  0
BLOCK
  5
E1
330
DF
100
AcDbEntity
  8
0
100
AcDbBlockBegin
  2
Block_9
 70
     0
 10
0.0
 20
0.0
 30
0.0
  3
Block_9
  1

  0
SPLINE
  5
E3
330
DF
100
AcDbEntity
  8
レイヤー 1
100
AcDbSpline
210
0.0
220
0.0
230
1.0
 70
     9
 71
     3
 72
    17
 73
    13
 74
     0
 42
0.0000000001
 43
0.0000000001
 40
0.0
 40
0.0
 40
0.0
 40
0.0
 40
1.0
 40
1.0
 40
1.0
 40
2.0
 40
2.0
 40
2.0
 40
3.0
 40
3.0
 40
3.0
 40
4.0
 40
4.0
 40
4.0
 40
4.0
 10
120.8449923743026
 20
-148.2943074173535
 30
0.0
 10
120.8449923743026
 20
-148.4379678990884
 30
0.0
 10
120.9318087805309
 20
-148.590585629085
 30
0.0
 10
121.1347249046121
 20
-148.590585629085
 30
0.0
 10
121.340052595533
 20
-148.590585629085
 30
0.0
 10
121.4413384027994
 20
-148.4634616056792
 30
0.0
 10
121.4413384027994
 20
-148.2943074173535
 30
0.0
 10
121.4413384027994
 20
-148.10827226115
 30
0.0
 10
121.3186930035245
 20
-147.998029205622
 30
0.0
 10
121.1409260764856
 20
-147.998029205622
 30
0.0
 10
120.9190619272355
 20
-147.998029205622
 30
0.0
 10
120.8449923743026
 20
-148.1609822220743
 30
0.0
 10
120.8449923743026
 20
-148.2943074173535
 30
0.0
  0
SPLINE
  5
E4
330
DF
100
AcDbEntity
  8
レイヤー 1
100
AcDbSpline
210
0.0
220
0.0
230
1.0
 70
     9
 71
     3
 72
    17
 73
    13
 74
     0
 42
0.0000000001
 43
0.0000000001
 40
0.0
 40
0.0
 40
0.0
 40
0.0
 40
1.0
 40
1.0
 40
1.0
 40
2.0
 40
2.0
 40
2.0
 40
3.0
 40
3.0
 40
3.0
 40
4.0
 40
4.0
 40
4.0
 40
4.0
 10
120.1849120793287
 20
-148.2943074173535
 30
0.0
 10
120.1849120793287
 20
-148.4593274910969
 30
0.0
 10
120.2799967147216
 20
-148.5440768400341
 30
0.0
 10
120.415388967292
 20
-148.5440768400341
 30
0.0
 10
120.5380343665669
 20
-148.5440768400341
 30
0.0
 10
120.6565456512594
 20
-148.4720743443924
 30
0.0
 10
120.6565456512594
 20
-148.2943074173535
 30
0.0
 10
120.6565456512594
 20
-148.1165404903146
 30
0.0
 10
120.5380343665669
 20
-148.0445379946729
 30
0.0
 10
120.415388967292
 20
-148.0445379946729
 30
0.0
 10
120.2799967147216
 20
-148.0445379946729
 30
0.0
 10
120.1849120793287
 20
-148.1313544009012
 30
0.0
 10
120.1849120793287
 20
-148.2943074173535
 30
0.0
  0
SPLINE
  5
E5
330
DF
100
AcDbEntity
  8
レイヤー 1
100
AcDbSpline
210
0.0
220
0.0
230
1.0
 70
     9
 71
     3
 72
    29
 73
    25
 74
     0
 42
0.0000000001
 43
0.0000000001
 40
0.0
 40
0.0
 40
0.0
 40
0.0
 40
1.0
 40
1.0
 40
1.0
 40
2.0
 40
2.0
 40
2.0
 40
3.0
 40
3.0
 40
3.0
 40
4.0
 40
4.0
 40
4.0
 40
5.0
 40
5.0
 40
5.0
 40
6.0
 40
6.0
 40
6.0
 40
7.0
 40
7.0
 40
7.0
 40
8.0
 40
8.0
 40
8.0
 40
8.0
 10
121.635986297716
 20
-148.2943074173535
 30
0.0
 10
121.635986297716
 20
-148.5609578079118
 30
0.0
 10
121.4985269878545
 20
-148.8148613451747
 30
0.0
 10
121.1495388151987
 20
-148.8148613451747
 30
0.0
 10
120.8935682206446
 20
-148.8148613451747
 30
0.0
 10
120.7984835852518
 20
-148.6729234111825
 30
0.0
 10
120.7371608856143
 20
-148.5671589797853
 30
0.0
 10
120.677905243268
 20
-148.6918714363513
 30
0.0
 10
120.5635280731577
 20
-148.7680080465753
 30
0.0
 10
120.4026421139965
 20
-148.7680080465753
 30
0.0
 10
120.1277234942736
 20
-148.7680080465753
 30
0.0
 10
119.9923312417033
 20
-148.5692260370764
 30
0.0
 10
119.9923312417033
 20
-148.2943074173535
 30
0.0
 10
119.9923312417033
 20
-148.0107760589174
 30
0.0
 10
120.1363362329867
 20
-147.8202622785831
 30
0.0
 10
120.4026421139965
 20
-147.8202622785831
 30
0.0
 10
120.5635280731577
 20
-147.8202622785831
 30
0.0
 10
120.677905243268
 20
-147.8988104556468
 30
0.0
 10
120.7371608856143
 20
-148.0235229122128
 30
0.0
 10
120.7878037892475
 20
-147.9346394486934
 30
0.0
 10
120.8828884246404
 20
-147.7758205468234
 30
0.0
 10
121.1454047006164
 20
-147.7758205468234
 30
0.0
 10
121.5198865798631
 20
-147.7758205468234
 30
0.0
 10
121.635986297716
 20
-148.0552177906772
 30
0.0
 10
121.635986297716
 20
-148.2943074173535
 30
0.0
  0
HATCH
  5
E6
330
DF
100
AcDbEntity
  8
レイヤー 1
 62
    18
420
        0
440
 33554687
100
AcDbHatch
 10
0.0
 20
0.0
 30
0.0
210
0.0
220
0.0
230
1.0
  2
SOLID
 70
     1
 71
     1
 91
        3
 92
        1
 93
        1
 72
     4
 94
        3
 73
     0
 74
     0
 95
       17
 96
       13
 40
0.0
 40
0.0
 40
0.0
 40
0.0
 40
1.0
 40
1.0
 40
1.0
 40
2.0
 40
2.0
 40
2.0
 40
3.0
 40
3.0
 40
3.0
 40
4.0
 40
4.0
 40
4.0
 40
4.0
 10
120.8449923743026
 20
-148.2943074173535
 10
120.8449923743026
 20
-148.4379678990884
 10
120.9318087805309
 20
-148.590585629085
 10
121.1347249046121
 20
-148.590585629085
 10
121.340052595533
 20
-148.590585629085
 10
121.4413384027994
 20
-148.4634616056792
 10
121.4413384027994
 20
-148.2943074173535
 10
121.4413384027994
 20
-148.10827226115
 10
121.3186930035245
 20
-147.998029205622
 10
121.1409260764856
 20
-147.998029205622
 10
120.9190619272355
 20
-147.998029205622
 10
120.8449923743026
 20
-148.1609822220743
 10
120.8449923743026
 20
-148.2943074173535
 97
        0
 97
        1
330
E3
 92
        1
 93
        1
 72
     4
 94
        3
 73
     0
 74
     0
 95
       17
 96
       13
 40
0.0
 40
0.0
 40
0.0
 40
0.0
 40
1.0
 40
1.0
 40
1.0
 40
2.0
 40
2.0
 40
2.0
 40
3.0
 40
3.0
 40
3.0
 40
4.0
 40
4.0
 40
4.0
 40
4.0
 10
120.1849120793287
 20
-148.2943074173535
 10
120.1849120793287
 20
-148.4593274910969
 10
120.2799967147216
 20
-148.5440768400341
 10
120.415388967292
 20
-148.5440768400341
 10
120.5380343665669
 20
-148.5440768400341
 10
120.6565456512594
 20
-148.4720743443924
 10
120.6565456512594
 20
-148.2943074173535
 10
120.6565456512594
 20
-148.1165404903146
 10
120.5380343665669
 20
-148.0445379946729
 10
120.415388967292
 20
-148.0445379946729
 10
120.2799967147216
 20
-148.0445379946729
 10
120.1849120793287
 20
-148.1313544009012
 10
120.1849120793287
 20
-148.2943074173535
 97
        0
 97
        1
330
E4
 92
        1
 93
        1
 72
     4
 94
        3
 73
     0
 74
     0
 95
       29
 96
       25
 40
0.0
 40
0.0
 40
0.0
 40
0.0
 40
1.0
 40
1.0
 40
1.0
 40
2.0
 40
2.0
 40
2.0
 40
3.0
 40
3.0
 40
3.0
 40
4.0
 40
4.0
 40
4.0
 40
5.0
 40
5.0
 40
5.0
 40
6.0
 40
6.0
 40
6.0
 40
7.0
 40
7.0
 40
7.0
 40
8.0
 40
8.0
 40
8.0
 40
8.0
 10
121.635986297716
 20
-148.2943074173535
 10
121.635986297716
 20
-148.5609578079118
 10
121.4985269878545
 20
-148.8148613451747
 10
121.1495388151987
 20
-148.8148613451747
 10
120.8935682206446
 20
-148.8148613451747
 10
120.7984835852518
 20
-148.6729234111825
 10
120.7371608856143
 20
-148.5671589797853
 10
120.677905243268
 20
-148.6918714363513
 10
120.5635280731577
 20
-148.7680080465753
 10
120.4026421139965
 20
-148.7680080465753
 10
120.1277234942736
 20
-148.7680080465753
 10
119.9923312417033
 20
-148.5692260370764
 10
119.9923312417033
 20
-148.2943074173535
 10
119.9923312417033
 20
-148.0107760589174
 10
120.1363362329867
 20
-147.8202622785831
 10
120.4026421139965
 20
-147.8202622785831
 10
120.5635280731577
 20
-147.8202622785831
 10
120.677905243268
 20
-147.8988104556468
 10
120.7371608856143
 20
-148.0235229122128
 10
120.7878037892475
 20
-147.9346394486934
 10
120.8828884246404
 20
-147.7758205468234
 10
121.1454047006164
 20
-147.7758205468234
 10
121.5198865798631
 20
-147.7758205468234
 10
121.635986297716
 20
-148.0552177906772
 10
121.635986297716
 20
-148.2943074173535
 97
        0
 97
        1
330
E5
 75
     2
 76
     1
 98
        1
 10
0.0
 20
0.0
450
        0
451
        0
460
0.0
461
0.0
452
        0
462
0.0
453
        0
470

  0
SPLINE
  5
E7
330
DF
100
AcDbEntity
  8
レイヤー 1
100
AcDbSpline
210
0.0
220
0.0
230
1.0
 70
    11
 71
     3
 72
    17
 73
    13
 74
     0
 42
0.0000000001
 43
0.0000000001
 40
0.0
 40
0.0
 40
0.0
 40
0.0
 40
1.0
 40
1.0
 40
1.0
 40
2.0
 40
2.0
 40
2.0
 40
3.0
 40
3.0
 40
3.0
 40
4.0
 40
4.0
 40
4.0
 40
4.0
 10
121.5853433940828
 20
-147.5574014930585
 30
0.0
 10
121.5853433940828
 20
-147.5574014930585
 30
0.0
 10
121.333506914111
 20
-147.5574014930585
 30
0.0
 10
121.333506914111
 20
-147.5574014930585
 30
0.0
 10
121.333506914111
 20
-147.5574014930585
 30
0.0
 10
121.333506914111
 20
-147.3055650130868
 30
0.0
 10
121.333506914111
 20
-147.3055650130868
 30
0.0
 10
121.333506914111
 20
-147.3055650130868
 30
0.0
 10
121.5853433940828
 20
-147.3055650130868
 30
0.0
 10
121.5853433940828
 20
-147.3055650130868
 30
0.0
 10
121.5853433940828
 20
-147.3055650130868
 30
0.0
 10
121.5853433940828
 20
-147.5574014930585
 30
0.0
 10
121.5853433940828
 20
-147.5574014930585
 30
0.0
  0
HATCH
  5
E8
330
DF
100
AcDbEntity
  8
レイヤー 1
 62
    18
420
        0
440
 33554687
100
AcDbHatch
 10
0.0
 20
0.0
 30
0.0
210
0.0
220
0.0
230
1.0
  2
SOLID
 70
     1
 71
     1
 91
        1
 92
        1
 93
        1
 72
     4
 94
        3
 73
     0
 74
     0
 95
       17
 96
       13
 40
0.0
 40
0.0
 40
0.0
 40
0.0
 40
1.0
 40
1.0
 40
1.0
 40
2.0
 40
2.0
 40
2.0
 40
3.0
 40
3.0
 40
3.0
 40
4.0
 40
4.0
 40
4.0
 40
4.0
 10
121.5853433940828
 20
-147.5574014930585
 10
121.5853433940828
 20
-147.5574014930585
 10
121.333506914111
 20
-147.5574014930585
 10
121.333506914111
 20
-147.5574014930585
 10
121.333506914111
 20
-147.5574014930585
 10
121.333506914111
 20
-147.3055650130868
 10
121.333506914111
 20
-147.3055650130868
 10
121.333506914111
 20
-147.3055650130868
 10
121.5853433940828
 20
-147.3055650130868
 10
121.5853433940828
 20
-147.3055650130868
 10
121.5853433940828
 20
-147.3055650130868
 10
121.5853433940828
 20
-147.5574014930585
 10
121.5853433940828
 20
-147.5574014930585
 97
        0
 97
        1
330
E7
 75
     2
 76
     1
 98
        1
 10
0.0
 20
0.0
450
        0
451
        0
460
0.0
461
0.0
452
        0
462
0.0
453
        0
470

  0
SPLINE
  5
E9
330
DF
100
AcDbEntity
  8
レイヤー 1
100
AcDbSpline
210
0.0
220
0.0
230
1.0
 70
     9
 71
     3
 72
    53
 73
    49
 74
     0
 42
0.0000000001
 43
0.0000000001
 40
0.0
 40
0.0
 40
0.0
 40
0.0
 40
1.0
 40
1.0
 40
1.0
 40
2.0
 40
2.0
 40
2.0
 40
3.0
 40
3.0
 40
3.0
 40
4.0
 40
4.0
 40
4.0
 40
5.0
 40
5.0
 40
5.0
 40
6.0
 40
6.0
 40
6.0
 40
7.0
 40
7.0
 40
7.0
 40
8.0
 40
8.0
 40
8.0
 40
9.0
 40
9.0
 40
9.0
 40
10.0
 40
10.0
 40
10.0
 40
11.0
 40
11.0
 40
11.0
 40
12.0
 40
12.0
 40
12.0
 40
13.0
 40
13.0
 40
13.0
 40
14.0
 40
14.0
 40
14.0
 40
15.0
 40
15.0
 40
15.0
 40
16.0
 40
16.0
 40
16.0
 40
16.0
 10
121.635986297716
 20
-146.5882961330578
 30
0.0
 10
121.635986297716
 20
-146.666499800573
 30
0.0
 10
121.6191053298383
 20
-146.7681301173878
 30
0.0
 10
121.5557155729097
 20
-146.8697604342027
 30
0.0
 10
121.4458170269302
 20
-147.0430487371108
 30
0.0
 10
121.3145588889422
 20
-147.0644083291193
 30
0.0
 10
121.2067274002539
 20
-147.0833563542882
 30
0.0
 10
121.2067274002539
 20
-147.0833563542882
 30
0.0
 10
121.2067274002539
 20
-146.8611476954896
 30
0.0
 10
121.2067274002539
 20
-146.8611476954896
 30
0.0
 10
121.4055094097528
 20
-146.8063706772741
 30
0.0
 10
121.4351372309259
 20
-146.6792466538684
 30
0.0
 10
121.4351372309259
 20
-146.5862290757666
 30
0.0
 10
121.4351372309259
 20
-146.446702708614
 30
0.0
 10
121.3355739714022
 20
-146.2944294881659
 30
0.0
 10
121.1030300261478
 20
-146.2944294881659
 30
0.0
 10
120.8470594315938
 20
-146.2944294881659
 30
0.0
 10
120.7771239932432
 20
-146.474263472496
 30
0.0
 10
120.7771239932432
 20
-146.5948418144797
 30
0.0
 10
120.7771239932432
 20
-146.626536692944
 30
0.0
 10
120.7771239932432
 20
-146.7681301173878
 30
0.0
 10
120.9063150739401
 20
-146.8570135809073
 30
0.0
 10
120.9063150739401
 20
-146.8570135809073
 30
0.0
 10
120.8873670487712
 20
-147.032713450655
 30
0.0
 10
120.8873670487712
 20
-147.032713450655
 30
0.0
 10
120.8873670487712
 20
-147.032713450655
 30
0.0
 10
120.0409070880453
 20
-146.9121351086712
 30
0.0
 10
120.0409070880453
 20
-146.9121351086712
 30
0.0
 10
120.0409070880453
 20
-146.9121351086712
 30
0.0
 10
120.0409070880453
 20
-146.1335435290048
 30
0.0
 10
120.0409070880453
 20
-146.1335435290048
 30
0.0
 10
120.0409070880453
 20
-146.1335435290048
 30
0.0
 10
120.2355549829619
 20
-146.1335435290048
 30
0.0
 10
120.2355549829619
 20
-146.1335435290048
 30
0.0
 10
120.2355549829619
 20
-146.1335435290048
 30
0.0
 10
120.2355549829619
 20
-146.7491820922189
 30
0.0
 10
120.2355549829619
 20
-146.7491820922189
 30
0.0
 10
120.2355549829619
 20
-146.7491820922189
 30
0.0
 10
120.6586127085506
 20
-146.8146389064387
 30
0.0
 10
120.6586127085506
 20
-146.8146389064387
 30
0.0
 10
120.6248507727952
 20
-146.7533162068012
 30
0.0
 10
120.5845431556177
 20
-146.6709784247037
 30
0.0
 10
120.5845431556177
 20
-146.5524671400112
 30
0.0
 10
120.5845431556177
 20
-146.2985636027483
 30
0.0
 10
120.7709228213698
 20
-146.0615410333631
 30
0.0
 10
121.0840820009789
 20
-146.0615410333631
 30
0.0
 10
121.4013752951705
 20
-146.0615410333631
 30
0.0
 10
121.635986297716
 20
-146.2858167494528
 30
0.0
 10
121.635986297716
 20
-146.5882961330578
 30
0.0
  0
HATCH
  5
EA
330
DF
100
AcDbEntity
  8
レイヤー 1
 62
    18
420
        0
440
 33554687
100
AcDbHatch
 10
0.0
 20
0.0
 30
0.0
210
0.0
220
0.0
230
1.0
  2
SOLID
 70
     1
 71
     1
 91
        1
 92
        1
 93
        1
 72
     4
 94
        3
 73
     0
 74
     0
 95
       53
 96
       49
 40
0.0
 40
0.0
 40
0.0
 40
0.0
 40
1.0
 40
1.0
 40
1.0
 40
2.0
 40
2.0
 40
2.0
 40
3.0
 40
3.0
 40
3.0
 40
4.0
 40
4.0
 40
4.0
 40
5.0
 40
5.0
 40
5.0
 40
6.0
 40
6.0
 40
6.0
 40
7.0
 40
7.0
 40
7.0
 40
8.0
 40
8.0
 40
8.0
 40
9.0
 40
9.0
 40
9.0
 40
10.0
 40
10.0
 40
10.0
 40
11.0
 40
11.0
 40
11.0
 40
12.0
 40
12.0
 40
12.0
 40
13.0
 40
13.0
 40
13.0
 40
14.0
 40
14.0
 40
14.0
 40
15.0
 40
15.0
 40
15.0
 40
16.0
 40
16.0
 40
16.0
 40
16.0
 10
121.635986297716
 20
-146.5882961330578
 10
121.635986297716
 20
-146.666499800573
 10
121.6191053298383
 20
-146.7681301173878
 10
121.5557155729097
 20
-146.8697604342027
 10
121.4458170269302
 20
-147.0430487371108
 10
121.3145588889422
 20
-147.0644083291193
 10
121.2067274002539
 20
-147.0833563542882
 10
121.2067274002539
 20
-147.0833563542882
 10
121.2067274002539
 20
-146.8611476954896
 10
121.2067274002539
 20
-146.8611476954896
 10
121.4055094097528
 20
-146.8063706772741
 10
121.4351372309259
 20
-146.6792466538684
 10
121.4351372309259
 20
-146.5862290757666
 10
121.4351372309259
 20
-146.446702708614
 10
121.3355739714022
 20
-146.2944294881659
 10
121.1030300261478
 20
-146.2944294881659
 10
120.8470594315938
 20
-146.2944294881659
 10
120.7771239932432
 20
-146.474263472496
 10
120.7771239932432
 20
-146.5948418144797
 10
120.7771239932432
 20
-146.626536692944
 10
120.7771239932432
 20
-146.7681301173878
 10
120.9063150739401
 20
-146.8570135809073
 10
120.9063150739401
 20
-146.8570135809073
 10
120.8873670487712
 20
-147.032713450655
 10
120.8873670487712
 20
-147.032713450655
 10
120.8873670487712
 20
-147.032713450655
 10
120.0409070880453
 20
-146.9121351086712
 10
120.0409070880453
 20
-146.9121351086712
 10
120.0409070880453
 20
-146.9121351086712
 10
120.0409070880453
 20
-146.1335435290048
 10
120.0409070880453
 20
-146.1335435290048
 10
120.0409070880453
 20
-146.1335435290048
 10
120.2355549829619
 20
-146.1335435290048
 10
120.2355549829619
 20
-146.1335435290048
 10
120.2355549829619
 20
-146.1335435290048
 10
120.2355549829619
 20
-146.7491820922189
 10
120.2355549829619
 20
-146.7491820922189
 10
120.2355549829619
 20
-146.7491820922189
 10
120.6586127085506
 20
-146.8146389064387
 10
120.6586127085506
 20
-146.8146389064387
 10
120.6248507727952
 20
-146.7533162068012
 10
120.5845431556177
 20
-146.6709784247037
 10
120.5845431556177
 20
-146.5524671400112
 10
120.5845431556177
 20
-146.2985636027483
 10
120.7709228213698
 20
-146.0615410333631
 10
121.0840820009789
 20
-146.0615410333631
 10
121.4013752951705
 20
-146.0615410333631
 10
121.635986297716
 20
-146.2858167494528
 10
121.635986297716
 20
-146.5882961330578
 97
        0
 97
        1
330
E9
 75
     2
 76
     1
 98
        1
 10
0.0
 20
0.0
450
        0
451
        0
460
0.0
461
0.0
452
        0
462
0.0
453
        0
470

  0
ENDBLK
  5
E2
330
DF
100
AcDbEntity
  8
0
100
AcDbBlockEnd
  0
BLOCK
  5
F0
330
EE
100
AcDbEntity
  8
0
100
AcDbBlockBegin
  2
Block_10
 70
     0
 10
0.0
 20
0.0
 30
0.0
  3
Block_10
  1

  0
INSERT
  5
F3
330
EE
100
AcDbEntity
  8
レイヤー 1
100
AcDbBlockReference
  2
Block_11
 10
0.0
 20
0.0
 30
0.0
  0
ENDBLK
  5
F1
330
EE
100
AcDbEntity
  8
0
100
AcDbBlockEnd
  0
BLOCK
  5
F4
330
F2
100
AcDbEntity
  8
0
100
AcDbBlockBegin
  2
Block_11
 70
     0
 10
0.0
 20
0.0
 30
0.0
  3
Block_11
  1

  0
SPLINE
  5
F6
330
F2
100
AcDbEntity
  8
レイヤー 1
100
AcDbSpline
210
0.0
220
0.0
230
1.0
 70
    11
 71
     3
 72
    26
 73
    22
 74
     0
 42
0.0000000001
 43
0.0000000001
 40
0.0
 40
0.0
 40
0.0
 40
0.0
 40
1.0
 40
1.0
 40
1.0
 40
2.0
 40
2.0
 40
2.0
 40
3.0
 40
3.0
 40
3.0
 40
4.0
 40
4.0
 40
4.0
 40
5.0
 40
5.0
 40
5.0
 40
6.0
 40
6.0
 40
6.0
 40
7.0
 40
7.0
 40
7.0
 40
7.0
 10
108.9769829371655
 20
-156.1847818619954
 30
0.0
 10
108.9769829371655
 20
-156.1847818619954
 30
0.0
 10
108.9769829371655
 20
-155.0806287589729
 30
0.0
 10
108.9769829371655
 20
-155.0806287589729
 30
0.0
 10
108.9769829371655
 20
-155.0806287589729
 30
0.0
 10
108.6469427896785
 20
-155.0806287589729
 30
0.0
 10
108.6469427896785
 20
-155.0806287589729
 30
0.0
 10
108.6469427896785
 20
-155.0806287589729
 30
0.0
 10
108.6469427896785
 20
-154.9324896531071
 30
0.0
 10
108.6469427896785
 20
-154.9324896531071
 30
0.0
 10
108.9790499944566
 20
-154.9176757425206
 30
0.0
 10
109.0255587835075
 20
-154.7547227260683
 30
0.0
 10
109.0551866046806
 20
-154.6403455559579
 30
0.0
 10
109.0551866046806
 20
-154.6403455559579
 30
0.0
 10
109.2012586532552
 20
-154.6403455559579
 30
0.0
 10
109.2012586532552
 20
-154.6403455559579
 30
0.0
 10
109.2012586532552
 20
-154.6403455559579
 30
0.0
 10
109.2012586532552
 20
-156.1847818619954
 30
0.0
 10
109.2012586532552
 20
-156.1847818619954
 30
0.0
 10
109.2012586532552
 20
-156.1847818619954
 30
0.0
 10
108.9769829371655
 20
-156.1847818619954
 30
0.0
 10
108.9769829371655
 20
-156.1847818619954
 30
0.0
  0
HATCH
  5
F7
330
F2
100
AcDbEntity
  8
レイヤー 1
 62
    18
420
        0
440
 33554687
100
AcDbHatch
 10
0.0
 20
0.0
 30
0.0
210
0.0
220
0.0
230
1.0
  2
SOLID
 70
     1
 71
     1
 91
        1
 92
        1
 93
        1
 72
     4
 94
        3
 73
     0
 74
     0
 95
       26
 96
       22
 40
0.0
 40
0.0
 40
0.0
 40
0.0
 40
1.0
 40
1.0
 40
1.0
 40
2.0
 40
2.0
 40
2.0
 40
3.0
 40
3.0
 40
3.0
 40
4.0
 40
4.0
 40
4.0
 40
5.0
 40
5.0
 40
5.0
 40
6.0
 40
6.0
 40
6.0
 40
7.0
 40
7.0
 40
7.0
 40
7.0
 10
108.9769829371655
 20
-156.1847818619954
 10
108.9769829371655
 20
-156.1847818619954
 10
108.9769829371655
 20
-155.0806287589729
 10
108.9769829371655
 20
-155.0806287589729
 10
108.9769829371655
 20
-155.0806287589729
 10
108.6469427896785
 20
-155.0806287589729
 10
108.6469427896785
 20
-155.0806287589729
 10
108.6469427896785
 20
-155.0806287589729
 10
108.6469427896785
 20
-154.9324896531071
 10
108.6469427896785
 20
-154.9324896531071
 10
108.9790499944566
 20
-154.9176757425206
 10
109.0255587835075
 20
-154.7547227260683
 10
109.0551866046806
 20
-154.6403455559579
 10
109.0551866046806
 20
-154.6403455559579
 10
109.2012586532552
 20
-154.6403455559579
 10
109.2012586532552
 20
-154.6403455559579
 10
109.2012586532552
 20
-154.6403455559579
 10
109.2012586532552
 20
-156.1847818619954
 10
109.2012586532552
 20
-156.1847818619954
 10
109.2012586532552
 20
-156.1847818619954
 10
108.9769829371655
 20
-156.1847818619954
 10
108.9769829371655
 20
-156.1847818619954
 97
        0
 97
        1
330
F6
 75
     2
 76
     1
 98
        1
 10
0.0
 20
0.0
450
        0
451
        0
460
0.0
461
0.0
452
        0
462
0.0
453
        0
470

  0
SPLINE
  5
F8
330
F2
100
AcDbEntity
  8
レイヤー 1
100
AcDbSpline
210
0.0
220
0.0
230
1.0
 70
     9
 71
     3
 72
    26
 73
    22
 74
     0
 42
0.0000000001
 43
0.0000000001
 40
0.0
 40
0.0
 40
0.0
 40
0.0
 40
1.0
 40
1.0
 40
1.0
 40
2.0
 40
2.0
 40
2.0
 40
3.0
 40
3.0
 40
3.0
 40
4.0
 40
4.0
 40
4.0
 40
5.0
 40
5.0
 40
5.0
 40
6.0
 40
6.0
 40
6.0
 40
7.0
 40
7.0
 40
7.0
 40
7.0
 10
110.1135199377494
 20
-156.1847818619954
 30
0.0
 10
110.1135199377494
 20
-156.1847818619954
 30
0.0
 10
109.8764973683642
 20
-156.1847818619954
 30
0.0
 10
109.8764973683642
 20
-156.1847818619954
 30
0.0
 10
109.901991074955
 20
-155.8757567969685
 30
0.0
 10
110.0945719125805
 20
-155.357614435987
 30
0.0
 10
110.5007486702915
 20
-154.8518744187523
 30
0.0
 10
110.5007486702915
 20
-154.8518744187523
 30
0.0
 10
109.6629014482787
 20
-154.8518744187523
 30
0.0
 10
109.6629014482787
 20
-154.8518744187523
 30
0.0
 10
109.6629014482787
 20
-154.8518744187523
 30
0.0
 10
109.6629014482787
 20
-154.6403455559579
 30
0.0
 10
109.6629014482787
 20
-154.6403455559579
 30
0.0
 10
109.6629014482787
 20
-154.6403455559579
 30
0.0
 10
110.7377712396766
 20
-154.6403455559579
 30
0.0
 10
110.7377712396766
 20
-154.6403455559579
 30
0.0
 10
110.7377712396766
 20
-154.6403455559579
 30
0.0
 10
110.7377712396766
 20
-154.8518744187523
 30
0.0
 10
110.7377712396766
 20
-154.8518744187523
 30
0.0
 10
110.4139322640632
 20
-155.1419514586103
 30
0.0
 10
110.1472818735048
 20
-155.7341633725248
 30
0.0
 10
110.1135199377494
 20
-156.1847818619954
 30
0.0
  0
HATCH
  5
F9
330
F2
100
AcDbEntity
  8
レイヤー 1
 62
    18
420
        0
440
 33554687
100
AcDbHatch
 10
0.0
 20
0.0
 30
0.0
210
0.0
220
0.0
230
1.0
  2
SOLID
 70
     1
 71
     1
 91
        1
 92
        1
 93
        1
 72
     4
 94
        3
 73
     0
 74
     0
 95
       26
 96
       22
 40
0.0
 40
0.0
 40
0.0
 40
0.0
 40
1.0
 40
1.0
 40
1.0
 40
2.0
 40
2.0
 40
2.0
 40
3.0
 40
3.0
 40
3.0
 40
4.0
 40
4.0
 40
4.0
 40
5.0
 40
5.0
 40
5.0
 40
6.0
 40
6.0
 40
6.0
 40
7.0
 40
7.0
 40
7.0
 40
7.0
 10
110.1135199377494
 20
-156.1847818619954
 10
110.1135199377494
 20
-156.1847818619954
 10
109.8764973683642
 20
-156.1847818619954
 10
109.8764973683642
 20
-156.1847818619954
 10
109.901991074955
 20
-155.8757567969685
 10
110.0945719125805
 20
-155.357614435987
 10
110.5007486702915
 20
-154.8518744187523
 10
110.5007486702915
 20
-154.8518744187523
 10
109.6629014482787
 20
-154.8518744187523
 10
109.6629014482787
 20
-154.8518744187523
 10
109.6629014482787
 20
-154.8518744187523
 10
109.6629014482787
 20
-154.6403455559579
 10
109.6629014482787
 20
-154.6403455559579
 10
109.6629014482787
 20
-154.6403455559579
 10
110.7377712396766
 20
-154.6403455559579
 10
110.7377712396766
 20
-154.6403455559579
 10
110.7377712396766
 20
-154.6403455559579
 10
110.7377712396766
 20
-154.8518744187523
 10
110.7377712396766
 20
-154.8518744187523
 10
110.4139322640632
 20
-155.1419514586103
 10
110.1472818735048
 20
-155.7341633725248
 10
110.1135199377494
 20
-156.1847818619954
 97
        0
 97
        1
330
F8
 75
     2
 76
     1
 98
        1
 10
0.0
 20
0.0
450
        0
451
        0
460
0.0
461
0.0
452
        0
462
0.0
453
        0
470

  0
ENDBLK
  5
F5
330
F2
100
AcDbEntity
  8
0
100
AcDbBlockEnd
  0
BLOCK
  5
FC
330
FA
100
AcDbEntity
  8
0
100
AcDbBlockBegin
  2
Block_12
 70
     0
 10
0.0
 20
0.0
 30
0.0
  3
Block_12
  1

  0
INSERT
  5
FF
330
FA
100
AcDbEntity
  8
レイヤー 1
100
AcDbBlockReference
  2
Block_13
 10
0.0
 20
0.0
 30
0.0
  0
ENDBLK
  5
FD
330
FA
100
AcDbEntity
  8
0
100
AcDbBlockEnd
  0
BLOCK
  5
100
330
FE
100
AcDbEntity
  8
0
100
AcDbBlockBegin
  2
Block_13
 70
     0
 10
0.0
 20
0.0
 30
0.0
  3
Block_13
  1

  0
SPLINE
  5
102
330
FE
100
AcDbEntity
  8
レイヤー 1
100
AcDbSpline
210
0.0
220
0.0
230
1.0
 70
    11
 71
     3
 72
    26
 73
    22
 74
     0
 42
0.0000000001
 43
0.0000000001
 40
0.0
 40
0.0
 40
0.0
 40
0.0
 40
1.0
 40
1.0
 40
1.0
 40
2.0
 40
2.0
 40
2.0
 40
3.0
 40
3.0
 40
3.0
 40
4.0
 40
4.0
 40
4.0
 40
5.0
 40
5.0
 40
5.0
 40
6.0
 40
6.0
 40
6.0
 40
7.0
 40
7.0
 40
7.0
 40
7.0
 10
94.46572398897037
 20
-156.185126371544
 30
0.0
 10
94.46572398897037
 20
-156.185126371544
 30
0.0
 10
94.46572398897037
 20
-155.0809732685214
 30
0.0
 10
94.46572398897037
 20
-155.0809732685214
 30
0.0
 10
94.46572398897037
 20
-155.0809732685214
 30
0.0
 10
94.13568384148344
 20
-155.0809732685214
 30
0.0
 10
94.13568384148344
 20
-155.0809732685214
 30
0.0
 10
94.13568384148344
 20
-155.0809732685214
 30
0.0
 10
94.13568384148344
 20
-154.9328341626557
 30
0.0
 10
94.13568384148344
 20
-154.9328341626557
 30
0.0
 10
94.46779104626152
 20
-154.9180202520691
 30
0.0
 10
94.51429983531239
 20
-154.7550672356168
 30
0.0
 10
94.54392765648554
 20
-154.6406900655065
 30
0.0
 10
94.54392765648554
 20
-154.6406900655065
 30
0.0
 10
94.68999970506015
 20
-154.6406900655065
 30
0.0
 10
94.68999970506015
 20
-154.6406900655065
 30
0.0
 10
94.68999970506015
 20
-154.6406900655065
 30
0.0
 10
94.68999970506015
 20
-156.185126371544
 30
0.0
 10
94.68999970506015
 20
-156.185126371544
 30
0.0
 10
94.68999970506015
 20
-156.185126371544
 30
0.0
 10
94.46572398897037
 20
-156.185126371544
 30
0.0
 10
94.46572398897037
 20
-156.185126371544
 30
0.0
  0
HATCH
  5
103
330
FE
100
AcDbEntity
  8
レイヤー 1
 62
    18
420
        0
440
 33554687
100
AcDbHatch
 10
0.0
 20
0.0
 30
0.0
210
0.0
220
0.0
230
1.0
  2
SOLID
 70
     1
 71
     1
 91
        1
 92
        1
 93
        1
 72
     4
 94
        3
 73
     0
 74
     0
 95
       26
 96
       22
 40
0.0
 40
0.0
 40
0.0
 40
0.0
 40
1.0
 40
1.0
 40
1.0
 40
2.0
 40
2.0
 40
2.0
 40
3.0
 40
3.0
 40
3.0
 40
4.0
 40
4.0
 40
4.0
 40
5.0
 40
5.0
 40
5.0
 40
6.0
 40
6.0
 40
6.0
 40
7.0
 40
7.0
 40
7.0
 40
7.0
 10
94.46572398897037
 20
-156.185126371544
 10
94.46572398897037
 20
-156.185126371544
 10
94.46572398897037
 20
-155.0809732685214
 10
94.46572398897037
 20
-155.0809732685214
 10
94.46572398897037
 20
-155.0809732685214
 10
94.13568384148344
 20
-155.0809732685214
 10
94.13568384148344
 20
-155.0809732685214
 10
94.13568384148344
 20
-155.0809732685214
 10
94.13568384148344
 20
-154.9328341626557
 10
94.13568384148344
 20
-154.9328341626557
 10
94.46779104626152
 20
-154.9180202520691
 10
94.51429983531239
 20
-154.7550672356168
 10
94.54392765648554
 20
-154.6406900655065
 10
94.54392765648554
 20
-154.6406900655065
 10
94.68999970506015
 20
-154.6406900655065
 10
94.68999970506015
 20
-154.6406900655065
 10
94.68999970506015
 20
-154.6406900655065
 10
94.68999970506015
 20
-156.185126371544
 10
94.68999970506015
 20
-156.185126371544
 10
94.68999970506015
 20
-156.185126371544
 10
94.46572398897037
 20
-156.185126371544
 10
94.46572398897037
 20
-156.185126371544
 97
        0
 97
        1
330
102
 75
     2
 76
     1
 98
        1
 10
0.0
 20
0.0
450
        0
451
        0
460
0.0
461
0.0
452
        0
462
0.0
453
        0
470

  0
SPLINE
  5
104
330
FE
100
AcDbEntity
  8
レイヤー 1
100
AcDbSpline
210
0.0
220
0.0
230
1.0
 70
     9
 71
     3
 72
    44
 73
    40
 74
     0
 42
0.0000000001
 43
0.0000000001
 40
0.0
 40
0.0
 40
0.0
 40
0.0
 40
1.0
 40
1.0
 40
1.0
 40
2.0
 40
2.0
 40
2.0
 40
3.0
 40
3.0
 40
3.0
 40
4.0
 40
4.0
 40
4.0
 40
5.0
 40
5.0
 40
5.0
 40
6.0
 40
6.0
 40
6.0
 40
7.0
 40
7.0
 40
7.0
 40
8.0
 40
8.0
 40
8.0
 40
9.0
 40
9.0
 40
9.0
 40
10.0
 40
10.0
 40
10.0
 40
11.0
 40
11.0
 40
11.0
 40
12.0
 40
12.0
 40
12.0
 40
13.0
 40
13.0
 40
13.0
 40
13.0
 10
95.78433428594975
 20
-155.6032497440853
 30
0.0
 10
95.56643199650769
 20
-155.7620686459553
 30
0.0
 10
95.4732421636317
 20
-155.8361381988882
 30
0.0
 10
95.42466631728968
 20
-155.9797986806231
 30
0.0
 10
95.42466631728968
 20
-155.9797986806231
 30
0.0
 10
96.20308564218188
 20
-155.9797986806231
 30
0.0
 10
96.20308564218188
 20
-155.9797986806231
 30
0.0
 10
96.20308564218188
 20
-155.9797986806231
 30
0.0
 10
96.20308564218188
 20
-156.185126371544
 30
0.0
 10
96.20308564218188
 20
-156.185126371544
 30
0.0
 10
96.20308564218188
 20
-156.185126371544
 30
0.0
 10
95.17506914938332
 20
-156.185126371544
 30
0.0
 10
95.17506914938332
 20
-156.185126371544
 30
0.0
 10
95.20676402784761
 20
-155.8275254601751
 30
0.0
 10
95.27239309684162
 20
-155.7493217926599
 30
0.0
 10
95.65738251731829
 20
-155.4509765236372
 30
0.0
 10
95.91335311187235
 20
-155.2521945141383
 30
0.0
 10
95.9788099260921
 20
-155.1843261330789
 30
0.0
 10
95.9788099260921
 20
-155.0468668232174
 30
0.0
 10
95.9788099260921
 20
-154.9283555385248
 30
0.0
 10
95.90697968522466
 20
-154.7974419100853
 30
0.0
 10
95.71026473301689
 20
-154.7974419100853
 30
0.0
 10
95.44998776910626
 20
-154.7974419100853
 30
0.0
 10
95.44154728516739
 20
-155.0279187980486
 30
0.0
 10
95.43724091581083
 20
-155.14436302545
 30
0.0
 10
95.43724091581083
 20
-155.14436302545
 30
0.0
 10
95.21313745449532
 20
-155.14436302545
 30
0.0
 10
95.21313745449532
 20
-155.14436302545
 30
0.0
 10
95.22157793843419
 20
-155.0172390020443
 30
0.0
 10
95.23208547966421
 20
-154.9052733987737
 30
0.0
 10
95.31252845924479
 20
-154.7867621140811
 30
0.0
 10
95.42242700522427
 20
-154.6258761549199
 30
0.0
 10
95.60863441620201
 20
-154.5921142191645
 30
0.0
 10
95.72507864360344
 20
-154.5921142191645
 30
0.0
 10
96.00223657539181
 20
-154.5921142191645
 30
0.0
 10
96.20945906882958
 20
-154.7760823180768
 30
0.0
 10
96.20945906882958
 20
-155.0489338805086
 30
0.0
 10
96.20945906882958
 20
-155.2776882207292
 30
0.0
 10
96.09318709620239
 20
-155.3769069707044
 30
0.0
 10
95.78433428594975
 20
-155.6032497440853
 30
0.0
  0
HATCH
  5
105
330
FE
100
AcDbEntity
  8
レイヤー 1
 62
    18
420
        0
440
 33554687
100
AcDbHatch
 10
0.0
 20
0.0
 30
0.0
210
0.0
220
0.0
230
1.0
  2
SOLID
 70
     1
 71
     1
 91
        1
 92
        1
 93
        1
 72
     4
 94
        3
 73
     0
 74
     0
 95
       44
 96
       40
 40
0.0
 40
0.0
 40
0.0
 40
0.0
 40
1.0
 40
1.0
 40
1.0
 40
2.0
 40
2.0
 40
2.0
 40
3.0
 40
3.0
 40
3.0
 40
4.0
 40
4.0
 40
4.0
 40
5.0
 40
5.0
 40
5.0
 40
6.0
 40
6.0
 40
6.0
 40
7.0
 40
7.0
 40
7.0
 40
8.0
 40
8.0
 40
8.0
 40
9.0
 40
9.0
 40
9.0
 40
10.0
 40
10.0
 40
10.0
 40
11.0
 40
11.0
 40
11.0
 40
12.0
 40
12.0
 40
12.0
 40
13.0
 40
13.0
 40
13.0
 40
13.0
 10
95.78433428594975
 20
-155.6032497440853
 10
95.56643199650769
 20
-155.7620686459553
 10
95.4732421636317
 20
-155.8361381988882
 10
95.42466631728968
 20
-155.9797986806231
 10
95.42466631728968
 20
-155.9797986806231
 10
96.20308564218188
 20
-155.9797986806231
 10
96.20308564218188
 20
-155.9797986806231
 10
96.20308564218188
 20
-155.9797986806231
 10
96.20308564218188
 20
-156.185126371544
 10
96.20308564218188
 20
-156.185126371544
 10
96.20308564218188
 20
-156.185126371544
 10
95.17506914938332
 20
-156.185126371544
 10
95.17506914938332
 20
-156.185126371544
 10
95.20676402784761
 20
-155.8275254601751
 10
95.27239309684162
 20
-155.7493217926599
 10
95.65738251731829
 20
-155.4509765236372
 10
95.91335311187235
 20
-155.2521945141383
 10
95.9788099260921
 20
-155.1843261330789
 10
95.9788099260921
 20
-155.0468668232174
 10
95.9788099260921
 20
-154.9283555385248
 10
95.90697968522466
 20
-154.7974419100853
 10
95.71026473301689
 20
-154.7974419100853
 10
95.44998776910626
 20
-154.7974419100853
 10
95.44154728516739
 20
-155.0279187980486
 10
95.43724091581083
 20
-155.14436302545
 10
95.43724091581083
 20
-155.14436302545
 10
95.21313745449532
 20
-155.14436302545
 10
95.21313745449532
 20
-155.14436302545
 10
95.22157793843419
 20
-155.0172390020443
 10
95.23208547966421
 20
-154.9052733987737
 10
95.31252845924479
 20
-154.7867621140811
 10
95.42242700522427
 20
-154.6258761549199
 10
95.60863441620201
 20
-154.5921142191645
 10
95.72507864360344
 20
-154.5921142191645
 10
96.00223657539181
 20
-154.5921142191645
 10
96.20945906882958
 20
-154.7760823180768
 10
96.20945906882958
 20
-155.0489338805086
 10
96.20945906882958
 20
-155.2776882207292
 10
96.09318709620239
 20
-155.3769069707044
 10
95.78433428594975
 20
-155.6032497440853
 97
        0
 97
        1
330
104
 75
     2
 76
     1
 98
        1
 10
0.0
 20
0.0
450
        0
451
        0
460
0.0
461
0.0
452
        0
462
0.0
453
        0
470

  0
ENDBLK
  5
101
330
FE
100
AcDbEntity
  8
0
100
AcDbBlockEnd
  0
ENDSEC
  0
SECTION
  2
ENTITIES
  0
INSERT
  5
7A
330
70
100
AcDbEntity
  8
レイヤー 1
100
AcDbBlockReference
  2
Block_0
 10
0.0
 20
0.0
 30
0.0
  0
LINE
  5
A1
330
70
100
AcDbEntity
  8
レイヤー 1
 62
    18
420
        0
370
    25
100
AcDbLine
 10
89.17748305392661
 20
-143.2290001237728
 30
0.0
 11
102.2815130984416
 21
-143.2290001237728
 31
0.0
  0
LINE
  5
A2
330
70
100
AcDbEntity
  8
レイヤー 1
 62
    18
420
        0
370
    25
100
AcDbLine
 10
101.1818343488695
 20
-144.3293492623672
 30
0.0
 11
101.1818343488695
 21
-152.8291062677429
 31
0.0
  0
LINE
  5
A3
330
70
100
AcDbEntity
  8
レイヤー 1
 62
    18
420
        0
370
    25
100
AcDbLine
 10
89.17748305392661
 20
-144.3293492623672
 30
0.0
 11
101.1775303488284
 21
-144.3293492623672
 31
0.0
  0
LINE
  5
A4
330
70
100
AcDbEntity
  8
レイヤー 1
 62
    18
420
        0
370
    25
100
AcDbLine
 10
89.1817869427057
 20
-143.2290001237728
 30
0.0
 11
89.1817869427057
 21
-144.3293492623672
 31
0.0
  0
LINE
  5
A5
330
70
100
AcDbEntity
  8
レイヤー 1
 62
    18
420
        0
370
    25
100
AcDbLine
 10
102.2815132097032
 20
-143.2290001237728
 30
0.0
 11
102.2815132097032
 21
-151.7294274069091
 31
0.0
  0
LINE
  5
A6
330
70
100
AcDbEntity
  8
レイヤー 1
 62
    18
420
        0
370
    25
100
AcDbLine
 10
118.181983359604
 20
-151.7294274069091
 30
0.0
 11
118.181983359604
 21
-152.1290540633798
 31
0.0
  0
LINE
  5
A7
330
70
100
AcDbEntity
  8
レイヤー 1
 62
    18
420
        0
370
    25
100
AcDbLine
 10
102.2815132097032
 20
-151.7294274069091
 30
0.0
 11
118.181983359604
 21
-151.7294274069091
 31
0.0
  0
LINE
  5
A8
330
70
100
AcDbEntity
  8
レイヤー 1
 62
    18
420
        0
370
    25
100
AcDbLine
 10
118.181983359604
 20
-152.1290540633798
 30
0.0
 11
101.1818343488695
 21
-152.8291062677429
 31
0.0
  0
SPLINE
  5
A9
330
70
100
AcDbEntity
  8
レイヤー 1
 62
    18
420
        0
370
     9
100
AcDbSpline
210
0.0
220
0.0
230
1.0
 70
     9
 71
     3
 72
    17
 73
    13
 74
     0
 42
0.0000000001
 43
0.0000000001
 40
0.0
 40
0.0
 40
0.0
 40
0.0
 40
1.0
 40
1.0
 40
1.0
 40
2.0
 40
2.0
 40
2.0
 40
3.0
 40
3.0
 40
3.0
 40
4.0
 40
4.0
 40
4.0
 40
4.0
 10
122.2813315883542
 20
-143.2290001237728
 30
0.0
 10
122.2813315883542
 20
-143.1738609585125
 30
0.0
 10
122.2365288117195
 20
-143.1290934596549
 30
0.0
 10
122.1814249242364
 20
-143.1290934596549
 30
0.0
 10
122.1266412003032
 20
-143.1290934596549
 30
0.0
 10
122.0818384225365
 20
-143.1738609585125
 30
0.0
 10
122.0818384225365
 20
-143.2290001237728
 30
0.0
 10
122.0818384225365
 20
-143.2840977019756
 30
0.0
 10
122.1266412003032
 20
-143.328900479742
 30
0.0
 10
122.1814249242364
 20
-143.328900479742
 30
0.0
 10
122.2365288117195
 20
-143.328900479742
 30
0.0
 10
122.2813315883542
 20
-143.2840977019756
 30
0.0
 10
122.2813315883542
 20
-143.2290001237728
 30
0.0
  0
SPLINE
  5
AA
330
70
100
AcDbEntity
  8
レイヤー 1
 62
    18
420
        0
370
     9
100
AcDbSpline
210
0.0
220
0.0
230
1.0
 70
     9
 71
     3
 72
    17
 73
    13
 74
     0
 42
0.0000000001
 43
0.0000000001
 40
0.0
 40
0.0
 40
0.0
 40
0.0
 40
1.0
 40
1.0
 40
1.0
 40
2.0
 40
2.0
 40
2.0
 40
3.0
 40
3.0
 40
3.0
 40
4.0
 40
4.0
 40
4.0
 40
4.0
 10
122.2813315883542
 20
-151.7294274069091
 30
0.0
 10
122.2813315883542
 20
-151.6736179638885
 30
0.0
 10
122.2365288117195
 20
-151.6288151872537
 30
0.0
 10
122.1814249242364
 20
-151.6288151872537
 30
0.0
 10
122.1266412003032
 20
-151.6288151872537
 30
0.0
 10
122.0818384225365
 20
-151.6736179638885
 30
0.0
 10
122.0818384225365
 20
-151.7294274069091
 30
0.0
 10
122.0818384225365
 20
-151.7845312943922
 30
0.0
 10
122.1266412003032
 20
-151.829334071027
 30
0.0
 10
122.1814249242364
 20
-151.829334071027
 30
0.0
 10
122.2365288117195
 20
-151.829334071027
 30
0.0
 10
122.2813315883542
 20
-151.7845312943922
 30
0.0
 10
122.2813315883542
 20
-151.7294274069091
 30
0.0
  0
SPLINE
  5
AB
330
70
100
AcDbEntity
  8
レイヤー 1
 62
    18
420
        0
370
     9
100
AcDbSpline
210
0.0
220
0.0
230
1.0
 70
     9
 71
     3
 72
    17
 73
    13
 74
     0
 42
0.0000000001
 43
0.0000000001
 40
0.0
 40
0.0
 40
0.0
 40
0.0
 40
1.0
 40
1.0
 40
1.0
 40
2.0
 40
2.0
 40
2.0
 40
3.0
 40
3.0
 40
3.0
 40
4.0
 40
4.0
 40
4.0
 40
4.0
 10
122.2813315883542
 20
-152.1290540633798
 30
0.0
 10
122.2813315883542
 20
-152.0739501758974
 30
0.0
 10
122.2365288117195
 20
-152.0291473992626
 30
0.0
 10
122.1814249242364
 20
-152.0291473992626
 30
0.0
 10
122.1266412003032
 20
-152.0291473992626
 30
0.0
 10
122.0818384225365
 20
-152.0739501758974
 30
0.0
 10
122.0818384225365
 20
-152.1290540633798
 30
0.0
 10
122.0818384225365
 20
-152.1841932286404
 30
0.0
 10
122.1266412003032
 20
-152.2289607274983
 30
0.0
 10
122.1814249242364
 20
-152.2289607274983
 30
0.0
 10
122.2365288117195
 20
-152.2289607274983
 30
0.0
 10
122.2813315883542
 20
-152.1841932286404
 30
0.0
 10
122.2813315883542
 20
-152.1290540633798
 30
0.0
  0
SPLINE
  5
AC
330
70
100
AcDbEntity
  8
レイヤー 1
 62
    18
420
        0
370
     9
100
AcDbSpline
210
0.0
220
0.0
230
1.0
 70
     9
 71
     3
 72
    17
 73
    13
 74
     0
 42
0.0000000001
 43
0.0000000001
 40
0.0
 40
0.0
 40
0.0
 40
0.0
 40
1.0
 40
1.0
 40
1.0
 40
2.0
 40
2.0
 40
2.0
 40
3.0
 40
3.0
 40
3.0
 40
4.0
 40
4.0
 40
4.0
 40
4.0
 10
118.2818900237218
 20
-156.8288653323672
 30
0.0
 10
118.2818900237218
 20
-156.7737261671072
 30
0.0
 10
118.2371225248639
 20
-156.7289586682493
 30
0.0
 10
118.181983359604
 20
-156.7289586682493
 30
0.0
 10
118.1261739165833
 20
-156.7289586682493
 30
0.0
 10
118.0814064177255
 20
-156.7737261671072
 30
0.0
 10
118.0814064177255
 20
-156.8288653323672
 30
0.0
 10
118.0814064177255
 20
-156.8839692198502
 30
0.0
 10
118.1261739165833
 20
-156.928771996485
 30
0.0
 10
118.181983359604
 20
-156.928771996485
 30
0.0
 10
118.2371225248639
 20
-156.928771996485
 30
0.0
 10
118.2818900237218
 20
-156.8839692198502
 30
0.0
 10
118.2818900237218
 20
-156.8288653323672
 30
0.0
  0
SPLINE
  5
AD
330
70
100
AcDbEntity
  8
レイヤー 1
 62
    18
420
        0
370
     9
100
AcDbSpline
210
0.0
220
0.0
230
1.0
 70
     9
 71
     3
 72
    17
 73
    13
 74
     0
 42
0.0000000001
 43
0.0000000001
 40
0.0
 40
0.0
 40
0.0
 40
0.0
 40
1.0
 40
1.0
 40
1.0
 40
2.0
 40
2.0
 40
2.0
 40
3.0
 40
3.0
 40
3.0
 40
4.0
 40
4.0
 40
4.0
 40
4.0
 10
89.27738971804444
 20
-156.8288653323672
 30
0.0
 10
89.27738971804444
 20
-156.7737261671072
 30
0.0
 10
89.23262221918655
 20
-156.7289586682493
 30
0.0
 10
89.17748305392661
 20
-156.7289586682493
 30
0.0
 10
89.1220263886754
 20
-156.7289586682493
 30
0.0
 10
89.07725888981687
 20
-156.7737261671072
 30
0.0
 10
89.07725888981687
 20
-156.8288653323672
 30
0.0
 10
89.07725888981687
 20
-156.8839692198502
 30
0.0
 10
89.1220263886754
 20
-156.928771996485
 30
0.0
 10
89.17748305392661
 20
-156.928771996485
 30
0.0
 10
89.23262221918655
 20
-156.928771996485
 30
0.0
 10
89.27738971804444
 20
-156.8839692198502
 30
0.0
 10
89.27738971804444
 20
-156.8288653323672
 30
0.0
  0
SPLINE
  5
AE
330
70
100
AcDbEntity
  8
レイヤー 1
 62
    18
420
        0
370
     9
100
AcDbSpline
210
0.0
220
0.0
230
1.0
 70
     9
 71
     3
 72
    17
 73
    13
 74
     0
 42
0.0000000001
 43
0.0000000001
 40
0.0
 40
0.0
 40
0.0
 40
0.0
 40
1.0
 40
1.0
 40
1.0
 40
2.0
 40
2.0
 40
2.0
 40
3.0
 40
3.0
 40
3.0
 40
4.0
 40
4.0
 40
4.0
 40
4.0
 10
86.91027848860102
 20
-143.2290001237728
 30
0.0
 10
86.91027848860102
 20
-143.1738609585125
 30
0.0
 10
86.86547571196626
 20
-143.1290934596549
 30
0.0
 10
86.81037182448351
 20
-143.1290934596549
 30
0.0
 10
86.75523265922324
 20
-143.1290934596549
 30
0.0
 10
86.71046516036568
 20
-143.1738609585125
 30
0.0
 10
86.71046516036568
 20
-143.2290001237728
 30
0.0
 10
86.71046516036568
 20
-143.2840977019756
 30
0.0
 10
86.75523265922324
 20
-143.328900479742
 30
0.0
 10
86.81037182448351
 20
-143.328900479742
 30
0.0
 10
86.86547571196626
 20
-143.328900479742
 30
0.0
 10
86.91027848860102
 20
-143.2840977019756
 30
0.0
 10
86.91027848860102
 20
-143.2290001237728
 30
0.0
  0
CIRCLE
  5
AF
330
70
100
AcDbEntity
  8
レイヤー 1
 62
    18
420
        0
370
     9
100
AcDbCircle
 10
86.81037182448344
 20
-144.3293492623672
 30
0.0
 40
0.0999066641177952
  0
CIRCLE
  5
B0
330
70
100
AcDbEntity
  8
レイヤー 1
 62
    18
420
        0
370
     9
100
AcDbCircle
 10
101.1818343488695
 20
-156.8288653323672
 30
0.0
 40
0.0999066641178353
  0
LINE
  5
B1
330
70
100
AcDbEntity
  8
レイヤー 1
 62
    18
420
        0
370
     9
100
AcDbLine
 10
101.1818343488695
 20
-156.8288653323672
 30
0.0
 11
118.181983359604
 21
-156.8288653323672
 31
0.0
  0
LINE
  5
B2
330
70
100
AcDbEntity
  8
レイヤー 1
 62
    18
420
        0
370
     9
100
AcDbLine
 10
118.181983359604
 20
-154.6687717763646
 30
0.0
 11
118.181983359604
 21
-157.8293078068438
 31
0.0
  0
LINE
  5
B3
330
70
100
AcDbEntity
  8
レイヤー 1
 62
    18
420
        0
370
     9
100
AcDbLine
 10
122.1814249242364
 20
-152.1290540633798
 30
0.0
 11
122.1814249242364
 21
-153.1288262600964
 31
0.0
  0
LINE
  5
B4
330
70
100
AcDbEntity
  8
レイヤー 1
 62
    18
420
        0
370
     9
100
AcDbLine
 10
122.1814249242364
 20
-151.7294274069091
 30
0.0
 11
122.1814249242364
 21
-152.1290540633798
 31
0.0
  0
LINE
  5
B5
330
70
100
AcDbEntity
  8
レイヤー 1
 62
    18
420
        0
370
     9
100
AcDbLine
 10
120.721736350365
 20
-151.7294274069091
 30
0.0
 11
123.1811618431754
 21
-151.7294274069091
 31
0.0
  0
LINE
  5
B6
330
70
100
AcDbEntity
  8
レイヤー 1
 62
    18
420
        0
370
     9
100
AcDbLine
 10
120.721736350365
 20
-152.1290540633798
 30
0.0
 11
123.1811618431754
 21
-152.1290540633798
 31
0.0
  0
INSERT
  5
B8
330
70
100
AcDbEntity
  8
レイヤー 1
100
AcDbBlockReference
  2
Block_4
 10
0.0
 20
0.0
 30
0.0
  0
LINE
  5
C7
330
70
100
AcDbEntity
  8
レイヤー 1
 62
    18
420
        0
370
     9
100
AcDbLine
 10
86.81037182448351
 20
-143.2290001237728
 30
0.0
 11
86.81037182448351
 21
-142.2292279270569
 31
0.0
  0
LINE
  5
C8
330
70
100
AcDbEntity
  8
レイヤー 1
 62
    18
420
        0
370
     9
100
AcDbLine
 10
86.81037182448351
 20
-143.2290001237728
 30
0.0
 11
86.81037182448351
 21
-145.3291214590831
 31
0.0
  0
LINE
  5
C9
330
70
100
AcDbEntity
  8
レイヤー 1
 62
    18
420
        0
370
     9
100
AcDbLine
 10
88.27037789834646
 20
-143.2290001237728
 30
0.0
 11
85.81059962776729
 21
-143.2290001237728
 31
0.0
  0
LINE
  5
CA
330
70
100
AcDbEntity
  8
レイヤー 1
 62
    18
420
        0
370
     9
100
AcDbLine
 10
88.27037789834646
 20
-144.3293492623672
 30
0.0
 11
85.81059962776729
 21
-144.3293492623672
 31
0.0
  0
INSERT
  5
CC
330
70
100
AcDbEntity
  8
レイヤー 1
100
AcDbBlockReference
  2
Block_6
 10
0.0
 20
0.0
 30
0.0
  0
LINE
  5
D9
330
70
100
AcDbEntity
  8
レイヤー 1
 62
    18
420
        0
370
     9
100
AcDbLine
 10
122.1814249242364
 20
-143.2290001237728
 30
0.0
 11
122.1814249242364
 21
-151.7294274069091
 31
0.0
  0
LINE
  5
DA
330
70
100
AcDbEntity
  8
レイヤー 1
 62
    18
420
        0
370
     9
100
AcDbLine
 10
104.8219012004481
 20
-143.2290001237728
 30
0.0
 11
123.1811618431754
 21
-143.2290001237728
 31
0.0
  0
INSERT
  5
DC
330
70
100
AcDbEntity
  8
レイヤー 1
100
AcDbBlockReference
  2
Block_8
 10
0.0
 20
0.0
 30
0.0
  0
LINE
  5
EB
330
70
100
AcDbEntity
  8
レイヤー 1
 62
    18
420
        0
370
     9
100
AcDbLine
 10
101.1818342376075
 20
-156.8288653323672
 30
0.0
 11
89.17748305392661
 21
-156.8288653323672
 31
0.0
  0
LINE
  5
EC
330
70
100
AcDbEntity
  8
レイヤー 1
 62
    18
420
        0
370
     9
100
AcDbLine
 10
101.1818343488695
 20
-155.368823980727
 30
0.0
 11
101.1818343488695
 21
-157.8293078068438
 31
0.0
  0
LINE
  5
ED
330
70
100
AcDbEntity
  8
レイヤー 1
 62
    18
420
        0
370
     9
100
AcDbLine
 10
89.17748305392661
 20
-146.8690669753514
 30
0.0
 11
89.17748305392661
 21
-157.8293078068438
 31
0.0
  0
INSERT
  5
EF
330
70
100
AcDbEntity
  8
レイヤー 1
100
AcDbBlockReference
  2
Block_10
 10
0.0
 20
0.0
 30
0.0
  0
INSERT
  5
FB
330
70
100
AcDbEntity
  8
レイヤー 1
100
AcDbBlockReference
  2
Block_12
 10
0.0
 20
0.0
 30
0.0
  0
ENDSEC
  0
SECTION
  2
OBJECTS
  0
DICTIONARY
  5
C
330
0
100
AcDbDictionary
281
     1
  3
ACAD_COLOR
350
63
  3
ACAD_DETAILVIEWSTYLE
350
6A
  3
ACAD_GROUP
350
D
  3
ACAD_LAYOUT
350
62
  3
ACAD_MATERIAL
350
10
  3
ACAD_MLEADERSTYLE
350
66
  3
ACAD_MLINESTYLE
350
5F
  3
ACAD_PLOTSETTINGS
350
61
  3
ACAD_PLOTSTYLENAME
350
E
  3
ACAD_SCALELIST
350
42
  3
ACAD_SECTIONVIEWSTYLE
350
68
  3
ACAD_TABLESTYLE
350
64
  3
ACAD_VISUALSTYLE
350
29
  3
ACDB_RECOMPOSE_DATA
350
10E
  3
AcDbVariableDictionary
350
106
  0
DICTIONARY
  5
63
102
{ACAD_REACTORS
330
C
102
}
330
C
100
AcDbDictionary
281
     1
  0
DICTIONARY
  5
6A
102
{ACAD_REACTORS
330
C
102
}
330
C
100
AcDbDictionary
281
     1
  3
Imperial24
350
6B
  0
DICTIONARY
  5
D
102
{ACAD_REACTORS
330
C
102
}
330
C
100
AcDbDictionary
281
     1
  0
DICTIONARY
  5
62
102
{ACAD_REACTORS
330
C
102
}
330
C
100
AcDbDictionary
281
     1
  3
Layout1
350
6F
  3
Layout2
350
77
  3
Model
350
73
  0
DICTIONARY
  5
10
102
{ACAD_REACTORS
330
C
102
}
330
C
100
AcDbDictionary
281
     1
  3
ByBlock
350
19
  3
ByLayer
350
11
  3
Global
350
21
  0
DICTIONARY
  5
66
102
{ACAD_REACTORS
330
C
102
}
330
C
100
AcDbDictionary
281
     1
  3
Standard
350
67
  0
DICTIONARY
  5
5F
102
{ACAD_REACTORS
330
C
102
}
330
C
100
AcDbDictionary
281
     1
  3
Standard
350
60
  0
DICTIONARY
  5
61
102
{ACAD_REACTORS
330
C
102
}
330
C
100
AcDbDictionary
281
     1
  0
ACDBDICTIONARYWDFLT
  5
E
102
{ACAD_REACTORS
330
C
102
}
330
C
100
AcDbDictionary
281
     1
  3
Normal
350
F
100
AcDbDictionaryWithDefault
340
F
  0
DICTIONARY
  5
42
102
{ACAD_REACTORS
330
C
102
}
330
C
100
AcDbDictionary
281
     1
  3
A0
350
43
  3
A1
350
44
  3
A2
350
45
  3
A3
350
46
  3
A4
350
47
  3
A5
350
48
  3
A6
350
49
  3
A7
350
4A
  3
A8
350
4B
  3
A9
350
4C
  3
B0
350
4D
  3
B1
350
4E
  3
B2
350
4F
  3
B3
350
50
  3
B4
350
51
  3
B5
350
52
  3
B6
350
53
  0
DICTIONARY
  5
68
102
{ACAD_REACTORS
330
C
102
}
330
C
100
AcDbDictionary
281
     1
  3
Imperial24
350
69
  0
DICTIONARY
  5
64
102
{ACAD_REACTORS
330
C
102
}
330
C
100
AcDbDictionary
281
     1
  3
Standard
350
65
  0
DICTIONARY
  5
29
102
{ACAD_REACTORS
330
C
102
}
330
C
100
AcDbDictionary
281
     1
  3
2dWireframe
350
2F
  3
Basic
350
2E
  3
Brighten
350
35
  3
ColorChange
350
39
  3
Conceptual
350
32
  3
Dim
350
34
  3
EdgeColorOff
350
41
  3
Facepattern
350
38
  3
Flat
350
2A
  3
FlatWithEdges
350
2B
  3
Gouraud
350
2C
  3
GouraudWithEdges
350
2D
  3
Hidden
350
31
  3
JitterOff
350
3F
  3
Linepattern
350
37
  3
OverhangOff
350
40
  3
Realistic
350
33
  3
Shaded
350
3E
  3
Shaded with edges
350
3D
  3
Shades of Gray
350
3A
  3
Sketchy
350
3B
  3
Thicken
350
36
  3
Wireframe
350
30
  3
X-Ray
350
3C
  0
XRECORD
  5
10E
102
{ACAD_REACTORS
330
C
102
}
330
C
100
AcDbXrecord
280
     1
 90
        1
330
65
  0
DICTIONARY
  5
106
102
{ACAD_REACTORS
330
C
102
}
330
C
100
AcDbDictionary
281
     1
  3
CANNOSCALE
350
10B
  3
CMLEADERSTYLE
350
108
  3
CTABLESTYLE
350
107
  3
CVIEWDETAILSTYLE
350
109
  3
CVIEWSECTIONSTYLE
350
10A
  0
ACDBDETAILVIEWSTYLE
  5
6B
102
{ACAD_XDICTIONARY
360
143
102
}
102
{ACAD_REACTORS
330
6A
102
}
330
6A
100
AcDbModelDocViewStyle
 70
     0
  3
Imperial24
290
     0
100
AcDbDetailViewStyle
 70
     0
 71
     0
 90
        3
 71
     1
340
55
 62
   256
 40
0.24
340
0
 62
   256
 40
0.24
300

 40
0.36
280
     3
 71
     2
340
5D
 90
       25
 62
   256
 71
     3
340
55
 62
   256
 40
0.24
 90
        1
 40
0.75
 90
        1
300
%<\AcVar ViewType \f "%tc1">% %<\AcVar ViewDetailId>%\PSCALE %<\AcVar ViewScale \f "%sn">%
 71
     4
340
5D
 90
       25
 62
   256
340
5D
 90
       25
 62
   256
280
     0
  0
LAYOUT
  5
6F
102
{ACAD_REACTORS
330
62
102
}
330
62
100
AcDbPlotSettings
  1

  2

  4

  6

 40
0.0
 41
0.0
 42
0.0
 43
0.0
 44
0.0
 45
0.0
 46
0.0
 47
0.0
 48
0.0
 49
0.0
140
0.0
141
0.0
142
1.0
143
1.0
 70
   688
 72
     0
 73
     0
 74
     5
  7

 75
    16
147
1.0
 76
     0
 77
     2
 78
   300
148
0.0
149
0.0
100
AcDbLayout
  1
Layout1
 70
     1
 71
     1
 10
0.0
 20
0.0
 11
12.0
 21
9.0
 12
0.0
 22
0.0
 32
0.0
 14
0.0
 24
0.0
 34
0.0
 15
0.0
 25
0.0
 35
0.0
146
0.0
 13
0.0
 23
0.0
 33
0.0
 16
1.0
 26
0.0
 36
0.0
 17
0.0
 27
1.0
 37
0.0
 76
     0
330
6C
  0
LAYOUT
  5
77
102
{ACAD_REACTORS
330
62
102
}
330
62
100
AcDbPlotSettings
  1

  2

  4

  6

 40
0.0
 41
0.0
 42
0.0
 43
0.0
 44
0.0
 45
0.0
 46
0.0
 47
0.0
 48
0.0
 49
0.0
140
0.0
141
0.0
142
1.0
143
1.0
 70
   688
 72
     0
 73
     0
 74
     5
  7

 75
    16
147
1.0
 76
     0
 77
     2
 78
   300
148
0.0
149
0.0
100
AcDbLayout
  1
Layout2
 70
     1
 71
     2
 10
0.0
 20
0.0
 11
12.0
 21
9.0
 12
0.0
 22
0.0
 32
0.0
 14
0.0
 24
0.0
 34
0.0
 15
0.0
 25
0.0
 35
0.0
146
0.0
 13
0.0
 23
0.0
 33
0.0
 16
1.0
 26
0.0
 36
0.0
 17
0.0
 27
1.0
 37
0.0
 76
     0
330
74
  0
LAYOUT
  5
73
102
{ACAD_REACTORS
330
62
102
}
330
62
100
AcDbPlotSettings
  1

  2

  4

  6

 40
0.0
 41
0.0
 42
0.0
 43
0.0
 44
0.0
 45
0.0
 46
0.0
 47
0.0
 48
0.0
 49
0.0
140
0.0
141
0.0
142
1.0
143
1.0
 70
  1712
 72
     0
 73
     0
 74
     0
  7

 75
     0
147
1.0
 76
     0
 77
     2
 78
   300
148
0.0
149
0.0
100
AcDbLayout
  1
Model
 70
     1
 71
     0
 10
0.0
 20
0.0
 11
12.0
 21
9.0
 12
0.0
 22
0.0
 32
0.0
 14
0.0
 24
0.0
 34
0.0
 15
0.0
 25
0.0
 35
0.0
146
0.0
 13
0.0
 23
0.0
 33
0.0
 16
1.0
 26
0.0
 36
0.0
 17
0.0
 27
1.0
 37
0.0
 76
     0
330
70
  0
MATERIAL
  5
19
102
{ACAD_XDICTIONARY
360
1A
102
}
102
{ACAD_REACTORS
330
10
102
}
330
10
100
AcDbMaterial
  1
ByBlock
 72
     0
 43
0.0208333333333333
 43
0.0
 43
0.0
 43
0.0
 43
0.0
 43
0.0208333333333333
 43
0.0
 43
0.0
 43
0.0
 43
0.0
 43
1.0
 43
0.0
 43
0.0
 43
0.0
 43
0.0
 43
1.0
 77
     0
 47
0.0208333333333333
 47
0.0
 47
0.0
 47
0.0
 47
0.0
 47
0.0208333333333333
 47
0.0
 47
0.0
 47
0.0
 47
0.0
 47
1.0
 47
0.0
 47
0.0
 47
0.0
 47
0.0
 47
1.0
171
     0
 49
0.0208333333333333
 49
0.0
 49
0.0
 49
0.0
 49
0.0
 49
0.0208333333333333
 49
0.0
 49
0.0
 49
0.0
 49
0.0
 49
1.0
 49
0.0
 49
0.0
 49
0.0
 49
0.0
 49
1.0
175
     0
142
0.0208333333333333
142
0.0
142
0.0
142
0.0
142
0.0
142
0.0208333333333333
142
0.0
142
0.0
142
0.0
142
0.0
142
1.0
142
0.0
142
0.0
142
0.0
142
0.0
142
1.0
179
     0
144
0.0208333333333333
144
0.0
144
0.0
144
0.0
144
0.0
144
0.0208333333333333
144
0.0
144
0.0
144
0.0
144
0.0
144
1.0
144
0.0
144
0.0
144
0.0
144
0.0
144
1.0
147
0.0208333333333333
147
0.0
147
0.0
147
0.0
147
0.0
147
0.0208333333333333
147
0.0
147
0.0
147
0.0
147
0.0
147
1.0
147
0.0
147
0.0
147
0.0
147
0.0
147
1.0
  0
MATERIAL
  5
11
102
{ACAD_XDICTIONARY
360
12
102
}
102
{ACAD_REACTORS
330
10
102
}
330
10
100
AcDbMaterial
  1
ByLayer
 72
     0
 43
0.0208333333333333
 43
0.0
 43
0.0
 43
0.0
 43
0.0
 43
0.0208333333333333
 43
0.0
 43
0.0
 43
0.0
 43
0.0
 43
1.0
 43
0.0
 43
0.0
 43
0.0
 43
0.0
 43
1.0
 77
     0
 47
0.0208333333333333
 47
0.0
 47
0.0
 47
0.0
 47
0.0
 47
0.0208333333333333
 47
0.0
 47
0.0
 47
0.0
 47
0.0
 47
1.0
 47
0.0
 47
0.0
 47
0.0
 47
0.0
 47
1.0
171
     0
 49
0.0208333333333333
 49
0.0
 49
0.0
 49
0.0
 49
0.0
 49
0.0208333333333333
 49
0.0
 49
0.0
 49
0.0
 49
0.0
 49
1.0
 49
0.0
 49
0.0
 49
0.0
 49
0.0
 49
1.0
175
     0
142
0.0208333333333333
142
0.0
142
0.0
142
0.0
142
0.0
142
0.0208333333333333
142
0.0
142
0.0
142
0.0
142
0.0
142
1.0
142
0.0
142
0.0
142
0.0
142
0.0
142
1.0
179
     0
144
0.0208333333333333
144
0.0
144
0.0
144
0.0
144
0.0
144
0.0208333333333333
144
0.0
144
0.0
144
0.0
144
0.0
144
1.0
144
0.0
144
0.0
144
0.0
144
0.0
144
1.0
147
0.0208333333333333
147
0.0
147
0.0
147
0.0
147
0.0
147
0.0208333333333333
147
0.0
147
0.0
147
0.0
147
0.0
147
1.0
147
0.0
147
0.0
147
0.0
147
0.0
147
1.0
  0
MATERIAL
  5
21
102
{ACAD_XDICTIONARY
360
22
102
}
102
{ACAD_REACTORS
330
10
102
}
330
10
100
AcDbMaterial
  1
Global
 72
     0
 43
0.0208333333333333
 43
0.0
 43
0.0
 43
0.0
 43
0.0
 43
0.0208333333333333
 43
0.0
 43
0.0
 43
0.0
 43
0.0
 43
1.0
 43
0.0
 43
0.0
 43
0.0
 43
0.0
 43
1.0
 77
     0
 47
0.0208333333333333
 47
0.0
 47
0.0
 47
0.0
 47
0.0
 47
0.0208333333333333
 47
0.0
 47
0.0
 47
0.0
 47
0.0
 47
1.0
 47
0.0
 47
0.0
 47
0.0
 47
0.0
 47
1.0
171
     0
 49
0.0208333333333333
 49
0.0
 49
0.0
 49
0.0
 49
0.0
 49
0.0208333333333333
 49
0.0
 49
0.0
 49
0.0
 49
0.0
 49
1.0
 49
0.0
 49
0.0
 49
0.0
 49
0.0
 49
1.0
175
     0
142
0.0208333333333333
142
0.0
142
0.0
142
0.0
142
0.0
142
0.0208333333333333
142
0.0
142
0.0
142
0.0
142
0.0
142
1.0
142
0.0
142
0.0
142
0.0
142
0.0
142
1.0
179
     0
144
0.0208333333333333
144
0.0
144
0.0
144
0.0
144
0.0
144
0.0208333333333333
144
0.0
144
0.0
144
0.0
144
0.0
144
1.0
144
0.0
144
0.0
144
0.0
144
0.0
144
1.0
147
0.0208333333333333
147
0.0
147
0.0
147
0.0
147
0.0
147
0.0208333333333333
147
0.0
147
0.0
147
0.0
147
0.0
147
1.0
147
0.0
147
0.0
147
0.0
147
0.0
147
1.0
  0
MLEADERSTYLE
  5
67
102
{ACAD_XDICTIONARY
360
13F
102
}
102
{ACAD_REACTORS
330
66
102
}
330
66
100
AcDbMLeaderStyle
179
     2
170
     2
171
     1
172
     0
 90
        2
 40
0.0
 41
0.0
173
     1
 91
-1056964608
340
5B
 92
       -2
290
     1
 42
0.09
291
     1
 43
0.36
  3
Standard
 44
0.18
300

342
55
174
     1
178
     6
175
     1
176
     0
 93
-1056964608
 45
0.18
292
     0
297
     0
 46
0.18
 94
-1056964608
 47
1.0
 49
1.0
140
1.0
293
     1
141
0.0
294
     1
177
     0
142
1.0
295
     0
296
     0
143
0.125
271
     0
272
     9
273
     9
  0
MLINESTYLE
  5
60
102
{ACAD_REACTORS
330
5F
102
}
330
5F
100
AcDbMlineStyle
  2
STANDARD
 70
     0
  3

 62
   256
 51
90.0
 52
90.0
 71
     2
 49
0.5
 62
   256
  6
BYLAYER
 49
-0.5
 62
   256
  6
BYLAYER
  0
ACDBPLACEHOLDER
  5
F
102
{ACAD_REACTORS
330
E
102
}
330
E
  0
SCALE
  5
43
102
{ACAD_REACTORS
330
42
102
}
330
42
100
AcDbScale
 70
     0
300
1:1
140
1.0
141
1.0
290
     1
  0
SCALE
  5
44
102
{ACAD_REACTORS
330
42
102
}
330
42
100
AcDbScale
 70
     0
300
1/128" = 1'-0"
140
0.0078125
141
12.0
290
     0
  0
SCALE
  5
45
102
{ACAD_REACTORS
330
42
102
}
330
42
100
AcDbScale
 70
     0
300
1/64" = 1'-0"
140
0.015625
141
12.0
290
     0
  0
SCALE
  5
46
102
{ACAD_REACTORS
330
42
102
}
330
42
100
AcDbScale
 70
     0
300
1/32" = 1'-0"
140
0.03125
141
12.0
290
     0
  0
SCALE
  5
47
102
{ACAD_REACTORS
330
42
102
}
330
42
100
AcDbScale
 70
     0
300
1/16" = 1'-0"
140
0.0625
141
12.0
290
     0
  0
SCALE
  5
48
102
{ACAD_REACTORS
330
42
102
}
330
42
100
AcDbScale
 70
     0
300
3/32" = 1'-0"
140
0.09375
141
12.0
290
     0
  0
SCALE
  5
49
102
{ACAD_REACTORS
330
42
102
}
330
42
100
AcDbScale
 70
     0
300
1/8" = 1'-0"
140
0.125
141
12.0
290
     0
  0
SCALE
  5
4A
102
{ACAD_REACTORS
330
42
102
}
330
42
100
AcDbScale
 70
     0
300
3/16" = 1'-0"
140
0.1875
141
12.0
290
     0
  0
SCALE
  5
4B
102
{ACAD_REACTORS
330
42
102
}
330
42
100
AcDbScale
 70
     0
300
1/4" = 1'-0"
140
0.25
141
12.0
290
     0
  0
SCALE
  5
4C
102
{ACAD_REACTORS
330
42
102
}
330
42
100
AcDbScale
 70
     0
300
3/8" = 1'-0"
140
0.375
141
12.0
290
     0
  0
SCALE
  5
4D
102
{ACAD_REACTORS
330
42
102
}
330
42
100
AcDbScale
 70
     0
300
1/2" = 1'-0"
140
0.5
141
12.0
290
     0
  0
SCALE
  5
4E
102
{ACAD_REACTORS
330
42
102
}
330
42
100
AcDbScale
 70
     0
300
3/4" = 1'-0"
140
0.75
141
12.0
290
     0
  0
SCALE
  5
4F
102
{ACAD_REACTORS
330
42
102
}
330
42
100
AcDbScale
 70
     0
300
1" = 1'-0"
140
1.0
141
12.0
290
     0
  0
SCALE
  5
50
102
{ACAD_REACTORS
330
42
102
}
330
42
100
AcDbScale
 70
     0
300
1-1/2" = 1'-0"
140
1.5
141
12.0
290
     0
  0
SCALE
  5
51
102
{ACAD_REACTORS
330
42
102
}
330
42
100
AcDbScale
 70
     0
300
3" = 1'-0"
140
3.0
141
12.0
290
     0
  0
SCALE
  5
52
102
{ACAD_REACTORS
330
42
102
}
330
42
100
AcDbScale
 70
     0
300
6" = 1'-0"
140
6.0
141
12.0
290
     0
  0
SCALE
  5
53
102
{ACAD_REACTORS
330
42
102
}
330
42
100
AcDbScale
 70
     0
300
1'-0" = 1'-0"
140
12.0
141
12.0
290
     0
  0
ACDBSECTIONVIEWSTYLE
  5
69
102
{ACAD_XDICTIONARY
360
141
102
}
102
{ACAD_REACTORS
330
68
102
}
330
68
100
AcDbModelDocViewStyle
 70
     0
  3
Imperial24
290
     0
100
AcDbSectionViewStyle
 70
     0
 71
     0
 90
       78
 71
     1
340
55
 62
   256
 40
0.24
340
0
340
0
 62
   256
 40
0.24
300
I, O, Q, S, X, Z
 40
0.48
 90
        3
 40
0.18
 90
        1
 71
     2
340
5D
 90
       25
 62
   256
340
5D
 90
       50
 62
   256
 40
0.24
 40
0.0
 40
0.24
 71
     3
340
55
 62
   256
 40
0.24
 90
        1
 40
0.75
 90
        1
300
%<\AcVar ViewType \f "%tc1">% %<\AcVar ViewSectionStartId>%-%<\AcVar ViewSectionEndId>%\PSCALE %<\AcVar ViewScale \f "%sn">%
 71
     4
 62
   256
 62
   257
300
ANSI31
 40
1.0
 90
        0
290
     0
290
     0
 90
        6
 40
0.0
 40
1.570796326794896
 40
0.2617993877991494
 40
1.308996938995747
 40
-0.2617993877991494
 40
1.832595714594046
  0
TABLESTYLE
  5
65
102
{ACAD_XDICTIONARY
360
10C
102
}
102
{ACAD_REACTORS
330
64
102
}
330
64
100
AcDbTableStyle
280
     0
  3
Standard
 70
     0
 71
     0
 40
0.06
 41
0.06
280
     0
281
     0
  7
Standard
140
0.18
170
     2
 62
     0
 63
     7
283
     0
 90
      512
 91
        0
  1

274
    -2
284
     1
 64
     0
275
    -2
285
     1
 65
     0
276
    -2
286
     1
 66
     0
277
    -2
287
     1
 67
     0
278
    -2
288
     1
 68
     0
279
    -2
289
     1
 69
     0
  7
Standard
140
0.25
170
     5
 62
     0
 63
     7
283
     0
 90
      512
 91
        0
  1

274
    -2
284
     1
 64
     0
275
    -2
285
     1
 65
     0
276
    -2
286
     1
 66
     0
277
    -2
287
     1
 67
     0
278
    -2
288
     1
 68
     0
279
    -2
289
     1
 69
     0
  7
Standard
140
0.18
170
     5
 62
     0
 63
     7
283
     0
 90
      512
 91
        0
  1

274
    -2
284
     1
 64
     0
275
    -2
285
     1
 65
     0
276
    -2
286
     1
 66
     0
277
    -2
287
     1
 67
     0
278
    -2
288
     1
 68
     0
279
    -2
289
     1
 69
     0
  0
VISUALSTYLE
  5
2F
102
{ACAD_XDICTIONARY
360
119
102
}
102
{ACAD_REACTORS
330
29
102
}
330
29
100
AcDbVisualStyle
  2
2dWireframe
 70
     4
177
     2
291
     0
 71
     0
176
     1
 72
     2
176
     1
 73
     0
176
     1
 90
        0
176
     1
 40
0.6
176
     1
 41
30.0
176
     1
 63
     7
421
 16777215
176
     1
 74
     1
176
     1
 91
        4
176
     1
 64
     7
176
     1
 65
   257
176
     1
 75
     1
176
     1
175
     1
176
     1
 42
1.0
176
     1
 92
        0
176
     1
 66
   257
176
     1
 43
1.0
176
     1
 76
     1
176
     1
 77
     6
176
     1
 78
     2
176
     1
 67
     7
176
     1
 79
     5
176
     1
170
     0
176
     1
171
     0
176
     1
290
     0
176
     1
 93
        1
176
     1
 44
0.0
176
     1
173
     0
176
     1
1001
ACAD
1000
AcDbSavedByObjectVersion
1070
     0
  0
VISUALSTYLE
  5
2E
102
{ACAD_XDICTIONARY
360
117
102
}
102
{ACAD_REACTORS
330
29
102
}
330
29
100
AcDbVisualStyle
  2
Basic
 70
     7
177
     2
291
     1
 71
     1
176
     1
 72
     0
176
     1
 73
     1
176
     1
 90
        0
176
     1
 40
0.6
176
     1
 41
30.0
176
     1
 63
     7
421
 16777215
176
     1
 74
     0
176
     1
 91
        4
176
     1
 64
     7
176
     1
 65
   257
176
     1
 75
     1
176
     1
175
     1
176
     1
 42
1.0
176
     1
 92
        8
176
     1
 66
     7
176
     1
 43
1.0
176
     1
 76
     1
176
     1
 77
     6
176
     1
 78
     2
176
     1
 67
     7
176
     1
 79
     5
176
     1
170
     0
176
     1
171
     0
176
     1
290
     0
176
     1
 93
        1
176
     1
 44
0.0
176
     1
173
     0
176
     1
1001
ACAD
1000
AcDbSavedByObjectVersion
1070
     0
  0
VISUALSTYLE
  5
35
102
{ACAD_XDICTIONARY
360
125
102
}
102
{ACAD_REACTORS
330
29
102
}
330
29
100
AcDbVisualStyle
  2
Brighten
 70
    12
177
     2
291
     1
 71
     2
176
     1
 72
     2
176
     1
 73
     0
176
     1
 90
        0
176
     1
 40
0.6
176
     1
 41
30.0
176
     1
 63
     7
421
 16777215
176
     1
 74
     1
176
     1
 91
        4
176
     1
 64
     7
176
     1
 65
   257
176
     1
 75
     1
176
     1
175
     1
176
     1
 42
1.0
176
     1
 92
        8
176
     1
 66
     7
176
     1
 43
1.0
176
     1
 76
     1
176
     1
 77
     6
176
     1
 78
     2
176
     1
 67
     7
176
     1
 79
     5
176
     1
170
     0
176
     1
171
     0
176
     1
290
     0
176
     1
 93
        1
176
     1
 44
50.0
176
     1
173
     0
176
     1
1001
ACAD
1000
AcDbSavedByObjectVersion
1070
     0
  0
VISUALSTYLE
  5
39
102
{ACAD_XDICTIONARY
360
12D
102
}
102
{ACAD_REACTORS
330
29
102
}
330
29
100
AcDbVisualStyle
  2
ColorChange
 70
    16
177
     2
291
     1
 71
     2
176
     1
 72
     2
176
     1
 73
     3
176
     1
 90
        0
176
     1
 40
0.6
176
     1
 41
30.0
176
     1
 63
     8
421
  8421504
176
     1
 74
     1
176
     1
 91
        4
176
     1
 64
     7
176
     1
 65
   257
176
     1
 75
     1
176
     1
175
     1
176
     1
 42
1.0
176
     1
 92
        8
176
     1
 66
     8
424
  8421504
176
     1
 43
1.0
176
     1
 76
     1
176
     1
 77
     6
176
     1
 78
     2
176
     1
 67
     7
176
     1
 79
     5
176
     1
170
     0
176
     1
171
     0
176
     1
290
     0
176
     1
 93
        1
176
     1
 44
0.0
176
     1
173
     0
176
     1
1001
ACAD
1000
AcDbSavedByObjectVersion
1070
     0
  0
VISUALSTYLE
  5
32
102
{ACAD_XDICTIONARY
360
11F
102
}
102
{ACAD_REACTORS
330
29
102
}
330
29
100
AcDbVisualStyle
  2
Conceptual
 70
     9
177
     2
291
     0
 71
     3
176
     1
 72
     2
176
     1
 73
     0
176
     1
 90
        0
176
     1
 40
0.6
176
     1
 41
30.0
176
     1
 63
     7
421
 16777215
176
     1
 74
     2
176
     1
 91
        2
176
     1
 64
     7
176
     1
 65
   257
176
     1
 75
     1
176
     1
175
     1
176
     1
 42
179.0
176
     1
 92
        8
176
     1
 66
     7
176
     1
 43
1.0
176
     1
 76
     1
176
     1
 77
     6
176
     1
 78
     2
176
     1
 67
     7
176
     1
 79
     3
176
     1
170
     0
176
     1
171
     0
176
     1
290
     0
176
     1
 93
        1
176
     1
 44
0.0
176
     1
173
     0
176
     1
1001
ACAD
1000
AcDbSavedByObjectVersion
1070
     0
  0
VISUALSTYLE
  5
34
102
{ACAD_XDICTIONARY
360
123
102
}
102
{ACAD_REACTORS
330
29
102
}
330
29
100
AcDbVisualStyle
  2
Dim
 70
    11
177
     2
291
     1
 71
     2
176
     1
 72
     2
176
     1
 73
     0
176
     1
 90
        0
176
     1
 40
0.6
176
     1
 41
30.0
176
     1
 63
     7
421
 16777215
176
     1
 74
     1
176
     1
 91
        4
176
     1
 64
     7
176
     1
 65
   257
176
     1
 75
     1
176
     1
175
     1
176
     1
 42
1.0
176
     1
 92
        8
176
     1
 66
     7
176
     1
 43
1.0
176
     1
 76
     1
176
     1
 77
     6
176
     1
 78
     2
176
     1
 67
     7
176
     1
 79
     5
176
     1
170
     0
176
     1
171
     0
176
     1
290
     0
176
     1
 93
        1
176
     1
 44
-50.0
176
     1
173
     0
176
     1
1001
ACAD
1000
AcDbSavedByObjectVersion
1070
     0
  0
VISUALSTYLE
  5
41
102
{ACAD_XDICTIONARY
360
13D
102
}
102
{ACAD_REACTORS
330
29
102
}
330
29
100
AcDbVisualStyle
  2
EdgeColorOff
 70
    22
177
     2
291
     1
 71
     2
176
     0
 72
     2
176
     0
 73
     0
176
     0
 90
        0
176
     0
 40
0.6
176
     0
 41
30.0
176
     0
 63
     7
421
 16777215
176
     0
 74
     1
176
     0
 91
        4
176
     0
 64
     7
176
     0
 65
   257
176
     0
 75
     1
176
     0
175
     1
176
     0
 42
1.0
176
     0
 92
        8
176
     2
 66
     7
176
     0
 43
1.0
176
     0
 76
     1
176
     0
 77
     6
176
     0
 78
     2
176
     0
 67
     7
176
     0
 79
     5
176
     0
170
     0
176
     0
171
     0
176
     0
290
     0
176
     0
 93
        1
176
     0
 44
0.0
176
     0
173
     0
176
     0
1001
ACAD
1000
AcDbSavedByObjectVersion
1070
     0
  0
VISUALSTYLE
  5
38
102
{ACAD_XDICTIONARY
360
12B
102
}
102
{ACAD_REACTORS
330
29
102
}
330
29
100
AcDbVisualStyle
  2
Facepattern
 70
    15
177
     2
291
     1
 71
     2
176
     1
 72
     2
176
     1
 73
     0
176
     1
 90
        0
176
     1
 40
0.6
176
     1
 41
30.0
176
     1
 63
     7
421
 16777215
176
     1
 74
     1
176
     1
 91
        4
176
     1
 64
     7
176
     1
 65
   257
176
     1
 75
     1
176
     1
175
     1
176
     1
 42
1.0
176
     1
 92
        8
176
     1
 66
     7
176
     1
 43
1.0
176
     1
 76
     1
176
     1
 77
     6
176
     1
 78
     2
176
     1
 67
     7
176
     1
 79
     5
176
     1
170
     0
176
     1
171
     0
176
     1
290
     0
176
     1
 93
        1
176
     1
 44
0.0
176
     1
173
     0
176
     1
1001
ACAD
1000
AcDbSavedByObjectVersion
1070
     0
  0
VISUALSTYLE
  5
2A
102
{ACAD_XDICTIONARY
360
10F
102
}
102
{ACAD_REACTORS
330
29
102
}
330
29
100
AcDbVisualStyle
  2
Flat
 70
     0
177
     2
291
     1
 71
     2
176
     1
 72
     1
176
     1
 73
     1
176
     1
 90
        2
176
     1
 40
0.6
176
     1
 41
30.0
176
     1
 63
     7
421
 16777215
176
     1
 74
     0
176
     1
 91
        0
176
     1
 64
     7
176
     1
 65
   257
176
     1
 75
     1
176
     1
175
     1
176
     1
 42
1.0
176
     1
 92
        8
176
     1
 66
     7
176
     1
 43
1.0
176
     1
 76
     1
176
     1
 77
     6
176
     1
 78
     2
176
     1
 67
     7
176
     1
 79
     5
176
     1
170
     0
176
     1
171
     0
176
     1
290
     0
176
     1
 93
       13
176
     1
 44
0.0
176
     1
173
     0
176
     1
1001
ACAD
1000
AcDbSavedByObjectVersion
1070
     0
  0
VISUALSTYLE
  5
2B
102
{ACAD_XDICTIONARY
360
111
102
}
102
{ACAD_REACTORS
330
29
102
}
330
29
100
AcDbVisualStyle
  2
FlatWithEdges
 70
     1
177
     2
291
     1
 71
     2
176
     1
 72
     1
176
     1
 73
     1
176
     1
 90
        2
176
     1
 40
0.6
176
     1
 41
30.0
176
     1
 63
     7
421
 16777215
176
     1
 74
     1
176
     1
 91
        0
176
     1
 64
     7
176
     1
 65
   257
176
     1
 75
     1
176
     1
175
     1
176
     1
 42
1.0
176
     1
 92
        0
176
     1
 66
   257
176
     1
 43
1.0
176
     1
 76
     1
176
     1
 77
     6
176
     1
 78
     2
176
     1
 67
     7
176
     1
 79
     5
176
     1
170
     0
176
     1
171
     0
176
     1
290
     0
176
     1
 93
       13
176
     1
 44
0.0
176
     1
173
     0
176
     1
1001
ACAD
1000
AcDbSavedByObjectVersion
1070
     0
  0
VISUALSTYLE
  5
2C
102
{ACAD_XDICTIONARY
360
113
102
}
102
{ACAD_REACTORS
330
29
102
}
330
29
100
AcDbVisualStyle
  2
Gouraud
 70
     2
177
     2
291
     1
 71
     2
176
     1
 72
     2
176
     1
 73
     1
176
     1
 90
        2
176
     1
 40
0.6
176
     1
 41
30.0
176
     1
 63
     7
421
 16777215
176
     1
 74
     0
176
     1
 91
        0
176
     1
 64
     7
176
     1
 65
   257
176
     1
 75
     1
176
     1
175
     1
176
     1
 42
1.0
176
     1
 92
        0
176
     1
 66
     7
176
     1
 43
1.0
176
     1
 76
     1
176
     1
 77
     6
176
     1
 78
     2
176
     1
 67
     7
176
     1
 79
     5
176
     1
170
     0
176
     1
171
     0
176
     1
290
     0
176
     1
 93
       13
176
     1
 44
0.0
176
     1
173
     0
176
     1
1001
ACAD
1000
AcDbSavedByObjectVersion
1070
     0
  0
VISUALSTYLE
  5
2D
102
{ACAD_XDICTIONARY
360
115
102
}
102
{ACAD_REACTORS
330
29
102
}
330
29
100
AcDbVisualStyle
  2
GouraudWithEdges
 70
     3
177
     2
291
     1
 71
     2
176
     1
 72
     2
176
     1
 73
     1
176
     1
 90
        2
176
     1
 40
0.6
176
     1
 41
30.0
176
     1
 63
     7
421
 16777215
176
     1
 74
     1
176
     1
 91
        0
176
     1
 64
     7
176
     1
 65
   257
176
     1
 75
     1
176
     1
175
     1
176
     1
 42
1.0
176
     1
 92
        0
176
     1
 66
   257
176
     1
 43
1.0
176
     1
 76
     1
176
     1
 77
     6
176
     1
 78
     2
176
     1
 67
     7
176
     1
 79
     5
176
     1
170
     0
176
     1
171
     0
176
     1
290
     0
176
     1
 93
       13
176
     1
 44
0.0
176
     1
173
     0
176
     1
1001
ACAD
1000
AcDbSavedByObjectVersion
1070
     0
  0
VISUALSTYLE
  5
31
102
{ACAD_XDICTIONARY
360
11D
102
}
102
{ACAD_REACTORS
330
29
102
}
330
29
100
AcDbVisualStyle
  2
Hidden
 70
     6
177
     2
291
     0
 71
     1
176
     1
 72
     2
176
     1
 73
     2
176
     1
 90
        0
176
     1
 40
0.6
176
     1
 41
30.0
176
     1
 63
     7
421
 16777215
176
     1
 74
     2
176
     1
 91
        2
176
     1
 64
     7
176
     1
 65
   257
176
     1
 75
     2
176
     1
175
     1
176
     1
 42
40.0
176
     1
 92
        0
176
     1
 66
   257
176
     1
 43
1.0
176
     1
 76
     1
176
     1
 77
     6
176
     1
 78
     2
176
     1
 67
     7
176
     1
 79
     3
176
     1
170
     0
176
     1
171
     0
176
     1
290
     0
176
     1
 93
        1
176
     1
 44
0.0
176
     1
173
     0
176
     1
1001
ACAD
1000
AcDbSavedByObjectVersion
1070
     0
  0
VISUALSTYLE
  5
3F
102
{ACAD_XDICTIONARY
360
139
102
}
102
{ACAD_REACTORS
330
29
102
}
330
29
100
AcDbVisualStyle
  2
JitterOff
 70
    20
177
     2
291
     1
 71
     2
176
     0
 72
     2
176
     0
 73
     0
176
     0
 90
        0
176
     0
 40
0.6
176
     0
 41
30.0
176
     0
 63
     7
421
 16777215
176
     0
 74
     1
176
     0
 91
        4
176
     0
 64
     7
176
     0
 65
   257
176
     0
 75
     1
176
     0
175
     1
176
     0
 42
1.0
176
     0
 92
       10
176
     2
 66
     7
176
     0
 43
1.0
176
     0
 76
     1
176
     0
 77
     6
176
     0
 78
     2
176
     0
 67
     7
176
     0
 79
     5
176
     0
170
     0
176
     0
171
     0
176
     0
290
     0
176
     0
 93
        1
176
     0
 44
0.0
176
     0
173
     0
176
     0
1001
ACAD
1000
AcDbSavedByObjectVersion
1070
     0
  0
VISUALSTYLE
  5
37
102
{ACAD_XDICTIONARY
360
129
102
}
102
{ACAD_REACTORS
330
29
102
}
330
29
100
AcDbVisualStyle
  2
Linepattern
 70
    14
177
     2
291
     1
 71
     2
176
     1
 72
     2
176
     1
 73
     0
176
     1
 90
        0
176
     1
 40
0.6
176
     1
 41
30.0
176
     1
 63
     7
421
 16777215
176
     1
 74
     1
176
     1
 91
        4
176
     1
 64
     7
176
     1
 65
   257
176
     1
 75
     7
176
     1
175
     7
176
     1
 42
1.0
176
     1
 92
        8
176
     1
 66
     7
176
     1
 43
1.0
176
     1
 76
     1
176
     1
 77
     6
176
     1
 78
     2
176
     1
 67
     7
176
     1
 79
     5
176
     1
170
     0
176
     1
171
     0
176
     1
290
     0
176
     1
 93
        1
176
     1
 44
0.0
176
     1
173
     0
176
     1
1001
ACAD
1000
AcDbSavedByObjectVersion
1070
     0
  0
VISUALSTYLE
  5
40
102
{ACAD_XDICTIONARY
360
13B
102
}
102
{ACAD_REACTORS
330
29
102
}
330
29
100
AcDbVisualStyle
  2
OverhangOff
 70
    21
177
     2
291
     1
 71
     2
176
     0
 72
     2
176
     0
 73
     0
176
     0
 90
        0
176
     0
 40
0.6
176
     0
 41
30.0
176
     0
 63
     7
421
 16777215
176
     0
 74
     1
176
     0
 91
        4
176
     0
 64
     7
176
     0
 65
   257
176
     0
 75
     1
176
     0
175
     1
176
     0
 42
1.0
176
     0
 92
        9
176
     2
 66
     7
176
     0
 43
1.0
176
     0
 76
     1
176
     0
 77
     6
176
     0
 78
     2
176
     0
 67
     7
176
     0
 79
     5
176
     0
170
     0
176
     0
171
     0
176
     0
290
     0
176
     0
 93
        1
176
     0
 44
0.0
176
     0
173
     0
176
     0
1001
ACAD
1000
AcDbSavedByObjectVersion
1070
     0
  0
VISUALSTYLE
  5
33
102
{ACAD_XDICTIONARY
360
121
102
}
102
{ACAD_REACTORS
330
29
102
}
330
29
100
AcDbVisualStyle
  2
Realistic
 70
     8
177
     2
291
     0
 71
     2
176
     1
 72
     3
176
     1
 73
     0
176
     1
 90
        2
176
     1
 40
0.6
176
     1
 41
30.0
176
     1
 63
     7
421
 16777215
176
     1
 74
     0
176
     1
 91
        0
176
     1
 64
     7
176
     1
 65
   257
176
     1
 75
     1
176
     1
175
     1
176
     1
 42
1.0
176
     1
 92
        8
176
     1
 66
   257
176
     1
 43
1.0
176
     1
 76
     1
176
     1
 77
     6
176
     1
 78
     2
176
     1
 67
     7
176
     1
 79
     3
176
     1
170
     0
176
     1
171
     0
176
     1
290
     0
176
     1
 93
       13
176
     1
 44
0.0
176
     1
173
     0
176
     1
1001
ACAD
1000
AcDbSavedByObjectVersion
1070
     0
  0
VISUALSTYLE
  5
3E
102
{ACAD_XDICTIONARY
360
137
102
}
102
{ACAD_REACTORS
330
29
102
}
330
29
100
AcDbVisualStyle
  2
Shaded
 70
    27
177
     2
291
     0
 71
     2
176
     1
 72
     2
176
     1
 73
     1
176
     1
 90
        2
176
     1
 40
0.6
176
     1
 41
30.0
176
     1
 63
     7
421
 16777215
176
     1
 74
     0
176
     1
 91
        4
176
     1
 64
     7
176
     1
 65
   257
176
     1
 75
     1
176
     1
175
     1
176
     1
 42
1.0
176
     1
 92
        8
176
     1
 66
   257
176
     1
 43
1.0
176
     1
 76
     1
176
     1
 77
     6
176
     1
 78
     2
176
     1
 67
     8
425
  7895160
176
     1
 79
     3
176
     1
170
     0
176
     1
171
     0
176
     1
290
     0
176
     1
 93
        5
176
     1
 44
0.0
176
     1
173
     0
176
     1
1001
ACAD
1000
AcDbSavedByObjectVersion
1070
     0
  0
VISUALSTYLE
  5
3D
102
{ACAD_XDICTIONARY
360
135
102
}
102
{ACAD_REACTORS
330
29
102
}
330
29
100
AcDbVisualStyle
  2
Shaded with edges
 70
    26
177
     2
291
     0
 71
     2
176
     1
 72
     2
176
     1
 73
     1
176
     1
 90
        2
176
     1
 40
0.6
176
     1
 41
30.0
176
     1
 63
     7
421
 16777215
176
     1
 74
     1
176
     1
 91
        2
176
     1
 64
     7
176
     1
 65
   257
176
     1
 75
     2
176
     1
175
     1
176
     1
 42
1.0
176
     1
 92
        8
176
     1
 66
   257
176
     1
 43
1.0
176
     1
 76
     1
176
     1
 77
     6
176
     1
 78
     2
176
     1
 67
     7
176
     1
 79
     3
176
     1
170
     0
176
     1
171
     0
176
     1
290
     0
176
     1
 93
        5
176
     1
 44
0.0
176
     1
173
     0
176
     1
1001
ACAD
1000
AcDbSavedByObjectVersion
1070
     0
  0
VISUALSTYLE
  5
3A
102
{ACAD_XDICTIONARY
360
12F
102
}
102
{ACAD_REACTORS
330
29
102
}
330
29
100
AcDbVisualStyle
  2
Shades of Gray
 70
    23
177
     2
291
     0
 71
     2
176
     1
 72
     2
176
     1
 73
     3
176
     1
 90
        0
176
     1
 40
0.6
176
     1
 41
30.0
176
     1
 63
     7
421
 16777215
176
     1
 74
     2
176
     1
 91
        2
176
     1
 64
     7
176
     1
 65
     7
176
     1
 75
     1
176
     1
175
     1
176
     1
 42
40.0
176
     1
 92
        8
176
     1
 66
     7
176
     1
 43
1.0
176
     1
 76
     1
176
     1
 77
     6
176
     1
 78
     2
176
     1
 67
     7
176
     1
 79
     3
176
     1
170
     0
176
     1
171
     0
176
     1
290
     0
176
     1
 93
        1
176
     1
 44
0.0
176
     1
173
     0
176
     1
1001
ACAD
1000
AcDbSavedByObjectVersion
1070
     0
  0
VISUALSTYLE
  5
3B
102
{ACAD_XDICTIONARY
360
131
102
}
102
{ACAD_REACTORS
330
29
102
}
330
29
100
AcDbVisualStyle
  2
Sketchy
 70
    24
177
     2
291
     0
 71
     1
176
     1
 72
     2
176
     1
 73
     2
176
     1
 90
        0
176
     1
 40
0.6
176
     1
 41
30.0
176
     1
 63
     7
421
 16777215
176
     1
 74
     2
176
     1
 91
        2
176
     1
 64
     7
176
     1
 65
     7
176
     1
 75
     1
176
     1
175
     1
176
     1
 42
40.0
176
     1
 92
       11
176
     1
 66
     7
176
     1
 43
1.0
176
     1
 76
     1
176
     1
 77
     6
176
     1
 78
     2
176
     1
 67
     7
176
     1
 79
     6
176
     1
170
     0
176
     1
171
     0
176
     1
290
     0
176
     1
 93
        1
176
     1
 44
0.0
176
     1
173
     0
176
     1
1001
ACAD
1000
AcDbSavedByObjectVersion
1070
     0
  0
VISUALSTYLE
  5
36
102
{ACAD_XDICTIONARY
360
127
102
}
102
{ACAD_REACTORS
330
29
102
}
330
29
100
AcDbVisualStyle
  2
Thicken
 70
    13
177
     2
291
     1
 71
     2
176
     1
 72
     2
176
     1
 73
     0
176
     1
 90
        0
176
     1
 40
0.6
176
     1
 41
30.0
176
     1
 63
     7
421
 16777215
176
     1
 74
     1
176
     1
 91
        4
176
     1
 64
     7
176
     1
 65
   257
176
     1
 75
     1
176
     1
175
     1
176
     1
 42
1.0
176
     1
 92
       12
176
     1
 66
     7
176
     1
 43
1.0
176
     1
 76
     1
176
     1
 77
     6
176
     1
 78
     2
176
     1
 67
     7
176
     1
 79
     5
176
     1
170
     0
176
     1
171
     0
176
     1
290
     0
176
     1
 93
        1
176
     1
 44
0.0
176
     1
173
     0
176
     1
1001
ACAD
1000
AcDbSavedByObjectVersion
1070
     0
  0
VISUALSTYLE
  5
30
102
{ACAD_XDICTIONARY
360
11B
102
}
102
{ACAD_REACTORS
330
29
102
}
330
29
100
AcDbVisualStyle
  2
Wireframe
 70
     5
177
     2
291
     0
 71
     0
176
     1
 72
     2
176
     1
 73
     0
176
     1
 90
        0
176
     1
 40
0.6
176
     1
 41
30.0
176
     1
 63
     7
421
 16777215
176
     1
 74
     1
176
     1
 91
        4
176
     1
 64
     7
176
     1
 65
   257
176
     1
 75
     1
176
     1
175
     1
176
     1
 42
1.0
176
     1
 92
        0
176
     1
 66
   257
176
     1
 43
1.0
176
     1
 76
     1
176
     1
 77
     6
176
     1
 78
     2
176
     1
 67
     7
176
     1
 79
     3
176
     1
170
     0
176
     1
171
     0
176
     1
290
     0
176
     1
 93
        1
176
     1
 44
0.0
176
     1
173
     0
176
     1
1001
ACAD
1000
AcDbSavedByObjectVersion
1070
     0
  0
VISUALSTYLE
  5
3C
102
{ACAD_XDICTIONARY
360
133
102
}
102
{ACAD_REACTORS
330
29
102
}
330
29
100
AcDbVisualStyle
  2
X-Ray
 70
    25
177
     2
291
     0
 71
     2
176
     1
 72
     2
176
     1
 73
     1
176
     1
 90
        1
176
     1
 40
0.5
176
     1
 41
30.0
176
     1
 63
     7
421
 16777215
176
     1
 74
     1
176
     1
 91
        0
176
     1
 64
     7
176
     1
 65
   257
176
     1
 75
     1
176
     1
175
     1
176
     1
 42
1.0
176
     1
 92
        8
176
     1
 66
     7
176
     1
 43
1.0
176
     1
 76
     1
176
     1
 77
     6
176
     1
 78
     2
176
     1
 67
     7
176
     1
 79
     3
176
     1
170
     0
176
     1
171
     0
176
     1
290
     0
176
     1
 93
       13
176
     1
 44
0.0
176
     1
173
     0
176
     1
1001
ACAD
1000
AcDbSavedByObjectVersion
1070
     0
  0
DICTIONARYVAR
  5
10B
102
{ACAD_REACTORS
330
106
102
}
330
106
100
DictionaryVariables
280
     0
  1
1:1
  0
DICTIONARYVAR
  5
108
102
{ACAD_REACTORS
330
106
102
}
330
106
100
DictionaryVariables
280
     0
  1
STANDARD
  0
DICTIONARYVAR
  5
107
102
{ACAD_REACTORS
330
106
102
}
330
106
100
DictionaryVariables
280
     0
  1
STANDARD
  0
DICTIONARYVAR
  5
109
102
{ACAD_REACTORS
330
106
102
}
330
106
100
DictionaryVariables
280
     0
  1
Imperial24
  0
DICTIONARYVAR
  5
10A
102
{ACAD_REACTORS
330
106
102
}
330
106
100
DictionaryVariables
280
     0
  1
Imperial24
  0
DICTIONARY
  5
143
330
6B
100
AcDbDictionary
280
     1
281
     1
  3
ACAD_XREC_ROUNDTRIP
360
144
  0
DICTIONARY
  5
1A
330
19
100
AcDbDictionary
280
     1
281
     1
  3
BUMPTILE
360
1C
  3
DIFFUSETILE
360
1B
  3
OPACITYTILE
360
1F
  3
REFLECTIONTILE
360
1E
  3
REFRACTIONTILE
360
20
  3
SPECULARTILE
360
1D
  0
DICTIONARY
  5
12
330
11
100
AcDbDictionary
280
     1
281
     1
  3
BUMPTILE
360
14
  3
DIFFUSETILE
360
13
  3
OPACITYTILE
360
17
  3
REFLECTIONTILE
360
16
  3
REFRACTIONTILE
360
18
  3
SPECULARTILE
360
15
  0
DICTIONARY
  5
22
330
21
100
AcDbDictionary
280
     1
281
     1
  3
BUMPTILE
360
24
  3
DIFFUSETILE
360
23
  3
OPACITYTILE
360
27
  3
REFLECTIONTILE
360
26
  3
REFRACTIONTILE
360
28
  3
SPECULARTILE
360
25
  0
DICTIONARY
  5
13F
330
67
100
AcDbDictionary
280
     1
281
     1
  3
ACAD_XREC_ROUNDTRIP
360
140
  0
DICTIONARY
  5
141
330
69
100
AcDbDictionary
280
     1
281
     1
  3
ACAD_XREC_ROUNDTRIP
360
142
  0
DICTIONARY
  5
10C
330
65
100
AcDbDictionary
280
     1
281
     1
  3
ACAD_ROUNDTRIP_2008_TABLESTYLE_CELLSTYLEMAP
360
10D
  0
DICTIONARY
  5
119
330
2F
100
AcDbDictionary
280
     1
281
     1
  3
ACAD_XREC_ROUNDTRIP
360
11A
  0
DICTIONARY
  5
117
330
2E
100
AcDbDictionary
280
     1
281
     1
  3
ACAD_XREC_ROUNDTRIP
360
118
  0
DICTIONARY
  5
125
330
35
100
AcDbDictionary
280
     1
281
     1
  3
ACAD_XREC_ROUNDTRIP
360
126
  0
DICTIONARY
  5
12D
330
39
100
AcDbDictionary
280
     1
281
     1
  3
ACAD_XREC_ROUNDTRIP
360
12E
  0
DICTIONARY
  5
11F
330
32
100
AcDbDictionary
280
     1
281
     1
  3
ACAD_XREC_ROUNDTRIP
360
120
  0
DICTIONARY
  5
123
330
34
100
AcDbDictionary
280
     1
281
     1
  3
ACAD_XREC_ROUNDTRIP
360
124
  0
DICTIONARY
  5
13D
330
41
100
AcDbDictionary
280
     1
281
     1
  3
ACAD_XREC_ROUNDTRIP
360
13E
  0
DICTIONARY
  5
12B
330
38
100
AcDbDictionary
280
     1
281
     1
  3
ACAD_XREC_ROUNDTRIP
360
12C
  0
DICTIONARY
  5
10F
330
2A
100
AcDbDictionary
280
     1
281
     1
  3
ACAD_XREC_ROUNDTRIP
360
110
  0
DICTIONARY
  5
111
330
2B
100
AcDbDictionary
280
     1
281
     1
  3
ACAD_XREC_ROUNDTRIP
360
112
  0
DICTIONARY
  5
113
330
2C
100
AcDbDictionary
280
     1
281
     1
  3
ACAD_XREC_ROUNDTRIP
360
114
  0
DICTIONARY
  5
115
330
2D
100
AcDbDictionary
280
     1
281
     1
  3
ACAD_XREC_ROUNDTRIP
360
116
  0
DICTIONARY
  5
11D
330
31
100
AcDbDictionary
280
     1
281
     1
  3
ACAD_XREC_ROUNDTRIP
360
11E
  0
DICTIONARY
  5
139
330
3F
100
AcDbDictionary
280
     1
281
     1
  3
ACAD_XREC_ROUNDTRIP
360
13A
  0
DICTIONARY
  5
129
330
37
100
AcDbDictionary
280
     1
281
     1
  3
ACAD_XREC_ROUNDTRIP
360
12A
  0
DICTIONARY
  5
13B
330
40
100
AcDbDictionary
280
     1
281
     1
  3
ACAD_XREC_ROUNDTRIP
360
13C
  0
DICTIONARY
  5
121
330
33
100
AcDbDictionary
280
     1
281
     1
  3
ACAD_XREC_ROUNDTRIP
360
122
  0
DICTIONARY
  5
137
330
3E
100
AcDbDictionary
280
     1
281
     1
  3
ACAD_XREC_ROUNDTRIP
360
138
  0
DICTIONARY
  5
135
330
3D
100
AcDbDictionary
280
     1
281
     1
  3
ACAD_XREC_ROUNDTRIP
360
136
  0
DICTIONARY
  5
12F
330
3A
100
AcDbDictionary
280
     1
281
     1
  3
ACAD_XREC_ROUNDTRIP
360
130
  0
DICTIONARY
  5
131
330
3B
100
AcDbDictionary
280
     1
281
     1
  3
ACAD_XREC_ROUNDTRIP
360
132
  0
DICTIONARY
  5
127
330
36
100
AcDbDictionary
280
     1
281
     1
  3
ACAD_XREC_ROUNDTRIP
360
128
  0
DICTIONARY
  5
11B
330
30
100
AcDbDictionary
280
     1
281
     1
  3
ACAD_XREC_ROUNDTRIP
360
11C
  0
DICTIONARY
  5
133
330
3C
100
AcDbDictionary
280
     1
281
     1
  3
ACAD_XREC_ROUNDTRIP
360
134
  0
XRECORD
  5
144
102
{ACAD_REACTORS
330
143
102
}
330
143
100
AcDbXrecord
280
     1
102
DISPLAYNAME
  1
Imperial24
102
FLAGS
 90
        0
  0
XRECORD
  5
1C
102
{ACAD_REACTORS
330
1A
102
}
330
1A
100
AcDbXrecord
280
     1
270
     1
271
     1
  0
XRECORD
  5
1B
102
{ACAD_REACTORS
330
1A
102
}
330
1A
100
AcDbXrecord
280
     1
270
     1
271
     1
  0
XRECORD
  5
1F
102
{ACAD_REACTORS
330
1A
102
}
330
1A
100
AcDbXrecord
280
     1
270
     1
271
     1
  0
XRECORD
  5
1E
102
{ACAD_REACTORS
330
1A
102
}
330
1A
100
AcDbXrecord
280
     1
270
     1
271
     1
  0
XRECORD
  5
20
102
{ACAD_REACTORS
330
1A
102
}
330
1A
100
AcDbXrecord
280
     1
270
     1
271
     1
  0
XRECORD
  5
1D
102
{ACAD_REACTORS
330
1A
102
}
330
1A
100
AcDbXrecord
280
     1
270
     1
271
     1
  0
XRECORD
  5
14
102
{ACAD_REACTORS
330
12
102
}
330
12
100
AcDbXrecord
280
     1
270
     1
271
     1
  0
XRECORD
  5
13
102
{ACAD_REACTORS
330
12
102
}
330
12
100
AcDbXrecord
280
     1
270
     1
271
     1
  0
XRECORD
  5
17
102
{ACAD_REACTORS
330
12
102
}
330
12
100
AcDbXrecord
280
     1
270
     1
271
     1
  0
XRECORD
  5
16
102
{ACAD_REACTORS
330
12
102
}
330
12
100
AcDbXrecord
280
     1
270
     1
271
     1
  0
XRECORD
  5
18
102
{ACAD_REACTORS
330
12
102
}
330
12
100
AcDbXrecord
280
     1
270
     1
271
     1
  0
XRECORD
  5
15
102
{ACAD_REACTORS
330
12
102
}
330
12
100
AcDbXrecord
280
     1
270
     1
271
     1
  0
XRECORD
  5
24
102
{ACAD_REACTORS
330
22
102
}
330
22
100
AcDbXrecord
280
     1
270
     1
271
     1
  0
XRECORD
  5
23
102
{ACAD_REACTORS
330
22
102
}
330
22
100
AcDbXrecord
280
     1
270
     1
271
     1
  0
XRECORD
  5
27
102
{ACAD_REACTORS
330
22
102
}
330
22
100
AcDbXrecord
280
     1
270
     1
271
     1
  0
XRECORD
  5
26
102
{ACAD_REACTORS
330
22
102
}
330
22
100
AcDbXrecord
280
     1
270
     1
271
     1
  0
XRECORD
  5
28
102
{ACAD_REACTORS
330
22
102
}
330
22
100
AcDbXrecord
280
     1
270
     1
271
     1
  0
XRECORD
  5
25
102
{ACAD_REACTORS
330
22
102
}
330
22
100
AcDbXrecord
280
     1
270
     1
271
     1
  0
XRECORD
  5
140
102
{ACAD_REACTORS
330
13F
102
}
330
13F
100
AcDbXrecord
280
     1
102
ACAD_ROUNDTRIP_2012_MLEADER_STYLE
298
     1
  0
XRECORD
  5
142
102
{ACAD_REACTORS
330
141
102
}
330
141
100
AcDbXrecord
280
     1
102
DISPLAYNAME
  1
Imperial24
102
FLAGS
 90
        0
  0
CELLSTYLEMAP
  5
10D
102
{ACAD_REACTORS
330
10C
102
}
330
10C
100
AcDbCellStyleMap
 90
        3
300
CELLSTYLE
  1
TABLEFORMAT_BEGIN
 90
        5
170
     1
 91
        0
 92
    32768
 62
   257
 93
        1
300
CONTENTFORMAT
  1
CONTENTFORMAT_BEGIN
 90
        0
 91
        0
 92
      512
 93
        0
300

 40
0.0
140
1.0
 94
        5
 62
     0
340
55
144
0.25
309
CONTENTFORMAT_END
171
     0
 94
        0
309
TABLEFORMAT_END
  1
CELLSTYLE_BEGIN
 90
        1
 91
        1
300
_TITLE
309
CELLSTYLE_END
300
CELLSTYLE
  1
TABLEFORMAT_BEGIN
 90
        5
170
     1
 91
        0
 92
        0
 62
   257
 93
        1
300
CONTENTFORMAT
  1
CONTENTFORMAT_BEGIN
 90
        0
 91
        0
 92
      512
 93
        0
300

 40
0.0
140
1.0
 94
        5
 62
     0
340
55
144
0.18
309
CONTENTFORMAT_END
171
     0
 94
        0
309
TABLEFORMAT_END
  1
CELLSTYLE_BEGIN
 90
        2
 91
        1
300
_HEADER
309
CELLSTYLE_END
300
CELLSTYLE
  1
TABLEFORMAT_BEGIN
 90
        5
170
     1
 91
        0
 92
        0
 62
   257
 93
        1
300
CONTENTFORMAT
  1
CONTENTFORMAT_BEGIN
 90
        0
 91
        0
 92
      512
 93
        0
300

 40
0.0
140
1.0
 94
        2
 62
     0
340
55
144
0.18
309
CONTENTFORMAT_END
171
     0
 94
        0
309
TABLEFORMAT_END
  1
CELLSTYLE_BEGIN
 90
        3
 91
        2
300
_DATA
309
CELLSTYLE_END
  0
XRECORD
  5
11A
102
{ACAD_REACTORS
330
119
102
}
330
119
100
AcDbXrecord
280
     1
102
RTVSPost2010Prop28
280
     1
102
RTVSPost2010PropOp28
 70
     1
102
RTVSPost2010Prop29
280
     1
102
RTVSPost2010PropOp29
 70
     1
102
RTVSPost2010Prop30
280
     0
102
RTVSPost2010PropOp30
 70
     1
102
RTVSPost2010Prop31
280
     0
102
RTVSPost2010PropOp31
 70
     1
102
RTVSPost2010Prop32
280
     0
102
RTVSPost2010PropOp32
 70
     1
102
RTVSPost2010Prop33
280
     0
102
RTVSPost2010PropOp33
 70
     1
102
RTVSPost2010Prop34
280
     0
102
RTVSPost2010PropOp34
 70
     1
102
RTVSPost2010Prop35
280
     0
102
RTVSPost2010PropOp35
 70
     1
102
RTVSPost2010Prop36
280
     0
102
RTVSPost2010PropOp36
 70
     1
102
RTVSPost2010Prop37
 90
       50
102
RTVSPost2010PropOp37
 70
     1
102
RTVSPost2010Prop38
140
0.0
102
RTVSPost2010PropOp38
 70
     1
102
RTVSPost2010Prop39
140
1.0
102
RTVSPost2010PropOp39
 70
     1
102
RTVSPost2010Prop40
 90
        0
102
RTVSPost2010PropOp40
 70
     1
102
RTVSPost2010Prop41ColorIndex
 90
       18
102
RTVSPost2010Prop41ColorRGB
 90
        0
102
RTVSPost2010PropOp41
 70
     1
102
RTVSPost2010Prop42
 90
       50
102
RTVSPost2010PropOp42
 70
     1
102
RTVSPost2010Prop43
 90
        3
102
RTVSPost2010PropOp43
 70
     1
102
RTVSPost2010Prop44ColorIndex
 90
        5
102
RTVSPost2010Prop44ColorRGB
 90
      255
102
RTVSPost2010PropOp44
 70
     1
102
RTVSPost2010Prop45
280
     0
102
RTVSPost2010PropOp45
 70
     1
102
RTVSPost2010Prop46
 90
       50
102
RTVSPost2010PropOp46
 70
     1
102
RTVSPost2010Prop47
 90
       50
102
RTVSPost2010PropOp47
 70
     1
102
RTVSPost2010Prop48
 90
       50
102
RTVSPost2010PropOp48
 70
     1
102
RTVSPost2010Prop49
280
     0
102
RTVSPost2010PropOp49
 70
     1
102
RTVSPost2010Prop50
 90
       50
102
RTVSPost2010PropOp50
 70
     1
102
RTVSPost2010Prop51ColorIndex
 90
      256
102
RTVSPost2010Prop51ColorRGB
 90
-16777216
102
RTVSPost2010PropOp51
 70
     0
102
RTVSPost2010Prop52
140
1.0
102
RTVSPost2010PropOp52
 70
     0
102
RTVSPost2010Prop53
 90
        2
102
RTVSPost2010PropOp53
 70
     1
102
RTVSPost2010Prop54
  1
strokes_ogs.tif
102
RTVSPost2010PropOp54
 70
     1
102
RTVSPost2010Prop55
280
     0
102
RTVSPost2010PropOp55
 70
     1
102
RTVSPost2010Prop56
140
1.0
102
RTVSPost2010PropOp56
 70
     1
102
RTVSPost2010Prop57
140
1.0
102
RTVSPost2010PropOp57
 70
     1
  0
XRECORD
  5
118
102
{ACAD_REACTORS
330
117
102
}
330
117
100
AcDbXrecord
280
     1
102
RTVSPost2010Prop28
280
     0
102
RTVSPost2010PropOp28
 70
     1
102
RTVSPost2010Prop29
280
     1
102
RTVSPost2010PropOp29
 70
     1
102
RTVSPost2010Prop30
280
     1
102
RTVSPost2010PropOp30
 70
     1
102
RTVSPost2010Prop31
280
     0
102
RTVSPost2010PropOp31
 70
     1
102
RTVSPost2010Prop32
280
     0
102
RTVSPost2010PropOp32
 70
     1
102
RTVSPost2010Prop33
280
     0
102
RTVSPost2010PropOp33
 70
     1
102
RTVSPost2010Prop34
280
     0
102
RTVSPost2010PropOp34
 70
     1
102
RTVSPost2010Prop35
280
     0
102
RTVSPost2010PropOp35
 70
     1
102
RTVSPost2010Prop36
280
     0
102
RTVSPost2010PropOp36
 70
     1
102
RTVSPost2010Prop37
 90
       50
102
RTVSPost2010PropOp37
 70
     1
102
RTVSPost2010Prop38
140
0.0
102
RTVSPost2010PropOp38
 70
     1
102
RTVSPost2010Prop39
140
1.0
102
RTVSPost2010PropOp39
 70
     1
102
RTVSPost2010Prop40
 90
        0
102
RTVSPost2010PropOp40
 70
     1
102
RTVSPost2010Prop41ColorIndex
 90
       18
102
RTVSPost2010Prop41ColorRGB
 90
        0
102
RTVSPost2010PropOp41
 70
     1
102
RTVSPost2010Prop42
 90
       50
102
RTVSPost2010PropOp42
 70
     1
102
RTVSPost2010Prop43
 90
        3
102
RTVSPost2010PropOp43
 70
     1
102
RTVSPost2010Prop44ColorIndex
 90
        5
102
RTVSPost2010Prop44ColorRGB
 90
      255
102
RTVSPost2010PropOp44
 70
     1
102
RTVSPost2010Prop45
280
     0
102
RTVSPost2010PropOp45
 70
     1
102
RTVSPost2010Prop46
 90
       50
102
RTVSPost2010PropOp46
 70
     1
102
RTVSPost2010Prop47
 90
       50
102
RTVSPost2010PropOp47
 70
     1
102
RTVSPost2010Prop48
 90
       50
102
RTVSPost2010PropOp48
 70
     1
102
RTVSPost2010Prop49
280
     0
102
RTVSPost2010PropOp49
 70
     1
102
RTVSPost2010Prop50
 90
       50
102
RTVSPost2010PropOp50
 70
     1
102
RTVSPost2010Prop51ColorIndex
 90
      256
102
RTVSPost2010Prop51ColorRGB
 90
-16777216
102
RTVSPost2010PropOp51
 70
     0
102
RTVSPost2010Prop52
140
1.0
102
RTVSPost2010PropOp52
 70
     0
102
RTVSPost2010Prop53
 90
        2
102
RTVSPost2010PropOp53
 70
     1
102
RTVSPost2010Prop54
  1
strokes_ogs.tif
102
RTVSPost2010PropOp54
 70
     1
102
RTVSPost2010Prop55
280
     0
102
RTVSPost2010PropOp55
 70
     1
102
RTVSPost2010Prop56
140
1.0
102
RTVSPost2010PropOp56
 70
     1
102
RTVSPost2010Prop57
140
1.0
102
RTVSPost2010PropOp57
 70
     1
  0
XRECORD
  5
126
102
{ACAD_REACTORS
330
125
102
}
330
125
100
AcDbXrecord
280
     1
102
RTVSPost2010Prop28
280
     0
102
RTVSPost2010PropOp28
 70
     1
102
RTVSPost2010Prop29
280
     1
102
RTVSPost2010PropOp29
 70
     1
102
RTVSPost2010Prop30
280
     1
102
RTVSPost2010PropOp30
 70
     1
102
RTVSPost2010Prop31
280
     0
102
RTVSPost2010PropOp31
 70
     1
102
RTVSPost2010Prop32
280
     0
102
RTVSPost2010PropOp32
 70
     1
102
RTVSPost2010Prop33
280
     0
102
RTVSPost2010PropOp33
 70
     1
102
RTVSPost2010Prop34
280
     0
102
RTVSPost2010PropOp34
 70
     1
102
RTVSPost2010Prop35
280
     0
102
RTVSPost2010PropOp35
 70
     1
102
RTVSPost2010Prop36
280
     0
102
RTVSPost2010PropOp36
 70
     1
102
RTVSPost2010Prop37
 90
       50
102
RTVSPost2010PropOp37
 70
     1
102
RTVSPost2010Prop38
140
0.0
102
RTVSPost2010PropOp38
 70
     1
102
RTVSPost2010Prop39
140
1.0
102
RTVSPost2010PropOp39
 70
     1
102
RTVSPost2010Prop40
 90
        0
102
RTVSPost2010PropOp40
 70
     1
102
RTVSPost2010Prop41ColorIndex
 90
       18
102
RTVSPost2010Prop41ColorRGB
 90
        0
102
RTVSPost2010PropOp41
 70
     1
102
RTVSPost2010Prop42
 90
       50
102
RTVSPost2010PropOp42
 70
     1
102
RTVSPost2010Prop43
 90
        3
102
RTVSPost2010PropOp43
 70
     1
102
RTVSPost2010Prop44ColorIndex
 90
        5
102
RTVSPost2010Prop44ColorRGB
 90
      255
102
RTVSPost2010PropOp44
 70
     1
102
RTVSPost2010Prop45
280
     0
102
RTVSPost2010PropOp45
 70
     1
102
RTVSPost2010Prop46
 90
       50
102
RTVSPost2010PropOp46
 70
     1
102
RTVSPost2010Prop47
 90
       50
102
RTVSPost2010PropOp47
 70
     1
102
RTVSPost2010Prop48
 90
       50
102
RTVSPost2010PropOp48
 70
     1
102
RTVSPost2010Prop49
280
     0
102
RTVSPost2010PropOp49
 70
     1
102
RTVSPost2010Prop50
 90
       50
102
RTVSPost2010PropOp50
 70
     1
102
RTVSPost2010Prop51ColorIndex
 90
      256
102
RTVSPost2010Prop51ColorRGB
 90
-16777216
102
RTVSPost2010PropOp51
 70
     0
102
RTVSPost2010Prop52
140
1.0
102
RTVSPost2010PropOp52
 70
     0
102
RTVSPost2010Prop53
 90
        2
102
RTVSPost2010PropOp53
 70
     1
102
RTVSPost2010Prop54
  1
strokes_ogs.tif
102
RTVSPost2010PropOp54
 70
     1
102
RTVSPost2010Prop55
280
     0
102
RTVSPost2010PropOp55
 70
     1
102
RTVSPost2010Prop56
140
1.0
102
RTVSPost2010PropOp56
 70
     1
102
RTVSPost2010Prop57
140
1.0
102
RTVSPost2010PropOp57
 70
     1
  0
XRECORD
  5
12E
102
{ACAD_REACTORS
330
12D
102
}
330
12D
100
AcDbXrecord
280
     1
102
RTVSPost2010Prop28
280
     0
102
RTVSPost2010PropOp28
 70
     1
102
RTVSPost2010Prop29
280
     1
102
RTVSPost2010PropOp29
 70
     1
102
RTVSPost2010Prop30
280
     1
102
RTVSPost2010PropOp30
 70
     1
102
RTVSPost2010Prop31
280
     0
102
RTVSPost2010PropOp31
 70
     1
102
RTVSPost2010Prop32
280
     0
102
RTVSPost2010PropOp32
 70
     1
102
RTVSPost2010Prop33
280
     0
102
RTVSPost2010PropOp33
 70
     1
102
RTVSPost2010Prop34
280
     0
102
RTVSPost2010PropOp34
 70
     1
102
RTVSPost2010Prop35
280
     0
102
RTVSPost2010PropOp35
 70
     1
102
RTVSPost2010Prop36
280
     0
102
RTVSPost2010PropOp36
 70
     1
102
RTVSPost2010Prop37
 90
       50
102
RTVSPost2010PropOp37
 70
     1
102
RTVSPost2010Prop38
140
0.0
102
RTVSPost2010PropOp38
 70
     1
102
RTVSPost2010Prop39
140
1.0
102
RTVSPost2010PropOp39
 70
     1
102
RTVSPost2010Prop40
 90
        0
102
RTVSPost2010PropOp40
 70
     1
102
RTVSPost2010Prop41ColorIndex
 90
       18
102
RTVSPost2010Prop41ColorRGB
 90
        0
102
RTVSPost2010PropOp41
 70
     1
102
RTVSPost2010Prop42
 90
       50
102
RTVSPost2010PropOp42
 70
     1
102
RTVSPost2010Prop43
 90
        3
102
RTVSPost2010PropOp43
 70
     1
102
RTVSPost2010Prop44ColorIndex
 90
        5
102
RTVSPost2010Prop44ColorRGB
 90
      255
102
RTVSPost2010PropOp44
 70
     1
102
RTVSPost2010Prop45
280
     0
102
RTVSPost2010PropOp45
 70
     1
102
RTVSPost2010Prop46
 90
       50
102
RTVSPost2010PropOp46
 70
     1
102
RTVSPost2010Prop47
 90
       50
102
RTVSPost2010PropOp47
 70
     1
102
RTVSPost2010Prop48
 90
       50
102
RTVSPost2010PropOp48
 70
     1
102
RTVSPost2010Prop49
280
     0
102
RTVSPost2010PropOp49
 70
     1
102
RTVSPost2010Prop50
 90
       50
102
RTVSPost2010PropOp50
 70
     1
102
RTVSPost2010Prop51ColorIndex
 90
      256
102
RTVSPost2010Prop51ColorRGB
 90
-16777216
102
RTVSPost2010PropOp51
 70
     0
102
RTVSPost2010Prop52
140
1.0
102
RTVSPost2010PropOp52
 70
     0
102
RTVSPost2010Prop53
 90
        2
102
RTVSPost2010PropOp53
 70
     1
102
RTVSPost2010Prop54
  1
strokes_ogs.tif
102
RTVSPost2010PropOp54
 70
     1
102
RTVSPost2010Prop55
280
     0
102
RTVSPost2010PropOp55
 70
     1
102
RTVSPost2010Prop56
140
1.0
102
RTVSPost2010PropOp56
 70
     1
102
RTVSPost2010Prop57
140
1.0
102
RTVSPost2010PropOp57
 70
     1
  0
XRECORD
  5
120
102
{ACAD_REACTORS
330
11F
102
}
330
11F
100
AcDbXrecord
280
     1
102
RTVSPost2010Prop28
280
     0
102
RTVSPost2010PropOp28
 70
     1
102
RTVSPost2010Prop29
280
     1
102
RTVSPost2010PropOp29
 70
     1
102
RTVSPost2010Prop30
280
     1
102
RTVSPost2010PropOp30
 70
     1
102
RTVSPost2010Prop31
280
     0
102
RTVSPost2010PropOp31
 70
     1
102
RTVSPost2010Prop32
280
     0
102
RTVSPost2010PropOp32
 70
     1
102
RTVSPost2010Prop33
280
     0
102
RTVSPost2010PropOp33
 70
     1
102
RTVSPost2010Prop34
280
     0
102
RTVSPost2010PropOp34
 70
     1
102
RTVSPost2010Prop35
280
     0
102
RTVSPost2010PropOp35
 70
     1
102
RTVSPost2010Prop36
280
     0
102
RTVSPost2010PropOp36
 70
     1
102
RTVSPost2010Prop37
 90
       50
102
RTVSPost2010PropOp37
 70
     1
102
RTVSPost2010Prop38
140
0.0
102
RTVSPost2010PropOp38
 70
     1
102
RTVSPost2010Prop39
140
1.0
102
RTVSPost2010PropOp39
 70
     1
102
RTVSPost2010Prop40
 90
        0
102
RTVSPost2010PropOp40
 70
     1
102
RTVSPost2010Prop41ColorIndex
 90
       18
102
RTVSPost2010Prop41ColorRGB
 90
        0
102
RTVSPost2010PropOp41
 70
     1
102
RTVSPost2010Prop42
 90
       50
102
RTVSPost2010PropOp42
 70
     1
102
RTVSPost2010Prop43
 90
        3
102
RTVSPost2010PropOp43
 70
     1
102
RTVSPost2010Prop44ColorIndex
 90
        5
102
RTVSPost2010Prop44ColorRGB
 90
      255
102
RTVSPost2010PropOp44
 70
     1
102
RTVSPost2010Prop45
280
     0
102
RTVSPost2010PropOp45
 70
     1
102
RTVSPost2010Prop46
 90
       50
102
RTVSPost2010PropOp46
 70
     1
102
RTVSPost2010Prop47
 90
       50
102
RTVSPost2010PropOp47
 70
     1
102
RTVSPost2010Prop48
 90
       50
102
RTVSPost2010PropOp48
 70
     1
102
RTVSPost2010Prop49
280
     0
102
RTVSPost2010PropOp49
 70
     1
102
RTVSPost2010Prop50
 90
       50
102
RTVSPost2010PropOp50
 70
     1
102
RTVSPost2010Prop51ColorIndex
 90
      256
102
RTVSPost2010Prop51ColorRGB
 90
-16777216
102
RTVSPost2010PropOp51
 70
     0
102
RTVSPost2010Prop52
140
1.0
102
RTVSPost2010PropOp52
 70
     0
102
RTVSPost2010Prop53
 90
        2
102
RTVSPost2010PropOp53
 70
     1
102
RTVSPost2010Prop54
  1
strokes_ogs.tif
102
RTVSPost2010PropOp54
 70
     1
102
RTVSPost2010Prop55
280
     0
102
RTVSPost2010PropOp55
 70
     1
102
RTVSPost2010Prop56
140
1.0
102
RTVSPost2010PropOp56
 70
     1
102
RTVSPost2010Prop57
140
1.0
102
RTVSPost2010PropOp57
 70
     1
  0
XRECORD
  5
124
102
{ACAD_REACTORS
330
123
102
}
330
123
100
AcDbXrecord
280
     1
102
RTVSPost2010Prop28
280
     0
102
RTVSPost2010PropOp28
 70
     1
102
RTVSPost2010Prop29
280
     1
102
RTVSPost2010PropOp29
 70
     1
102
RTVSPost2010Prop30
280
     1
102
RTVSPost2010PropOp30
 70
     1
102
RTVSPost2010Prop31
280
     0
102
RTVSPost2010PropOp31
 70
     1
102
RTVSPost2010Prop32
280
     0
102
RTVSPost2010PropOp32
 70
     1
102
RTVSPost2010Prop33
280
     0
102
RTVSPost2010PropOp33
 70
     1
102
RTVSPost2010Prop34
280
     0
102
RTVSPost2010PropOp34
 70
     1
102
RTVSPost2010Prop35
280
     0
102
RTVSPost2010PropOp35
 70
     1
102
RTVSPost2010Prop36
280
     0
102
RTVSPost2010PropOp36
 70
     1
102
RTVSPost2010Prop37
 90
       50
102
RTVSPost2010PropOp37
 70
     1
102
RTVSPost2010Prop38
140
0.0
102
RTVSPost2010PropOp38
 70
     1
102
RTVSPost2010Prop39
140
1.0
102
RTVSPost2010PropOp39
 70
     1
102
RTVSPost2010Prop40
 90
        0
102
RTVSPost2010PropOp40
 70
     1
102
RTVSPost2010Prop41ColorIndex
 90
       18
102
RTVSPost2010Prop41ColorRGB
 90
        0
102
RTVSPost2010PropOp41
 70
     1
102
RTVSPost2010Prop42
 90
       50
102
RTVSPost2010PropOp42
 70
     1
102
RTVSPost2010Prop43
 90
        3
102
RTVSPost2010PropOp43
 70
     1
102
RTVSPost2010Prop44ColorIndex
 90
        5
102
RTVSPost2010Prop44ColorRGB
 90
      255
102
RTVSPost2010PropOp44
 70
     1
102
RTVSPost2010Prop45
280
     0
102
RTVSPost2010PropOp45
 70
     1
102
RTVSPost2010Prop46
 90
       50
102
RTVSPost2010PropOp46
 70
     1
102
RTVSPost2010Prop47
 90
       50
102
RTVSPost2010PropOp47
 70
     1
102
RTVSPost2010Prop48
 90
       50
102
RTVSPost2010PropOp48
 70
     1
102
RTVSPost2010Prop49
280
     0
102
RTVSPost2010PropOp49
 70
     1
102
RTVSPost2010Prop50
 90
       50
102
RTVSPost2010PropOp50
 70
     1
102
RTVSPost2010Prop51ColorIndex
 90
      256
102
RTVSPost2010Prop51ColorRGB
 90
-16777216
102
RTVSPost2010PropOp51
 70
     0
102
RTVSPost2010Prop52
140
1.0
102
RTVSPost2010PropOp52
 70
     0
102
RTVSPost2010Prop53
 90
        2
102
RTVSPost2010PropOp53
 70
     1
102
RTVSPost2010Prop54
  1
strokes_ogs.tif
102
RTVSPost2010PropOp54
 70
     1
102
RTVSPost2010Prop55
280
     0
102
RTVSPost2010PropOp55
 70
     1
102
RTVSPost2010Prop56
140
1.0
102
RTVSPost2010PropOp56
 70
     1
102
RTVSPost2010Prop57
140
1.0
102
RTVSPost2010PropOp57
 70
     1
  0
XRECORD
  5
13E
102
{ACAD_REACTORS
330
13D
102
}
330
13D
100
AcDbXrecord
280
     1
102
RTVSPost2010Prop28
280
     0
102
RTVSPost2010PropOp28
 70
     0
102
RTVSPost2010Prop29
280
     1
102
RTVSPost2010PropOp29
 70
     0
102
RTVSPost2010Prop30
280
     1
102
RTVSPost2010PropOp30
 70
     0
102
RTVSPost2010Prop31
280
     0
102
RTVSPost2010PropOp31
 70
     0
102
RTVSPost2010Prop32
280
     0
102
RTVSPost2010PropOp32
 70
     0
102
RTVSPost2010Prop33
280
     0
102
RTVSPost2010PropOp33
 70
     0
102
RTVSPost2010Prop34
280
     0
102
RTVSPost2010PropOp34
 70
     0
102
RTVSPost2010Prop35
280
     0
102
RTVSPost2010PropOp35
 70
     0
102
RTVSPost2010Prop36
280
     0
102
RTVSPost2010PropOp36
 70
     0
102
RTVSPost2010Prop37
 90
       50
102
RTVSPost2010PropOp37
 70
     0
102
RTVSPost2010Prop38
140
0.0
102
RTVSPost2010PropOp38
 70
     0
102
RTVSPost2010Prop39
140
1.0
102
RTVSPost2010PropOp39
 70
     0
102
RTVSPost2010Prop40
 90
        0
102
RTVSPost2010PropOp40
 70
     0
102
RTVSPost2010Prop41ColorIndex
 90
       18
102
RTVSPost2010Prop41ColorRGB
 90
        0
102
RTVSPost2010PropOp41
 70
     0
102
RTVSPost2010Prop42
 90
       50
102
RTVSPost2010PropOp42
 70
     0
102
RTVSPost2010Prop43
 90
        3
102
RTVSPost2010PropOp43
 70
     0
102
RTVSPost2010Prop44ColorIndex
 90
        5
102
RTVSPost2010Prop44ColorRGB
 90
      255
102
RTVSPost2010PropOp44
 70
     0
102
RTVSPost2010Prop45
280
     0
102
RTVSPost2010PropOp45
 70
     0
102
RTVSPost2010Prop46
 90
       50
102
RTVSPost2010PropOp46
 70
     0
102
RTVSPost2010Prop47
 90
       50
102
RTVSPost2010PropOp47
 70
     0
102
RTVSPost2010Prop48
 90
       50
102
RTVSPost2010PropOp48
 70
     0
102
RTVSPost2010Prop49
280
     0
102
RTVSPost2010PropOp49
 70
     0
102
RTVSPost2010Prop50
 90
       50
102
RTVSPost2010PropOp50
 70
     0
102
RTVSPost2010Prop51ColorIndex
 90
      256
102
RTVSPost2010Prop51ColorRGB
 90
-16777216
102
RTVSPost2010PropOp51
 70
     0
102
RTVSPost2010Prop52
140
1.0
102
RTVSPost2010PropOp52
 70
     0
102
RTVSPost2010Prop53
 90
        2
102
RTVSPost2010PropOp53
 70
     0
102
RTVSPost2010Prop54
  1
strokes_ogs.tif
102
RTVSPost2010PropOp54
 70
     0
102
RTVSPost2010Prop55
280
     0
102
RTVSPost2010PropOp55
 70
     0
102
RTVSPost2010Prop56
140
1.0
102
RTVSPost2010PropOp56
 70
     0
102
RTVSPost2010Prop57
140
1.0
102
RTVSPost2010PropOp57
 70
     0
  0
XRECORD
  5
12C
102
{ACAD_REACTORS
330
12B
102
}
330
12B
100
AcDbXrecord
280
     1
102
RTVSPost2010Prop28
280
     0
102
RTVSPost2010PropOp28
 70
     1
102
RTVSPost2010Prop29
280
     1
102
RTVSPost2010PropOp29
 70
     1
102
RTVSPost2010Prop30
280
     1
102
RTVSPost2010PropOp30
 70
     1
102
RTVSPost2010Prop31
280
     0
102
RTVSPost2010PropOp31
 70
     1
102
RTVSPost2010Prop32
280
     0
102
RTVSPost2010PropOp32
 70
     1
102
RTVSPost2010Prop33
280
     0
102
RTVSPost2010PropOp33
 70
     1
102
RTVSPost2010Prop34
280
     0
102
RTVSPost2010PropOp34
 70
     1
102
RTVSPost2010Prop35
280
     0
102
RTVSPost2010PropOp35
 70
     1
102
RTVSPost2010Prop36
280
     0
102
RTVSPost2010PropOp36
 70
     1
102
RTVSPost2010Prop37
 90
       50
102
RTVSPost2010PropOp37
 70
     1
102
RTVSPost2010Prop38
140
0.0
102
RTVSPost2010PropOp38
 70
     1
102
RTVSPost2010Prop39
140
1.0
102
RTVSPost2010PropOp39
 70
     1
102
RTVSPost2010Prop40
 90
        0
102
RTVSPost2010PropOp40
 70
     1
102
RTVSPost2010Prop41ColorIndex
 90
       18
102
RTVSPost2010Prop41ColorRGB
 90
        0
102
RTVSPost2010PropOp41
 70
     1
102
RTVSPost2010Prop42
 90
       50
102
RTVSPost2010PropOp42
 70
     1
102
RTVSPost2010Prop43
 90
        3
102
RTVSPost2010PropOp43
 70
     1
102
RTVSPost2010Prop44ColorIndex
 90
        5
102
RTVSPost2010Prop44ColorRGB
 90
      255
102
RTVSPost2010PropOp44
 70
     1
102
RTVSPost2010Prop45
280
     0
102
RTVSPost2010PropOp45
 70
     1
102
RTVSPost2010Prop46
 90
       50
102
RTVSPost2010PropOp46
 70
     1
102
RTVSPost2010Prop47
 90
       50
102
RTVSPost2010PropOp47
 70
     1
102
RTVSPost2010Prop48
 90
       50
102
RTVSPost2010PropOp48
 70
     1
102
RTVSPost2010Prop49
280
     0
102
RTVSPost2010PropOp49
 70
     1
102
RTVSPost2010Prop50
 90
       50
102
RTVSPost2010PropOp50
 70
     1
102
RTVSPost2010Prop51ColorIndex
 90
      256
102
RTVSPost2010Prop51ColorRGB
 90
-16777216
102
RTVSPost2010PropOp51
 70
     0
102
RTVSPost2010Prop52
140
1.0
102
RTVSPost2010PropOp52
 70
     0
102
RTVSPost2010Prop53
 90
        2
102
RTVSPost2010PropOp53
 70
     1
102
RTVSPost2010Prop54
  1
strokes_ogs.tif
102
RTVSPost2010PropOp54
 70
     1
102
RTVSPost2010Prop55
280
     0
102
RTVSPost2010PropOp55
 70
     1
102
RTVSPost2010Prop56
140
1.0
102
RTVSPost2010PropOp56
 70
     1
102
RTVSPost2010Prop57
140
1.0
102
RTVSPost2010PropOp57
 70
     1
  0
XRECORD
  5
110
102
{ACAD_REACTORS
330
10F
102
}
330
10F
100
AcDbXrecord
280
     1
102
RTVSPost2010Prop28
280
     0
102
RTVSPost2010PropOp28
 70
     1
102
RTVSPost2010Prop29
280
     1
102
RTVSPost2010PropOp29
 70
     1
102
RTVSPost2010Prop30
280
     1
102
RTVSPost2010PropOp30
 70
     1
102
RTVSPost2010Prop31
280
     0
102
RTVSPost2010PropOp31
 70
     1
102
RTVSPost2010Prop32
280
     0
102
RTVSPost2010PropOp32
 70
     1
102
RTVSPost2010Prop33
280
     0
102
RTVSPost2010PropOp33
 70
     1
102
RTVSPost2010Prop34
280
     0
102
RTVSPost2010PropOp34
 70
     1
102
RTVSPost2010Prop35
280
     0
102
RTVSPost2010PropOp35
 70
     1
102
RTVSPost2010Prop36
280
     0
102
RTVSPost2010PropOp36
 70
     1
102
RTVSPost2010Prop37
 90
       50
102
RTVSPost2010PropOp37
 70
     1
102
RTVSPost2010Prop38
140
0.0
102
RTVSPost2010PropOp38
 70
     1
102
RTVSPost2010Prop39
140
1.0
102
RTVSPost2010PropOp39
 70
     1
102
RTVSPost2010Prop40
 90
        0
102
RTVSPost2010PropOp40
 70
     1
102
RTVSPost2010Prop41ColorIndex
 90
       18
102
RTVSPost2010Prop41ColorRGB
 90
        0
102
RTVSPost2010PropOp41
 70
     1
102
RTVSPost2010Prop42
 90
       50
102
RTVSPost2010PropOp42
 70
     1
102
RTVSPost2010Prop43
 90
        3
102
RTVSPost2010PropOp43
 70
     1
102
RTVSPost2010Prop44ColorIndex
 90
        5
102
RTVSPost2010Prop44ColorRGB
 90
      255
102
RTVSPost2010PropOp44
 70
     1
102
RTVSPost2010Prop45
280
     0
102
RTVSPost2010PropOp45
 70
     1
102
RTVSPost2010Prop46
 90
       50
102
RTVSPost2010PropOp46
 70
     1
102
RTVSPost2010Prop47
 90
       50
102
RTVSPost2010PropOp47
 70
     1
102
RTVSPost2010Prop48
 90
       50
102
RTVSPost2010PropOp48
 70
     1
102
RTVSPost2010Prop49
280
     0
102
RTVSPost2010PropOp49
 70
     1
102
RTVSPost2010Prop50
 90
       50
102
RTVSPost2010PropOp50
 70
     1
102
RTVSPost2010Prop51ColorIndex
 90
      256
102
RTVSPost2010Prop51ColorRGB
 90
-16777216
102
RTVSPost2010PropOp51
 70
     0
102
RTVSPost2010Prop52
140
1.0
102
RTVSPost2010PropOp52
 70
     0
102
RTVSPost2010Prop53
 90
        2
102
RTVSPost2010PropOp53
 70
     1
102
RTVSPost2010Prop54
  1
strokes_ogs.tif
102
RTVSPost2010PropOp54
 70
     1
102
RTVSPost2010Prop55
280
     0
102
RTVSPost2010PropOp55
 70
     1
102
RTVSPost2010Prop56
140
1.0
102
RTVSPost2010PropOp56
 70
     1
102
RTVSPost2010Prop57
140
1.0
102
RTVSPost2010PropOp57
 70
     1
  0
XRECORD
  5
112
102
{ACAD_REACTORS
330
111
102
}
330
111
100
AcDbXrecord
280
     1
102
RTVSPost2010Prop28
280
     0
102
RTVSPost2010PropOp28
 70
     1
102
RTVSPost2010Prop29
280
     1
102
RTVSPost2010PropOp29
 70
     1
102
RTVSPost2010Prop30
280
     1
102
RTVSPost2010PropOp30
 70
     1
102
RTVSPost2010Prop31
280
     0
102
RTVSPost2010PropOp31
 70
     1
102
RTVSPost2010Prop32
280
     0
102
RTVSPost2010PropOp32
 70
     1
102
RTVSPost2010Prop33
280
     0
102
RTVSPost2010PropOp33
 70
     1
102
RTVSPost2010Prop34
280
     0
102
RTVSPost2010PropOp34
 70
     1
102
RTVSPost2010Prop35
280
     0
102
RTVSPost2010PropOp35
 70
     1
102
RTVSPost2010Prop36
280
     0
102
RTVSPost2010PropOp36
 70
     1
102
RTVSPost2010Prop37
 90
       50
102
RTVSPost2010PropOp37
 70
     1
102
RTVSPost2010Prop38
140
0.0
102
RTVSPost2010PropOp38
 70
     1
102
RTVSPost2010Prop39
140
1.0
102
RTVSPost2010PropOp39
 70
     1
102
RTVSPost2010Prop40
 90
        0
102
RTVSPost2010PropOp40
 70
     1
102
RTVSPost2010Prop41ColorIndex
 90
       18
102
RTVSPost2010Prop41ColorRGB
 90
        0
102
RTVSPost2010PropOp41
 70
     1
102
RTVSPost2010Prop42
 90
       50
102
RTVSPost2010PropOp42
 70
     1
102
RTVSPost2010Prop43
 90
        3
102
RTVSPost2010PropOp43
 70
     1
102
RTVSPost2010Prop44ColorIndex
 90
        5
102
RTVSPost2010Prop44ColorRGB
 90
      255
102
RTVSPost2010PropOp44
 70
     1
102
RTVSPost2010Prop45
280
     0
102
RTVSPost2010PropOp45
 70
     1
102
RTVSPost2010Prop46
 90
       50
102
RTVSPost2010PropOp46
 70
     1
102
RTVSPost2010Prop47
 90
       50
102
RTVSPost2010PropOp47
 70
     1
102
RTVSPost2010Prop48
 90
       50
102
RTVSPost2010PropOp48
 70
     1
102
RTVSPost2010Prop49
280
     0
102
RTVSPost2010PropOp49
 70
     1
102
RTVSPost2010Prop50
 90
       50
102
RTVSPost2010PropOp50
 70
     1
102
RTVSPost2010Prop51ColorIndex
 90
      256
102
RTVSPost2010Prop51ColorRGB
 90
-16777216
102
RTVSPost2010PropOp51
 70
     0
102
RTVSPost2010Prop52
140
1.0
102
RTVSPost2010PropOp52
 70
     0
102
RTVSPost2010Prop53
 90
        2
102
RTVSPost2010PropOp53
 70
     1
102
RTVSPost2010Prop54
  1
strokes_ogs.tif
102
RTVSPost2010PropOp54
 70
     1
102
RTVSPost2010Prop55
280
     0
102
RTVSPost2010PropOp55
 70
     1
102
RTVSPost2010Prop56
140
1.0
102
RTVSPost2010PropOp56
 70
     1
102
RTVSPost2010Prop57
140
1.0
102
RTVSPost2010PropOp57
 70
     1
  0
XRECORD
  5
114
102
{ACAD_REACTORS
330
113
102
}
330
113
100
AcDbXrecord
280
     1
102
RTVSPost2010Prop28
280
     0
102
RTVSPost2010PropOp28
 70
     1
102
RTVSPost2010Prop29
280
     1
102
RTVSPost2010PropOp29
 70
     1
102
RTVSPost2010Prop30
280
     1
102
RTVSPost2010PropOp30
 70
     1
102
RTVSPost2010Prop31
280
     0
102
RTVSPost2010PropOp31
 70
     1
102
RTVSPost2010Prop32
280
     0
102
RTVSPost2010PropOp32
 70
     1
102
RTVSPost2010Prop33
280
     0
102
RTVSPost2010PropOp33
 70
     1
102
RTVSPost2010Prop34
280
     0
102
RTVSPost2010PropOp34
 70
     1
102
RTVSPost2010Prop35
280
     0
102
RTVSPost2010PropOp35
 70
     1
102
RTVSPost2010Prop36
280
     0
102
RTVSPost2010PropOp36
 70
     1
102
RTVSPost2010Prop37
 90
       50
102
RTVSPost2010PropOp37
 70
     1
102
RTVSPost2010Prop38
140
0.0
102
RTVSPost2010PropOp38
 70
     1
102
RTVSPost2010Prop39
140
1.0
102
RTVSPost2010PropOp39
 70
     1
102
RTVSPost2010Prop40
 90
        0
102
RTVSPost2010PropOp40
 70
     1
102
RTVSPost2010Prop41ColorIndex
 90
       18
102
RTVSPost2010Prop41ColorRGB
 90
        0
102
RTVSPost2010PropOp41
 70
     1
102
RTVSPost2010Prop42
 90
       50
102
RTVSPost2010PropOp42
 70
     1
102
RTVSPost2010Prop43
 90
        3
102
RTVSPost2010PropOp43
 70
     1
102
RTVSPost2010Prop44ColorIndex
 90
        5
102
RTVSPost2010Prop44ColorRGB
 90
      255
102
RTVSPost2010PropOp44
 70
     1
102
RTVSPost2010Prop45
280
     0
102
RTVSPost2010PropOp45
 70
     1
102
RTVSPost2010Prop46
 90
       50
102
RTVSPost2010PropOp46
 70
     1
102
RTVSPost2010Prop47
 90
       50
102
RTVSPost2010PropOp47
 70
     1
102
RTVSPost2010Prop48
 90
       50
102
RTVSPost2010PropOp48
 70
     1
102
RTVSPost2010Prop49
280
     0
102
RTVSPost2010PropOp49
 70
     1
102
RTVSPost2010Prop50
 90
       50
102
RTVSPost2010PropOp50
 70
     1
102
RTVSPost2010Prop51ColorIndex
 90
      256
102
RTVSPost2010Prop51ColorRGB
 90
-16777216
102
RTVSPost2010PropOp51
 70
     0
102
RTVSPost2010Prop52
140
1.0
102
RTVSPost2010PropOp52
 70
     0
102
RTVSPost2010Prop53
 90
        2
102
RTVSPost2010PropOp53
 70
     1
102
RTVSPost2010Prop54
  1
strokes_ogs.tif
102
RTVSPost2010PropOp54
 70
     1
102
RTVSPost2010Prop55
280
     0
102
RTVSPost2010PropOp55
 70
     1
102
RTVSPost2010Prop56
140
1.0
102
RTVSPost2010PropOp56
 70
     1
102
RTVSPost2010Prop57
140
1.0
102
RTVSPost2010PropOp57
 70
     1
  0
XRECORD
  5
116
102
{ACAD_REACTORS
330
115
102
}
330
115
100
AcDbXrecord
280
     1
102
RTVSPost2010Prop28
280
     0
102
RTVSPost2010PropOp28
 70
     1
102
RTVSPost2010Prop29
280
     1
102
RTVSPost2010PropOp29
 70
     1
102
RTVSPost2010Prop30
280
     1
102
RTVSPost2010PropOp30
 70
     1
102
RTVSPost2010Prop31
280
     0
102
RTVSPost2010PropOp31
 70
     1
102
RTVSPost2010Prop32
280
     0
102
RTVSPost2010PropOp32
 70
     1
102
RTVSPost2010Prop33
280
     0
102
RTVSPost2010PropOp33
 70
     1
102
RTVSPost2010Prop34
280
     0
102
RTVSPost2010PropOp34
 70
     1
102
RTVSPost2010Prop35
280
     0
102
RTVSPost2010PropOp35
 70
     1
102
RTVSPost2010Prop36
280
     0
102
RTVSPost2010PropOp36
 70
     1
102
RTVSPost2010Prop37
 90
       50
102
RTVSPost2010PropOp37
 70
     1
102
RTVSPost2010Prop38
140
0.0
102
RTVSPost2010PropOp38
 70
     1
102
RTVSPost2010Prop39
140
1.0
102
RTVSPost2010PropOp39
 70
     1
102
RTVSPost2010Prop40
 90
        0
102
RTVSPost2010PropOp40
 70
     1
102
RTVSPost2010Prop41ColorIndex
 90
       18
102
RTVSPost2010Prop41ColorRGB
 90
        0
102
RTVSPost2010PropOp41
 70
     1
102
RTVSPost2010Prop42
 90
       50
102
RTVSPost2010PropOp42
 70
     1
102
RTVSPost2010Prop43
 90
        3
102
RTVSPost2010PropOp43
 70
     1
102
RTVSPost2010Prop44ColorIndex
 90
        5
102
RTVSPost2010Prop44ColorRGB
 90
      255
102
RTVSPost2010PropOp44
 70
     1
102
RTVSPost2010Prop45
280
     0
102
RTVSPost2010PropOp45
 70
     1
102
RTVSPost2010Prop46
 90
       50
102
RTVSPost2010PropOp46
 70
     1
102
RTVSPost2010Prop47
 90
       50
102
RTVSPost2010PropOp47
 70
     1
102
RTVSPost2010Prop48
 90
       50
102
RTVSPost2010PropOp48
 70
     1
102
RTVSPost2010Prop49
280
     0
102
RTVSPost2010PropOp49
 70
     1
102
RTVSPost2010Prop50
 90
       50
102
RTVSPost2010PropOp50
 70
     1
102
RTVSPost2010Prop51ColorIndex
 90
      256
102
RTVSPost2010Prop51ColorRGB
 90
-16777216
102
RTVSPost2010PropOp51
 70
     0
102
RTVSPost2010Prop52
140
1.0
102
RTVSPost2010PropOp52
 70
     0
102
RTVSPost2010Prop53
 90
        2
102
RTVSPost2010PropOp53
 70
     1
102
RTVSPost2010Prop54
  1
strokes_ogs.tif
102
RTVSPost2010PropOp54
 70
     1
102
RTVSPost2010Prop55
280
     0
102
RTVSPost2010PropOp55
 70
     1
102
RTVSPost2010Prop56
140
1.0
102
RTVSPost2010PropOp56
 70
     1
102
RTVSPost2010Prop57
140
1.0
102
RTVSPost2010PropOp57
 70
     1
  0
XRECORD
  5
11E
102
{ACAD_REACTORS
330
11D
102
}
330
11D
100
AcDbXrecord
280
     1
102
RTVSPost2010Prop28
280
     0
102
RTVSPost2010PropOp28
 70
     1
102
RTVSPost2010Prop29
280
     1
102
RTVSPost2010PropOp29
 70
     1
102
RTVSPost2010Prop30
280
     1
102
RTVSPost2010PropOp30
 70
     1
102
RTVSPost2010Prop31
280
     0
102
RTVSPost2010PropOp31
 70
     1
102
RTVSPost2010Prop32
280
     0
102
RTVSPost2010PropOp32
 70
     1
102
RTVSPost2010Prop33
280
     0
102
RTVSPost2010PropOp33
 70
     1
102
RTVSPost2010Prop34
280
     0
102
RTVSPost2010PropOp34
 70
     1
102
RTVSPost2010Prop35
280
     0
102
RTVSPost2010PropOp35
 70
     1
102
RTVSPost2010Prop36
280
     0
102
RTVSPost2010PropOp36
 70
     1
102
RTVSPost2010Prop37
 90
       50
102
RTVSPost2010PropOp37
 70
     1
102
RTVSPost2010Prop38
140
0.0
102
RTVSPost2010PropOp38
 70
     1
102
RTVSPost2010Prop39
140
1.0
102
RTVSPost2010PropOp39
 70
     1
102
RTVSPost2010Prop40
 90
        0
102
RTVSPost2010PropOp40
 70
     1
102
RTVSPost2010Prop41ColorIndex
 90
       18
102
RTVSPost2010Prop41ColorRGB
 90
        0
102
RTVSPost2010PropOp41
 70
     1
102
RTVSPost2010Prop42
 90
       50
102
RTVSPost2010PropOp42
 70
     1
102
RTVSPost2010Prop43
 90
        3
102
RTVSPost2010PropOp43
 70
     1
102
RTVSPost2010Prop44ColorIndex
 90
        5
102
RTVSPost2010Prop44ColorRGB
 90
      255
102
RTVSPost2010PropOp44
 70
     1
102
RTVSPost2010Prop45
280
     0
102
RTVSPost2010PropOp45
 70
     1
102
RTVSPost2010Prop46
 90
       50
102
RTVSPost2010PropOp46
 70
     1
102
RTVSPost2010Prop47
 90
       50
102
RTVSPost2010PropOp47
 70
     1
102
RTVSPost2010Prop48
 90
       50
102
RTVSPost2010PropOp48
 70
     1
102
RTVSPost2010Prop49
280
     0
102
RTVSPost2010PropOp49
 70
     1
102
RTVSPost2010Prop50
 90
       50
102
RTVSPost2010PropOp50
 70
     1
102
RTVSPost2010Prop51ColorIndex
 90
      256
102
RTVSPost2010Prop51ColorRGB
 90
-16777216
102
RTVSPost2010PropOp51
 70
     0
102
RTVSPost2010Prop52
140
1.0
102
RTVSPost2010PropOp52
 70
     0
102
RTVSPost2010Prop53
 90
        2
102
RTVSPost2010PropOp53
 70
     1
102
RTVSPost2010Prop54
  1
strokes_ogs.tif
102
RTVSPost2010PropOp54
 70
     1
102
RTVSPost2010Prop55
280
     0
102
RTVSPost2010PropOp55
 70
     1
102
RTVSPost2010Prop56
140
1.0
102
RTVSPost2010PropOp56
 70
     1
102
RTVSPost2010Prop57
140
1.0
102
RTVSPost2010PropOp57
 70
     1
  0
XRECORD
  5
13A
102
{ACAD_REACTORS
330
139
102
}
330
139
100
AcDbXrecord
280
     1
102
RTVSPost2010Prop28
280
     0
102
RTVSPost2010PropOp28
 70
     0
102
RTVSPost2010Prop29
280
     1
102
RTVSPost2010PropOp29
 70
     0
102
RTVSPost2010Prop30
280
     1
102
RTVSPost2010PropOp30
 70
     0
102
RTVSPost2010Prop31
280
     0
102
RTVSPost2010PropOp31
 70
     0
102
RTVSPost2010Prop32
280
     0
102
RTVSPost2010PropOp32
 70
     0
102
RTVSPost2010Prop33
280
     0
102
RTVSPost2010PropOp33
 70
     0
102
RTVSPost2010Prop34
280
     0
102
RTVSPost2010PropOp34
 70
     0
102
RTVSPost2010Prop35
280
     0
102
RTVSPost2010PropOp35
 70
     0
102
RTVSPost2010Prop36
280
     0
102
RTVSPost2010PropOp36
 70
     0
102
RTVSPost2010Prop37
 90
       50
102
RTVSPost2010PropOp37
 70
     0
102
RTVSPost2010Prop38
140
0.0
102
RTVSPost2010PropOp38
 70
     0
102
RTVSPost2010Prop39
140
1.0
102
RTVSPost2010PropOp39
 70
     0
102
RTVSPost2010Prop40
 90
        0
102
RTVSPost2010PropOp40
 70
     0
102
RTVSPost2010Prop41ColorIndex
 90
       18
102
RTVSPost2010Prop41ColorRGB
 90
        0
102
RTVSPost2010PropOp41
 70
     0
102
RTVSPost2010Prop42
 90
       50
102
RTVSPost2010PropOp42
 70
     0
102
RTVSPost2010Prop43
 90
        3
102
RTVSPost2010PropOp43
 70
     0
102
RTVSPost2010Prop44ColorIndex
 90
        5
102
RTVSPost2010Prop44ColorRGB
 90
      255
102
RTVSPost2010PropOp44
 70
     0
102
RTVSPost2010Prop45
280
     0
102
RTVSPost2010PropOp45
 70
     0
102
RTVSPost2010Prop46
 90
       50
102
RTVSPost2010PropOp46
 70
     0
102
RTVSPost2010Prop47
 90
       50
102
RTVSPost2010PropOp47
 70
     0
102
RTVSPost2010Prop48
 90
       50
102
RTVSPost2010PropOp48
 70
     0
102
RTVSPost2010Prop49
280
     0
102
RTVSPost2010PropOp49
 70
     0
102
RTVSPost2010Prop50
 90
       50
102
RTVSPost2010PropOp50
 70
     0
102
RTVSPost2010Prop51ColorIndex
 90
      256
102
RTVSPost2010Prop51ColorRGB
 90
-16777216
102
RTVSPost2010PropOp51
 70
     0
102
RTVSPost2010Prop52
140
1.0
102
RTVSPost2010PropOp52
 70
     0
102
RTVSPost2010Prop53
 90
        2
102
RTVSPost2010PropOp53
 70
     0
102
RTVSPost2010Prop54
  1
strokes_ogs.tif
102
RTVSPost2010PropOp54
 70
     0
102
RTVSPost2010Prop55
280
     0
102
RTVSPost2010PropOp55
 70
     0
102
RTVSPost2010Prop56
140
1.0
102
RTVSPost2010PropOp56
 70
     0
102
RTVSPost2010Prop57
140
1.0
102
RTVSPost2010PropOp57
 70
     0
  0
XRECORD
  5
12A
102
{ACAD_REACTORS
330
129
102
}
330
129
100
AcDbXrecord
280
     1
102
RTVSPost2010Prop28
280
     0
102
RTVSPost2010PropOp28
 70
     1
102
RTVSPost2010Prop29
280
     1
102
RTVSPost2010PropOp29
 70
     1
102
RTVSPost2010Prop30
280
     1
102
RTVSPost2010PropOp30
 70
     1
102
RTVSPost2010Prop31
280
     0
102
RTVSPost2010PropOp31
 70
     1
102
RTVSPost2010Prop32
280
     0
102
RTVSPost2010PropOp32
 70
     1
102
RTVSPost2010Prop33
280
     0
102
RTVSPost2010PropOp33
 70
     1
102
RTVSPost2010Prop34
280
     0
102
RTVSPost2010PropOp34
 70
     1
102
RTVSPost2010Prop35
280
     0
102
RTVSPost2010PropOp35
 70
     1
102
RTVSPost2010Prop36
280
     0
102
RTVSPost2010PropOp36
 70
     1
102
RTVSPost2010Prop37
 90
       50
102
RTVSPost2010PropOp37
 70
     1
102
RTVSPost2010Prop38
140
0.0
102
RTVSPost2010PropOp38
 70
     1
102
RTVSPost2010Prop39
140
1.0
102
RTVSPost2010PropOp39
 70
     1
102
RTVSPost2010Prop40
 90
        0
102
RTVSPost2010PropOp40
 70
     1
102
RTVSPost2010Prop41ColorIndex
 90
       18
102
RTVSPost2010Prop41ColorRGB
 90
        0
102
RTVSPost2010PropOp41
 70
     1
102
RTVSPost2010Prop42
 90
       50
102
RTVSPost2010PropOp42
 70
     1
102
RTVSPost2010Prop43
 90
        3
102
RTVSPost2010PropOp43
 70
     1
102
RTVSPost2010Prop44ColorIndex
 90
        5
102
RTVSPost2010Prop44ColorRGB
 90
      255
102
RTVSPost2010PropOp44
 70
     1
102
RTVSPost2010Prop45
280
     0
102
RTVSPost2010PropOp45
 70
     1
102
RTVSPost2010Prop46
 90
       50
102
RTVSPost2010PropOp46
 70
     1
102
RTVSPost2010Prop47
 90
       50
102
RTVSPost2010PropOp47
 70
     1
102
RTVSPost2010Prop48
 90
       50
102
RTVSPost2010PropOp48
 70
     1
102
RTVSPost2010Prop49
280
     0
102
RTVSPost2010PropOp49
 70
     1
102
RTVSPost2010Prop50
 90
       50
102
RTVSPost2010PropOp50
 70
     1
102
RTVSPost2010Prop51ColorIndex
 90
      256
102
RTVSPost2010Prop51ColorRGB
 90
-16777216
102
RTVSPost2010PropOp51
 70
     0
102
RTVSPost2010Prop52
140
1.0
102
RTVSPost2010PropOp52
 70
     0
102
RTVSPost2010Prop53
 90
        2
102
RTVSPost2010PropOp53
 70
     1
102
RTVSPost2010Prop54
  1
strokes_ogs.tif
102
RTVSPost2010PropOp54
 70
     1
102
RTVSPost2010Prop55
280
     0
102
RTVSPost2010PropOp55
 70
     1
102
RTVSPost2010Prop56
140
1.0
102
RTVSPost2010PropOp56
 70
     1
102
RTVSPost2010Prop57
140
1.0
102
RTVSPost2010PropOp57
 70
     1
  0
XRECORD
  5
13C
102
{ACAD_REACTORS
330
13B
102
}
330
13B
100
AcDbXrecord
280
     1
102
RTVSPost2010Prop28
280
     0
102
RTVSPost2010PropOp28
 70
     0
102
RTVSPost2010Prop29
280
     1
102
RTVSPost2010PropOp29
 70
     0
102
RTVSPost2010Prop30
280
     1
102
RTVSPost2010PropOp30
 70
     0
102
RTVSPost2010Prop31
280
     0
102
RTVSPost2010PropOp31
 70
     0
102
RTVSPost2010Prop32
280
     0
102
RTVSPost2010PropOp32
 70
     0
102
RTVSPost2010Prop33
280
     0
102
RTVSPost2010PropOp33
 70
     0
102
RTVSPost2010Prop34
280
     0
102
RTVSPost2010PropOp34
 70
     0
102
RTVSPost2010Prop35
280
     0
102
RTVSPost2010PropOp35
 70
     0
102
RTVSPost2010Prop36
280
     0
102
RTVSPost2010PropOp36
 70
     0
102
RTVSPost2010Prop37
 90
       50
102
RTVSPost2010PropOp37
 70
     0
102
RTVSPost2010Prop38
140
0.0
102
RTVSPost2010PropOp38
 70
     0
102
RTVSPost2010Prop39
140
1.0
102
RTVSPost2010PropOp39
 70
     0
102
RTVSPost2010Prop40
 90
        0
102
RTVSPost2010PropOp40
 70
     0
102
RTVSPost2010Prop41ColorIndex
 90
       18
102
RTVSPost2010Prop41ColorRGB
 90
        0
102
RTVSPost2010PropOp41
 70
     0
102
RTVSPost2010Prop42
 90
       50
102
RTVSPost2010PropOp42
 70
     0
102
RTVSPost2010Prop43
 90
        3
102
RTVSPost2010PropOp43
 70
     0
102
RTVSPost2010Prop44ColorIndex
 90
        5
102
RTVSPost2010Prop44ColorRGB
 90
      255
102
RTVSPost2010PropOp44
 70
     0
102
RTVSPost2010Prop45
280
     0
102
RTVSPost2010PropOp45
 70
     0
102
RTVSPost2010Prop46
 90
       50
102
RTVSPost2010PropOp46
 70
     0
102
RTVSPost2010Prop47
 90
       50
102
RTVSPost2010PropOp47
 70
     0
102
RTVSPost2010Prop48
 90
       50
102
RTVSPost2010PropOp48
 70
     0
102
RTVSPost2010Prop49
280
     0
102
RTVSPost2010PropOp49
 70
     0
102
RTVSPost2010Prop50
 90
       50
102
RTVSPost2010PropOp50
 70
     0
102
RTVSPost2010Prop51ColorIndex
 90
      256
102
RTVSPost2010Prop51ColorRGB
 90
-16777216
102
RTVSPost2010PropOp51
 70
     0
102
RTVSPost2010Prop52
140
1.0
102
RTVSPost2010PropOp52
 70
     0
102
RTVSPost2010Prop53
 90
        2
102
RTVSPost2010PropOp53
 70
     0
102
RTVSPost2010Prop54
  1
strokes_ogs.tif
102
RTVSPost2010PropOp54
 70
     0
102
RTVSPost2010Prop55
280
     0
102
RTVSPost2010PropOp55
 70
     0
102
RTVSPost2010Prop56
140
1.0
102
RTVSPost2010PropOp56
 70
     0
102
RTVSPost2010Prop57
140
1.0
102
RTVSPost2010PropOp57
 70
     0
  0
XRECORD
  5
122
102
{ACAD_REACTORS
330
121
102
}
330
121
100
AcDbXrecord
280
     1
102
RTVSPost2010Prop28
280
     0
102
RTVSPost2010PropOp28
 70
     1
102
RTVSPost2010Prop29
280
     1
102
RTVSPost2010PropOp29
 70
     1
102
RTVSPost2010Prop30
280
     1
102
RTVSPost2010PropOp30
 70
     1
102
RTVSPost2010Prop31
280
     0
102
RTVSPost2010PropOp31
 70
     1
102
RTVSPost2010Prop32
280
     0
102
RTVSPost2010PropOp32
 70
     1
102
RTVSPost2010Prop33
280
     0
102
RTVSPost2010PropOp33
 70
     1
102
RTVSPost2010Prop34
280
     0
102
RTVSPost2010PropOp34
 70
     1
102
RTVSPost2010Prop35
280
     0
102
RTVSPost2010PropOp35
 70
     1
102
RTVSPost2010Prop36
280
     0
102
RTVSPost2010PropOp36
 70
     1
102
RTVSPost2010Prop37
 90
       50
102
RTVSPost2010PropOp37
 70
     1
102
RTVSPost2010Prop38
140
0.0
102
RTVSPost2010PropOp38
 70
     1
102
RTVSPost2010Prop39
140
1.0
102
RTVSPost2010PropOp39
 70
     1
102
RTVSPost2010Prop40
 90
        0
102
RTVSPost2010PropOp40
 70
     1
102
RTVSPost2010Prop41ColorIndex
 90
       18
102
RTVSPost2010Prop41ColorRGB
 90
        0
102
RTVSPost2010PropOp41
 70
     1
102
RTVSPost2010Prop42
 90
       50
102
RTVSPost2010PropOp42
 70
     1
102
RTVSPost2010Prop43
 90
        3
102
RTVSPost2010PropOp43
 70
     1
102
RTVSPost2010Prop44ColorIndex
 90
        5
102
RTVSPost2010Prop44ColorRGB
 90
      255
102
RTVSPost2010PropOp44
 70
     1
102
RTVSPost2010Prop45
280
     0
102
RTVSPost2010PropOp45
 70
     1
102
RTVSPost2010Prop46
 90
       50
102
RTVSPost2010PropOp46
 70
     1
102
RTVSPost2010Prop47
 90
       50
102
RTVSPost2010PropOp47
 70
     1
102
RTVSPost2010Prop48
 90
       50
102
RTVSPost2010PropOp48
 70
     1
102
RTVSPost2010Prop49
280
     0
102
RTVSPost2010PropOp49
 70
     1
102
RTVSPost2010Prop50
 90
       50
102
RTVSPost2010PropOp50
 70
     1
102
RTVSPost2010Prop51ColorIndex
 90
      256
102
RTVSPost2010Prop51ColorRGB
 90
-16777216
102
RTVSPost2010PropOp51
 70
     0
102
RTVSPost2010Prop52
140
1.0
102
RTVSPost2010PropOp52
 70
     0
102
RTVSPost2010Prop53
 90
        2
102
RTVSPost2010PropOp53
 70
     1
102
RTVSPost2010Prop54
  1
strokes_ogs.tif
102
RTVSPost2010PropOp54
 70
     1
102
RTVSPost2010Prop55
280
     0
102
RTVSPost2010PropOp55
 70
     1
102
RTVSPost2010Prop56
140
1.0
102
RTVSPost2010PropOp56
 70
     1
102
RTVSPost2010Prop57
140
1.0
102
RTVSPost2010PropOp57
 70
     1
  0
XRECORD
  5
138
102
{ACAD_REACTORS
330
137
102
}
330
137
100
AcDbXrecord
280
     1
102
RTVSPost2010Prop28
280
     0
102
RTVSPost2010PropOp28
 70
     1
102
RTVSPost2010Prop29
280
     1
102
RTVSPost2010PropOp29
 70
     1
102
RTVSPost2010Prop30
280
     1
102
RTVSPost2010PropOp30
 70
     1
102
RTVSPost2010Prop31
280
     0
102
RTVSPost2010PropOp31
 70
     1
102
RTVSPost2010Prop32
280
     0
102
RTVSPost2010PropOp32
 70
     1
102
RTVSPost2010Prop33
280
     0
102
RTVSPost2010PropOp33
 70
     1
102
RTVSPost2010Prop34
280
     0
102
RTVSPost2010PropOp34
 70
     1
102
RTVSPost2010Prop35
280
     0
102
RTVSPost2010PropOp35
 70
     1
102
RTVSPost2010Prop36
280
     0
102
RTVSPost2010PropOp36
 70
     1
102
RTVSPost2010Prop37
 90
       50
102
RTVSPost2010PropOp37
 70
     1
102
RTVSPost2010Prop38
140
0.0
102
RTVSPost2010PropOp38
 70
     1
102
RTVSPost2010Prop39
140
1.0
102
RTVSPost2010PropOp39
 70
     1
102
RTVSPost2010Prop40
 90
        0
102
RTVSPost2010PropOp40
 70
     1
102
RTVSPost2010Prop41ColorIndex
 90
       18
102
RTVSPost2010Prop41ColorRGB
 90
        0
102
RTVSPost2010PropOp41
 70
     1
102
RTVSPost2010Prop42
 90
       50
102
RTVSPost2010PropOp42
 70
     1
102
RTVSPost2010Prop43
 90
        3
102
RTVSPost2010PropOp43
 70
     1
102
RTVSPost2010Prop44ColorIndex
 90
        5
102
RTVSPost2010Prop44ColorRGB
 90
      255
102
RTVSPost2010PropOp44
 70
     1
102
RTVSPost2010Prop45
280
     0
102
RTVSPost2010PropOp45
 70
     1
102
RTVSPost2010Prop46
 90
       50
102
RTVSPost2010PropOp46
 70
     1
102
RTVSPost2010Prop47
 90
       50
102
RTVSPost2010PropOp47
 70
     1
102
RTVSPost2010Prop48
 90
       50
102
RTVSPost2010PropOp48
 70
     1
102
RTVSPost2010Prop49
280
     0
102
RTVSPost2010PropOp49
 70
     1
102
RTVSPost2010Prop50
 90
       50
102
RTVSPost2010PropOp50
 70
     1
102
RTVSPost2010Prop51ColorIndex
 90
      256
102
RTVSPost2010Prop51ColorRGB
 90
-16777216
102
RTVSPost2010PropOp51
 70
     0
102
RTVSPost2010Prop52
140
1.0
102
RTVSPost2010PropOp52
 70
     0
102
RTVSPost2010Prop53
 90
        2
102
RTVSPost2010PropOp53
 70
     1
102
RTVSPost2010Prop54
  1
strokes_ogs.tif
102
RTVSPost2010PropOp54
 70
     1
102
RTVSPost2010Prop55
280
     0
102
RTVSPost2010PropOp55
 70
     1
102
RTVSPost2010Prop56
140
1.0
102
RTVSPost2010PropOp56
 70
     1
102
RTVSPost2010Prop57
140
1.0
102
RTVSPost2010PropOp57
 70
     1
  0
XRECORD
  5
136
102
{ACAD_REACTORS
330
135
102
}
330
135
100
AcDbXrecord
280
     1
102
RTVSPost2010Prop28
280
     0
102
RTVSPost2010PropOp28
 70
     1
102
RTVSPost2010Prop29
280
     1
102
RTVSPost2010PropOp29
 70
     1
102
RTVSPost2010Prop30
280
     1
102
RTVSPost2010PropOp30
 70
     1
102
RTVSPost2010Prop31
280
     0
102
RTVSPost2010PropOp31
 70
     1
102
RTVSPost2010Prop32
280
     0
102
RTVSPost2010PropOp32
 70
     1
102
RTVSPost2010Prop33
280
     0
102
RTVSPost2010PropOp33
 70
     1
102
RTVSPost2010Prop34
280
     0
102
RTVSPost2010PropOp34
 70
     1
102
RTVSPost2010Prop35
280
     0
102
RTVSPost2010PropOp35
 70
     1
102
RTVSPost2010Prop36
280
     0
102
RTVSPost2010PropOp36
 70
     1
102
RTVSPost2010Prop37
 90
       50
102
RTVSPost2010PropOp37
 70
     1
102
RTVSPost2010Prop38
140
0.0
102
RTVSPost2010PropOp38
 70
     1
102
RTVSPost2010Prop39
140
1.0
102
RTVSPost2010PropOp39
 70
     1
102
RTVSPost2010Prop40
 90
        0
102
RTVSPost2010PropOp40
 70
     1
102
RTVSPost2010Prop41ColorIndex
 90
       18
102
RTVSPost2010Prop41ColorRGB
 90
        0
102
RTVSPost2010PropOp41
 70
     1
102
RTVSPost2010Prop42
 90
       50
102
RTVSPost2010PropOp42
 70
     1
102
RTVSPost2010Prop43
 90
        3
102
RTVSPost2010PropOp43
 70
     1
102
RTVSPost2010Prop44ColorIndex
 90
        5
102
RTVSPost2010Prop44ColorRGB
 90
      255
102
RTVSPost2010PropOp44
 70
     1
102
RTVSPost2010Prop45
280
     0
102
RTVSPost2010PropOp45
 70
     1
102
RTVSPost2010Prop46
 90
       50
102
RTVSPost2010PropOp46
 70
     1
102
RTVSPost2010Prop47
 90
       50
102
RTVSPost2010PropOp47
 70
     1
102
RTVSPost2010Prop48
 90
       50
102
RTVSPost2010PropOp48
 70
     1
102
RTVSPost2010Prop49
280
     0
102
RTVSPost2010PropOp49
 70
     1
102
RTVSPost2010Prop50
 90
       50
102
RTVSPost2010PropOp50
 70
     1
102
RTVSPost2010Prop51ColorIndex
 90
      256
102
RTVSPost2010Prop51ColorRGB
 90
-16777216
102
RTVSPost2010PropOp51
 70
     0
102
RTVSPost2010Prop52
140
1.0
102
RTVSPost2010PropOp52
 70
     0
102
RTVSPost2010Prop53
 90
        2
102
RTVSPost2010PropOp53
 70
     1
102
RTVSPost2010Prop54
  1
strokes_ogs.tif
102
RTVSPost2010PropOp54
 70
     1
102
RTVSPost2010Prop55
280
     0
102
RTVSPost2010PropOp55
 70
     1
102
RTVSPost2010Prop56
140
1.0
102
RTVSPost2010PropOp56
 70
     1
102
RTVSPost2010Prop57
140
1.0
102
RTVSPost2010PropOp57
 70
     1
  0
XRECORD
  5
130
102
{ACAD_REACTORS
330
12F
102
}
330
12F
100
AcDbXrecord
280
     1
102
RTVSPost2010Prop28
280
     0
102
RTVSPost2010PropOp28
 70
     1
102
RTVSPost2010Prop29
280
     1
102
RTVSPost2010PropOp29
 70
     1
102
RTVSPost2010Prop30
280
     1
102
RTVSPost2010PropOp30
 70
     1
102
RTVSPost2010Prop31
280
     0
102
RTVSPost2010PropOp31
 70
     1
102
RTVSPost2010Prop32
280
     0
102
RTVSPost2010PropOp32
 70
     1
102
RTVSPost2010Prop33
280
     0
102
RTVSPost2010PropOp33
 70
     1
102
RTVSPost2010Prop34
280
     0
102
RTVSPost2010PropOp34
 70
     1
102
RTVSPost2010Prop35
280
     0
102
RTVSPost2010PropOp35
 70
     1
102
RTVSPost2010Prop36
280
     0
102
RTVSPost2010PropOp36
 70
     1
102
RTVSPost2010Prop37
 90
       50
102
RTVSPost2010PropOp37
 70
     1
102
RTVSPost2010Prop38
140
0.0
102
RTVSPost2010PropOp38
 70
     1
102
RTVSPost2010Prop39
140
1.0
102
RTVSPost2010PropOp39
 70
     1
102
RTVSPost2010Prop40
 90
        0
102
RTVSPost2010PropOp40
 70
     1
102
RTVSPost2010Prop41ColorIndex
 90
       18
102
RTVSPost2010Prop41ColorRGB
 90
        0
102
RTVSPost2010PropOp41
 70
     1
102
RTVSPost2010Prop42
 90
       50
102
RTVSPost2010PropOp42
 70
     1
102
RTVSPost2010Prop43
 90
        3
102
RTVSPost2010PropOp43
 70
     1
102
RTVSPost2010Prop44ColorIndex
 90
        5
102
RTVSPost2010Prop44ColorRGB
 90
      255
102
RTVSPost2010PropOp44
 70
     1
102
RTVSPost2010Prop45
280
     0
102
RTVSPost2010PropOp45
 70
     1
102
RTVSPost2010Prop46
 90
       50
102
RTVSPost2010PropOp46
 70
     1
102
RTVSPost2010Prop47
 90
       50
102
RTVSPost2010PropOp47
 70
     1
102
RTVSPost2010Prop48
 90
       50
102
RTVSPost2010PropOp48
 70
     1
102
RTVSPost2010Prop49
280
     0
102
RTVSPost2010PropOp49
 70
     1
102
RTVSPost2010Prop50
 90
       50
102
RTVSPost2010PropOp50
 70
     1
102
RTVSPost2010Prop51ColorIndex
 90
      256
102
RTVSPost2010Prop51ColorRGB
 90
-16777216
102
RTVSPost2010PropOp51
 70
     0
102
RTVSPost2010Prop52
140
1.0
102
RTVSPost2010PropOp52
 70
     0
102
RTVSPost2010Prop53
 90
        2
102
RTVSPost2010PropOp53
 70
     1
102
RTVSPost2010Prop54
  1
strokes_ogs.tif
102
RTVSPost2010PropOp54
 70
     1
102
RTVSPost2010Prop55
280
     0
102
RTVSPost2010PropOp55
 70
     1
102
RTVSPost2010Prop56
140
1.0
102
RTVSPost2010PropOp56
 70
     1
102
RTVSPost2010Prop57
140
1.0
102
RTVSPost2010PropOp57
 70
     1
  0
XRECORD
  5
132
102
{ACAD_REACTORS
330
131
102
}
330
131
100
AcDbXrecord
280
     1
102
RTVSPost2010Prop28
280
     0
102
RTVSPost2010PropOp28
 70
     1
102
RTVSPost2010Prop29
280
     1
102
RTVSPost2010PropOp29
 70
     1
102
RTVSPost2010Prop30
280
     1
102
RTVSPost2010PropOp30
 70
     1
102
RTVSPost2010Prop31
280
     0
102
RTVSPost2010PropOp31
 70
     1
102
RTVSPost2010Prop32
280
     0
102
RTVSPost2010PropOp32
 70
     1
102
RTVSPost2010Prop33
280
     0
102
RTVSPost2010PropOp33
 70
     1
102
RTVSPost2010Prop34
280
     0
102
RTVSPost2010PropOp34
 70
     1
102
RTVSPost2010Prop35
280
     0
102
RTVSPost2010PropOp35
 70
     1
102
RTVSPost2010Prop36
280
     0
102
RTVSPost2010PropOp36
 70
     1
102
RTVSPost2010Prop37
 90
       50
102
RTVSPost2010PropOp37
 70
     1
102
RTVSPost2010Prop38
140
0.0
102
RTVSPost2010PropOp38
 70
     1
102
RTVSPost2010Prop39
140
1.0
102
RTVSPost2010PropOp39
 70
     1
102
RTVSPost2010Prop40
 90
        0
102
RTVSPost2010PropOp40
 70
     1
102
RTVSPost2010Prop41ColorIndex
 90
       18
102
RTVSPost2010Prop41ColorRGB
 90
        0
102
RTVSPost2010PropOp41
 70
     1
102
RTVSPost2010Prop42
 90
       50
102
RTVSPost2010PropOp42
 70
     1
102
RTVSPost2010Prop43
 90
        3
102
RTVSPost2010PropOp43
 70
     1
102
RTVSPost2010Prop44ColorIndex
 90
        5
102
RTVSPost2010Prop44ColorRGB
 90
      255
102
RTVSPost2010PropOp44
 70
     1
102
RTVSPost2010Prop45
280
     0
102
RTVSPost2010PropOp45
 70
     1
102
RTVSPost2010Prop46
 90
       50
102
RTVSPost2010PropOp46
 70
     1
102
RTVSPost2010Prop47
 90
       50
102
RTVSPost2010PropOp47
 70
     1
102
RTVSPost2010Prop48
 90
       50
102
RTVSPost2010PropOp48
 70
     1
102
RTVSPost2010Prop49
280
     0
102
RTVSPost2010PropOp49
 70
     1
102
RTVSPost2010Prop50
 90
       50
102
RTVSPost2010PropOp50
 70
     1
102
RTVSPost2010Prop51ColorIndex
 90
      256
102
RTVSPost2010Prop51ColorRGB
 90
-16777216
102
RTVSPost2010PropOp51
 70
     0
102
RTVSPost2010Prop52
140
1.0
102
RTVSPost2010PropOp52
 70
     0
102
RTVSPost2010Prop53
 90
        2
102
RTVSPost2010PropOp53
 70
     1
102
RTVSPost2010Prop54
  1
strokes_ogs.tif
102
RTVSPost2010PropOp54
 70
     1
102
RTVSPost2010Prop55
280
     0
102
RTVSPost2010PropOp55
 70
     1
102
RTVSPost2010Prop56
140
1.0
102
RTVSPost2010PropOp56
 70
     1
102
RTVSPost2010Prop57
140
1.0
102
RTVSPost2010PropOp57
 70
     1
  0
XRECORD
  5
128
102
{ACAD_REACTORS
330
127
102
}
330
127
100
AcDbXrecord
280
     1
102
RTVSPost2010Prop28
280
     0
102
RTVSPost2010PropOp28
 70
     1
102
RTVSPost2010Prop29
280
     1
102
RTVSPost2010PropOp29
 70
     1
102
RTVSPost2010Prop30
280
     1
102
RTVSPost2010PropOp30
 70
     1
102
RTVSPost2010Prop31
280
     0
102
RTVSPost2010PropOp31
 70
     1
102
RTVSPost2010Prop32
280
     0
102
RTVSPost2010PropOp32
 70
     1
102
RTVSPost2010Prop33
280
     0
102
RTVSPost2010PropOp33
 70
     1
102
RTVSPost2010Prop34
280
     0
102
RTVSPost2010PropOp34
 70
     1
102
RTVSPost2010Prop35
280
     0
102
RTVSPost2010PropOp35
 70
     1
102
RTVSPost2010Prop36
280
     0
102
RTVSPost2010PropOp36
 70
     1
102
RTVSPost2010Prop37
 90
       50
102
RTVSPost2010PropOp37
 70
     1
102
RTVSPost2010Prop38
140
0.0
102
RTVSPost2010PropOp38
 70
     1
102
RTVSPost2010Prop39
140
1.0
102
RTVSPost2010PropOp39
 70
     1
102
RTVSPost2010Prop40
 90
        0
102
RTVSPost2010PropOp40
 70
     1
102
RTVSPost2010Prop41ColorIndex
 90
       18
102
RTVSPost2010Prop41ColorRGB
 90
        0
102
RTVSPost2010PropOp41
 70
     1
102
RTVSPost2010Prop42
 90
       50
102
RTVSPost2010PropOp42
 70
     1
102
RTVSPost2010Prop43
 90
        3
102
RTVSPost2010PropOp43
 70
     1
102
RTVSPost2010Prop44ColorIndex
 90
        5
102
RTVSPost2010Prop44ColorRGB
 90
      255
102
RTVSPost2010PropOp44
 70
     1
102
RTVSPost2010Prop45
280
     0
102
RTVSPost2010PropOp45
 70
     1
102
RTVSPost2010Prop46
 90
       50
102
RTVSPost2010PropOp46
 70
     1
102
RTVSPost2010Prop47
 90
       50
102
RTVSPost2010PropOp47
 70
     1
102
RTVSPost2010Prop48
 90
       50
102
RTVSPost2010PropOp48
 70
     1
102
RTVSPost2010Prop49
280
     0
102
RTVSPost2010PropOp49
 70
     1
102
RTVSPost2010Prop50
 90
       50
102
RTVSPost2010PropOp50
 70
     1
102
RTVSPost2010Prop51ColorIndex
 90
      256
102
RTVSPost2010Prop51ColorRGB
 90
-16777216
102
RTVSPost2010PropOp51
 70
     0
102
RTVSPost2010Prop52
140
1.0
102
RTVSPost2010PropOp52
 70
     0
102
RTVSPost2010Prop53
 90
        2
102
RTVSPost2010PropOp53
 70
     1
102
RTVSPost2010Prop54
  1
strokes_ogs.tif
102
RTVSPost2010PropOp54
 70
     1
102
RTVSPost2010Prop55
280
     0
102
RTVSPost2010PropOp55
 70
     1
102
RTVSPost2010Prop56
140
1.0
102
RTVSPost2010PropOp56
 70
     1
102
RTVSPost2010Prop57
140
1.0
102
RTVSPost2010PropOp57
 70
     1
  0
XRECORD
  5
11C
102
{ACAD_REACTORS
330
11B
102
}
330
11B
100
AcDbXrecord
280
     1
102
RTVSPost2010Prop28
280
     0
102
RTVSPost2010PropOp28
 70
     1
102
RTVSPost2010Prop29
280
     1
102
RTVSPost2010PropOp29
 70
     1
102
RTVSPost2010Prop30
280
     1
102
RTVSPost2010PropOp30
 70
     1
102
RTVSPost2010Prop31
280
     0
102
RTVSPost2010PropOp31
 70
     1
102
RTVSPost2010Prop32
280
     0
102
RTVSPost2010PropOp32
 70
     1
102
RTVSPost2010Prop33
280
     0
102
RTVSPost2010PropOp33
 70
     1
102
RTVSPost2010Prop34
280
     0
102
RTVSPost2010PropOp34
 70
     1
102
RTVSPost2010Prop35
280
     0
102
RTVSPost2010PropOp35
 70
     1
102
RTVSPost2010Prop36
280
     0
102
RTVSPost2010PropOp36
 70
     1
102
RTVSPost2010Prop37
 90
       50
102
RTVSPost2010PropOp37
 70
     1
102
RTVSPost2010Prop38
140
0.0
102
RTVSPost2010PropOp38
 70
     1
102
RTVSPost2010Prop39
140
1.0
102
RTVSPost2010PropOp39
 70
     1
102
RTVSPost2010Prop40
 90
        0
102
RTVSPost2010PropOp40
 70
     1
102
RTVSPost2010Prop41ColorIndex
 90
       18
102
RTVSPost2010Prop41ColorRGB
 90
        0
102
RTVSPost2010PropOp41
 70
     1
102
RTVSPost2010Prop42
 90
       50
102
RTVSPost2010PropOp42
 70
     1
102
RTVSPost2010Prop43
 90
        3
102
RTVSPost2010PropOp43
 70
     1
102
RTVSPost2010Prop44ColorIndex
 90
        5
102
RTVSPost2010Prop44ColorRGB
 90
      255
102
RTVSPost2010PropOp44
 70
     1
102
RTVSPost2010Prop45
280
     0
102
RTVSPost2010PropOp45
 70
     1
102
RTVSPost2010Prop46
 90
       50
102
RTVSPost2010PropOp46
 70
     1
102
RTVSPost2010Prop47
 90
       50
102
RTVSPost2010PropOp47
 70
     1
102
RTVSPost2010Prop48
 90
       50
102
RTVSPost2010PropOp48
 70
     1
102
RTVSPost2010Prop49
280
     0
102
RTVSPost2010PropOp49
 70
     1
102
RTVSPost2010Prop50
 90
       50
102
RTVSPost2010PropOp50
 70
     1
102
RTVSPost2010Prop51ColorIndex
 90
      256
102
RTVSPost2010Prop51ColorRGB
 90
-16777216
102
RTVSPost2010PropOp51
 70
     0
102
RTVSPost2010Prop52
140
1.0
102
RTVSPost2010PropOp52
 70
     0
102
RTVSPost2010Prop53
 90
        2
102
RTVSPost2010PropOp53
 70
     1
102
RTVSPost2010Prop54
  1
strokes_ogs.tif
102
RTVSPost2010PropOp54
 70
     1
102
RTVSPost2010Prop55
280
     0
102
RTVSPost2010PropOp55
 70
     1
102
RTVSPost2010Prop56
140
1.0
102
RTVSPost2010PropOp56
 70
     1
102
RTVSPost2010Prop57
140
1.0
102
RTVSPost2010PropOp57
 70
     1
  0
XRECORD
  5
134
102
{ACAD_REACTORS
330
133
102
}
330
133
100
AcDbXrecord
280
     1
102
RTVSPost2010Prop28
280
     0
102
RTVSPost2010PropOp28
 70
     1
102
RTVSPost2010Prop29
280
     1
102
RTVSPost2010PropOp29
 70
     1
102
RTVSPost2010Prop30
280
     1
102
RTVSPost2010PropOp30
 70
     1
102
RTVSPost2010Prop31
280
     0
102
RTVSPost2010PropOp31
 70
     1
102
RTVSPost2010Prop32
280
     0
102
RTVSPost2010PropOp32
 70
     1
102
RTVSPost2010Prop33
280
     0
102
RTVSPost2010PropOp33
 70
     1
102
RTVSPost2010Prop34
280
     0
102
RTVSPost2010PropOp34
 70
     1
102
RTVSPost2010Prop35
280
     0
102
RTVSPost2010PropOp35
 70
     1
102
RTVSPost2010Prop36
280
     0
102
RTVSPost2010PropOp36
 70
     1
102
RTVSPost2010Prop37
 90
       50
102
RTVSPost2010PropOp37
 70
     1
102
RTVSPost2010Prop38
140
0.0
102
RTVSPost2010PropOp38
 70
     1
102
RTVSPost2010Prop39
140
1.0
102
RTVSPost2010PropOp39
 70
     1
102
RTVSPost2010Prop40
 90
        0
102
RTVSPost2010PropOp40
 70
     1
102
RTVSPost2010Prop41ColorIndex
 90
       18
102
RTVSPost2010Prop41ColorRGB
 90
        0
102
RTVSPost2010PropOp41
 70
     1
102
RTVSPost2010Prop42
 90
       50
102
RTVSPost2010PropOp42
 70
     1
102
RTVSPost2010Prop43
 90
        3
102
RTVSPost2010PropOp43
 70
     1
102
RTVSPost2010Prop44ColorIndex
 90
        5
102
RTVSPost2010Prop44ColorRGB
 90
      255
102
RTVSPost2010PropOp44
 70
     1
102
RTVSPost2010Prop45
280
     0
102
RTVSPost2010PropOp45
 70
     1
102
RTVSPost2010Prop46
 90
       50
102
RTVSPost2010PropOp46
 70
     1
102
RTVSPost2010Prop47
 90
       50
102
RTVSPost2010PropOp47
 70
     1
102
RTVSPost2010Prop48
 90
       50
102
RTVSPost2010PropOp48
 70
     1
102
RTVSPost2010Prop49
280
     0
102
RTVSPost2010PropOp49
 70
     1
102
RTVSPost2010Prop50
 90
       50
102
RTVSPost2010PropOp50
 70
     1
102
RTVSPost2010Prop51ColorIndex
 90
      256
102
RTVSPost2010Prop51ColorRGB
 90
-16777216
102
RTVSPost2010PropOp51
 70
     0
102
RTVSPost2010Prop52
140
1.0
102
RTVSPost2010PropOp52
 70
     0
102
RTVSPost2010Prop53
 90
        2
102
RTVSPost2010PropOp53
 70
     1
102
RTVSPost2010Prop54
  1
strokes_ogs.tif
102
RTVSPost2010PropOp54
 70
     1
102
RTVSPost2010Prop55
280
     0
102
RTVSPost2010PropOp55
 70
     1
102
RTVSPost2010Prop56
140
1.0
102
RTVSPost2010PropOp56
 70
     1
102
RTVSPost2010Prop57
140
1.0
102
RTVSPost2010PropOp57
 70
     1
  0
ENDSEC
  0
EOF
