  0
SECTION
  2
HEADER
  9
$ACADVER
  1
AC1024
  9
$ACADMAINTVER
 70
     6
  9
$DWGCODEPAGE
  3
UNDEFINED
  9
$INSBASE
 10
0.0
 20
0.0
 30
0.0
  9
$EXTMIN
 10
1.000000000000000E+20
 20
1.000000000000000E+20
 30
1.000000000000000E+20
  9
$EXTMAX
 10
-1.000000000000000E+20
 20
-1.000000000000000E+20
 30
-1.000000000000000E+20
  9
$LIMMIN
 10
0.0
 20
0.0
  9
$LIMMAX
 10
12.0
 20
9.0
  9
$ORTHOMODE
 70
     0
  9
$REGENMODE
 70
     1
  9
$FILLMODE
 70
     1
  9
$QTEXTMODE
 70
     0
  9
$MIRRTEXT
 70
     1
  9
$LTSCALE
 40
1.0
  9
$ATTMODE
 70
     1
  9
$TEXTSIZE
 40
0.2
  9
$TRACEWID
 40
0.05
  9
$TEXTSTYLE
  7
Standard
  9
$CLAYER
  8
0
  9
$CELTYPE
  6
ByLayer
  9
$CECOLOR
 62
   256
  9
$CELTSCALE
 40
1.0
  9
$DISPSILH
 70
     0
  9
$DIMSCALE
 40
1.0
  9
$DIMASZ
 40
0.18
  9
$DIMEXO
 40
0.0625
  9
$DIMDLI
 40
0.38
  9
$DIMRND
 40
0.0
  9
$DIMDLE
 40
0.0
  9
$DIMEXE
 40
0.18
  9
$DIMTP
 40
0.0
  9
$DIMTM
 40
0.0
  9
$DIMTXT
 40
0.18
  9
$DIMCEN
 40
0.09
  9
$DIMTSZ
 40
0.0
  9
$DIMTOL
 70
     0
  9
$DIMLIM
 70
     0
  9
$DIMTIH
 70
     1
  9
$DIMTOH
 70
     1
  9
$DIMSE1
 70
     0
  9
$DIMSE2
 70
     0
  9
$DIMTAD
 70
     0
  9
$DIMZIN
 70
     0
  9
$DIMBLK
  1

  9
$DIMASO
 70
     1
  9
$DIMSHO
 70
     1
  9
$DIMPOST
  1

  9
$DIMAPOST
  1

  9
$DIMALT
 70
     0
  9
$DIMALTD
 70
     2
  9
$DIMALTF
 40
25.4
  9
$DIMLFAC
 40
1.0
  9
$DIMTOFL
 70
     0
  9
$DIMTVP
 40
0.0
  9
$DIMTIX
 70
     0
  9
$DIMSOXD
 70
     0
  9
$DIMSAH
 70
     0
  9
$DIMBLK1
  1

  9
$DIMBLK2
  1

  9
$DIMSTYLE
  2
Standard
  9
$DIMCLRD
 70
     0
  9
$DIMCLRE
 70
     0
  9
$DIMCLRT
 70
     0
  9
$DIMTFAC
 40
1.0
  9
$DIMGAP
 40
0.09
  9
$DIMJUST
 70
     0
  9
$DIMSD1
 70
     0
  9
$DIMSD2
 70
     0
  9
$DIMTOLJ
 70
     1
  9
$DIMTZIN
 70
     0
  9
$DIMALTZ
 70
     0
  9
$DIMALTTZ
 70
     0
  9
$DIMUPT
 70
     0
  9
$DIMDEC
 70
     4
  9
$DIMTDEC
 70
     4
  9
$DIMALTU
 70
     2
  9
$DIMALTTD
 70
     2
  9
$DIMTXSTY
  7
Standard
  9
$DIMAUNIT
 70
     0
  9
$DIMADEC
 70
     0
  9
$DIMALTRND
 40
0.0
  9
$DIMAZIN
 70
     0
  9
$DIMDSEP
 70
    46
  9
$DIMATFIT
 70
     3
  9
$DIMFRAC
 70
     0
  9
$DIMLDRBLK
  1

  9
$DIMLUNIT
 70
     2
  9
$DIMLWD
 70
    -2
  9
$DIMLWE
 70
    -2
  9
$DIMTMOVE
 70
     0
  9
$DIMFXL
 40
1.0
  9
$DIMFXLON
 70
     0
  9
$DIMJOGANG
 40
0.7853981633974483
  9
$DIMTFILL
 70
     0
  9
$DIMTFILLCLR
 70
     0
  9
$DIMARCSYM
 70
     0
  9
$DIMLTYPE
  6

  9
$DIMLTEX1
  6

  9
$DIMLTEX2
  6

  9
$DIMTXTDIRECTION
 70
     0
  9
$LUNITS
 70
     2
  9
$LUPREC
 70
     4
  9
$SKETCHINC
 40
0.1
  9
$FILLETRAD
 40
0.5
  9
$AUNITS
 70
     0
  9
$AUPREC
 70
     0
  9
$MENU
  1
.
  9
$ELEVATION
 40
0.0
  9
$PELEVATION
 40
0.0
  9
$THICKNESS
 40
0.0
  9
$LIMCHECK
 70
     0
  9
$CHAMFERA
 40
0.5
  9
$CHAMFERB
 40
0.5
  9
$CHAMFERC
 40
1.0
  9
$CHAMFERD
 40
0.0
  9
$SKPOLY
 70
     0
  9
$TDCREATE
 40
2457917.587268519
  9
$TDUCREATE
 40
2457917.212268519
  9
$TDUPDATE
 40
2457917.587268519
  9
$TDUUPDATE
 40
2457917.212268519
  9
$TDINDWG
 40
0.0000000116
  9
$TDUSRTIMER
 40
0.0000000116
  9
$USRTIMER
 70
     1
  9
$ANGBASE
 50
0.0
  9
$ANGDIR
 70
     0
  9
$PDMODE
 70
     0
  9
$PDSIZE
 40
0.0
  9
$PLINEWID
 40
0.0
  9
$SPLFRAME
 70
     0
  9
$SPLINETYPE
 70
     6
  9
$SPLINESEGS
 70
     8
  9
$HANDSEED
  5
FD
  9
$SURFTAB1
 70
     6
  9
$SURFTAB2
 70
     6
  9
$SURFTYPE
 70
     6
  9
$SURFU
 70
     6
  9
$SURFV
 70
     6
  9
$UCSBASE
  2

  9
$UCSNAME
  2

  9
$UCSORG
 10
0.0
 20
0.0
 30
0.0
  9
$UCSXDIR
 10
1.0
 20
0.0
 30
0.0
  9
$UCSYDIR
 10
0.0
 20
1.0
 30
0.0
  9
$UCSORTHOREF
  2

  9
$UCSORTHOVIEW
 70
     0
  9
$UCSORGTOP
 10
0.0
 20
0.0
 30
0.0
  9
$UCSORGBOTTOM
 10
0.0
 20
0.0
 30
0.0
  9
$UCSORGLEFT
 10
0.0
 20
0.0
 30
0.0
  9
$UCSORGRIGHT
 10
0.0
 20
0.0
 30
0.0
  9
$UCSORGFRONT
 10
0.0
 20
0.0
 30
0.0
  9
$UCSORGBACK
 10
0.0
 20
0.0
 30
0.0
  9
$PUCSBASE
  2

  9
$PUCSNAME
  2

  9
$PUCSORG
 10
0.0
 20
0.0
 30
0.0
  9
$PUCSXDIR
 10
1.0
 20
0.0
 30
0.0
  9
$PUCSYDIR
 10
0.0
 20
1.0
 30
0.0
  9
$PUCSORTHOREF
  2

  9
$PUCSORTHOVIEW
 70
     0
  9
$PUCSORGTOP
 10
0.0
 20
0.0
 30
0.0
  9
$PUCSORGBOTTOM
 10
0.0
 20
0.0
 30
0.0
  9
$PUCSORGLEFT
 10
0.0
 20
0.0
 30
0.0
  9
$PUCSORGRIGHT
 10
0.0
 20
0.0
 30
0.0
  9
$PUCSORGFRONT
 10
0.0
 20
0.0
 30
0.0
  9
$PUCSORGBACK
 10
0.0
 20
0.0
 30
0.0
  9
$USERI1
 70
     0
  9
$USERI2
 70
     0
  9
$USERI3
 70
     0
  9
$USERI4
 70
     0
  9
$USERI5
 70
     0
  9
$USERR1
 40
0.0
  9
$USERR2
 40
0.0
  9
$USERR3
 40
0.0
  9
$USERR4
 40
0.0
  9
$USERR5
 40
0.0
  9
$WORLDVIEW
 70
     1
  9
$SHADEDGE
 70
     3
  9
$SHADEDIF
 70
    70
  9
$TILEMODE
 70
     1
  9
$MAXACTVP
 70
    64
  9
$PINSBASE
 10
0.0
 20
0.0
 30
0.0
  9
$PLIMCHECK
 70
     0
  9
$PEXTMIN
 10
1.000000000000000E+20
 20
1.000000000000000E+20
 30
1.000000000000000E+20
  9
$PEXTMAX
 10
-1.000000000000000E+20
 20
-1.000000000000000E+20
 30
-1.000000000000000E+20
  9
$PLIMMIN
 10
0.0
 20
0.0
  9
$PLIMMAX
 10
12.0
 20
9.0
  9
$UNITMODE
 70
     0
  9
$VISRETAIN
 70
     1
  9
$PLINEGEN
 70
     0
  9
$PSLTSCALE
 70
     1
  9
$TREEDEPTH
 70
  3020
  9
$CMLSTYLE
  2
Standard
  9
$CMLJUST
 70
     0
  9
$CMLSCALE
 40
1.0
  9
$PROXYGRAPHICS
 70
     1
  9
$MEASUREMENT
 70
     0
  9
$CELWEIGHT
370
    -1
  9
$ENDCAPS
280
     0
  9
$JOINSTYLE
280
     0
  9
$LWDISPLAY
290
     1
  9
$INSUNITS
 70
     1
  9
$HYPERLINKBASE
  1

  9
$STYLESHEET
  1

  9
$XEDIT
290
     1
  9
$CEPSNTYPE
380
     0
  9
$PSTYLEMODE
290
     1
  9
$FINGERPRINTGUID
  2
{D02AA20B-6883-4B7E-1D7A-B04EE83A564C}
  9
$VERSIONGUID
  2
{FAEB1C32-E019-11D5-929B-00C0DF256EC4}
  9
$EXTNAMES
290
     1
  9
$PSVPSCALE
 40
0.0
  9
$OLESTARTUP
290
     0
  9
$SORTENTS
280
   127
  9
$INDEXCTL
280
     0
  9
$HIDETEXT
280
     1
  9
$XCLIPFRAME
280
     2
  9
$HALOGAP
280
     0
  9
$OBSCOLOR
 70
   257
  9
$OBSLTYPE
280
     0
  9
$INTERSECTIONDISPLAY
280
     0
  9
$INTERSECTIONCOLOR
 70
   257
  9
$DIMASSOC
280
     2
  9
$PROJECTNAME
  1

  9
$CAMERADISPLAY
290
     0
  9
$LENSLENGTH
 40
50.0
  9
$CAMERAHEIGHT
 40
0.0
  9
$STEPSPERSEC
 40
2.0
  9
$STEPSIZE
 40
6.0
  9
$3DDWFPREC
 40
2.0
  9
$PSOLWIDTH
 40
0.25
  9
$PSOLHEIGHT
 40
4.0
  9
$LOFTANG1
 40
1.570796326794897
  9
$LOFTANG2
 40
1.570796326794897
  9
$LOFTMAG1
 40
0.0
  9
$LOFTMAG2
 40
0.0
  9
$LOFTPARAM
 70
     7
  9
$LOFTNORMALS
280
     1
  9
$LATITUDE
 40
37.795
  9
$LONGITUDE
 40
-122.394
  9
$NORTHDIRECTION
 40
0.0
  9
$TIMEZONE
 70
 -8000
  9
$LIGHTGLYPHDISPLAY
280
     1
  9
$TILEMODELIGHTSYNCH
280
     1
  9
$CMATERIAL
347
3C
  9
$SOLIDHIST
280
     1
  9
$SHOWHIST
280
     1
  9
$DWFFRAME
280
     2
  9
$DGNFRAME
280
     2
  9
$REALWORLDSCALE
290
     1
  9
$INTERFERECOLOR
 62
   256
  9
$CSHADOW
280
     0
  9
$SHADOWPLANELOCATION
 40
0.0
  0
ENDSEC
  0
SECTION
  2
CLASSES
  0
CLASS
  1
ACDBDICTIONARYWDFLT
  2
AcDbDictionaryWithDefault
  3
ObjectDBX Classes
 90
        0
 91
        4
280
     0
281
     0
  0
CLASS
  1
VISUALSTYLE
  2
AcDbVisualStyle
  3
ObjectDBX Classes
 90
     4095
 91
        4
280
     0
281
     0
  0
CLASS
  1
MATERIAL
  2
AcDbMaterial
  3
ObjectDBX Classes
 90
     1153
 91
        4
280
     0
281
     0
  0
CLASS
  1
SUN
  2
AcDbSun
  3
SCENEOE
 90
     1024
 91
        4
280
     0
281
     0
  0
ENDSEC
  0
SECTION
  2
TABLES
  0
TABLE
  2
VPORT
  5
8
330
0
100
AcDbSymbolTable
 70
     1
  0
VPORT
  5
29
330
8
100
AcDbSymbolTableRecord
100
AcDbViewportTableRecord
  2
*Active
 70
     0
 10
0.0
 20
0.0
 11
1.0
 21
1.0
 12
0.0
 22
0.0
 13
0.0
 23
0.0
 14
0.5
 24
0.5
 15
0.5
 25
0.5
 16
0.0
 26
0.0
 36
1.0
 17
105.0008280156501
 27
-148.4999710739862
 37
0.0
 40
296.9999421479724
 41
0.7070764206636528
 42
50.0
 43
0.0
 44
0.0
 50
0.0
 51
0.0
 71
     0
 72
   100
 73
     1
 74
     3
 75
     0
 76
     0
 77
     0
 78
     0
281
     0
 65
     1
110
0.0
120
0.0
130
0.0
111
1.0
121
0.0
131
0.0
112
0.0
122
1.0
132
0.0
 79
     0
146
0.0
 60
     3
 61
     5
292
     1
282
     1
141
0.0
142
0.0
 63
   250
361
3F
  0
ENDTAB
  0
TABLE
  2
LTYPE
  5
5
330
0
100
AcDbSymbolTable
 70
     1
  0
LTYPE
  5
14
330
5
100
AcDbSymbolTableRecord
100
AcDbLinetypeTableRecord
  2
ByBlock
 70
     0
  3

 72
    65
 73
     0
 40
0.0
  0
LTYPE
  5
15
330
5
100
AcDbSymbolTableRecord
100
AcDbLinetypeTableRecord
  2
ByLayer
 70
     0
  3

 72
    65
 73
     0
 40
0.0
  0
LTYPE
  5
16
330
5
100
AcDbSymbolTableRecord
100
AcDbLinetypeTableRecord
  2
Continuous
 70
     0
  3
Solid line
 72
    65
 73
     0
 40
0.0
  0
ENDTAB
  0
TABLE
  2
LAYER
  5
2
330
0
100
AcDbSymbolTable
 70
     2
  0
LAYER
  5
10
330
2
100
AcDbSymbolTableRecord
100
AcDbLayerTableRecord
  2
0
 70
     0
 62
     7
  6
Continuous
370
    -3
390
F
347
3E
  0
LAYER
  5
40
330
2
100
AcDbSymbolTableRecord
100
AcDbLayerTableRecord
  2
_U+30EC_U+30A4_U+30E4_U+30FC 1
 70
     0
 62
     7
  6
Continuous
370
    -3
390
F
347
3E
  0
ENDTAB
  0
TABLE
  2
STYLE
  5
3
330
0
100
AcDbSymbolTable
 70
     1
  0
STYLE
  5
11
330
3
100
AcDbSymbolTableRecord
100
AcDbTextStyleTableRecord
  2
Standard
 70
     0
 40
0.0
 41
1.0
 50
0.0
 71
     0
 42
0.2
  3
txt
  4

  0
ENDTAB
  0
TABLE
  2
VIEW
  5
6
330
0
100
AcDbSymbolTable
 70
     0
  0
ENDTAB
  0
TABLE
  2
UCS
  5
7
330
0
100
AcDbSymbolTable
 70
     0
  0
ENDTAB
  0
TABLE
  2
APPID
  5
9
330
0
100
AcDbSymbolTable
 70
     1
  0
APPID
  5
12
330
9
100
AcDbSymbolTableRecord
100
AcDbRegAppTableRecord
  2
ACAD
 70
     0
  0
ENDTAB
  0
TABLE
  2
DIMSTYLE
  5
A
330
0
100
AcDbSymbolTable
 70
     1
100
AcDbDimStyleTable
  0
DIMSTYLE
105
27
330
A
100
AcDbSymbolTableRecord
100
AcDbDimStyleTableRecord
  2
Standard
 70
     0
178
     0
340
11
  0
ENDTAB
  0
TABLE
  2
BLOCK_RECORD
  5
1
330
0
100
AcDbSymbolTable
 70
     6
  0
BLOCK_RECORD
  5
1F
330
1
100
AcDbSymbolTableRecord
100
AcDbBlockTableRecord
  2
*Model_Space
340
22
 70
     0
280
     1
281
     0
  0
BLOCK_RECORD
  5
1B
330
1
100
AcDbSymbolTableRecord
100
AcDbBlockTableRecord
  2
*Paper_Space
340
1E
 70
     0
280
     1
281
     0
  0
BLOCK_RECORD
  5
23
330
1
100
AcDbSymbolTableRecord
100
AcDbBlockTableRecord
  2
*Paper_Space0
340
26
 70
     0
280
     1
281
     0
  0
BLOCK_RECORD
  5
71
330
1
100
AcDbSymbolTableRecord
100
AcDbBlockTableRecord
  2
block 2
340
0
102
{BLKREFS
331
72
102
}
 70
     0
280
     1
281
     0
  0
BLOCK_RECORD
  5
89
330
1
100
AcDbSymbolTableRecord
100
AcDbBlockTableRecord
  2
block 3
340
0
102
{BLKREFS
331
8A
102
}
 70
     0
280
     1
281
     0
  0
BLOCK_RECORD
  5
BD
330
1
100
AcDbSymbolTableRecord
100
AcDbBlockTableRecord
  2
block 4
340
0
102
{BLKREFS
331
BE
102
}
 70
     0
280
     1
281
     0
  0
BLOCK_RECORD
  5
D5
330
1
100
AcDbSymbolTableRecord
100
AcDbBlockTableRecord
  2
block 5
340
0
102
{BLKREFS
331
D6
102
}
 70
     0
280
     1
281
     0
  0
BLOCK_RECORD
  5
F3
330
1
100
AcDbSymbolTableRecord
100
AcDbBlockTableRecord
  2
block 6
340
0
102
{BLKREFS
331
F4
102
}
 70
     0
280
     1
281
     0
  0
ENDTAB
  0
ENDSEC
  0
SECTION
  2
BLOCKS
  0
BLOCK
  5
20
330
1F
100
AcDbEntity
  8
0
100
AcDbBlockBegin
  2
*Model_Space
 70
     0
 10
0.0
 20
0.0
 30
0.0
  3
*Model_Space
  1

  0
ENDBLK
  5
21
330
1F
100
AcDbEntity
  8
0
100
AcDbBlockEnd
  0
BLOCK
  5
1C
330
1B
100
AcDbEntity
 67
     1
  8
0
100
AcDbBlockBegin
  2
*Paper_Space
 70
     0
 10
0.0
 20
0.0
 30
0.0
  3
*Paper_Space
  1

  0
ENDBLK
  5
1D
330
1B
100
AcDbEntity
 67
     1
  8
0
100
AcDbBlockEnd
  0
BLOCK
  5
24
330
23
100
AcDbEntity
  8
0
100
AcDbBlockBegin
  2
*Paper_Space0
 70
     0
 10
0.0
 20
0.0
 30
0.0
  3
*Paper_Space0
  1

  0
ENDBLK
  5
25
330
23
100
AcDbEntity
  8
0
100
AcDbBlockEnd
  0
BLOCK
  5
73
330
71
100
AcDbEntity
  8
0
100
AcDbBlockBegin
  2
block 2
 70
     0
 10
0.0
 20
0.0
 30
0.0
  3
block 2
  1

  0
SPLINE
  5
75
330
71
100
AcDbEntity
  8
_U+30EC_U+30A4_U+30E4_U+30FC 1
370
     0
100
AcDbSpline
210
0.0
220
0.0
230
1.0
 70
    11
 71
     3
 72
    26
 73
    22
 74
     0
 42
0.0000000001
 43
0.0000000001
 12
1.0
 22
0.0
 32
0.0
 13
1.0
 23
0.0
 33
0.0
 40
0.0
 40
0.0
 40
0.0
 40
0.0
 40
1.0
 40
1.0
 40
1.0
 40
2.0
 40
2.0
 40
2.0
 40
3.0
 40
3.0
 40
3.0
 40
4.0
 40
4.0
 40
4.0
 40
5.0
 40
5.0
 40
5.0
 40
6.0
 40
6.0
 40
6.0
 40
7.0
 40
7.0
 40
7.0
 40
7.0
 10
109.8482475853852
 20
-156.5299804296175
 30
0.0
 10
109.8482475853852
 20
-156.5299804296175
 30
0.0
 10
109.8482475853852
 20
-155.4258273265949
 30
0.0
 10
109.8482475853852
 20
-155.4258273265949
 30
0.0
 10
109.8482475853852
 20
-155.4258273265949
 30
0.0
 10
109.5667832842403
 20
-155.4258273265949
 30
0.0
 10
109.5667832842403
 20
-155.4258273265949
 30
0.0
 10
109.5667832842403
 20
-155.4258273265949
 30
0.0
 10
109.5667832842403
 20
-155.2776882207292
 30
0.0
 10
109.5667832842403
 20
-155.2776882207292
 30
0.0
 10
109.8499701331278
 20
-155.2628743101426
 30
0.0
 10
109.8895887312082
 20
-155.0999212936903
 30
0.0
 10
109.9147379282505
 20
-154.98554412358
 30
0.0
 10
109.9147379282505
 20
-154.98554412358
 30
0.0
 10
110.0394503848165
 20
-154.98554412358
 30
0.0
 10
110.0394503848165
 20
-154.98554412358
 30
0.0
 10
110.0394503848165
 20
-154.98554412358
 30
0.0
 10
110.0394503848165
 20
-156.5299804296175
 30
0.0
 10
110.0394503848165
 20
-156.5299804296175
 30
0.0
 10
110.0394503848165
 20
-156.5299804296175
 30
0.0
 10
109.8482475853852
 20
-156.5299804296175
 30
0.0
 10
109.8482475853852
 20
-156.5299804296175
 30
0.0
  0
HATCH
  5
76
330
71
100
AcDbEntity
  8
_U+30EC_U+30A4_U+30E4_U+30FC 1
 62
   179
420
  2234388
100
AcDbHatch
 10
0.0
 20
0.0
 30
0.0
210
0.0
220
0.0
230
1.0
  2
SOLID
 70
     1
 71
     0
 91
        1
 92
        1
 93
        1
 72
     4
 94
        3
 73
     0
 74
     1
 95
       26
 96
       22
 40
0.0
 40
0.0
 40
0.0
 40
0.0
 40
1.0
 40
1.0
 40
1.0
 40
2.0
 40
2.0
 40
2.0
 40
3.0
 40
3.0
 40
3.0
 40
4.0
 40
4.0
 40
4.0
 40
5.0
 40
5.0
 40
5.0
 40
6.0
 40
6.0
 40
6.0
 40
7.0
 40
7.0
 40
7.0
 40
7.0
 10
109.8482475853852
 20
-156.5299804296175
 10
109.8482475853852
 20
-156.5299804296175
 10
109.8482475853852
 20
-155.4258273265949
 10
109.8482475853852
 20
-155.4258273265949
 10
109.8482475853852
 20
-155.4258273265949
 10
109.5667832842403
 20
-155.4258273265949
 10
109.5667832842403
 20
-155.4258273265949
 10
109.5667832842403
 20
-155.4258273265949
 10
109.5667832842403
 20
-155.2776882207292
 10
109.5667832842403
 20
-155.2776882207292
 10
109.8499701331278
 20
-155.2628743101426
 10
109.8895887312082
 20
-155.0999212936903
 10
109.9147379282505
 20
-154.98554412358
 10
109.9147379282505
 20
-154.98554412358
 10
110.0394503848165
 20
-154.98554412358
 10
110.0394503848165
 20
-154.98554412358
 10
110.0394503848165
 20
-154.98554412358
 10
110.0394503848165
 20
-156.5299804296175
 10
110.0394503848165
 20
-156.5299804296175
 10
110.0394503848165
 20
-156.5299804296175
 10
109.8482475853852
 20
-156.5299804296175
 10
109.8482475853852
 20
-156.5299804296175
 97
        0
 97
        0
 75
     2
 76
     1
 98
        0
  0
SPLINE
  5
77
330
71
100
AcDbEntity
  8
_U+30EC_U+30A4_U+30E4_U+30FC 1
370
     0
100
AcDbSpline
210
0.0
220
0.0
230
1.0
 70
    11
 71
     3
 72
    26
 73
    22
 74
     0
 42
0.0000000001
 43
0.0000000001
 12
1.0
 22
0.0
 32
0.0
 13
1.0
 23
0.0
 33
0.0
 40
0.0
 40
0.0
 40
0.0
 40
0.0
 40
1.0
 40
1.0
 40
1.0
 40
2.0
 40
2.0
 40
2.0
 40
3.0
 40
3.0
 40
3.0
 40
4.0
 40
4.0
 40
4.0
 40
5.0
 40
5.0
 40
5.0
 40
6.0
 40
6.0
 40
6.0
 40
7.0
 40
7.0
 40
7.0
 40
7.0
 10
110.8156303976433
 20
-156.5299804296175
 30
0.0
 10
110.8156303976433
 20
-156.5299804296175
 30
0.0
 10
110.6137478022077
 20
-156.5299804296175
 30
0.0
 10
110.6137478022077
 20
-156.5299804296175
 30
0.0
 10
110.6354519037647
 20
-156.2209553645906
 30
0.0
 10
110.7994384488626
 20
-155.702813003609
 30
0.0
 10
111.1456705451303
 20
-155.1970729863743
 30
0.0
 10
111.1456705451303
 20
-155.1970729863743
 30
0.0
 10
110.431502251038
 20
-155.1970729863743
 30
0.0
 10
110.431502251038
 20
-155.1970729863743
 30
0.0
 10
110.431502251038
 20
-155.1970729863743
 30
0.0
 10
110.431502251038
 20
-154.98554412358
 30
0.0
 10
110.431502251038
 20
-154.98554412358
 30
0.0
 10
110.431502251038
 20
-154.98554412358
 30
0.0
 10
111.3475531405659
 20
-154.98554412358
 30
0.0
 10
111.3475531405659
 20
-154.98554412358
 30
0.0
 10
111.3475531405659
 20
-154.98554412358
 30
0.0
 10
111.3475531405659
 20
-155.1970729863743
 30
0.0
 10
111.3475531405659
 20
-155.1970729863743
 30
0.0
 10
111.0719455017459
 20
-155.4871500262324
 30
0.0
 10
110.8445691997194
 20
-156.0793619401468
 30
0.0
 10
110.8156303976433
 20
-156.5299804296175
 30
0.0
  0
HATCH
  5
78
330
71
100
AcDbEntity
  8
_U+30EC_U+30A4_U+30E4_U+30FC 1
 62
   179
420
  2234388
100
AcDbHatch
 10
0.0
 20
0.0
 30
0.0
210
0.0
220
0.0
230
1.0
  2
SOLID
 70
     1
 71
     0
 91
        1
 92
        1
 93
        1
 72
     4
 94
        3
 73
     0
 74
     1
 95
       26
 96
       22
 40
0.0
 40
0.0
 40
0.0
 40
0.0
 40
1.0
 40
1.0
 40
1.0
 40
2.0
 40
2.0
 40
2.0
 40
3.0
 40
3.0
 40
3.0
 40
4.0
 40
4.0
 40
4.0
 40
5.0
 40
5.0
 40
5.0
 40
6.0
 40
6.0
 40
6.0
 40
7.0
 40
7.0
 40
7.0
 40
7.0
 10
110.8156303976433
 20
-156.5299804296175
 10
110.8156303976433
 20
-156.5299804296175
 10
110.6137478022077
 20
-156.5299804296175
 10
110.6137478022077
 20
-156.5299804296175
 10
110.6354519037647
 20
-156.2209553645906
 10
110.7994384488626
 20
-155.702813003609
 10
111.1456705451303
 20
-155.1970729863743
 10
111.1456705451303
 20
-155.1970729863743
 10
110.431502251038
 20
-155.1970729863743
 10
110.431502251038
 20
-155.1970729863743
 10
110.431502251038
 20
-155.1970729863743
 10
110.431502251038
 20
-154.98554412358
 10
110.431502251038
 20
-154.98554412358
 10
110.431502251038
 20
-154.98554412358
 10
111.3475531405659
 20
-154.98554412358
 10
111.3475531405659
 20
-154.98554412358
 10
111.3475531405659
 20
-154.98554412358
 10
111.3475531405659
 20
-155.1970729863743
 10
111.3475531405659
 20
-155.1970729863743
 10
111.0719455017459
 20
-155.4871500262324
 10
110.8445691997194
 20
-156.0793619401468
 10
110.8156303976433
 20
-156.5299804296175
 97
        0
 97
        0
 75
     2
 76
     1
 98
        0
  0
ENDBLK
  5
74
330
71
100
AcDbEntity
  8
0
100
AcDbBlockEnd
  0
BLOCK
  5
8B
330
89
100
AcDbEntity
  8
0
100
AcDbBlockBegin
  2
block 3
 70
     0
 10
0.0
 20
0.0
 30
0.0
  3
block 3
  1

  0
SPLINE
  5
8D
330
89
100
AcDbEntity
  8
_U+30EC_U+30A4_U+30E4_U+30FC 1
370
     0
100
AcDbSpline
210
0.0
220
0.0
230
1.0
 70
    11
 71
     3
 72
    29
 73
    25
 74
     0
 42
0.0000000001
 43
0.0000000001
 12
1.0
 22
0.0
 32
0.0
 13
1.0
 23
0.0
 33
0.0
 40
0.0
 40
0.0
 40
0.0
 40
0.0
 40
1.0
 40
1.0
 40
1.0
 40
2.0
 40
2.0
 40
2.0
 40
3.0
 40
3.0
 40
3.0
 40
4.0
 40
4.0
 40
4.0
 40
5.0
 40
5.0
 40
5.0
 40
6.0
 40
6.0
 40
6.0
 40
7.0
 40
7.0
 40
7.0
 40
8.0
 40
8.0
 40
8.0
 40
8.0
 10
125.8066188921595
 20
-152.814100439227
 30
0.0
 10
126.0160806976627
 20
-152.9060844886832
 30
0.0
 10
126.0350287228315
 20
-153.0538790850004
 30
0.0
 10
126.0350287228315
 20
-153.1530978349756
 30
0.0
 10
126.0350287228315
 20
-153.2902126352886
 30
0.0
 10
125.9885199337807
 20
-153.4107909772723
 30
0.0
 10
125.8066188921595
 20
-153.4920952307242
 30
0.0
 10
125.6119709972428
 20
-153.5802896751466
 30
0.0
 10
125.3749484278577
 20
-153.5968261334758
 30
0.0
 10
125.2123399209539
 20
-153.5968261334758
 30
0.0
 10
125.0683349296704
 20
-153.5968261334758
 30
0.0
 10
124.8164984496987
 20
-153.5823567324377
 30
0.0
 10
124.6177164401997
 20
-153.4920952307242
 30
0.0
 10
124.4148003161185
 20
-153.400111181268
 30
0.0
 10
124.3913736668188
 20
-153.2629963809551
 30
0.0
 10
124.3913736668188
 20
-153.1530978349756
 30
0.0
 10
124.3913736668188
 20
-153.0177055824053
 30
0.0
 10
124.4358153985786
 20
-152.8950601831304
 30
0.0
 10
124.6177164401997
 20
-152.814100439227
 30
0.0
 10
124.8102972778252
 20
-152.7293510902899
 30
0.0
 10
125.0387071084973
 20
-152.7093695364754
 30
0.0
 10
125.2123399209539
 20
-152.7093695364754
 30
0.0
 10
125.3835611665708
 20
-152.7093695364754
 30
0.0
 10
125.614038054534
 20
-152.7276285425473
 30
0.0
 10
125.8066188921595
 20
-152.814100439227
 30
0.0
  0
SPLINE
  5
8E
330
89
100
AcDbEntity
  8
_U+30EC_U+30A4_U+30E4_U+30FC 1
370
     0
100
AcDbSpline
210
0.0
220
0.0
230
1.0
 70
    11
 71
     3
 72
    17
 73
    13
 74
     0
 42
0.0000000001
 43
0.0000000001
 12
1.0
 22
0.0
 32
0.0
 13
1.0
 23
0.0
 33
0.0
 40
0.0
 40
0.0
 40
0.0
 40
0.0
 40
1.0
 40
1.0
 40
1.0
 40
2.0
 40
2.0
 40
2.0
 40
3.0
 40
3.0
 40
3.0
 40
4.0
 40
4.0
 40
4.0
 40
4.0
 10
124.5839545044443
 20
-153.1530978349756
 30
0.0
 10
124.5839545044443
 20
-153.3660047359641
 30
0.0
 10
124.8674858628804
 20
-153.4056233340444
 30
0.0
 10
125.2123399209539
 20
-153.4056233340444
 30
0.0
 10
125.5317002724365
 20
-153.4056233340444
 30
0.0
 10
125.8403808279149
 20
-153.3749619842257
 30
0.0
 10
125.8403808279149
 20
-153.1530978349756
 30
0.0
 10
125.8403808279149
 20
-152.9419134817298
 30
0.0
 10
125.5592610363185
 20
-152.9005723359068
 30
0.0
 10
125.2123399209539
 20
-152.9005723359068
 30
0.0
 10
124.8926350599227
 20
-152.9005723359068
 30
0.0
 10
124.5839545044443
 20
-152.9329562334682
 30
0.0
 10
124.5839545044443
 20
-153.1530978349756
 30
0.0
  0
HATCH
  5
8F
330
89
100
AcDbEntity
  8
_U+30EC_U+30A4_U+30E4_U+30FC 1
 62
   179
420
  2234388
100
AcDbHatch
 10
0.0
 20
0.0
 30
0.0
210
0.0
220
0.0
230
1.0
  2
SOLID
 70
     1
 71
     0
 91
        2
 92
        1
 93
        1
 72
     4
 94
        3
 73
     0
 74
     1
 95
       29
 96
       25
 40
0.0
 40
0.0
 40
0.0
 40
0.0
 40
1.0
 40
1.0
 40
1.0
 40
2.0
 40
2.0
 40
2.0
 40
3.0
 40
3.0
 40
3.0
 40
4.0
 40
4.0
 40
4.0
 40
5.0
 40
5.0
 40
5.0
 40
6.0
 40
6.0
 40
6.0
 40
7.0
 40
7.0
 40
7.0
 40
8.0
 40
8.0
 40
8.0
 40
8.0
 10
125.8066188921595
 20
-152.814100439227
 10
126.0160806976627
 20
-152.9060844886832
 10
126.0350287228315
 20
-153.0538790850004
 10
126.0350287228315
 20
-153.1530978349756
 10
126.0350287228315
 20
-153.2902126352886
 10
125.9885199337807
 20
-153.4107909772723
 10
125.8066188921595
 20
-153.4920952307242
 10
125.6119709972428
 20
-153.5802896751466
 10
125.3749484278577
 20
-153.5968261334758
 10
125.2123399209539
 20
-153.5968261334758
 10
125.0683349296704
 20
-153.5968261334758
 10
124.8164984496987
 20
-153.5823567324377
 10
124.6177164401997
 20
-153.4920952307242
 10
124.4148003161185
 20
-153.400111181268
 10
124.3913736668188
 20
-153.2629963809551
 10
124.3913736668188
 20
-153.1530978349756
 10
124.3913736668188
 20
-153.0177055824053
 10
124.4358153985786
 20
-152.8950601831304
 10
124.6177164401997
 20
-152.814100439227
 10
124.8102972778252
 20
-152.7293510902899
 10
125.0387071084973
 20
-152.7093695364754
 10
125.2123399209539
 20
-152.7093695364754
 10
125.3835611665708
 20
-152.7093695364754
 10
125.614038054534
 20
-152.7276285425473
 10
125.8066188921595
 20
-152.814100439227
 97
        0
 97
        0
 92
        1
 93
        1
 72
     4
 94
        3
 73
     0
 74
     1
 95
       17
 96
       13
 40
0.0
 40
0.0
 40
0.0
 40
0.0
 40
1.0
 40
1.0
 40
1.0
 40
2.0
 40
2.0
 40
2.0
 40
3.0
 40
3.0
 40
3.0
 40
4.0
 40
4.0
 40
4.0
 40
4.0
 10
124.5839545044443
 20
-153.1530978349756
 10
124.5839545044443
 20
-153.3660047359641
 10
124.8674858628804
 20
-153.4056233340444
 10
125.2123399209539
 20
-153.4056233340444
 10
125.5317002724365
 20
-153.4056233340444
 10
125.8403808279149
 20
-153.3749619842257
 10
125.8403808279149
 20
-153.1530978349756
 10
125.8403808279149
 20
-152.9419134817298
 10
125.5592610363185
 20
-152.9005723359068
 10
125.2123399209539
 20
-152.9005723359068
 10
124.8926350599227
 20
-152.9005723359068
 10
124.5839545044443
 20
-152.9329562334682
 10
124.5839545044443
 20
-153.1530978349756
 97
        0
 97
        0
 75
     2
 76
     1
 98
        0
  0
POLYLINE
  5
90
330
89
100
AcDbEntity
  8
_U+30EC_U+30A4_U+30E4_U+30FC 1
370
     0
100
AcDb2dPolyline
 66
     1
 10
0.0
 20
0.0
 30
0.0
  0
VERTEX
  5
91
330
90
100
AcDbEntity
  8
_U+30EC_U+30A4_U+30E4_U+30FC 1
370
     0
100
AcDbVertex
100
AcDb2dVertex
 10
125.9843858191984
 20
-152.5264349662087
 30
0.0
  0
VERTEX
  5
92
330
90
100
AcDbEntity
  8
_U+30EC_U+30A4_U+30E4_U+30FC 1
370
     0
100
AcDbVertex
100
AcDb2dVertex
 10
125.7325493392266
 20
-152.5264349662087
 30
0.0
  0
VERTEX
  5
93
330
90
100
AcDbEntity
  8
_U+30EC_U+30A4_U+30E4_U+30FC 1
370
     0
100
AcDbVertex
100
AcDb2dVertex
 10
125.7325493392266
 20
-152.3118055174776
 30
0.0
  0
VERTEX
  5
94
330
90
100
AcDbEntity
  8
_U+30EC_U+30A4_U+30E4_U+30FC 1
370
     0
100
AcDbVertex
100
AcDb2dVertex
 10
125.9843858191984
 20
-152.3118055174776
 30
0.0
  0
VERTEX
  5
95
330
90
100
AcDbEntity
  8
_U+30EC_U+30A4_U+30E4_U+30FC 1
370
     0
100
AcDbVertex
100
AcDb2dVertex
 10
125.9843858191984
 20
-152.5264349662087
 30
0.0
  0
SEQEND
  5
96
330
90
100
AcDbEntity
  8
_U+30EC_U+30A4_U+30E4_U+30FC 1
370
     0
  0
HATCH
  5
97
330
89
100
AcDbEntity
  8
_U+30EC_U+30A4_U+30E4_U+30FC 1
 62
   179
420
  2234388
100
AcDbHatch
 10
0.0
 20
0.0
 30
0.0
210
0.0
220
0.0
230
1.0
  2
SOLID
 70
     1
 71
     0
 91
        1
 92
        1
 93
        4
 72
     1
 10
125.9843858191984
 20
-152.5264349662087
 11
125.7325493392266
 21
-152.5264349662087
 72
     1
 10
125.7325493392266
 20
-152.5264349662087
 11
125.7325493392266
 21
-152.3118055174776
 72
     1
 10
125.7325493392266
 20
-152.3118055174776
 11
125.9843858191984
 21
-152.3118055174776
 72
     1
 10
125.9843858191984
 20
-152.3118055174776
 11
125.9843858191984
 21
-152.5264349662087
 97
        0
 75
     2
 76
     1
 98
        0
  0
POLYLINE
  5
98
330
89
100
AcDbEntity
  8
_U+30EC_U+30A4_U+30E4_U+30FC 1
370
     0
100
AcDb2dPolyline
 66
     1
 10
0.0
 20
0.0
 30
0.0
  0
VERTEX
  5
99
330
98
100
AcDbEntity
  8
_U+30EC_U+30A4_U+30E4_U+30FC 1
370
     0
100
AcDbVertex
100
AcDb2dVertex
 10
125.6374647038337
 20
-151.4012667807261
 30
0.0
  0
VERTEX
  5
9A
330
98
100
AcDbEntity
  8
_U+30EC_U+30A4_U+30E4_U+30FC 1
370
     0
100
AcDbVertex
100
AcDb2dVertex
 10
125.9843858191984
 20
-151.4012667807261
 30
0.0
  0
VERTEX
  5
9B
330
98
100
AcDbEntity
  8
_U+30EC_U+30A4_U+30E4_U+30FC 1
370
     0
100
AcDbVertex
100
AcDb2dVertex
 10
125.9843858191984
 20
-151.586957427381
 30
0.0
  0
VERTEX
  5
9C
330
98
100
AcDbEntity
  8
_U+30EC_U+30A4_U+30E4_U+30FC 1
370
     0
100
AcDbVertex
100
AcDb2dVertex
 10
125.6374647038337
 20
-151.586957427381
 30
0.0
  0
VERTEX
  5
9D
330
98
100
AcDbEntity
  8
_U+30EC_U+30A4_U+30E4_U+30FC 1
370
     0
100
AcDbVertex
100
AcDb2dVertex
 10
125.6374647038337
 20
-152.1460964246371
 30
0.0
  0
VERTEX
  5
9E
330
98
100
AcDbEntity
  8
_U+30EC_U+30A4_U+30E4_U+30FC 1
370
     0
100
AcDbVertex
100
AcDb2dVertex
 10
125.4131889877439
 20
-152.1460964246371
 30
0.0
  0
VERTEX
  5
9F
330
98
100
AcDbEntity
  8
_U+30EC_U+30A4_U+30E4_U+30FC 1
370
     0
100
AcDbVertex
100
AcDb2dVertex
 10
124.4399495131609
 20
-151.5673203831151
 30
0.0
  0
VERTEX
  5
A0
330
98
100
AcDbEntity
  8
_U+30EC_U+30A4_U+30E4_U+30FC 1
370
     0
100
AcDbVertex
100
AcDb2dVertex
 10
124.4399495131609
 20
-151.4012667807261
 30
0.0
  0
VERTEX
  5
A1
330
98
100
AcDbEntity
  8
_U+30EC_U+30A4_U+30E4_U+30FC 1
370
     0
100
AcDbVertex
100
AcDb2dVertex
 10
125.4386826943348
 20
-151.4012667807261
 30
0.0
  0
VERTEX
  5
A2
330
98
100
AcDbEntity
  8
_U+30EC_U+30A4_U+30E4_U+30FC 1
370
     0
100
AcDbVertex
100
AcDb2dVertex
 10
125.4386826943348
 20
-151.2245333823328
 30
0.0
  0
VERTEX
  5
A3
330
98
100
AcDbEntity
  8
_U+30EC_U+30A4_U+30E4_U+30FC 1
370
     0
100
AcDbVertex
100
AcDb2dVertex
 10
125.6374647038337
 20
-151.2245333823328
 30
0.0
  0
VERTEX
  5
A4
330
98
100
AcDbEntity
  8
_U+30EC_U+30A4_U+30E4_U+30FC 1
370
     0
100
AcDbVertex
100
AcDb2dVertex
 10
125.6374647038337
 20
-151.4012667807261
 30
0.0
  0
SEQEND
  5
A5
330
98
100
AcDbEntity
  8
_U+30EC_U+30A4_U+30E4_U+30FC 1
370
     0
  0
POLYLINE
  5
A6
330
89
100
AcDbEntity
  8
_U+30EC_U+30A4_U+30E4_U+30FC 1
370
     0
100
AcDb2dPolyline
 66
     1
 10
0.0
 20
0.0
 30
0.0
  0
VERTEX
  5
A7
330
A6
100
AcDbEntity
  8
_U+30EC_U+30A4_U+30E4_U+30FC 1
370
     0
100
AcDbVertex
100
AcDb2dVertex
 10
124.7827365139432
 20
-151.586957427381
 30
0.0
  0
VERTEX
  5
A8
330
A6
100
AcDbEntity
  8
_U+30EC_U+30A4_U+30E4_U+30FC 1
370
     0
100
AcDbVertex
100
AcDb2dVertex
 10
125.4386826943348
 20
-151.9765977267628
 30
0.0
  0
VERTEX
  5
A9
330
A6
100
AcDbEntity
  8
_U+30EC_U+30A4_U+30E4_U+30FC 1
370
     0
100
AcDbVertex
100
AcDb2dVertex
 10
125.4386826943348
 20
-151.586957427381
 30
0.0
  0
VERTEX
  5
AA
330
A6
100
AcDbEntity
  8
_U+30EC_U+30A4_U+30E4_U+30FC 1
370
     0
100
AcDbVertex
100
AcDb2dVertex
 10
124.7827365139432
 20
-151.586957427381
 30
0.0
  0
SEQEND
  5
AB
330
A6
100
AcDbEntity
  8
_U+30EC_U+30A4_U+30E4_U+30FC 1
370
     0
  0
HATCH
  5
AC
330
89
100
AcDbEntity
  8
_U+30EC_U+30A4_U+30E4_U+30FC 1
 62
   179
420
  2234388
100
AcDbHatch
 10
0.0
 20
0.0
 30
0.0
210
0.0
220
0.0
230
1.0
  2
SOLID
 70
     1
 71
     0
 91
        2
 92
        1
 93
       11
 72
     1
 10
125.6374647038337
 20
-151.4012667807261
 11
125.9843858191984
 21
-151.4012667807261
 72
     1
 10
125.9843858191984
 20
-151.4012667807261
 11
125.9843858191984
 21
-151.586957427381
 72
     1
 10
125.9843858191984
 20
-151.586957427381
 11
125.6374647038337
 21
-151.586957427381
 72
     1
 10
125.6374647038337
 20
-151.586957427381
 11
125.6374647038337
 21
-152.1460964246371
 72
     1
 10
125.6374647038337
 20
-152.1460964246371
 11
125.4131889877439
 21
-152.1460964246371
 72
     1
 10
125.4131889877439
 20
-152.1460964246371
 11
124.4399495131609
 21
-151.5673203831151
 72
     1
 10
124.4399495131609
 20
-151.5673203831151
 11
124.4399495131609
 21
-151.4012667807261
 72
     1
 10
124.4399495131609
 20
-151.4012667807261
 11
125.4386826943348
 21
-151.4012667807261
 72
     1
 10
125.4386826943348
 20
-151.4012667807261
 11
125.4386826943348
 21
-151.2245333823328
 72
     1
 10
125.4386826943348
 20
-151.2245333823328
 11
125.6374647038337
 21
-151.2245333823328
 72
     1
 10
125.6374647038337
 20
-151.2245333823328
 11
125.6374647038337
 21
-151.4012667807261
 97
        0
 92
        1
 93
        3
 72
     1
 10
124.7827365139432
 20
-151.586957427381
 11
125.4386826943348
 21
-151.9765977267628
 72
     1
 10
125.4386826943348
 20
-151.9765977267628
 11
125.4386826943348
 21
-151.586957427381
 72
     1
 10
125.4386826943348
 20
-151.586957427381
 11
124.7827365139432
 21
-151.586957427381
 97
        0
 75
     2
 76
     1
 98
        0
  0
ENDBLK
  5
8C
330
89
100
AcDbEntity
  8
0
100
AcDbBlockEnd
  0
BLOCK
  5
BF
330
BD
100
AcDbEntity
  8
0
100
AcDbBlockBegin
  2
block 4
 70
     0
 10
0.0
 20
0.0
 30
0.0
  3
block 4
  1

  0
SPLINE
  5
C1
330
BD
100
AcDbEntity
  8
_U+30EC_U+30A4_U+30E4_U+30FC 1
370
     0
100
AcDbSpline
210
0.0
220
0.0
230
1.0
 70
    11
 71
     3
 72
    26
 73
    22
 74
     0
 42
0.0000000001
 43
0.0000000001
 12
1.0
 22
0.0
 32
0.0
 13
1.0
 23
0.0
 33
0.0
 40
0.0
 40
0.0
 40
0.0
 40
0.0
 40
1.0
 40
1.0
 40
1.0
 40
2.0
 40
2.0
 40
2.0
 40
3.0
 40
3.0
 40
3.0
 40
4.0
 40
4.0
 40
4.0
 40
5.0
 40
5.0
 40
5.0
 40
6.0
 40
6.0
 40
6.0
 40
7.0
 40
7.0
 40
7.0
 40
7.0
 10
85.63249916478979
 20
-141.4690564967508
 30
0.0
 10
85.63249916478979
 20
-141.4690564967508
 30
0.0
 10
84.52817380699297
 20
-141.4690564967508
 30
0.0
 10
84.52817380699297
 20
-141.4690564967508
 30
0.0
 10
84.52817380699297
 20
-141.4690564967508
 30
0.0
 10
84.52817380699297
 20
-141.7505207978957
 30
0.0
 10
84.52817380699297
 20
-141.7505207978957
 30
0.0
 10
84.52817380699297
 20
-141.7505207978957
 30
0.0
 10
84.38003470112722
 20
-141.7505207978957
 30
0.0
 10
84.38003470112722
 20
-141.7505207978957
 30
0.0
 10
84.3653930453149
 20
-141.4673339490082
 30
0.0
 10
84.20244002886258
 20
-141.4277153509278
 30
0.0
 10
84.08823511352655
 20
-141.4025661538855
 30
0.0
 10
84.08823511352655
 20
-141.4025661538855
 30
0.0
 10
84.08823511352655
 20
-141.2778536973194
 30
0.0
 10
84.08823511352655
 20
-141.2778536973194
 30
0.0
 10
84.08823511352655
 20
-141.2778536973194
 30
0.0
 10
85.63249916478979
 20
-141.2778536973194
 30
0.0
 10
85.63249916478979
 20
-141.2778536973194
 30
0.0
 10
85.63249916478979
 20
-141.2778536973194
 30
0.0
 10
85.63249916478979
 20
-141.4690564967508
 30
0.0
 10
85.63249916478979
 20
-141.4690564967508
 30
0.0
  0
HATCH
  5
C2
330
BD
100
AcDbEntity
  8
_U+30EC_U+30A4_U+30E4_U+30FC 1
 62
   179
420
  2234388
100
AcDbHatch
 10
0.0
 20
0.0
 30
0.0
210
0.0
220
0.0
230
1.0
  2
SOLID
 70
     1
 71
     0
 91
        1
 92
        1
 93
        1
 72
     4
 94
        3
 73
     0
 74
     1
 95
       26
 96
       22
 40
0.0
 40
0.0
 40
0.0
 40
0.0
 40
1.0
 40
1.0
 40
1.0
 40
2.0
 40
2.0
 40
2.0
 40
3.0
 40
3.0
 40
3.0
 40
4.0
 40
4.0
 40
4.0
 40
5.0
 40
5.0
 40
5.0
 40
6.0
 40
6.0
 40
6.0
 40
7.0
 40
7.0
 40
7.0
 40
7.0
 10
85.63249916478979
 20
-141.4690564967508
 10
85.63249916478979
 20
-141.4690564967508
 10
84.52817380699297
 20
-141.4690564967508
 10
84.52817380699297
 20
-141.4690564967508
 10
84.52817380699297
 20
-141.4690564967508
 10
84.52817380699297
 20
-141.7505207978957
 10
84.52817380699297
 20
-141.7505207978957
 10
84.52817380699297
 20
-141.7505207978957
 10
84.38003470112722
 20
-141.7505207978957
 10
84.38003470112722
 20
-141.7505207978957
 10
84.3653930453149
 20
-141.4673339490082
 10
84.20244002886258
 20
-141.4277153509278
 10
84.08823511352655
 20
-141.4025661538855
 10
84.08823511352655
 20
-141.4025661538855
 10
84.08823511352655
 20
-141.2778536973194
 10
84.08823511352655
 20
-141.2778536973194
 10
84.08823511352655
 20
-141.2778536973194
 10
85.63249916478979
 20
-141.2778536973194
 10
85.63249916478979
 20
-141.2778536973194
 10
85.63249916478979
 20
-141.2778536973194
 10
85.63249916478979
 20
-141.4690564967508
 10
85.63249916478979
 20
-141.4690564967508
 97
        0
 97
        0
 75
     2
 76
     1
 98
        0
  0
POLYLINE
  5
C3
330
BD
100
AcDbEntity
  8
_U+30EC_U+30A4_U+30E4_U+30FC 1
370
     0
100
AcDb2dPolyline
 66
     1
 10
0.0
 20
0.0
 30
0.0
  0
VERTEX
  5
C4
330
C3
100
AcDbEntity
  8
_U+30EC_U+30A4_U+30E4_U+30FC 1
370
     0
100
AcDbVertex
100
AcDb2dVertex
 10
85.63249916478979
 20
-140.8010524821609
 30
0.0
  0
VERTEX
  5
C5
330
C3
100
AcDbEntity
  8
_U+30EC_U+30A4_U+30E4_U+30FC 1
370
     0
100
AcDbVertex
100
AcDb2dVertex
 10
85.38083493959229
 20
-140.8010524821609
 30
0.0
  0
VERTEX
  5
C6
330
C3
100
AcDbEntity
  8
_U+30EC_U+30A4_U+30E4_U+30FC 1
370
     0
100
AcDbVertex
100
AcDb2dVertex
 10
85.38083493959229
 20
-140.5864230334298
 30
0.0
  0
VERTEX
  5
C7
330
C3
100
AcDbEntity
  8
_U+30EC_U+30A4_U+30E4_U+30FC 1
370
     0
100
AcDbVertex
100
AcDb2dVertex
 10
85.63249916478979
 20
-140.5864230334298
 30
0.0
  0
VERTEX
  5
C8
330
C3
100
AcDbEntity
  8
_U+30EC_U+30A4_U+30E4_U+30FC 1
370
     0
100
AcDbVertex
100
AcDb2dVertex
 10
85.63249916478979
 20
-140.8010524821609
 30
0.0
  0
SEQEND
  5
C9
330
C3
100
AcDbEntity
  8
_U+30EC_U+30A4_U+30E4_U+30FC 1
370
     0
  0
HATCH
  5
CA
330
BD
100
AcDbEntity
  8
_U+30EC_U+30A4_U+30E4_U+30FC 1
 62
   179
420
  2234388
100
AcDbHatch
 10
0.0
 20
0.0
 30
0.0
210
0.0
220
0.0
230
1.0
  2
SOLID
 70
     1
 71
     0
 91
        1
 92
        1
 93
        4
 72
     1
 10
85.63249916478979
 20
-140.8010524821609
 11
85.38083493959229
 21
-140.8010524821609
 72
     1
 10
85.38083493959229
 20
-140.8010524821609
 11
85.38083493959229
 21
-140.5864230334298
 72
     1
 10
85.38083493959229
 20
-140.5864230334298
 11
85.63249916478979
 21
-140.5864230334298
 72
     1
 10
85.63249916478979
 20
-140.5864230334298
 11
85.63249916478979
 21
-140.8010524821609
 97
        0
 75
     2
 76
     1
 98
        0
  0
SPLINE
  5
CB
330
BD
100
AcDbEntity
  8
_U+30EC_U+30A4_U+30E4_U+30FC 1
370
     0
100
AcDbSpline
210
0.0
220
0.0
230
1.0
 70
    11
 71
     3
 72
    26
 73
    22
 74
     0
 42
0.0000000001
 43
0.0000000001
 12
1.0
 22
0.0
 32
0.0
 13
1.0
 23
0.0
 33
0.0
 40
0.0
 40
0.0
 40
0.0
 40
0.0
 40
1.0
 40
1.0
 40
1.0
 40
2.0
 40
2.0
 40
2.0
 40
3.0
 40
3.0
 40
3.0
 40
4.0
 40
4.0
 40
4.0
 40
5.0
 40
5.0
 40
5.0
 40
6.0
 40
6.0
 40
6.0
 40
7.0
 40
7.0
 40
7.0
 40
7.0
 10
85.63249916478979
 20
-140.0004122913888
 30
0.0
 10
85.63249916478979
 20
-140.0004122913888
 30
0.0
 10
84.52817380699297
 20
-140.0004122913888
 30
0.0
 10
84.52817380699297
 20
-140.0004122913888
 30
0.0
 10
84.52817380699297
 20
-140.0004122913888
 30
0.0
 10
84.52817380699297
 20
-140.2818765925337
 30
0.0
 10
84.52817380699297
 20
-140.2818765925337
 30
0.0
 10
84.52817380699297
 20
-140.2818765925337
 30
0.0
 10
84.38003470112722
 20
-140.2818765925337
 30
0.0
 10
84.38003470112722
 20
-140.2818765925337
 30
0.0
 10
84.3653930453149
 20
-139.9986897436462
 30
0.0
 10
84.20244002886258
 20
-139.9590711455658
 30
0.0
 10
84.08823511352655
 20
-139.9339219485235
 30
0.0
 10
84.08823511352655
 20
-139.9339219485235
 30
0.0
 10
84.08823511352655
 20
-139.8092094919574
 30
0.0
 10
84.08823511352655
 20
-139.8092094919574
 30
0.0
 10
84.08823511352655
 20
-139.8092094919574
 30
0.0
 10
85.63249916478979
 20
-139.8092094919574
 30
0.0
 10
85.63249916478979
 20
-139.8092094919574
 30
0.0
 10
85.63249916478979
 20
-139.8092094919574
 30
0.0
 10
85.63249916478979
 20
-140.0004122913888
 30
0.0
 10
85.63249916478979
 20
-140.0004122913888
 30
0.0
  0
HATCH
  5
CC
330
BD
100
AcDbEntity
  8
_U+30EC_U+30A4_U+30E4_U+30FC 1
 62
   179
420
  2234388
100
AcDbHatch
 10
0.0
 20
0.0
 30
0.0
210
0.0
220
0.0
230
1.0
  2
SOLID
 70
     1
 71
     0
 91
        1
 92
        1
 93
        1
 72
     4
 94
        3
 73
     0
 74
     1
 95
       26
 96
       22
 40
0.0
 40
0.0
 40
0.0
 40
0.0
 40
1.0
 40
1.0
 40
1.0
 40
2.0
 40
2.0
 40
2.0
 40
3.0
 40
3.0
 40
3.0
 40
4.0
 40
4.0
 40
4.0
 40
5.0
 40
5.0
 40
5.0
 40
6.0
 40
6.0
 40
6.0
 40
7.0
 40
7.0
 40
7.0
 40
7.0
 10
85.63249916478979
 20
-140.0004122913888
 10
85.63249916478979
 20
-140.0004122913888
 10
84.52817380699297
 20
-140.0004122913888
 10
84.52817380699297
 20
-140.0004122913888
 10
84.52817380699297
 20
-140.0004122913888
 10
84.52817380699297
 20
-140.2818765925337
 10
84.52817380699297
 20
-140.2818765925337
 10
84.52817380699297
 20
-140.2818765925337
 10
84.38003470112722
 20
-140.2818765925337
 10
84.38003470112722
 20
-140.2818765925337
 10
84.3653930453149
 20
-139.9986897436462
 10
84.20244002886258
 20
-139.9590711455658
 10
84.08823511352655
 20
-139.9339219485235
 10
84.08823511352655
 20
-139.9339219485235
 10
84.08823511352655
 20
-139.8092094919574
 10
84.08823511352655
 20
-139.8092094919574
 10
84.08823511352655
 20
-139.8092094919574
 10
85.63249916478979
 20
-139.8092094919574
 10
85.63249916478979
 20
-139.8092094919574
 10
85.63249916478979
 20
-139.8092094919574
 10
85.63249916478979
 20
-140.0004122913888
 10
85.63249916478979
 20
-140.0004122913888
 97
        0
 97
        0
 75
     2
 76
     1
 98
        0
  0
ENDBLK
  5
C0
330
BD
100
AcDbEntity
  8
0
100
AcDbBlockEnd
  0
BLOCK
  5
D7
330
D5
100
AcDbEntity
  8
0
100
AcDbBlockBegin
  2
block 5
 70
     0
 10
0.0
 20
0.0
 30
0.0
  3
block 5
  1

  0
SPLINE
  5
D9
330
D5
100
AcDbEntity
  8
_U+30EC_U+30A4_U+30E4_U+30FC 1
370
     0
100
AcDbSpline
210
0.0
220
0.0
230
1.0
 70
    11
 71
     3
 72
    29
 73
    25
 74
     0
 42
0.0000000001
 43
0.0000000001
 12
1.0
 22
0.0
 32
0.0
 13
1.0
 23
0.0
 33
0.0
 40
0.0
 40
0.0
 40
0.0
 40
0.0
 40
1.0
 40
1.0
 40
1.0
 40
2.0
 40
2.0
 40
2.0
 40
3.0
 40
3.0
 40
3.0
 40
4.0
 40
4.0
 40
4.0
 40
5.0
 40
5.0
 40
5.0
 40
6.0
 40
6.0
 40
6.0
 40
7.0
 40
7.0
 40
7.0
 40
8.0
 40
8.0
 40
8.0
 40
8.0
 10
122.683295325232
 20
-148.6782633091846
 30
0.0
 10
122.683295325232
 20
-148.9052951016626
 30
0.0
 10
122.5458360153705
 20
-149.1216470981363
 30
0.0
 10
122.1968478427147
 20
-149.1216470981363
 30
0.0
 10
121.9408772481606
 20
-149.1216470981363
 30
0.0
 10
121.8457926127677
 20
-149.0010687561525
 30
0.0
 10
121.7844699131303
 20
-148.910807254439
 30
0.0
 10
121.725214270784
 20
-149.0172607049332
 30
0.0
 10
121.6108371006737
 20
-149.0820285000559
 30
0.0
 10
121.4499511415125
 20
-149.0820285000559
 30
0.0
 10
121.1750325217896
 20
-149.0820285000559
 30
0.0
 10
121.0396402692193
 20
-148.9125298021816
 30
0.0
 10
121.0396402692193
 20
-148.6782633091846
 30
0.0
 10
121.0396402692193
 20
-148.4364176061201
 30
0.0
 10
121.1836452605027
 20
-148.2741536087648
 30
0.0
 10
121.4499511415125
 20
-148.2741536087648
 30
0.0
 10
121.6108371006737
 20
-148.2741536087648
 30
0.0
 10
121.725214270784
 20
-148.3409884611787
 30
0.0
 10
121.7844699131303
 20
-148.4474419116729
 30
0.0
 10
121.8351128167635
 20
-148.3716498109974
 30
0.0
 10
121.9301974521563
 20
-148.236257558427
 30
0.0
 10
122.1927137281324
 20
-148.236257558427
 30
0.0
 10
122.567195607379
 20
-148.236257558427
 30
0.0
 10
122.683295325232
 20
-148.4743136564578
 30
0.0
 10
122.683295325232
 20
-148.6782633091846
 30
0.0
  0
SPLINE
  5
DA
330
D5
100
AcDbEntity
  8
_U+30EC_U+30A4_U+30E4_U+30FC 1
370
     0
100
AcDbSpline
210
0.0
220
0.0
230
1.0
 70
    11
 71
     3
 72
    17
 73
    13
 74
     0
 42
0.0000000001
 43
0.0000000001
 12
1.0
 22
0.0
 32
0.0
 13
1.0
 23
0.0
 33
0.0
 40
0.0
 40
0.0
 40
0.0
 40
0.0
 40
1.0
 40
1.0
 40
1.0
 40
2.0
 40
2.0
 40
2.0
 40
3.0
 40
3.0
 40
3.0
 40
4.0
 40
4.0
 40
4.0
 40
4.0
 10
121.2322211068447
 20
-148.6782633091846
 30
0.0
 10
121.2322211068447
 20
-148.8188232049828
 30
0.0
 10
121.3273057422376
 20
-148.8908257006245
 30
0.0
 10
121.4626979948079
 20
-148.8908257006245
 30
0.0
 10
121.5853433940828
 20
-148.8908257006245
 30
0.0
 10
121.7038546787754
 20
-148.8298475105356
 30
0.0
 10
121.7038546787754
 20
-148.6782633091846
 30
0.0
 10
121.7038546787754
 20
-148.5266791078336
 30
0.0
 10
121.5853433940828
 20
-148.4653564081962
 30
0.0
 10
121.4626979948079
 20
-148.4653564081962
 30
0.0
 10
121.3273057422376
 20
-148.4653564081962
 30
0.0
 10
121.2322211068447
 20
-148.539425961129
 30
0.0
 10
121.2322211068447
 20
-148.6782633091846
 30
0.0
  0
SPLINE
  5
DB
330
D5
100
AcDbEntity
  8
_U+30EC_U+30A4_U+30E4_U+30FC 1
370
     0
100
AcDbSpline
210
0.0
220
0.0
230
1.0
 70
    11
 71
     3
 72
    17
 73
    13
 74
     0
 42
0.0000000001
 43
0.0000000001
 12
1.0
 22
0.0
 32
0.0
 13
1.0
 23
0.0
 33
0.0
 40
0.0
 40
0.0
 40
0.0
 40
0.0
 40
1.0
 40
1.0
 40
1.0
 40
2.0
 40
2.0
 40
2.0
 40
3.0
 40
3.0
 40
3.0
 40
4.0
 40
4.0
 40
4.0
 40
4.0
 10
121.8923014018186
 20
-148.6782633091846
 30
0.0
 10
121.8923014018186
 20
-148.8009087084595
 30
0.0
 10
121.9791178080469
 20
-148.9307888082534
 30
0.0
 10
122.1820339321281
 20
-148.9307888082534
 30
0.0
 10
122.387361623049
 20
-148.9307888082534
 30
0.0
 10
122.4886474303153
 20
-148.8226128100166
 30
0.0
 10
122.4886474303153
 20
-148.6782633091846
 30
0.0
 10
122.4886474303153
 20
-148.5194444073146
 30
0.0
 10
122.3660020310405
 20
-148.4257378101158
 30
0.0
 10
122.1882351040016
 20
-148.4257378101158
 30
0.0
 10
121.9663709547515
 20
-148.4257378101158
 30
0.0
 10
121.8923014018186
 20
-148.5645751581714
 30
0.0
 10
121.8923014018186
 20
-148.6782633091846
 30
0.0
  0
HATCH
  5
DC
330
D5
100
AcDbEntity
  8
_U+30EC_U+30A4_U+30E4_U+30FC 1
 62
   179
420
  2234388
100
AcDbHatch
 10
0.0
 20
0.0
 30
0.0
210
0.0
220
0.0
230
1.0
  2
SOLID
 70
     1
 71
     0
 91
        3
 92
        1
 93
        1
 72
     4
 94
        3
 73
     0
 74
     1
 95
       29
 96
       25
 40
0.0
 40
0.0
 40
0.0
 40
0.0
 40
1.0
 40
1.0
 40
1.0
 40
2.0
 40
2.0
 40
2.0
 40
3.0
 40
3.0
 40
3.0
 40
4.0
 40
4.0
 40
4.0
 40
5.0
 40
5.0
 40
5.0
 40
6.0
 40
6.0
 40
6.0
 40
7.0
 40
7.0
 40
7.0
 40
8.0
 40
8.0
 40
8.0
 40
8.0
 10
122.683295325232
 20
-148.6782633091846
 10
122.683295325232
 20
-148.9052951016626
 10
122.5458360153705
 20
-149.1216470981363
 10
122.1968478427147
 20
-149.1216470981363
 10
121.9408772481606
 20
-149.1216470981363
 10
121.8457926127677
 20
-149.0010687561525
 10
121.7844699131303
 20
-148.910807254439
 10
121.725214270784
 20
-149.0172607049332
 10
121.6108371006737
 20
-149.0820285000559
 10
121.4499511415125
 20
-149.0820285000559
 10
121.1750325217896
 20
-149.0820285000559
 10
121.0396402692193
 20
-148.9125298021816
 10
121.0396402692193
 20
-148.6782633091846
 10
121.0396402692193
 20
-148.4364176061201
 10
121.1836452605027
 20
-148.2741536087648
 10
121.4499511415125
 20
-148.2741536087648
 10
121.6108371006737
 20
-148.2741536087648
 10
121.725214270784
 20
-148.3409884611787
 10
121.7844699131303
 20
-148.4474419116729
 10
121.8351128167635
 20
-148.3716498109974
 10
121.9301974521563
 20
-148.236257558427
 10
122.1927137281324
 20
-148.236257558427
 10
122.567195607379
 20
-148.236257558427
 10
122.683295325232
 20
-148.4743136564578
 10
122.683295325232
 20
-148.6782633091846
 97
        0
 97
        0
 92
        1
 93
        1
 72
     4
 94
        3
 73
     0
 74
     1
 95
       17
 96
       13
 40
0.0
 40
0.0
 40
0.0
 40
0.0
 40
1.0
 40
1.0
 40
1.0
 40
2.0
 40
2.0
 40
2.0
 40
3.0
 40
3.0
 40
3.0
 40
4.0
 40
4.0
 40
4.0
 40
4.0
 10
121.2322211068447
 20
-148.6782633091846
 10
121.2322211068447
 20
-148.8188232049828
 10
121.3273057422376
 20
-148.8908257006245
 10
121.4626979948079
 20
-148.8908257006245
 10
121.5853433940828
 20
-148.8908257006245
 10
121.7038546787754
 20
-148.8298475105356
 10
121.7038546787754
 20
-148.6782633091846
 10
121.7038546787754
 20
-148.5266791078336
 10
121.5853433940828
 20
-148.4653564081962
 10
121.4626979948079
 20
-148.4653564081962
 10
121.3273057422376
 20
-148.4653564081962
 10
121.2322211068447
 20
-148.539425961129
 10
121.2322211068447
 20
-148.6782633091846
 97
        0
 97
        0
 92
        1
 93
        1
 72
     4
 94
        3
 73
     0
 74
     1
 95
       17
 96
       13
 40
0.0
 40
0.0
 40
0.0
 40
0.0
 40
1.0
 40
1.0
 40
1.0
 40
2.0
 40
2.0
 40
2.0
 40
3.0
 40
3.0
 40
3.0
 40
4.0
 40
4.0
 40
4.0
 40
4.0
 10
121.8923014018186
 20
-148.6782633091846
 10
121.8923014018186
 20
-148.8009087084595
 10
121.9791178080469
 20
-148.9307888082534
 10
122.1820339321281
 20
-148.9307888082534
 10
122.387361623049
 20
-148.9307888082534
 10
122.4886474303153
 20
-148.8226128100166
 10
122.4886474303153
 20
-148.6782633091846
 10
122.4886474303153
 20
-148.5194444073146
 10
122.3660020310405
 20
-148.4257378101158
 10
122.1882351040016
 20
-148.4257378101158
 10
121.9663709547515
 20
-148.4257378101158
 10
121.8923014018186
 20
-148.5645751581714
 10
121.8923014018186
 20
-148.6782633091846
 97
        0
 97
        0
 75
     2
 76
     1
 98
        0
  0
POLYLINE
  5
DD
330
D5
100
AcDbEntity
  8
_U+30EC_U+30A4_U+30E4_U+30FC 1
370
     0
100
AcDb2dPolyline
 66
     1
 10
0.0
 20
0.0
 30
0.0
  0
VERTEX
  5
DE
330
DD
100
AcDbEntity
  8
_U+30EC_U+30A4_U+30E4_U+30FC 1
370
     0
100
AcDbVertex
100
AcDb2dVertex
 10
122.6326524215988
 20
-148.0516004404177
 30
0.0
  0
VERTEX
  5
DF
330
DD
100
AcDbEntity
  8
_U+30EC_U+30A4_U+30E4_U+30FC 1
370
     0
100
AcDbVertex
100
AcDb2dVertex
 10
122.380815941627
 20
-148.0516004404177
 30
0.0
  0
VERTEX
  5
E0
330
DD
100
AcDbEntity
  8
_U+30EC_U+30A4_U+30E4_U+30FC 1
370
     0
100
AcDbVertex
100
AcDb2dVertex
 10
122.380815941627
 20
-147.8369709916866
 30
0.0
  0
VERTEX
  5
E1
330
DD
100
AcDbEntity
  8
_U+30EC_U+30A4_U+30E4_U+30FC 1
370
     0
100
AcDbVertex
100
AcDb2dVertex
 10
122.6326524215988
 20
-147.8369709916866
 30
0.0
  0
VERTEX
  5
E2
330
DD
100
AcDbEntity
  8
_U+30EC_U+30A4_U+30E4_U+30FC 1
370
     0
100
AcDbVertex
100
AcDb2dVertex
 10
122.6326524215988
 20
-148.0516004404177
 30
0.0
  0
SEQEND
  5
E3
330
DD
100
AcDbEntity
  8
_U+30EC_U+30A4_U+30E4_U+30FC 1
370
     0
  0
HATCH
  5
E4
330
D5
100
AcDbEntity
  8
_U+30EC_U+30A4_U+30E4_U+30FC 1
 62
   179
420
  2234388
100
AcDbHatch
 10
0.0
 20
0.0
 30
0.0
210
0.0
220
0.0
230
1.0
  2
SOLID
 70
     1
 71
     0
 91
        1
 92
        1
 93
        4
 72
     1
 10
122.6326524215988
 20
-148.0516004404177
 11
122.380815941627
 21
-148.0516004404177
 72
     1
 10
122.380815941627
 20
-148.0516004404177
 11
122.380815941627
 21
-147.8369709916866
 72
     1
 10
122.380815941627
 20
-147.8369709916866
 11
122.6326524215988
 21
-147.8369709916866
 72
     1
 10
122.6326524215988
 20
-147.8369709916866
 11
122.6326524215988
 21
-148.0516004404177
 97
        0
 75
     2
 76
     1
 98
        0
  0
SPLINE
  5
E5
330
D5
100
AcDbEntity
  8
_U+30EC_U+30A4_U+30E4_U+30FC 1
370
     0
100
AcDbSpline
210
0.0
220
0.0
230
1.0
 70
    11
 71
     3
 72
    53
 73
    49
 74
     0
 42
0.0000000001
 43
0.0000000001
 12
1.0
 22
0.0
 32
0.0
 13
1.0
 23
0.0
 33
0.0
 40
0.0
 40
0.0
 40
0.0
 40
0.0
 40
1.0
 40
1.0
 40
1.0
 40
2.0
 40
2.0
 40
2.0
 40
3.0
 40
3.0
 40
3.0
 40
4.0
 40
4.0
 40
4.0
 40
5.0
 40
5.0
 40
5.0
 40
6.0
 40
6.0
 40
6.0
 40
7.0
 40
7.0
 40
7.0
 40
8.0
 40
8.0
 40
8.0
 40
9.0
 40
9.0
 40
9.0
 40
10.0
 40
10.0
 40
10.0
 40
11.0
 40
11.0
 40
11.0
 40
12.0
 40
12.0
 40
12.0
 40
13.0
 40
13.0
 40
13.0
 40
14.0
 40
14.0
 40
14.0
 40
15.0
 40
15.0
 40
15.0
 40
16.0
 40
16.0
 40
16.0
 40
16.0
 10
122.683295325232
 20
-147.2258110526033
 30
0.0
 10
122.683295325232
 20
-147.2926459050171
 30
0.0
 10
122.6664143573542
 20
-147.3791178016969
 30
0.0
 10
122.6030246004256
 20
-147.4655896983767
 30
0.0
 10
122.4931260544462
 20
-147.6133842946939
 30
0.0
 10
122.3618679164582
 20
-147.6316433007657
 30
0.0
 10
122.2540364277698
 20
-147.6478352495464
 30
0.0
 10
122.2540364277698
 20
-147.6478352495464
 30
0.0
 10
122.2540364277698
 20
-147.4583549978576
 30
0.0
 10
122.2540364277698
 20
-147.4583549978576
 30
0.0
 10
122.4528184372687
 20
-147.4115016992583
 30
0.0
 10
122.4824462584419
 20
-147.3033257010214
 30
0.0
 10
122.4824462584419
 20
-147.2240885048606
 30
0.0
 10
122.4824462584419
 20
-147.104888201071
 30
0.0
 10
122.3828829989182
 20
-146.9750081012771
 30
0.0
 10
122.1503390536638
 20
-146.9750081012771
 30
0.0
 10
121.8943684591097
 20
-146.9750081012771
 30
0.0
 10
121.8244330207592
 20
-147.1283148503707
 30
0.0
 10
121.8244330207592
 20
-147.2313232053797
 30
0.0
 10
121.8244330207592
 20
-147.2581949501646
 30
0.0
 10
121.8244330207592
 20
-147.3791178016969
 30
0.0
 10
121.953624101456
 20
-147.4549099023724
 30
0.0
 10
121.953624101456
 20
-147.4549099023724
 30
0.0
 10
121.9346760762872
 20
-147.6044270464322
 30
0.0
 10
121.9346760762872
 20
-147.6044270464322
 30
0.0
 10
121.9346760762872
 20
-147.6044270464322
 30
0.0
 10
121.0882161155613
 20
-147.5017632009718
 30
0.0
 10
121.0882161155613
 20
-147.5017632009718
 30
0.0
 10
121.0882161155613
 20
-147.5017632009718
 30
0.0
 10
121.0882161155613
 20
-146.8382378105127
 30
0.0
 10
121.0882161155613
 20
-146.8382378105127
 30
0.0
 10
121.0882161155613
 20
-146.8382378105127
 30
0.0
 10
121.2828640104779
 20
-146.8382378105127
 30
0.0
 10
121.2828640104779
 20
-146.8382378105127
 30
0.0
 10
121.2828640104779
 20
-146.8382378105127
 30
0.0
 10
121.2828640104779
 20
-147.3629258529162
 30
0.0
 10
121.2828640104779
 20
-147.3629258529162
 30
0.0
 10
121.2828640104779
 20
-147.3629258529162
 30
0.0
 10
121.7059217360666
 20
-147.4187363997773
 30
0.0
 10
121.7059217360666
 20
-147.4187363997773
 30
0.0
 10
121.6721598003111
 20
-147.3663709484015
 30
0.0
 10
121.6318521831337
 20
-147.2960910005024
 30
0.0
 10
121.6318521831337
 20
-147.1951497027846
 30
0.0
 10
121.6318521831337
 20
-146.9787977063109
 30
0.0
 10
121.8182318488857
 20
-146.7769151108752
 30
0.0
 10
122.1313910284949
 20
-146.7769151108752
 30
0.0
 10
122.4486843226864
 20
-146.7769151108752
 30
0.0
 10
122.683295325232
 20
-146.9677734007581
 30
0.0
 10
122.683295325232
 20
-147.2258110526033
 30
0.0
  0
HATCH
  5
E6
330
D5
100
AcDbEntity
  8
_U+30EC_U+30A4_U+30E4_U+30FC 1
 62
   179
420
  2234388
100
AcDbHatch
 10
0.0
 20
0.0
 30
0.0
210
0.0
220
0.0
230
1.0
  2
SOLID
 70
     1
 71
     0
 91
        1
 92
        1
 93
        1
 72
     4
 94
        3
 73
     0
 74
     1
 95
       53
 96
       49
 40
0.0
 40
0.0
 40
0.0
 40
0.0
 40
1.0
 40
1.0
 40
1.0
 40
2.0
 40
2.0
 40
2.0
 40
3.0
 40
3.0
 40
3.0
 40
4.0
 40
4.0
 40
4.0
 40
5.0
 40
5.0
 40
5.0
 40
6.0
 40
6.0
 40
6.0
 40
7.0
 40
7.0
 40
7.0
 40
8.0
 40
8.0
 40
8.0
 40
9.0
 40
9.0
 40
9.0
 40
10.0
 40
10.0
 40
10.0
 40
11.0
 40
11.0
 40
11.0
 40
12.0
 40
12.0
 40
12.0
 40
13.0
 40
13.0
 40
13.0
 40
14.0
 40
14.0
 40
14.0
 40
15.0
 40
15.0
 40
15.0
 40
16.0
 40
16.0
 40
16.0
 40
16.0
 10
122.683295325232
 20
-147.2258110526033
 10
122.683295325232
 20
-147.2926459050171
 10
122.6664143573542
 20
-147.3791178016969
 10
122.6030246004256
 20
-147.4655896983767
 10
122.4931260544462
 20
-147.6133842946939
 10
122.3618679164582
 20
-147.6316433007657
 10
122.2540364277698
 20
-147.6478352495464
 10
122.2540364277698
 20
-147.6478352495464
 10
122.2540364277698
 20
-147.4583549978576
 10
122.2540364277698
 20
-147.4583549978576
 10
122.4528184372687
 20
-147.4115016992583
 10
122.4824462584419
 20
-147.3033257010214
 10
122.4824462584419
 20
-147.2240885048606
 10
122.4824462584419
 20
-147.104888201071
 10
122.3828829989182
 20
-146.9750081012771
 10
122.1503390536638
 20
-146.9750081012771
 10
121.8943684591097
 20
-146.9750081012771
 10
121.8244330207592
 20
-147.1283148503707
 10
121.8244330207592
 20
-147.2313232053797
 10
121.8244330207592
 20
-147.2581949501646
 10
121.8244330207592
 20
-147.3791178016969
 10
121.953624101456
 20
-147.4549099023724
 10
121.953624101456
 20
-147.4549099023724
 10
121.9346760762872
 20
-147.6044270464322
 10
121.9346760762872
 20
-147.6044270464322
 10
121.9346760762872
 20
-147.6044270464322
 10
121.0882161155613
 20
-147.5017632009718
 10
121.0882161155613
 20
-147.5017632009718
 10
121.0882161155613
 20
-147.5017632009718
 10
121.0882161155613
 20
-146.8382378105127
 10
121.0882161155613
 20
-146.8382378105127
 10
121.0882161155613
 20
-146.8382378105127
 10
121.2828640104779
 20
-146.8382378105127
 10
121.2828640104779
 20
-146.8382378105127
 10
121.2828640104779
 20
-146.8382378105127
 10
121.2828640104779
 20
-147.3629258529162
 10
121.2828640104779
 20
-147.3629258529162
 10
121.2828640104779
 20
-147.3629258529162
 10
121.7059217360666
 20
-147.4187363997773
 10
121.7059217360666
 20
-147.4187363997773
 10
121.6721598003111
 20
-147.3663709484015
 10
121.6318521831337
 20
-147.2960910005024
 10
121.6318521831337
 20
-147.1951497027846
 10
121.6318521831337
 20
-146.9787977063109
 10
121.8182318488857
 20
-146.7769151108752
 10
122.1313910284949
 20
-146.7769151108752
 10
122.4486843226864
 20
-146.7769151108752
 10
122.683295325232
 20
-146.9677734007581
 10
122.683295325232
 20
-147.2258110526033
 97
        0
 97
        0
 75
     2
 76
     1
 98
        0
  0
ENDBLK
  5
D8
330
D5
100
AcDbEntity
  8
0
100
AcDbBlockEnd
  0
BLOCK
  5
F5
330
F3
100
AcDbEntity
  8
0
100
AcDbBlockBegin
  2
block 6
 70
     0
 10
0.0
 20
0.0
 30
0.0
  3
block 6
  1

  0
SPLINE
  5
F7
330
F3
100
AcDbEntity
  8
_U+30EC_U+30A4_U+30E4_U+30FC 1
370
     0
100
AcDbSpline
210
0.0
220
0.0
230
1.0
 70
    11
 71
     3
 72
    26
 73
    22
 74
     0
 42
0.0000000001
 43
0.0000000001
 12
1.0
 22
0.0
 32
0.0
 13
1.0
 23
0.0
 33
0.0
 40
0.0
 40
0.0
 40
0.0
 40
0.0
 40
1.0
 40
1.0
 40
1.0
 40
2.0
 40
2.0
 40
2.0
 40
3.0
 40
3.0
 40
3.0
 40
4.0
 40
4.0
 40
4.0
 40
5.0
 40
5.0
 40
5.0
 40
6.0
 40
6.0
 40
6.0
 40
7.0
 40
7.0
 40
7.0
 40
7.0
 10
95.43637964193952
 20
-156.5299804296175
 30
0.0
 10
95.43637964193952
 20
-156.5299804296175
 30
0.0
 10
95.43637964193952
 20
-155.4258273265949
 30
0.0
 10
95.43637964193952
 20
-155.4258273265949
 30
0.0
 10
95.43637964193952
 20
-155.4258273265949
 30
0.0
 10
95.1549153407946
 20
-155.4258273265949
 30
0.0
 10
95.1549153407946
 20
-155.4258273265949
 30
0.0
 10
95.1549153407946
 20
-155.4258273265949
 30
0.0
 10
95.1549153407946
 20
-155.2776882207292
 30
0.0
 10
95.1549153407946
 20
-155.2776882207292
 30
0.0
 10
95.43810218968214
 20
-155.2628743101426
 30
0.0
 10
95.47772078776252
 20
-155.0999212936903
 30
0.0
 10
95.50286998480485
 20
-154.98554412358
 30
0.0
 10
95.50286998480485
 20
-154.98554412358
 30
0.0
 10
95.62758244137089
 20
-154.98554412358
 30
0.0
 10
95.62758244137089
 20
-154.98554412358
 30
0.0
 10
95.62758244137089
 20
-154.98554412358
 30
0.0
 10
95.62758244137089
 20
-156.5299804296175
 30
0.0
 10
95.62758244137089
 20
-156.5299804296175
 30
0.0
 10
95.62758244137089
 20
-156.5299804296175
 30
0.0
 10
95.43637964193952
 20
-156.5299804296175
 30
0.0
 10
95.43637964193952
 20
-156.5299804296175
 30
0.0
  0
HATCH
  5
F8
330
F3
100
AcDbEntity
  8
_U+30EC_U+30A4_U+30E4_U+30FC 1
 62
   179
420
  2234388
100
AcDbHatch
 10
0.0
 20
0.0
 30
0.0
210
0.0
220
0.0
230
1.0
  2
SOLID
 70
     1
 71
     0
 91
        1
 92
        1
 93
        1
 72
     4
 94
        3
 73
     0
 74
     1
 95
       26
 96
       22
 40
0.0
 40
0.0
 40
0.0
 40
0.0
 40
1.0
 40
1.0
 40
1.0
 40
2.0
 40
2.0
 40
2.0
 40
3.0
 40
3.0
 40
3.0
 40
4.0
 40
4.0
 40
4.0
 40
5.0
 40
5.0
 40
5.0
 40
6.0
 40
6.0
 40
6.0
 40
7.0
 40
7.0
 40
7.0
 40
7.0
 10
95.43637964193952
 20
-156.5299804296175
 10
95.43637964193952
 20
-156.5299804296175
 10
95.43637964193952
 20
-155.4258273265949
 10
95.43637964193952
 20
-155.4258273265949
 10
95.43637964193952
 20
-155.4258273265949
 10
95.1549153407946
 20
-155.4258273265949
 10
95.1549153407946
 20
-155.4258273265949
 10
95.1549153407946
 20
-155.4258273265949
 10
95.1549153407946
 20
-155.2776882207292
 10
95.1549153407946
 20
-155.2776882207292
 10
95.43810218968214
 20
-155.2628743101426
 10
95.47772078776252
 20
-155.0999212936903
 10
95.50286998480485
 20
-154.98554412358
 10
95.50286998480485
 20
-154.98554412358
 10
95.62758244137089
 20
-154.98554412358
 10
95.62758244137089
 20
-154.98554412358
 10
95.62758244137089
 20
-154.98554412358
 10
95.62758244137089
 20
-156.5299804296175
 10
95.62758244137089
 20
-156.5299804296175
 10
95.62758244137089
 20
-156.5299804296175
 10
95.43637964193952
 20
-156.5299804296175
 10
95.43637964193952
 20
-156.5299804296175
 97
        0
 97
        0
 75
     2
 76
     1
 98
        0
  0
SPLINE
  5
F9
330
F3
100
AcDbEntity
  8
_U+30EC_U+30A4_U+30E4_U+30FC 1
370
     0
100
AcDbSpline
210
0.0
220
0.0
230
1.0
 70
    11
 71
     3
 72
    44
 73
    40
 74
     0
 42
0.0000000001
 43
0.0000000001
 12
1.0
 22
0.0
 32
0.0
 13
1.0
 23
0.0
 33
0.0
 40
0.0
 40
0.0
 40
0.0
 40
0.0
 40
1.0
 40
1.0
 40
1.0
 40
2.0
 40
2.0
 40
2.0
 40
3.0
 40
3.0
 40
3.0
 40
4.0
 40
4.0
 40
4.0
 40
5.0
 40
5.0
 40
5.0
 40
6.0
 40
6.0
 40
6.0
 40
7.0
 40
7.0
 40
7.0
 40
8.0
 40
8.0
 40
8.0
 40
9.0
 40
9.0
 40
9.0
 40
10.0
 40
10.0
 40
10.0
 40
11.0
 40
11.0
 40
11.0
 40
12.0
 40
12.0
 40
12.0
 40
13.0
 40
13.0
 40
13.0
 40
13.0
 10
96.55879175103392
 20
-155.9481038021588
 30
0.0
 10
96.37310110437895
 20
-156.1069227040288
 30
0.0
 10
96.2938639082182
 20
-156.1809922569617
 30
0.0
 10
96.2525227623952
 20
-156.3246527386966
 30
0.0
 10
96.2525227623952
 20
-156.3246527386966
 30
0.0
 10
96.91604815285433
 20
-156.3246527386966
 30
0.0
 10
96.91604815285433
 20
-156.3246527386966
 30
0.0
 10
96.91604815285433
 20
-156.3246527386966
 30
0.0
 10
96.91604815285433
 20
-156.5299804296175
 30
0.0
 10
96.91604815285433
 20
-156.5299804296175
 30
0.0
 10
96.91604815285433
 20
-156.5299804296175
 30
0.0
 10
96.03961586140677
 20
-156.5299804296175
 30
0.0
 10
96.03961586140677
 20
-156.5299804296175
 30
0.0
 10
96.06648760619171
 20
-156.1723795182486
 30
0.0
 10
96.1226426626013
 20
-156.0941758507334
 30
0.0
 10
96.45061575279708
 20
-155.7958305817108
 30
0.0
 10
96.66903480656191
 20
-155.5970485722119
 30
0.0
 10
96.72484535342296
 20
-155.5291801911524
 30
0.0
 10
96.72484535342296
 20
-155.391720881291
 30
0.0
 10
96.72484535342296
 20
-155.2732095965984
 30
0.0
 10
96.6635226537855
 20
-155.1422959681589
 30
0.0
 10
96.49574650365385
 20
-155.1422959681589
 30
0.0
 10
96.27388235440375
 20
-155.1422959681589
 30
0.0
 10
96.26664765388473
 20
-155.3727728561221
 30
0.0
 10
96.26320255839948
 20
-155.4892170835235
 30
0.0
 10
96.26320255839948
 20
-155.4892170835235
 30
0.0
 10
96.07199975896812
 20
-155.4892170835235
 30
0.0
 10
96.07199975896812
 20
-155.4892170835235
 30
0.0
 10
96.07923445948714
 20
-155.3620930601178
 30
0.0
 10
96.08819170774879
 20
-155.2501274568472
 30
0.0
 10
96.15674910790526
 20
-155.1316161721546
 30
0.0
 10
96.25045570510406
 20
-154.9707302129934
 30
0.0
 10
96.40927460697408
 20
-154.936968277238
 30
0.0
 10
96.50849335694927
 20
-154.936968277238
 30
0.0
 10
96.74482690723741
 20
-154.936968277238
 30
0.0
 10
96.92156030563072
 20
-155.1209363761503
 30
0.0
 10
96.92156030563072
 20
-155.3937879385821
 30
0.0
 10
96.92156030563072
 20
-155.6225422788027
 30
0.0
 10
96.82234155565553
 20
-155.7217610287779
 30
0.0
 10
96.55879175103392
 20
-155.9481038021588
 30
0.0
  0
HATCH
  5
FA
330
F3
100
AcDbEntity
  8
_U+30EC_U+30A4_U+30E4_U+30FC 1
 62
   179
420
  2234388
100
AcDbHatch
 10
0.0
 20
0.0
 30
0.0
210
0.0
220
0.0
230
1.0
  2
SOLID
 70
     1
 71
     0
 91
        1
 92
        1
 93
        1
 72
     4
 94
        3
 73
     0
 74
     1
 95
       44
 96
       40
 40
0.0
 40
0.0
 40
0.0
 40
0.0
 40
1.0
 40
1.0
 40
1.0
 40
2.0
 40
2.0
 40
2.0
 40
3.0
 40
3.0
 40
3.0
 40
4.0
 40
4.0
 40
4.0
 40
5.0
 40
5.0
 40
5.0
 40
6.0
 40
6.0
 40
6.0
 40
7.0
 40
7.0
 40
7.0
 40
8.0
 40
8.0
 40
8.0
 40
9.0
 40
9.0
 40
9.0
 40
10.0
 40
10.0
 40
10.0
 40
11.0
 40
11.0
 40
11.0
 40
12.0
 40
12.0
 40
12.0
 40
13.0
 40
13.0
 40
13.0
 40
13.0
 10
96.55879175103392
 20
-155.9481038021588
 10
96.37310110437895
 20
-156.1069227040288
 10
96.2938639082182
 20
-156.1809922569617
 10
96.2525227623952
 20
-156.3246527386966
 10
96.2525227623952
 20
-156.3246527386966
 10
96.91604815285433
 20
-156.3246527386966
 10
96.91604815285433
 20
-156.3246527386966
 10
96.91604815285433
 20
-156.3246527386966
 10
96.91604815285433
 20
-156.5299804296175
 10
96.91604815285433
 20
-156.5299804296175
 10
96.91604815285433
 20
-156.5299804296175
 10
96.03961586140677
 20
-156.5299804296175
 10
96.03961586140677
 20
-156.5299804296175
 10
96.06648760619171
 20
-156.1723795182486
 10
96.1226426626013
 20
-156.0941758507334
 10
96.45061575279708
 20
-155.7958305817108
 10
96.66903480656191
 20
-155.5970485722119
 10
96.72484535342296
 20
-155.5291801911524
 10
96.72484535342296
 20
-155.391720881291
 10
96.72484535342296
 20
-155.2732095965984
 10
96.6635226537855
 20
-155.1422959681589
 10
96.49574650365385
 20
-155.1422959681589
 10
96.27388235440375
 20
-155.1422959681589
 10
96.26664765388473
 20
-155.3727728561221
 10
96.26320255839948
 20
-155.4892170835235
 10
96.26320255839948
 20
-155.4892170835235
 10
96.07199975896812
 20
-155.4892170835235
 10
96.07199975896812
 20
-155.4892170835235
 10
96.07923445948714
 20
-155.3620930601178
 10
96.08819170774879
 20
-155.2501274568472
 10
96.15674910790526
 20
-155.1316161721546
 10
96.25045570510406
 20
-154.9707302129934
 10
96.40927460697408
 20
-154.936968277238
 10
96.50849335694927
 20
-154.936968277238
 10
96.74482690723741
 20
-154.936968277238
 10
96.92156030563072
 20
-155.1209363761503
 10
96.92156030563072
 20
-155.3937879385821
 10
96.92156030563072
 20
-155.6225422788027
 10
96.82234155565553
 20
-155.7217610287779
 10
96.55879175103392
 20
-155.9481038021588
 97
        0
 97
        0
 75
     2
 76
     1
 98
        0
  0
ENDBLK
  5
F6
330
F3
100
AcDbEntity
  8
0
100
AcDbBlockEnd
  0
ENDSEC
  0
SECTION
  2
ENTITIES
  0
POLYLINE
  5
41
330
1F
100
AcDbEntity
  8
_U+30EC_U+30A4_U+30E4_U+30FC 1
 62
   179
420
  2234388
370
    25
100
AcDb2dPolyline
 66
     1
 10
0.0
 20
0.0
 30
0.0
  0
VERTEX
  5
42
330
41
100
AcDbEntity
  8
_U+30EC_U+30A4_U+30E4_U+30FC 1
 62
   179
420
  2234388
370
    25
100
AcDbVertex
100
AcDb2dVertex
 10
90.22912325361885
 20
-143.5269685752294
 30
0.0
  0
VERTEX
  5
43
330
41
100
AcDbEntity
  8
_U+30EC_U+30A4_U+30E4_U+30FC 1
 62
   179
420
  2234388
370
    25
100
AcDbVertex
100
AcDb2dVertex
 10
103.3287495860862
 20
-143.5269685752294
 30
0.0
  0
SEQEND
  5
44
330
41
100
AcDbEntity
  8
_U+30EC_U+30A4_U+30E4_U+30FC 1
 62
   179
420
  2234388
370
    25
  0
POLYLINE
  5
45
330
1F
100
AcDbEntity
  8
_U+30EC_U+30A4_U+30E4_U+30FC 1
 62
   179
420
  2234388
370
    25
100
AcDb2dPolyline
 66
     1
 10
0.0
 20
0.0
 30
0.0
  0
VERTEX
  5
46
330
45
100
AcDbEntity
  8
_U+30EC_U+30A4_U+30E4_U+30FC 1
 62
   179
420
  2234388
370
    25
100
AcDbVertex
100
AcDb2dVertex
 10
102.2290707252525
 20
-144.6266474638433
 30
0.0
  0
VERTEX
  5
47
330
45
100
AcDbEntity
  8
_U+30EC_U+30A4_U+30E4_U+30FC 1
 62
   179
420
  2234388
370
    25
100
AcDbVertex
100
AcDb2dVertex
 10
102.2290707252525
 20
-153.1265810728297
 30
0.0
  0
SEQEND
  5
48
330
45
100
AcDbEntity
  8
_U+30EC_U+30A4_U+30E4_U+30FC 1
 62
   179
420
  2234388
370
    25
  0
POLYLINE
  5
49
330
1F
100
AcDbEntity
  8
_U+30EC_U+30A4_U+30E4_U+30FC 1
 62
   179
420
  2234388
370
    25
100
AcDb2dPolyline
 66
     1
 10
0.0
 20
0.0
 30
0.0
  0
VERTEX
  5
4A
330
49
100
AcDbEntity
  8
_U+30EC_U+30A4_U+30E4_U+30FC 1
 62
   179
420
  2234388
370
    25
100
AcDbVertex
100
AcDb2dVertex
 10
90.22912325361885
 20
-144.6266474638433
 30
0.0
  0
VERTEX
  5
4B
330
49
100
AcDbEntity
  8
_U+30EC_U+30A4_U+30E4_U+30FC 1
 62
   179
420
  2234388
370
    25
100
AcDbVertex
100
AcDb2dVertex
 10
102.2290707252525
 20
-144.6266474638433
 30
0.0
  0
SEQEND
  5
4C
330
49
100
AcDbEntity
  8
_U+30EC_U+30A4_U+30E4_U+30FC 1
 62
   179
420
  2234388
370
    25
  0
POLYLINE
  5
4D
330
1F
100
AcDbEntity
  8
_U+30EC_U+30A4_U+30E4_U+30FC 1
 62
   179
420
  2234388
370
    25
100
AcDb2dPolyline
 66
     1
 10
0.0
 20
0.0
 30
0.0
  0
VERTEX
  5
4E
330
4D
100
AcDbEntity
  8
_U+30EC_U+30A4_U+30E4_U+30FC 1
 62
   179
420
  2234388
370
    25
100
AcDbVertex
100
AcDb2dVertex
 10
90.22912325361885
 20
-143.5269685752294
 30
0.0
  0
VERTEX
  5
4F
330
4D
100
AcDbEntity
  8
_U+30EC_U+30A4_U+30E4_U+30FC 1
 62
   179
420
  2234388
370
    25
100
AcDbVertex
100
AcDb2dVertex
 10
90.22912325361885
 20
-144.6266474638433
 30
0.0
  0
SEQEND
  5
50
330
4D
100
AcDbEntity
  8
_U+30EC_U+30A4_U+30E4_U+30FC 1
 62
   179
420
  2234388
370
    25
  0
POLYLINE
  5
51
330
1F
100
AcDbEntity
  8
_U+30EC_U+30A4_U+30E4_U+30FC 1
 62
   179
420
  2234388
370
    25
100
AcDb2dPolyline
 66
     1
 10
0.0
 20
0.0
 30
0.0
  0
VERTEX
  5
52
330
51
100
AcDbEntity
  8
_U+30EC_U+30A4_U+30E4_U+30FC 1
 62
   179
420
  2234388
370
    25
100
AcDbVertex
100
AcDb2dVertex
 10
103.3287495860862
 20
-143.5269685752294
 30
0.0
  0
VERTEX
  5
53
330
51
100
AcDbEntity
  8
_U+30EC_U+30A4_U+30E4_U+30FC 1
 62
   179
420
  2234388
370
    25
100
AcDbVertex
100
AcDb2dVertex
 10
103.3287495860862
 20
-152.0269021842155
 30
0.0
  0
SEQEND
  5
54
330
51
100
AcDbEntity
  8
_U+30EC_U+30A4_U+30E4_U+30FC 1
 62
   179
420
  2234388
370
    25
  0
POLYLINE
  5
55
330
1F
100
AcDbEntity
  8
_U+30EC_U+30A4_U+30E4_U+30FC 1
 62
   179
420
  2234388
370
    25
100
AcDb2dPolyline
 66
     1
 10
0.0
 20
0.0
 30
0.0
  0
VERTEX
  5
56
330
55
100
AcDbEntity
  8
_U+30EC_U+30A4_U+30E4_U+30FC 1
 62
   179
420
  2234388
370
    25
100
AcDbVertex
100
AcDb2dVertex
 10
119.2299252915245
 20
-152.0269021842155
 30
0.0
  0
VERTEX
  5
57
330
55
100
AcDbEntity
  8
_U+30EC_U+30A4_U+30E4_U+30FC 1
 62
   179
420
  2234388
370
    25
100
AcDbVertex
100
AcDb2dVertex
 10
119.2299252915245
 20
-152.42719912856
 30
0.0
  0
SEQEND
  5
58
330
55
100
AcDbEntity
  8
_U+30EC_U+30A4_U+30E4_U+30FC 1
 62
   179
420
  2234388
370
    25
  0
POLYLINE
  5
59
330
1F
100
AcDbEntity
  8
_U+30EC_U+30A4_U+30E4_U+30FC 1
 62
   179
420
  2234388
370
    25
100
AcDb2dPolyline
 66
     1
 10
0.0
 20
0.0
 30
0.0
  0
VERTEX
  5
5A
330
59
100
AcDbEntity
  8
_U+30EC_U+30A4_U+30E4_U+30FC 1
 62
   179
420
  2234388
370
    25
100
AcDbVertex
100
AcDb2dVertex
 10
103.3287495860862
 20
-152.0269021842155
 30
0.0
  0
VERTEX
  5
5B
330
59
100
AcDbEntity
  8
_U+30EC_U+30A4_U+30E4_U+30FC 1
 62
   179
420
  2234388
370
    25
100
AcDbVertex
100
AcDb2dVertex
 10
119.2299252915245
 20
-152.0269021842155
 30
0.0
  0
SEQEND
  5
5C
330
59
100
AcDbEntity
  8
_U+30EC_U+30A4_U+30E4_U+30FC 1
 62
   179
420
  2234388
370
    25
  0
POLYLINE
  5
5D
330
1F
100
AcDbEntity
  8
_U+30EC_U+30A4_U+30E4_U+30FC 1
 62
   179
420
  2234388
370
    25
100
AcDb2dPolyline
 66
     1
 10
0.0
 20
0.0
 30
0.0
  0
VERTEX
  5
5E
330
5D
100
AcDbEntity
  8
_U+30EC_U+30A4_U+30E4_U+30FC 1
 62
   179
420
  2234388
370
    25
100
AcDbVertex
100
AcDb2dVertex
 10
119.2299252915245
 20
-152.42719912856
 30
0.0
  0
VERTEX
  5
5F
330
5D
100
AcDbEntity
  8
_U+30EC_U+30A4_U+30E4_U+30FC 1
 62
   179
420
  2234388
370
    25
100
AcDbVertex
100
AcDb2dVertex
 10
102.2290707252525
 20
-153.1265810728297
 30
0.0
  0
SEQEND
  5
60
330
5D
100
AcDbEntity
  8
_U+30EC_U+30A4_U+30E4_U+30FC 1
 62
   179
420
  2234388
370
    25
  0
SPLINE
  5
61
330
1F
100
AcDbEntity
  8
_U+30EC_U+30A4_U+30E4_U+30FC 1
 62
   179
420
  2234388
370
     9
100
AcDbSpline
210
0.0
220
0.0
230
1.0
 70
    11
 71
     3
 72
    17
 73
    13
 74
     0
 42
0.0000000001
 43
0.0000000001
 12
1.0
 22
0.0
 32
0.0
 13
1.0
 23
0.0
 33
0.0
 40
0.0
 40
0.0
 40
0.0
 40
0.0
 40
1.0
 40
1.0
 40
1.0
 40
2.0
 40
2.0
 40
2.0
 40
3.0
 40
3.0
 40
3.0
 40
4.0
 40
4.0
 40
4.0
 40
4.0
 10
123.3295910202667
 20
-143.5269685752294
 30
0.0
 10
123.3295910202667
 20
-143.471159130799
 30
0.0
 10
123.2848235214088
 20
-143.4263916308101
 30
0.0
 10
123.2296843561488
 20
-143.4263916308101
 30
0.0
 10
123.1745804686658
 20
-143.4263916308101
 30
0.0
 10
123.129777692031
 20
-143.471159130799
 30
0.0
 10
123.129777692031
 20
-143.5269685752294
 30
0.0
 10
123.129777692031
 20
-143.5821077418822
 30
0.0
 10
123.1745804686658
 20
-143.6268752418711
 30
0.0
 10
123.2296843561488
 20
-143.6268752418711
 30
0.0
 10
123.2848235214088
 20
-143.6268752418711
 30
0.0
 10
123.3295910202667
 20
-143.5821077418822
 30
0.0
 10
123.3295910202667
 20
-143.5269685752294
 30
0.0
  0
SPLINE
  5
62
330
1F
100
AcDbEntity
  8
_U+30EC_U+30A4_U+30E4_U+30FC 1
 62
   179
420
  2234388
370
     9
100
AcDbSpline
210
0.0
220
0.0
230
1.0
 70
    11
 71
     3
 72
    17
 73
    13
 74
     0
 42
0.0000000001
 43
0.0000000001
 12
1.0
 22
0.0
 32
0.0
 13
1.0
 23
0.0
 33
0.0
 40
0.0
 40
0.0
 40
0.0
 40
0.0
 40
1.0
 40
1.0
 40
1.0
 40
2.0
 40
2.0
 40
2.0
 40
3.0
 40
3.0
 40
3.0
 40
4.0
 40
4.0
 40
4.0
 40
4.0
 10
123.3295910202667
 20
-152.0269021842155
 30
0.0
 10
123.3295910202667
 20
-151.9717630175624
 30
0.0
 10
123.2848235214088
 20
-151.9269955175738
 30
0.0
 10
123.2296843561488
 20
-151.9269955175738
 30
0.0
 10
123.1745804686658
 20
-151.9269955175738
 30
0.0
 10
123.129777692031
 20
-151.9717630175624
 30
0.0
 10
123.129777692031
 20
-152.0269021842155
 30
0.0
 10
123.129777692031
 20
-152.0820060730904
 30
0.0
 10
123.1745804686658
 20
-152.1268088508571
 30
0.0
 10
123.2296843561488
 20
-152.1268088508571
 30
0.0
 10
123.2848235214088
 20
-152.1268088508571
 30
0.0
 10
123.3295910202667
 20
-152.0820060730904
 30
0.0
 10
123.3295910202667
 20
-152.0269021842155
 30
0.0
  0
SPLINE
  5
63
330
1F
100
AcDbEntity
  8
_U+30EC_U+30A4_U+30E4_U+30FC 1
 62
   179
420
  2234388
370
     9
100
AcDbSpline
210
0.0
220
0.0
230
1.0
 70
    11
 71
     3
 72
    17
 73
    13
 74
     0
 42
0.0000000001
 43
0.0000000001
 12
1.0
 22
0.0
 32
0.0
 13
1.0
 23
0.0
 33
0.0
 40
0.0
 40
0.0
 40
0.0
 40
0.0
 40
1.0
 40
1.0
 40
1.0
 40
2.0
 40
2.0
 40
2.0
 40
3.0
 40
3.0
 40
3.0
 40
4.0
 40
4.0
 40
4.0
 40
4.0
 10
123.3295910202667
 20
-152.42719912856
 30
0.0
 10
123.3295910202667
 20
-152.3713896841296
 30
0.0
 10
123.2848235214088
 20
-152.3266221841404
 30
0.0
 10
123.2296843561488
 20
-152.3266221841404
 30
0.0
 10
123.1745804686658
 20
-152.3266221841404
 30
0.0
 10
123.129777692031
 20
-152.3713896841296
 30
0.0
 10
123.129777692031
 20
-152.42719912856
 30
0.0
 10
123.129777692031
 20
-152.4823382952125
 30
0.0
 10
123.1745804686658
 20
-152.5271410729792
 30
0.0
 10
123.2296843561488
 20
-152.5271410729792
 30
0.0
 10
123.2848235214088
 20
-152.5271410729792
 30
0.0
 10
123.3295910202667
 20
-152.4823382952125
 30
0.0
 10
123.3295910202667
 20
-152.42719912856
 30
0.0
  0
SPLINE
  5
64
330
1F
100
AcDbEntity
  8
_U+30EC_U+30A4_U+30E4_U+30FC 1
 62
   179
420
  2234388
370
     9
100
AcDbSpline
210
0.0
220
0.0
230
1.0
 70
    11
 71
     3
 72
    17
 73
    13
 74
     0
 42
0.0000000001
 43
0.0000000001
 12
1.0
 22
0.0
 32
0.0
 13
1.0
 23
0.0
 33
0.0
 40
0.0
 40
0.0
 40
0.0
 40
0.0
 40
1.0
 40
1.0
 40
1.0
 40
2.0
 40
2.0
 40
2.0
 40
3.0
 40
3.0
 40
3.0
 40
4.0
 40
4.0
 40
4.0
 40
4.0
 10
119.3298319556424
 20
-157.1270105162739
 30
0.0
 10
119.3298319556424
 20
-157.071906627399
 30
0.0
 10
119.2850644567845
 20
-157.0271038496323
 30
0.0
 10
119.2299252915245
 20
-157.0271038496323
 30
0.0
 10
119.1741158485039
 20
-157.0271038496323
 30
0.0
 10
119.129348349646
 20
-157.071906627399
 30
0.0
 10
119.129348349646
 20
-157.1270105162739
 30
0.0
 10
119.129348349646
 20
-157.182149682927
 30
0.0
 10
119.1741158485039
 20
-157.2269171829155
 30
0.0
 10
119.2299252915245
 20
-157.2269171829155
 30
0.0
 10
119.2850644567845
 20
-157.2269171829155
 30
0.0
 10
119.3298319556424
 20
-157.182149682927
 30
0.0
 10
119.3298319556424
 20
-157.1270105162739
 30
0.0
  0
SPLINE
  5
65
330
1F
100
AcDbEntity
  8
_U+30EC_U+30A4_U+30E4_U+30FC 1
 62
   179
420
  2234388
370
     9
100
AcDbSpline
210
0.0
220
0.0
230
1.0
 70
    11
 71
     3
 72
    17
 73
    13
 74
     0
 42
0.0000000001
 43
0.0000000001
 12
1.0
 22
0.0
 32
0.0
 13
1.0
 23
0.0
 33
0.0
 40
0.0
 40
0.0
 40
0.0
 40
0.0
 40
1.0
 40
1.0
 40
1.0
 40
2.0
 40
2.0
 40
2.0
 40
3.0
 40
3.0
 40
3.0
 40
4.0
 40
4.0
 40
4.0
 40
4.0
 10
90.32902991773668
 20
-157.1270105162739
 30
0.0
 10
90.32902991773668
 20
-157.071906627399
 30
0.0
 10
90.28422714110192
 20
-157.0271038496323
 30
0.0
 10
90.22912325361885
 20
-157.0271038496323
 30
0.0
 10
90.17398408835889
 20
-157.0271038496323
 30
0.0
 10
90.12921658950101
 20
-157.071906627399
 30
0.0
 10
90.12921658950101
 20
-157.1270105162739
 30
0.0
 10
90.12921658950101
 20
-157.182149682927
 30
0.0
 10
90.17398408835889
 20
-157.2269171829155
 30
0.0
 10
90.22912325361885
 20
-157.2269171829155
 30
0.0
 10
90.28422714110192
 20
-157.2269171829155
 30
0.0
 10
90.32902991773668
 20
-157.182149682927
 30
0.0
 10
90.32902991773668
 20
-157.1270105162739
 30
0.0
  0
SPLINE
  5
66
330
1F
100
AcDbEntity
  8
_U+30EC_U+30A4_U+30E4_U+30FC 1
 62
   179
420
  2234388
370
     9
100
AcDbSpline
210
0.0
220
0.0
230
1.0
 70
    11
 71
     3
 72
    17
 73
    13
 74
     0
 42
0.0000000001
 43
0.0000000001
 12
1.0
 22
0.0
 32
0.0
 13
1.0
 23
0.0
 33
0.0
 40
0.0
 40
0.0
 40
0.0
 40
0.0
 40
1.0
 40
1.0
 40
1.0
 40
2.0
 40
2.0
 40
2.0
 40
3.0
 40
3.0
 40
3.0
 40
4.0
 40
4.0
 40
4.0
 40
4.0
 10
86.32927085311236
 20
-143.5269685752294
 30
0.0
 10
86.32927085311236
 20
-143.471159130799
 30
0.0
 10
86.28446807647761
 20
-143.4263916308101
 30
0.0
 10
86.22936418899454
 20
-143.4263916308101
 30
0.0
 10
86.1735547459739
 20
-143.4263916308101
 30
0.0
 10
86.12875196933915
 20
-143.471159130799
 30
0.0
 10
86.12875196933915
 20
-143.5269685752294
 30
0.0
 10
86.12875196933915
 20
-143.5821077418822
 30
0.0
 10
86.1735547459739
 20
-143.6268752418711
 30
0.0
 10
86.22936418899454
 20
-143.6268752418711
 30
0.0
 10
86.28446807647761
 20
-143.6268752418711
 30
0.0
 10
86.32927085311236
 20
-143.5821077418822
 30
0.0
 10
86.32927085311236
 20
-143.5269685752294
 30
0.0
  0
SPLINE
  5
67
330
1F
100
AcDbEntity
  8
_U+30EC_U+30A4_U+30E4_U+30FC 1
 62
   179
420
  2234388
370
     9
100
AcDbSpline
210
0.0
220
0.0
230
1.0
 70
    11
 71
     3
 72
    17
 73
    13
 74
     0
 42
0.0000000001
 43
0.0000000001
 12
1.0
 22
0.0
 32
0.0
 13
1.0
 23
0.0
 33
0.0
 40
0.0
 40
0.0
 40
0.0
 40
0.0
 40
1.0
 40
1.0
 40
1.0
 40
2.0
 40
2.0
 40
2.0
 40
3.0
 40
3.0
 40
3.0
 40
4.0
 40
4.0
 40
4.0
 40
4.0
 10
86.32927085311236
 20
-144.6266474638433
 30
0.0
 10
86.32927085311236
 20
-144.5715435749684
 30
0.0
 10
86.28446807647761
 20
-144.5267407972017
 30
0.0
 10
86.22936418899454
 20
-144.5267407972017
 30
0.0
 10
86.1735547459739
 20
-144.5267407972017
 30
0.0
 10
86.12875196933915
 20
-144.5715435749684
 30
0.0
 10
86.12875196933915
 20
-144.6266474638433
 30
0.0
 10
86.12875196933915
 20
-144.6817866304964
 30
0.0
 10
86.1735547459739
 20
-144.7265541304849
 30
0.0
 10
86.22936418899454
 20
-144.7265541304849
 30
0.0
 10
86.28446807647761
 20
-144.7265541304849
 30
0.0
 10
86.32927085311236
 20
-144.6817866304964
 30
0.0
 10
86.32927085311236
 20
-144.6266474638433
 30
0.0
  0
SPLINE
  5
68
330
1F
100
AcDbEntity
  8
_U+30EC_U+30A4_U+30E4_U+30FC 1
 62
   179
420
  2234388
370
     9
100
AcDbSpline
210
0.0
220
0.0
230
1.0
 70
    11
 71
     3
 72
    17
 73
    13
 74
     0
 42
0.0000000001
 43
0.0000000001
 12
1.0
 22
0.0
 32
0.0
 13
1.0
 23
0.0
 33
0.0
 40
0.0
 40
0.0
 40
0.0
 40
0.0
 40
1.0
 40
1.0
 40
1.0
 40
2.0
 40
2.0
 40
2.0
 40
3.0
 40
3.0
 40
3.0
 40
4.0
 40
4.0
 40
4.0
 40
4.0
 10
102.3289773893703
 20
-157.1270105162739
 30
0.0
 10
102.3289773893703
 20
-157.071906627399
 30
0.0
 10
102.2842098905124
 20
-157.0271038496323
 30
0.0
 10
102.2290707252525
 20
-157.0271038496323
 30
0.0
 10
102.1739694189011
 20
-157.0271038496323
 30
0.0
 10
102.1291666411344
 20
-157.071906627399
 30
0.0
 10
102.1291666411344
 20
-157.1270105162739
 30
0.0
 10
102.1291666411344
 20
-157.182149682927
 30
0.0
 10
102.1739694189011
 20
-157.2269171829155
 30
0.0
 10
102.2290707252525
 20
-157.2269171829155
 30
0.0
 10
102.2842098905124
 20
-157.2269171829155
 30
0.0
 10
102.3289773893703
 20
-157.182149682927
 30
0.0
 10
102.3289773893703
 20
-157.1270105162739
 30
0.0
  0
POLYLINE
  5
69
330
1F
100
AcDbEntity
  8
_U+30EC_U+30A4_U+30E4_U+30FC 1
 62
   179
420
  2234388
370
     9
100
AcDb2dPolyline
 66
     1
 10
0.0
 20
0.0
 30
0.0
  0
VERTEX
  5
6A
330
69
100
AcDbEntity
  8
_U+30EC_U+30A4_U+30E4_U+30FC 1
 62
   179
420
  2234388
370
     9
100
AcDbVertex
100
AcDb2dVertex
 10
102.2290707252525
 20
-157.1270105162739
 30
0.0
  0
VERTEX
  5
6B
330
69
100
AcDbEntity
  8
_U+30EC_U+30A4_U+30E4_U+30FC 1
 62
   179
420
  2234388
370
     9
100
AcDbVertex
100
AcDb2dVertex
 10
119.2299252915245
 20
-157.1270105162739
 30
0.0
  0
SEQEND
  5
6C
330
69
100
AcDbEntity
  8
_U+30EC_U+30A4_U+30E4_U+30FC 1
 62
   179
420
  2234388
370
     9
  0
POLYLINE
  5
6D
330
1F
100
AcDbEntity
  8
_U+30EC_U+30A4_U+30E4_U+30FC 1
 62
   179
420
  2234388
370
     9
100
AcDb2dPolyline
 66
     1
 10
0.0
 20
0.0
 30
0.0
  0
VERTEX
  5
6E
330
6D
100
AcDbEntity
  8
_U+30EC_U+30A4_U+30E4_U+30FC 1
 62
   179
420
  2234388
370
     9
100
AcDbVertex
100
AcDb2dVertex
 10
119.2299252915245
 20
-154.9669521834807
 30
0.0
  0
VERTEX
  5
6F
330
6D
100
AcDbEntity
  8
_U+30EC_U+30A4_U+30E4_U+30FC 1
 62
   179
420
  2234388
370
     9
100
AcDbVertex
100
AcDb2dVertex
 10
119.2299252915245
 20
-158.1267827382458
 30
0.0
  0
SEQEND
  5
70
330
6D
100
AcDbEntity
  8
_U+30EC_U+30A4_U+30E4_U+30FC 1
 62
   179
420
  2234388
370
     9
  0
INSERT
  5
72
330
1F
100
AcDbEntity
  8
_U+30EC_U+30A4_U+30E4_U+30FC 1
100
AcDbBlockReference
  2
block 2
 10
0.0
 20
0.0
 30
0.0
  0
POLYLINE
  5
79
330
1F
100
AcDbEntity
  8
_U+30EC_U+30A4_U+30E4_U+30FC 1
 62
   179
420
  2234388
370
     9
100
AcDb2dPolyline
 66
     1
 10
0.0
 20
0.0
 30
0.0
  0
VERTEX
  5
7A
330
79
100
AcDbEntity
  8
_U+30EC_U+30A4_U+30E4_U+30FC 1
 62
   179
420
  2234388
370
     9
100
AcDbVertex
100
AcDb2dVertex
 10
123.2296843561488
 20
-152.42719912856
 30
0.0
  0
VERTEX
  5
7B
330
79
100
AcDbEntity
  8
_U+30EC_U+30A4_U+30E4_U+30FC 1
 62
   179
420
  2234388
370
     9
100
AcDbVertex
100
AcDb2dVertex
 10
123.2296843561488
 20
-153.4269713505319
 30
0.0
  0
SEQEND
  5
7C
330
79
100
AcDbEntity
  8
_U+30EC_U+30A4_U+30E4_U+30FC 1
 62
   179
420
  2234388
370
     9
  0
POLYLINE
  5
7D
330
1F
100
AcDbEntity
  8
_U+30EC_U+30A4_U+30E4_U+30FC 1
 62
   179
420
  2234388
370
     9
100
AcDb2dPolyline
 66
     1
 10
0.0
 20
0.0
 30
0.0
  0
VERTEX
  5
7E
330
7D
100
AcDbEntity
  8
_U+30EC_U+30A4_U+30E4_U+30FC 1
 62
   179
420
  2234388
370
     9
100
AcDbVertex
100
AcDb2dVertex
 10
123.2296843561488
 20
-152.0269021842155
 30
0.0
  0
VERTEX
  5
7F
330
7D
100
AcDbEntity
  8
_U+30EC_U+30A4_U+30E4_U+30FC 1
 62
   179
420
  2234388
370
     9
100
AcDbVertex
100
AcDb2dVertex
 10
123.2296843561488
 20
-152.42719912856
 30
0.0
  0
SEQEND
  5
80
330
7D
100
AcDbEntity
  8
_U+30EC_U+30A4_U+30E4_U+30FC 1
 62
   179
420
  2234388
370
     9
  0
POLYLINE
  5
81
330
1F
100
AcDbEntity
  8
_U+30EC_U+30A4_U+30E4_U+30FC 1
 62
   179
420
  2234388
370
     9
100
AcDb2dPolyline
 66
     1
 10
0.0
 20
0.0
 30
0.0
  0
VERTEX
  5
82
330
81
100
AcDbEntity
  8
_U+30EC_U+30A4_U+30E4_U+30FC 1
 62
   179
420
  2234388
370
     9
100
AcDbVertex
100
AcDb2dVertex
 10
121.7696430045087
 20
-152.0269021842155
 30
0.0
  0
VERTEX
  5
83
330
81
100
AcDbEntity
  8
_U+30EC_U+30A4_U+30E4_U+30FC 1
 62
   179
420
  2234388
370
     9
100
AcDbVertex
100
AcDb2dVertex
 10
124.2294565528647
 20
-152.0269021842155
 30
0.0
  0
SEQEND
  5
84
330
81
100
AcDbEntity
  8
_U+30EC_U+30A4_U+30E4_U+30FC 1
 62
   179
420
  2234388
370
     9
  0
POLYLINE
  5
85
330
1F
100
AcDbEntity
  8
_U+30EC_U+30A4_U+30E4_U+30FC 1
 62
   179
420
  2234388
370
     9
100
AcDb2dPolyline
 66
     1
 10
0.0
 20
0.0
 30
0.0
  0
VERTEX
  5
86
330
85
100
AcDbEntity
  8
_U+30EC_U+30A4_U+30E4_U+30FC 1
 62
   179
420
  2234388
370
     9
100
AcDbVertex
100
AcDb2dVertex
 10
121.7696430045087
 20
-152.42719912856
 30
0.0
  0
VERTEX
  5
87
330
85
100
AcDbEntity
  8
_U+30EC_U+30A4_U+30E4_U+30FC 1
 62
   179
420
  2234388
370
     9
100
AcDbVertex
100
AcDb2dVertex
 10
124.2294565528647
 20
-152.42719912856
 30
0.0
  0
SEQEND
  5
88
330
85
100
AcDbEntity
  8
_U+30EC_U+30A4_U+30E4_U+30FC 1
 62
   179
420
  2234388
370
     9
  0
INSERT
  5
8A
330
1F
100
AcDbEntity
  8
_U+30EC_U+30A4_U+30E4_U+30FC 1
100
AcDbBlockReference
  2
block 3
 10
0.0
 20
0.0
 30
0.0
  0
POLYLINE
  5
AD
330
1F
100
AcDbEntity
  8
_U+30EC_U+30A4_U+30E4_U+30FC 1
 62
   179
420
  2234388
370
     9
100
AcDb2dPolyline
 66
     1
 10
0.0
 20
0.0
 30
0.0
  0
VERTEX
  5
AE
330
AD
100
AcDbEntity
  8
_U+30EC_U+30A4_U+30E4_U+30FC 1
 62
   179
420
  2234388
370
     9
100
AcDbVertex
100
AcDb2dVertex
 10
86.22936418899454
 20
-143.5269685752294
 30
0.0
  0
VERTEX
  5
AF
330
AD
100
AcDbEntity
  8
_U+30EC_U+30A4_U+30E4_U+30FC 1
 62
   179
420
  2234388
370
     9
100
AcDbVertex
100
AcDb2dVertex
 10
86.22936418899454
 20
-142.5265260754795
 30
0.0
  0
SEQEND
  5
B0
330
AD
100
AcDbEntity
  8
_U+30EC_U+30A4_U+30E4_U+30FC 1
 62
   179
420
  2234388
370
     9
  0
POLYLINE
  5
B1
330
1F
100
AcDbEntity
  8
_U+30EC_U+30A4_U+30E4_U+30FC 1
 62
   179
420
  2234388
370
     9
100
AcDb2dPolyline
 66
     1
 10
0.0
 20
0.0
 30
0.0
  0
VERTEX
  5
B2
330
B1
100
AcDbEntity
  8
_U+30EC_U+30A4_U+30E4_U+30FC 1
 62
   179
420
  2234388
370
     9
100
AcDbVertex
100
AcDb2dVertex
 10
86.22936418899454
 20
-143.5269685752294
 30
0.0
  0
VERTEX
  5
B3
330
B1
100
AcDbEntity
  8
_U+30EC_U+30A4_U+30E4_U+30FC 1
 62
   179
420
  2234388
370
     9
100
AcDbVertex
100
AcDb2dVertex
 10
86.22936418899454
 20
-145.6265960747044
 30
0.0
  0
SEQEND
  5
B4
330
B1
100
AcDbEntity
  8
_U+30EC_U+30A4_U+30E4_U+30FC 1
 62
   179
420
  2234388
370
     9
  0
POLYLINE
  5
B5
330
1F
100
AcDbEntity
  8
_U+30EC_U+30A4_U+30E4_U+30FC 1
 62
   179
420
  2234388
370
     9
100
AcDb2dPolyline
 66
     1
 10
0.0
 20
0.0
 30
0.0
  0
VERTEX
  5
B6
330
B5
100
AcDbEntity
  8
_U+30EC_U+30A4_U+30E4_U+30FC 1
 62
   179
420
  2234388
370
     9
100
AcDbVertex
100
AcDb2dVertex
 10
87.6886999850971
 20
-143.5269685752294
 30
0.0
  0
VERTEX
  5
B7
330
B5
100
AcDbEntity
  8
_U+30EC_U+30A4_U+30E4_U+30FC 1
 62
   179
420
  2234388
370
     9
100
AcDbVertex
100
AcDb2dVertex
 10
85.22892171451795
 20
-143.5269685752294
 30
0.0
  0
SEQEND
  5
B8
330
B5
100
AcDbEntity
  8
_U+30EC_U+30A4_U+30E4_U+30FC 1
 62
   179
420
  2234388
370
     9
  0
POLYLINE
  5
B9
330
1F
100
AcDbEntity
  8
_U+30EC_U+30A4_U+30E4_U+30FC 1
 62
   179
420
  2234388
370
     9
100
AcDb2dPolyline
 66
     1
 10
0.0
 20
0.0
 30
0.0
  0
VERTEX
  5
BA
330
B9
100
AcDbEntity
  8
_U+30EC_U+30A4_U+30E4_U+30FC 1
 62
   179
420
  2234388
370
     9
100
AcDbVertex
100
AcDb2dVertex
 10
87.6886999850971
 20
-144.6266474638433
 30
0.0
  0
VERTEX
  5
BB
330
B9
100
AcDbEntity
  8
_U+30EC_U+30A4_U+30E4_U+30FC 1
 62
   179
420
  2234388
370
     9
100
AcDbVertex
100
AcDb2dVertex
 10
85.22892171451795
 20
-144.6266474638433
 30
0.0
  0
SEQEND
  5
BC
330
B9
100
AcDbEntity
  8
_U+30EC_U+30A4_U+30E4_U+30FC 1
 62
   179
420
  2234388
370
     9
  0
INSERT
  5
BE
330
1F
100
AcDbEntity
  8
_U+30EC_U+30A4_U+30E4_U+30FC 1
100
AcDbBlockReference
  2
block 4
 10
0.0
 20
0.0
 30
0.0
  0
POLYLINE
  5
CD
330
1F
100
AcDbEntity
  8
_U+30EC_U+30A4_U+30E4_U+30FC 1
 62
   179
420
  2234388
370
     9
100
AcDb2dPolyline
 66
     1
 10
0.0
 20
0.0
 30
0.0
  0
VERTEX
  5
CE
330
CD
100
AcDbEntity
  8
_U+30EC_U+30A4_U+30E4_U+30FC 1
 62
   179
420
  2234388
370
     9
100
AcDbVertex
100
AcDb2dVertex
 10
123.2296843561488
 20
-143.5269685752294
 30
0.0
  0
VERTEX
  5
CF
330
CD
100
AcDbEntity
  8
_U+30EC_U+30A4_U+30E4_U+30FC 1
 62
   179
420
  2234388
370
     9
100
AcDbVertex
100
AcDb2dVertex
 10
123.2296843561488
 20
-152.0269021842155
 30
0.0
  0
SEQEND
  5
D0
330
CD
100
AcDbEntity
  8
_U+30EC_U+30A4_U+30E4_U+30FC 1
 62
   179
420
  2234388
370
     9
  0
POLYLINE
  5
D1
330
1F
100
AcDbEntity
  8
_U+30EC_U+30A4_U+30E4_U+30FC 1
 62
   179
420
  2234388
370
     9
100
AcDb2dPolyline
 66
     1
 10
0.0
 20
0.0
 30
0.0
  0
VERTEX
  5
D2
330
D1
100
AcDbEntity
  8
_U+30EC_U+30A4_U+30E4_U+30FC 1
 62
   179
420
  2234388
370
     9
100
AcDbVertex
100
AcDb2dVertex
 10
105.8691728546079
 20
-143.5269685752294
 30
0.0
  0
VERTEX
  5
D3
330
D1
100
AcDbEntity
  8
_U+30EC_U+30A4_U+30E4_U+30FC 1
 62
   179
420
  2234388
370
     9
100
AcDbVertex
100
AcDb2dVertex
 10
124.2294565528647
 20
-143.5269685752294
 30
0.0
  0
SEQEND
  5
D4
330
D1
100
AcDbEntity
  8
_U+30EC_U+30A4_U+30E4_U+30FC 1
 62
   179
420
  2234388
370
     9
  0
INSERT
  5
D6
330
1F
100
AcDbEntity
  8
_U+30EC_U+30A4_U+30E4_U+30FC 1
100
AcDbBlockReference
  2
block 5
 10
0.0
 20
0.0
 30
0.0
  0
POLYLINE
  5
E7
330
1F
100
AcDbEntity
  8
_U+30EC_U+30A4_U+30E4_U+30FC 1
 62
   179
420
  2234388
370
     9
100
AcDb2dPolyline
 66
     1
 10
0.0
 20
0.0
 30
0.0
  0
VERTEX
  5
E8
330
E7
100
AcDbEntity
  8
_U+30EC_U+30A4_U+30E4_U+30FC 1
 62
   179
420
  2234388
370
     9
100
AcDbVertex
100
AcDb2dVertex
 10
90.22912325361885
 20
-157.1270105162739
 30
0.0
  0
VERTEX
  5
E9
330
E7
100
AcDbEntity
  8
_U+30EC_U+30A4_U+30E4_U+30FC 1
 62
   179
420
  2234388
370
     9
100
AcDbVertex
100
AcDb2dVertex
 10
102.2290707252525
 20
-157.1270105162739
 30
0.0
  0
SEQEND
  5
EA
330
E7
100
AcDbEntity
  8
_U+30EC_U+30A4_U+30E4_U+30FC 1
 62
   179
420
  2234388
370
     9
  0
POLYLINE
  5
EB
330
1F
100
AcDbEntity
  8
_U+30EC_U+30A4_U+30E4_U+30FC 1
 62
   179
420
  2234388
370
     9
100
AcDb2dPolyline
 66
     1
 10
0.0
 20
0.0
 30
0.0
  0
VERTEX
  5
EC
330
EB
100
AcDbEntity
  8
_U+30EC_U+30A4_U+30E4_U+30FC 1
 62
   179
420
  2234388
370
     9
100
AcDbVertex
100
AcDb2dVertex
 10
90.22912325361885
 20
-147.166541629875
 30
0.0
  0
VERTEX
  5
ED
330
EB
100
AcDbEntity
  8
_U+30EC_U+30A4_U+30E4_U+30FC 1
 62
   179
420
  2234388
370
     9
100
AcDbVertex
100
AcDb2dVertex
 10
90.22912325361885
 20
-158.1267827382458
 30
0.0
  0
SEQEND
  5
EE
330
EB
100
AcDbEntity
  8
_U+30EC_U+30A4_U+30E4_U+30FC 1
 62
   179
420
  2234388
370
     9
  0
POLYLINE
  5
EF
330
1F
100
AcDbEntity
  8
_U+30EC_U+30A4_U+30E4_U+30FC 1
 62
   179
420
  2234388
370
     9
100
AcDb2dPolyline
 66
     1
 10
0.0
 20
0.0
 30
0.0
  0
VERTEX
  5
F0
330
EF
100
AcDbEntity
  8
_U+30EC_U+30A4_U+30E4_U+30FC 1
 62
   179
420
  2234388
370
     9
100
AcDbVertex
100
AcDb2dVertex
 10
102.2290707252525
 20
-155.6669691277502
 30
0.0
  0
VERTEX
  5
F1
330
EF
100
AcDbEntity
  8
_U+30EC_U+30A4_U+30E4_U+30FC 1
 62
   179
420
  2234388
370
     9
100
AcDbVertex
100
AcDb2dVertex
 10
102.2290707252525
 20
-158.1267827382458
 30
0.0
  0
SEQEND
  5
F2
330
EF
100
AcDbEntity
  8
_U+30EC_U+30A4_U+30E4_U+30FC 1
 62
   179
420
  2234388
370
     9
  0
INSERT
  5
F4
330
1F
100
AcDbEntity
  8
_U+30EC_U+30A4_U+30E4_U+30FC 1
100
AcDbBlockReference
  2
block 6
 10
0.0
 20
0.0
 30
0.0
  0
ENDSEC
  0
SECTION
  2
OBJECTS
  0
DICTIONARY
  5
C
330
0
100
AcDbDictionary
281
     1
  3
ACAD_GROUP
350
D
  3
ACAD_LAYOUT
350
1A
  3
ACAD_MATERIAL
350
3B
  3
ACAD_MLEADERSTYLE
350
FC
  3
ACAD_MLINESTYLE
350
17
  3
ACAD_PLOTSETTINGS
350
19
  3
ACAD_PLOTSTYLENAME
350
E
  3
ACAD_TABLESTYLE
350
FB
  3
ACAD_VISUALSTYLE
350
2A
  0
SUN
  5
3F
330
29
100
AcDbSun
 90
        1
290
     0
 63
     7
421
 16777215
 40
1.0
291
     1
 91
  2455826
 92
 54000000
292
     0
 70
     2
 71
   256
280
     1
  0
DICTIONARY
  5
D
102
{ACAD_REACTORS
330
C
102
}
330
C
100
AcDbDictionary
281
     1
  0
DICTIONARY
  5
1A
102
{ACAD_REACTORS
330
C
102
}
330
C
100
AcDbDictionary
281
     1
  3
Layout1
350
1E
  3
Layout2
350
26
  3
Model
350
22
  0
DICTIONARY
  5
3B
102
{ACAD_REACTORS
330
C
102
}
330
C
100
AcDbDictionary
281
     1
  3
ByBlock
350
3D
  3
ByLayer
350
3C
  3
Global
350
3E
  0
DICTIONARY
  5
FC
102
{ACAD_REACTORS
330
C
102
}
330
C
100
AcDbDictionary
281
     1
  0
DICTIONARY
  5
17
102
{ACAD_REACTORS
330
C
102
}
330
C
100
AcDbDictionary
281
     1
  3
Standard
350
18
  0
DICTIONARY
  5
19
102
{ACAD_REACTORS
330
C
102
}
330
C
100
AcDbDictionary
281
     1
  0
ACDBDICTIONARYWDFLT
  5
E
102
{ACAD_REACTORS
330
C
102
}
330
C
100
AcDbDictionary
281
     1
  3
Normal
350
F
100
AcDbDictionaryWithDefault
340
F
  0
DICTIONARY
  5
FB
102
{ACAD_REACTORS
330
C
102
}
330
C
100
AcDbDictionary
281
     1
  0
DICTIONARY
  5
2A
102
{ACAD_REACTORS
330
C
102
}
330
C
100
AcDbDictionary
281
     1
  3
2dWireframe
350
2F
  3
3D Hidden
350
31
  3
3dWireframe
350
30
  3
Basic
350
32
  3
Brighten
350
36
  3
ColorChange
350
3A
  3
Conceptual
350
34
  3
Dim
350
35
  3
Facepattern
350
39
  3
Flat
350
2B
  3
FlatWithEdges
350
2C
  3
Gouraud
350
2D
  3
GouraudWithEdges
350
2E
  3
Linepattern
350
38
  3
Realistic
350
33
  3
Thicken
350
37
  0
LAYOUT
  5
1E
102
{ACAD_REACTORS
330
1A
102
}
330
1A
100
AcDbPlotSettings
  1

  2
none_device
  4

  6

 40
0.0
 41
0.0
 42
0.0
 43
0.0
 44
0.0
 45
0.0
 46
0.0
 47
0.0
 48
0.0
 49
0.0
140
0.0
141
0.0
142
1.0
143
1.0
 70
   688
 72
     0
 73
     0
 74
     5
  7

 75
    16
 76
     0
 77
     2
 78
   300
147
1.0
148
0.0
149
0.0
100
AcDbLayout
  1
Layout1
 70
     1
 71
     1
 10
0.0
 20
0.0
 11
12.0
 21
9.0
 12
0.0
 22
0.0
 32
0.0
 14
1.000000000000000E+20
 24
1.000000000000000E+20
 34
1.000000000000000E+20
 15
-1.000000000000000E+20
 25
-1.000000000000000E+20
 35
-1.000000000000000E+20
146
0.0
 13
0.0
 23
0.0
 33
0.0
 16
1.0
 26
0.0
 36
0.0
 17
0.0
 27
1.0
 37
0.0
 76
     0
330
1B
  0
LAYOUT
  5
26
102
{ACAD_REACTORS
330
1A
102
}
330
1A
100
AcDbPlotSettings
  1

  2
none_device
  4

  6

 40
0.0
 41
0.0
 42
0.0
 43
0.0
 44
0.0
 45
0.0
 46
0.0
 47
0.0
 48
0.0
 49
0.0
140
0.0
141
0.0
142
1.0
143
1.0
 70
   688
 72
     0
 73
     0
 74
     5
  7

 75
    16
 76
     0
 77
     2
 78
   300
147
1.0
148
0.0
149
0.0
100
AcDbLayout
  1
Layout2
 70
     1
 71
     2
 10
0.0
 20
0.0
 11
0.0
 21
0.0
 12
0.0
 22
0.0
 32
0.0
 14
0.0
 24
0.0
 34
0.0
 15
0.0
 25
0.0
 35
0.0
146
0.0
 13
0.0
 23
0.0
 33
0.0
 16
1.0
 26
0.0
 36
0.0
 17
0.0
 27
1.0
 37
0.0
 76
     0
330
23
  0
LAYOUT
  5
22
102
{ACAD_REACTORS
330
1A
102
}
330
1A
100
AcDbPlotSettings
  1

  2
none_device
  4

  6

 40
0.0
 41
0.0
 42
0.0
 43
0.0
 44
0.0
 45
0.0
 46
0.0
 47
0.0
 48
0.0
 49
0.0
140
0.0
141
0.0
142
1.0
143
1.0
 70
  1712
 72
     0
 73
     0
 74
     0
  7

 75
     0
 76
     0
 77
     2
 78
   300
147
1.0
148
0.0
149
0.0
100
AcDbLayout
  1
Model
 70
     1
 71
     0
 10
0.0
 20
0.0
 11
12.0
 21
9.0
 12
0.0
 22
0.0
 32
0.0
 14
1.000000000000000E+20
 24
1.000000000000000E+20
 34
1.000000000000000E+20
 15
-1.000000000000000E+20
 25
-1.000000000000000E+20
 35
-1.000000000000000E+20
146
0.0
 13
0.0
 23
0.0
 33
0.0
 16
1.0
 26
0.0
 36
0.0
 17
0.0
 27
1.0
 37
0.0
 76
     0
330
1F
331
29
  0
MATERIAL
  5
3D
102
{ACAD_REACTORS
330
3B
102
}
330
3B
100
AcDbMaterial
  1
ByBlock
 72
     1
 94
      127
  0
MATERIAL
  5
3C
102
{ACAD_REACTORS
330
3B
102
}
330
3B
100
AcDbMaterial
  1
ByLayer
 72
     1
 94
      127
  0
MATERIAL
  5
3E
102
{ACAD_REACTORS
330
3B
102
}
330
3B
100
AcDbMaterial
  1
Global
 72
     1
 94
      127
  0
MLINESTYLE
  5
18
102
{ACAD_REACTORS
330
17
102
}
330
17
100
AcDbMlineStyle
  2
Standard
 70
     0
  3

 62
   256
 51
90.0
 52
90.0
 71
     2
 49
0.5
 62
   256
  6
BYLAYER
 49
-0.5
 62
   256
  6
BYLAYER
  0
ACDBPLACEHOLDER
  5
F
102
{ACAD_REACTORS
330
E
102
}
330
E
  0
VISUALSTYLE
  5
2F
102
{ACAD_REACTORS
330
2A
102
}
330
2A
100
AcDbVisualStyle
  2
2dWireframe
 70
     4
177
     2
291
     0
 71
     0
176
     1
 72
     2
176
     1
 73
     0
176
     1
 90
        0
176
     1
 40
-0.6
176
     1
 41
-30.0
176
     1
 62
     5
 63
     7
421
 16777215
176
     1
 74
     1
176
     1
 91
        4
176
     1
 64
     7
176
     1
 65
   257
176
     1
 75
     1
176
     1
175
     1
176
     1
 42
1.0
176
     1
 92
        0
176
     1
 66
   257
176
     1
 43
1.0
176
     1
 76
     1
176
     1
 77
     6
176
     1
 78
     2
176
     1
 67
     7
176
     1
 79
     5
176
     1
170
     0
176
     1
171
     0
176
     1
290
     0
176
     1
 93
        1
176
     1
 44
0.0
176
     1
173
     0
176
     1
  0
VISUALSTYLE
  5
31
102
{ACAD_REACTORS
330
2A
102
}
330
2A
100
AcDbVisualStyle
  2
3D Hidden
 70
     6
177
     2
291
     0
 71
     1
176
     1
 72
     2
176
     1
 73
     2
176
     1
 90
        0
176
     1
 40
-0.6
176
     1
 41
-30.0
176
     1
 62
     5
 63
     7
421
 16777215
176
     1
 74
     2
176
     1
 91
        2
176
     1
 64
     7
176
     1
 65
   257
176
     1
 75
     2
176
     1
175
     1
176
     1
 42
40.0
176
     1
 92
        0
176
     1
 66
   257
176
     1
 43
1.0
176
     1
 76
     1
176
     1
 77
     6
176
     1
 78
     2
176
     1
 67
     7
176
     1
 79
     3
176
     1
170
     0
176
     1
171
     0
176
     1
290
     0
176
     1
 93
        1
176
     1
 44
0.0
176
     1
173
     0
176
     1
  0
VISUALSTYLE
  5
30
102
{ACAD_REACTORS
330
2A
102
}
330
2A
100
AcDbVisualStyle
  2
3dWireframe
 70
     5
177
     2
291
     0
 71
     0
176
     1
 72
     2
176
     1
 73
     0
176
     1
 90
        0
176
     1
 40
-0.6
176
     1
 41
-30.0
176
     1
 62
     5
 63
     7
421
 16777215
176
     1
 74
     1
176
     1
 91
        4
176
     1
 64
     7
176
     1
 65
   257
176
     1
 75
     1
176
     1
175
     1
176
     1
 42
1.0
176
     1
 92
        0
176
     1
 66
   257
176
     1
 43
1.0
176
     1
 76
     1
176
     1
 77
     6
176
     1
 78
     2
176
     1
 67
     7
176
     1
 79
     5
176
     1
170
     0
176
     1
171
     0
176
     1
290
     0
176
     1
 93
        1
176
     1
 44
0.0
176
     1
173
     0
176
     1
  0
VISUALSTYLE
  5
32
102
{ACAD_REACTORS
330
2A
102
}
330
2A
100
AcDbVisualStyle
  2
Basic
 70
     7
177
     2
291
     1
 71
     1
176
     1
 72
     0
176
     1
 73
     1
176
     1
 90
        0
176
     1
 40
-0.6
176
     1
 41
-30.0
176
     1
 62
     5
 63
     7
421
 16777215
176
     1
 74
     0
176
     1
 91
        4
176
     1
 64
     7
176
     1
 65
   257
176
     1
 75
     1
176
     1
175
     1
176
     1
 42
1.0
176
     1
 92
        8
176
     1
 66
     7
176
     1
 43
1.0
176
     1
 76
     1
176
     1
 77
     6
176
     1
 78
     2
176
     1
 67
     7
176
     1
 79
     5
176
     1
170
     0
176
     1
171
     0
176
     1
290
     0
176
     1
 93
        1
176
     1
 44
0.0
176
     1
173
     0
176
     1
  0
VISUALSTYLE
  5
36
102
{ACAD_REACTORS
330
2A
102
}
330
2A
100
AcDbVisualStyle
  2
Brighten
 70
    12
177
     2
291
     1
 71
     2
176
     1
 72
     2
176
     1
 73
     0
176
     1
 90
        0
176
     1
 40
-0.6
176
     1
 41
-30.0
176
     1
 62
     5
 63
     7
421
 16777215
176
     1
 74
     1
176
     1
 91
        4
176
     1
 64
     7
176
     1
 65
   257
176
     1
 75
     1
176
     1
175
     1
176
     1
 42
1.0
176
     1
 92
        8
176
     1
 66
     7
176
     1
 43
1.0
176
     1
 76
     1
176
     1
 77
     6
176
     1
 78
     2
176
     1
 67
     7
176
     1
 79
     5
176
     1
170
     0
176
     1
171
     0
176
     1
290
     0
176
     1
 93
        1
176
     1
 44
50.0
176
     1
173
     0
176
     1
  0
VISUALSTYLE
  5
3A
102
{ACAD_REACTORS
330
2A
102
}
330
2A
100
AcDbVisualStyle
  2
ColorChange
 70
    16
177
     2
291
     1
 71
     2
176
     1
 72
     2
176
     1
 73
     3
176
     1
 90
        0
176
     1
 40
-0.6
176
     1
 41
-30.0
176
     1
 62
     5
 63
     8
421
  8421504
176
     1
 74
     1
176
     1
 91
        4
176
     1
 64
     7
176
     1
 65
   257
176
     1
 75
     1
176
     1
175
     1
176
     1
 42
1.0
176
     1
 92
        8
176
     1
 66
     8
424
  8421504
176
     1
 43
1.0
176
     1
 76
     1
176
     1
 77
     6
176
     1
 78
     2
176
     1
 67
     7
176
     1
 79
     5
176
     1
170
     0
176
     1
171
     0
176
     1
290
     0
176
     1
 93
        1
176
     1
 44
0.0
176
     1
173
     0
176
     1
  0
VISUALSTYLE
  5
34
102
{ACAD_REACTORS
330
2A
102
}
330
2A
100
AcDbVisualStyle
  2
Conceptual
 70
     9
177
     2
291
     0
 71
     3
176
     1
 72
     2
176
     1
 73
     0
176
     1
 90
        0
176
     1
 40
-0.6
176
     1
 41
-30.0
176
     1
 62
     5
 63
     7
421
 16777215
176
     1
 74
     2
176
     1
 91
        2
176
     1
 64
     7
176
     1
 65
   257
176
     1
 75
     1
176
     1
175
     1
176
     1
 42
40.0
176
     1
 92
        8
176
     1
 66
     7
176
     1
 43
1.0
176
     1
 76
     1
176
     1
 77
     6
176
     1
 78
     2
176
     1
 67
     7
176
     1
 79
     3
176
     1
170
     0
176
     1
171
     0
176
     1
290
     0
176
     1
 93
        1
176
     1
 44
0.0
176
     1
173
     0
176
     1
  0
VISUALSTYLE
  5
35
102
{ACAD_REACTORS
330
2A
102
}
330
2A
100
AcDbVisualStyle
  2
Dim
 70
    11
177
     2
291
     1
 71
     2
176
     1
 72
     2
176
     1
 73
     0
176
     1
 90
        0
176
     1
 40
-0.6
176
     1
 41
-30.0
176
     1
 62
     5
 63
     7
421
 16777215
176
     1
 74
     1
176
     1
 91
        4
176
     1
 64
     7
176
     1
 65
   257
176
     1
 75
     1
176
     1
175
     1
176
     1
 42
1.0
176
     1
 92
        8
176
     1
 66
     7
176
     1
 43
1.0
176
     1
 76
     1
176
     1
 77
     6
176
     1
 78
     2
176
     1
 67
     7
176
     1
 79
     5
176
     1
170
     0
176
     1
171
     0
176
     1
290
     0
176
     1
 93
        1
176
     1
 44
-50.0
176
     1
173
     0
176
     1
  0
VISUALSTYLE
  5
39
102
{ACAD_REACTORS
330
2A
102
}
330
2A
100
AcDbVisualStyle
  2
Facepattern
 70
    15
177
     2
291
     1
 71
     2
176
     1
 72
     2
176
     1
 73
     0
176
     1
 90
        0
176
     1
 40
-0.6
176
     1
 41
-30.0
176
     1
 62
     5
 63
     7
421
 16777215
176
     1
 74
     1
176
     1
 91
        4
176
     1
 64
     7
176
     1
 65
   257
176
     1
 75
     1
176
     1
175
     1
176
     1
 42
1.0
176
     1
 92
        8
176
     1
 66
     7
176
     1
 43
1.0
176
     1
 76
     1
176
     1
 77
     6
176
     1
 78
     2
176
     1
 67
     7
176
     1
 79
     5
176
     1
170
     0
176
     1
171
     0
176
     1
290
     0
176
     1
 93
        1
176
     1
 44
0.0
176
     1
173
     0
176
     1
  0
VISUALSTYLE
  5
2B
102
{ACAD_REACTORS
330
2A
102
}
330
2A
100
AcDbVisualStyle
  2
Flat
 70
     0
177
     2
291
     1
 71
     2
176
     1
 72
     1
176
     1
 73
     1
176
     1
 90
        2
176
     1
 40
-0.6
176
     1
 41
30.0
176
     1
 62
     5
 63
     7
421
 16777215
176
     1
 74
     0
176
     1
 91
        4
176
     1
 64
     7
176
     1
 65
   257
176
     1
 75
     1
176
     1
175
     1
176
     1
 42
1.0
176
     1
 92
        8
176
     1
 66
     7
176
     1
 43
1.0
176
     1
 76
     1
176
     1
 77
     6
176
     1
 78
     2
176
     1
 67
     7
176
     1
 79
     5
176
     1
170
     0
176
     1
171
     0
176
     1
290
     0
176
     1
 93
       13
176
     1
 44
0.0
176
     1
173
     0
176
     1
  0
VISUALSTYLE
  5
2C
102
{ACAD_REACTORS
330
2A
102
}
330
2A
100
AcDbVisualStyle
  2
FlatWithEdges
 70
     1
177
     2
291
     1
 71
     2
176
     1
 72
     1
176
     1
 73
     1
176
     1
 90
        2
176
     1
 40
-0.6
176
     1
 41
30.0
176
     1
 62
     5
 63
     7
421
 16777215
176
     1
 74
     1
176
     1
 91
        4
176
     1
 64
     7
176
     1
 65
   257
176
     1
 75
     1
176
     1
175
     1
176
     1
 42
1.0
176
     1
 92
        0
176
     1
 66
   257
176
     1
 43
1.0
176
     1
 76
     1
176
     1
 77
     6
176
     1
 78
     2
176
     1
 67
     7
176
     1
 79
     5
176
     1
170
     0
176
     1
171
     0
176
     1
290
     0
176
     1
 93
       13
176
     1
 44
0.0
176
     1
173
     0
176
     1
  0
VISUALSTYLE
  5
2D
102
{ACAD_REACTORS
330
2A
102
}
330
2A
100
AcDbVisualStyle
  2
Gouraud
 70
     2
177
     2
291
     1
 71
     2
176
     1
 72
     2
176
     1
 73
     1
176
     1
 90
        2
176
     1
 40
-0.6
176
     1
 41
30.0
176
     1
 62
     5
 63
     7
421
 16777215
176
     1
 74
     0
176
     1
 91
        4
176
     1
 64
     7
176
     1
 65
   257
176
     1
 75
     1
176
     1
175
     1
176
     1
 42
1.0
176
     1
 92
        0
176
     1
 66
     7
176
     1
 43
1.0
176
     1
 76
     1
176
     1
 77
     6
176
     1
 78
     2
176
     1
 67
     7
176
     1
 79
     5
176
     1
170
     0
176
     1
171
     0
176
     1
290
     0
176
     1
 93
       13
176
     1
 44
0.0
176
     1
173
     0
176
     1
  0
VISUALSTYLE
  5
2E
102
{ACAD_REACTORS
330
2A
102
}
330
2A
100
AcDbVisualStyle
  2
GouraudWithEdges
 70
     3
177
     2
291
     1
 71
     2
176
     1
 72
     2
176
     1
 73
     1
176
     1
 90
        2
176
     1
 40
-0.6
176
     1
 41
30.0
176
     1
 62
     5
 63
     7
421
 16777215
176
     1
 74
     1
176
     1
 91
        4
176
     1
 64
     7
176
     1
 65
   257
176
     1
 75
     1
176
     1
175
     1
176
     1
 42
1.0
176
     1
 92
        0
176
     1
 66
   257
176
     1
 43
1.0
176
     1
 76
     1
176
     1
 77
     6
176
     1
 78
     2
176
     1
 67
     7
176
     1
 79
     5
176
     1
170
     0
176
     1
171
     0
176
     1
290
     0
176
     1
 93
       13
176
     1
 44
0.0
176
     1
173
     0
176
     1
  0
VISUALSTYLE
  5
38
102
{ACAD_REACTORS
330
2A
102
}
330
2A
100
AcDbVisualStyle
  2
Linepattern
 70
    14
177
     2
291
     1
 71
     2
176
     1
 72
     2
176
     1
 73
     0
176
     1
 90
        0
176
     1
 40
-0.6
176
     1
 41
-30.0
176
     1
 62
     5
 63
     7
421
 16777215
176
     1
 74
     1
176
     1
 91
        4
176
     1
 64
     7
176
     1
 65
   257
176
     1
 75
     7
176
     1
175
     7
176
     1
 42
1.0
176
     1
 92
        8
176
     1
 66
     7
176
     1
 43
1.0
176
     1
 76
     1
176
     1
 77
     6
176
     1
 78
     2
176
     1
 67
     7
176
     1
 79
     5
176
     1
170
     0
176
     1
171
     0
176
     1
290
     0
176
     1
 93
        1
176
     1
 44
0.0
176
     1
173
     0
176
     1
  0
VISUALSTYLE
  5
33
102
{ACAD_REACTORS
330
2A
102
}
330
2A
100
AcDbVisualStyle
  2
Realistic
 70
     8
177
     2
291
     0
 71
     2
176
     1
 72
     2
176
     1
 73
     0
176
     1
 90
        0
176
     1
 40
-0.6
176
     1
 41
-30.0
176
     1
 62
     5
 63
     7
421
 16777215
176
     1
 74
     1
176
     1
 91
        0
176
     1
 64
     7
176
     1
 65
   257
176
     1
 75
     1
176
     1
175
     1
176
     1
 42
1.0
176
     1
 92
        8
176
     1
 66
     8
424
  7895160
176
     1
 43
1.0
176
     1
 76
     1
176
     1
 77
     6
176
     1
 78
     2
176
     1
 67
     7
176
     1
 79
     5
176
     1
170
     0
176
     1
171
     0
176
     1
290
     0
176
     1
 93
       13
176
     1
 44
0.0
176
     1
173
     0
176
     1
  0
VISUALSTYLE
  5
37
102
{ACAD_REACTORS
330
2A
102
}
330
2A
100
AcDbVisualStyle
  2
Thicken
 70
    13
177
     2
291
     1
 71
     2
176
     1
 72
     2
176
     1
 73
     0
176
     1
 90
        0
176
     1
 40
-0.6
176
     1
 41
-30.0
176
     1
 62
     5
 63
     7
421
 16777215
176
     1
 74
     1
176
     1
 91
        4
176
     1
 64
     7
176
     1
 65
   257
176
     1
 75
     1
176
     1
175
     1
176
     1
 42
1.0
176
     1
 92
       12
176
     1
 66
     7
176
     1
 43
1.0
176
     1
 76
     1
176
     1
 77
     6
176
     1
 78
     2
176
     1
 67
     7
176
     1
 79
     5
176
     1
170
     0
176
     1
171
     0
176
     1
290
     0
176
     1
 93
        1
176
     1
 44
0.0
176
     1
173
     0
176
     1
  0
ENDSEC
  0
EOF
