  0
SECTION
  2
HEADER
  9
$ACADVER
  1
AC1024
  9
$ACADMAINTVER
 70
   226
  9
$DWGCODEPAGE
  3
ANSI_932
  9
$INSBASE
 10
0.0
 20
0.0
 30
0.0
  9
$EXTMIN
 10
1.000000000000000E+20
 20
1.000000000000000E+20
 30
1.000000000000000E+20
  9
$EXTMAX
 10
-1.000000000000000E+20
 20
-1.000000000000000E+20
 30
-1.000000000000000E+20
  9
$LIMMIN
 10
0.0
 20
0.0
  9
$LIMMAX
 10
12.0
 20
9.0
  9
$ORTHOMODE
 70
     0
  9
$REGENMODE
 70
     1
  9
$FILLMODE
 70
     1
  9
$QTEXTMODE
 70
     0
  9
$MIRRTEXT
 70
     0
  9
$LTSCALE
 40
1.0
  9
$ATTMODE
 70
     1
  9
$TEXTSIZE
 40
0.2
  9
$TRACEWID
 40
0.05
  9
$TEXTSTYLE
  7
Standard
  9
$CLAYER
  8
0
  9
$CELTYPE
  6
ByLayer
  9
$CECOLOR
 62
   256
  9
$CELTSCALE
 40
1.0
  9
$DISPSILH
 70
     0
  9
$DIMSCALE
 40
1.0
  9
$DIMASZ
 40
0.18
  9
$DIMEXO
 40
0.0625
  9
$DIMDLI
 40
0.38
  9
$DIMRND
 40
0.0
  9
$DIMDLE
 40
0.0
  9
$DIMEXE
 40
0.18
  9
$DIMTP
 40
0.0
  9
$DIMTM
 40
0.0
  9
$DIMTXT
 40
0.18
  9
$DIMCEN
 40
0.09
  9
$DIMTSZ
 40
0.0
  9
$DIMTOL
 70
     0
  9
$DIMLIM
 70
     0
  9
$DIMTIH
 70
     1
  9
$DIMTOH
 70
     1
  9
$DIMSE1
 70
     0
  9
$DIMSE2
 70
     0
  9
$DIMTAD
 70
     0
  9
$DIMZIN
 70
     0
  9
$DIMBLK
  1

  9
$DIMASO
 70
     1
  9
$DIMSHO
 70
     1
  9
$DIMPOST
  1

  9
$DIMAPOST
  1

  9
$DIMALT
 70
     0
  9
$DIMALTD
 70
     2
  9
$DIMALTF
 40
25.4
  9
$DIMLFAC
 40
1.0
  9
$DIMTOFL
 70
     0
  9
$DIMTVP
 40
0.0
  9
$DIMTIX
 70
     0
  9
$DIMSOXD
 70
     0
  9
$DIMSAH
 70
     0
  9
$DIMBLK1
  1

  9
$DIMBLK2
  1

  9
$DIMSTYLE
  2
Standard
  9
$DIMCLRD
 70
     0
  9
$DIMCLRE
 70
     0
  9
$DIMCLRT
 70
     0
  9
$DIMTFAC
 40
1.0
  9
$DIMGAP
 40
0.09
  9
$DIMJUST
 70
     0
  9
$DIMSD1
 70
     0
  9
$DIMSD2
 70
     0
  9
$DIMTOLJ
 70
     1
  9
$DIMTZIN
 70
     0
  9
$DIMALTZ
 70
     0
  9
$DIMALTTZ
 70
     0
  9
$DIMUPT
 70
     0
  9
$DIMDEC
 70
     4
  9
$DIMTDEC
 70
     4
  9
$DIMALTU
 70
     2
  9
$DIMALTTD
 70
     2
  9
$DIMTXSTY
  7
Standard
  9
$DIMAUNIT
 70
     0
  9
$DIMADEC
 70
     0
  9
$DIMALTRND
 40
0.0
  9
$DIMAZIN
 70
     0
  9
$DIMDSEP
 70
    46
  9
$DIMATFIT
 70
     3
  9
$DIMFRAC
 70
     0
  9
$DIMLDRBLK
  1

  9
$DIMLUNIT
 70
     2
  9
$DIMLWD
 70
    -2
  9
$DIMLWE
 70
    -2
  9
$DIMTMOVE
 70
     0
  9
$DIMFXL
 40
1.0
  9
$DIMFXLON
 70
     0
  9
$DIMJOGANG
 40
0.7853981633974483
  9
$DIMTFILL
 70
     0
  9
$DIMTFILLCLR
 70
     0
  9
$DIMARCSYM
 70
     0
  9
$DIMLTYPE
  6

  9
$DIMLTEX1
  6

  9
$DIMLTEX2
  6

  9
$DIMTXTDIRECTION
 70
     0
  9
$LUNITS
 70
     2
  9
$LUPREC
 70
     4
  9
$SKETCHINC
 40
0.1
  9
$FILLETRAD
 40
0.0
  9
$AUNITS
 70
     0
  9
$AUPREC
 70
     0
  9
$MENU
  1
.
  9
$ELEVATION
 40
0.0
  9
$PELEVATION
 40
0.0
  9
$THICKNESS
 40
0.0
  9
$LIMCHECK
 70
     0
  9
$CHAMFERA
 40
0.0
  9
$CHAMFERB
 40
0.0
  9
$CHAMFERC
 40
0.0
  9
$CHAMFERD
 40
0.0
  9
$SKPOLY
 70
     0
  9
$TDCREATE
 40
2459676.424479166
  9
$TDUCREATE
 40
2459676.049479167
  9
$TDUPDATE
 40
2459676.424479166
  9
$TDUUPDATE
 40
2459676.049479167
  9
$TDINDWG
 40
0.0000000000
  9
$TDUSRTIMER
 40
0.0000000000
  9
$USRTIMER
 70
     1
  9
$ANGBASE
 50
0.0
  9
$ANGDIR
 70
     0
  9
$PDMODE
 70
     0
  9
$PDSIZE
 40
0.0
  9
$PLINEWID
 40
0.0
  9
$SPLFRAME
 70
     0
  9
$SPLINETYPE
 70
     6
  9
$SPLINESEGS
 70
     8
  9
$HANDSEED
  5
13D
  9
$SURFTAB1
 70
     6
  9
$SURFTAB2
 70
     6
  9
$SURFTYPE
 70
     6
  9
$SURFU
 70
     6
  9
$SURFV
 70
     6
  9
$UCSBASE
  2

  9
$UCSNAME
  2

  9
$UCSORG
 10
0.0
 20
0.0
 30
0.0
  9
$UCSXDIR
 10
1.0
 20
0.0
 30
0.0
  9
$UCSYDIR
 10
0.0
 20
1.0
 30
0.0
  9
$UCSORTHOREF
  2

  9
$UCSORTHOVIEW
 70
     0
  9
$UCSORGTOP
 10
0.0
 20
0.0
 30
0.0
  9
$UCSORGBOTTOM
 10
0.0
 20
0.0
 30
0.0
  9
$UCSORGLEFT
 10
0.0
 20
0.0
 30
0.0
  9
$UCSORGRIGHT
 10
0.0
 20
0.0
 30
0.0
  9
$UCSORGFRONT
 10
0.0
 20
0.0
 30
0.0
  9
$UCSORGBACK
 10
0.0
 20
0.0
 30
0.0
  9
$PUCSBASE
  2

  9
$PUCSNAME
  2

  9
$PUCSORG
 10
0.0
 20
0.0
 30
0.0
  9
$PUCSXDIR
 10
1.0
 20
0.0
 30
0.0
  9
$PUCSYDIR
 10
0.0
 20
1.0
 30
0.0
  9
$PUCSORTHOREF
  2

  9
$PUCSORTHOVIEW
 70
     0
  9
$PUCSORGTOP
 10
0.0
 20
0.0
 30
0.0
  9
$PUCSORGBOTTOM
 10
0.0
 20
0.0
 30
0.0
  9
$PUCSORGLEFT
 10
0.0
 20
0.0
 30
0.0
  9
$PUCSORGRIGHT
 10
0.0
 20
0.0
 30
0.0
  9
$PUCSORGFRONT
 10
0.0
 20
0.0
 30
0.0
  9
$PUCSORGBACK
 10
0.0
 20
0.0
 30
0.0
  9
$USERI1
 70
     0
  9
$USERI2
 70
     0
  9
$USERI3
 70
     0
  9
$USERI4
 70
     0
  9
$USERI5
 70
     0
  9
$USERR1
 40
0.0
  9
$USERR2
 40
0.0
  9
$USERR3
 40
0.0
  9
$USERR4
 40
0.0
  9
$USERR5
 40
0.0
  9
$WORLDVIEW
 70
     1
  9
$SHADEDGE
 70
     3
  9
$SHADEDIF
 70
    70
  9
$TILEMODE
 70
     1
  9
$MAXACTVP
 70
    64
  9
$PINSBASE
 10
0.0
 20
0.0
 30
0.0
  9
$PLIMCHECK
 70
     0
  9
$PEXTMIN
 10
1.000000000000000E+20
 20
1.000000000000000E+20
 30
1.000000000000000E+20
  9
$PEXTMAX
 10
-1.000000000000000E+20
 20
-1.000000000000000E+20
 30
-1.000000000000000E+20
  9
$PLIMMIN
 10
0.0
 20
0.0
  9
$PLIMMAX
 10
12.0
 20
9.0
  9
$UNITMODE
 70
     0
  9
$VISRETAIN
 70
     1
  9
$PLINEGEN
 70
     0
  9
$PSLTSCALE
 70
     1
  9
$TREEDEPTH
 70
  3020
  9
$CMLSTYLE
  2
Standard
  9
$CMLJUST
 70
     0
  9
$CMLSCALE
 40
1.0
  9
$PROXYGRAPHICS
 70
     1
  9
$MEASUREMENT
 70
     0
  9
$CELWEIGHT
370
    -1
  9
$ENDCAPS
280
     0
  9
$JOINSTYLE
280
     0
  9
$LWDISPLAY
290
     1
  9
$INSUNITS
 70
     4
  9
$HYPERLINKBASE
  1

  9
$STYLESHEET
  1

  9
$XEDIT
290
     1
  9
$CEPSNTYPE
380
     0
  9
$PSTYLEMODE
290
     1
  9
$FINGERPRINTGUID
  2
{FE7908FD-887E-1C4A-820B-359C9731B488}
  9
$VERSIONGUID
  2
{D39CD797-EB22-D046-B736-B565326F749B}
  9
$EXTNAMES
290
     1
  9
$PSVPSCALE
 40
0.0
  9
$OLESTARTUP
290
     0
  9
$SORTENTS
280
   127
  9
$INDEXCTL
280
     0
  9
$HIDETEXT
280
     1
  9
$XCLIPFRAME
280
     2
  9
$HALOGAP
280
     0
  9
$OBSCOLOR
 70
   257
  9
$OBSLTYPE
280
     0
  9
$INTERSECTIONDISPLAY
280
     0
  9
$INTERSECTIONCOLOR
 70
   257
  9
$DIMASSOC
280
     2
  9
$PROJECTNAME
  1

  9
$CAMERADISPLAY
290
     0
  9
$LENSLENGTH
 40
50.0
  9
$CAMERAHEIGHT
 40
0.0
  9
$STEPSPERSEC
 40
2.0
  9
$STEPSIZE
 40
6.0
  9
$3DDWFPREC
 40
2.0
  9
$PSOLWIDTH
 40
0.25
  9
$PSOLHEIGHT
 40
4.0
  9
$LOFTANG1
 40
1.570796326794896
  9
$LOFTANG2
 40
1.570796326794896
  9
$LOFTMAG1
 40
0.0
  9
$LOFTMAG2
 40
0.0
  9
$LOFTPARAM
 70
     7
  9
$LOFTNORMALS
280
     1
  9
$LATITUDE
 40
37.795
  9
$LONGITUDE
 40
-122.394
  9
$NORTHDIRECTION
 40
0.0
  9
$TIMEZONE
 70
 -8000
  9
$LIGHTGLYPHDISPLAY
280
     1
  9
$TILEMODELIGHTSYNCH
280
     1
  9
$CMATERIAL
347
11
  9
$SOLIDHIST
280
     0
  9
$SHOWHIST
280
     1
  9
$DWFFRAME
280
     2
  9
$DGNFRAME
280
     0
  9
$REALWORLDSCALE
290
     1
  9
$INTERFERECOLOR
 62
     1
  9
$INTERFEREOBJVS
345
33
  9
$INTERFEREVPVS
346
30
  9
$CSHADOW
280
     0
  9
$SHADOWPLANELOCATION
 40
0.0
  0
ENDSEC
  0
SECTION
  2
CLASSES
  0
CLASS
  1
ACDBDICTIONARYWDFLT
  2
AcDbDictionaryWithDefault
  3
ObjectDBX Classes
 90
        0
 91
        1
280
     0
281
     0
  0
CLASS
  1
MATERIAL
  2
AcDbMaterial
  3
ObjectDBX Classes
 90
     1153
 91
        3
280
     0
281
     0
  0
CLASS
  1
VISUALSTYLE
  2
AcDbVisualStyle
  3
ObjectDBX Classes
 90
     4095
 91
       24
280
     0
281
     0
  0
CLASS
  1
SCALE
  2
AcDbScale
  3
ObjectDBX Classes
 90
     1153
 91
       17
280
     0
281
     0
  0
CLASS
  1
TABLESTYLE
  2
AcDbTableStyle
  3
ObjectDBX Classes
 90
     4095
 91
        1
280
     0
281
     0
  0
CLASS
  1
MLEADERSTYLE
  2
AcDbMLeaderStyle
  3
ACDB_MLEADERSTYLE_CLASS
 90
     4095
 91
        1
280
     0
281
     0
  0
CLASS
  1
ACDBSECTIONVIEWSTYLE
  2
AcDbSectionViewStyle
  3
ObjectDBX Classes
 90
     1025
 91
        1
280
     0
281
     0
  0
CLASS
  1
ACDBDETAILVIEWSTYLE
  2
AcDbDetailViewStyle
  3
ObjectDBX Classes
 90
     1025
 91
        1
280
     0
281
     0
  0
CLASS
  1
DICTIONARYVAR
  2
AcDbDictionaryVar
  3
ObjectDBX Classes
 90
        0
 91
        5
280
     0
281
     0
  0
CLASS
  1
CELLSTYLEMAP
  2
AcDbCellStyleMap
  3
ObjectDBX Classes
 90
     1152
 91
        1
280
     0
281
     0
  0
ENDSEC
  0
SECTION
  2
TABLES
  0
TABLE
  2
VPORT
  5
8
330
0
100
AcDbSymbolTable
 70
     1
  0
VPORT
  5
57
330
8
100
AcDbSymbolTableRecord
100
AcDbViewportTableRecord
  2
*Active
 70
     0
 10
0.0
 20
0.0
 11
1.0
 21
1.0
 12
0.0
 22
0.0
 13
0.0
 23
0.0
 14
1.0
 24
1.0
 15
0.0
 25
0.0
 16
0.0
 26
0.0
 36
1.0
 17
104.9999999737534
 27
-148.4999999628701
 37
0.0
 40
302.939999924255
 41
0.7070707070707534
 42
50.0
 43
0.0
 44
0.0
 50
0.0
 51
0.0
 71
     0
 72
   100
 73
     1
 74
     0
 75
     1
 76
     0
 77
     0
 78
     0
281
     0
 65
     1
110
0.0
120
0.0
130
0.0
111
1.0
121
0.0
131
0.0
112
0.0
122
1.0
132
0.0
 79
     0
146
0.0
 60
     3
 61
     5
292
     1
282
     1
141
0.0
142
0.0
 63
   250
421
  3355443
  0
ENDTAB
  0
TABLE
  2
LTYPE
  5
5
330
0
100
AcDbSymbolTable
 70
     2
  0
LTYPE
  5
5B
330
5
100
AcDbSymbolTableRecord
100
AcDbLinetypeTableRecord
  2
ByBlock
 70
     0
  3

 72
    65
 73
     0
 40
0.0
  0
LTYPE
  5
5C
330
5
100
AcDbSymbolTableRecord
100
AcDbLinetypeTableRecord
  2
ByLayer
 70
     0
  3

 72
    65
 73
     0
 40
0.0
  0
LTYPE
  5
5D
330
5
100
AcDbSymbolTableRecord
100
AcDbLinetypeTableRecord
  2
Continuous
 70
     0
  3
Solid line
 72
    65
 73
     0
 40
0.0
  0
LTYPE
  5
DB
330
5
100
AcDbSymbolTableRecord
100
AcDbLinetypeTableRecord
  2
AI-Linetype-0
 70
     0
  3
Adobe Illustrator Linetype No. 0
 72
    65
 73
     2
 40
1.411111110758333
 49
0.7055555553791667
 74
     0
 49
-0.7055555553791667
 74
     0
  0
ENDTAB
  0
TABLE
  2
LAYER
  5
2
330
0
100
AcDbSymbolTable
 70
     2
  0
LAYER
  5
54
330
2
100
AcDbSymbolTableRecord
100
AcDbLayerTableRecord
  2
0
 70
     0
 62
     7
  6
Continuous
370
    -3
390
F
347
21
  0
LAYER
  5
78
330
2
100
AcDbSymbolTableRecord
100
AcDbLayerTableRecord
  2
レイヤー 1
 70
     0
 62
     7
  6
Continuous
370
     0
390
F
347
21
  0
ENDTAB
  0
TABLE
  2
STYLE
  5
3
330
0
100
AcDbSymbolTable
 70
     2
  0
STYLE
  5
55
330
3
100
AcDbSymbolTableRecord
100
AcDbTextStyleTableRecord
  2
Standard
 70
     0
 40
0.0
 41
1.0
 50
0.0
 71
     0
 42
0.2
  3
txt
  4

  0
STYLE
  5
5A
330
3
100
AcDbSymbolTableRecord
100
AcDbTextStyleTableRecord
  2
Annotative
 70
     0
 40
0.0
 41
1.0
 50
0.0
 71
     0
 42
0.2
  3
txt
  4

1001
AcadAnnotative
1000
AnnotativeData
1002
{
1070
     1
1070
     1
1002
}
  0
ENDTAB
  0
TABLE
  2
VIEW
  5
6
330
0
100
AcDbSymbolTable
 70
     0
  0
ENDTAB
  0
TABLE
  2
UCS
  5
7
330
0
100
AcDbSymbolTable
 70
     0
  0
ENDTAB
  0
TABLE
  2
APPID
  5
9
330
0
100
AcDbSymbolTable
 70
     2
  0
APPID
  5
56
330
9
100
AcDbSymbolTableRecord
100
AcDbRegAppTableRecord
  2
ACAD
 70
     0
  0
APPID
  5
5E
330
9
100
AcDbSymbolTableRecord
100
AcDbRegAppTableRecord
  2
AcadAnnotative
 70
     0
  0
ENDTAB
  0
TABLE
  2
DIMSTYLE
  5
A
330
0
100
AcDbSymbolTable
 70
     2
100
AcDbDimStyleTable
 71
     0
  0
DIMSTYLE
105
58
330
A
100
AcDbSymbolTableRecord
100
AcDbDimStyleTableRecord
  2
Standard
 70
     0
340
55
  0
DIMSTYLE
105
59
330
A
100
AcDbSymbolTableRecord
100
AcDbDimStyleTableRecord
  2
Annotative
 70
     0
340
55
1001
AcadAnnotative
1000
AnnotativeData
1002
{
1070
     1
1070
     1
1002
}
  0
ENDTAB
  0
TABLE
  2
BLOCK_RECORD
  5
1
330
0
100
AcDbSymbolTable
 70
    14
  0
BLOCK_RECORD
  5
70
330
1
100
AcDbSymbolTableRecord
100
AcDbBlockTableRecord
  2
*Model_Space
340
73
 70
     0
280
     1
281
     0
  0
BLOCK_RECORD
  5
6C
330
1
100
AcDbSymbolTableRecord
100
AcDbBlockTableRecord
  2
*Paper_Space
340
6F
 70
     0
280
     1
281
     0
  0
BLOCK_RECORD
  5
74
330
1
100
AcDbSymbolTableRecord
100
AcDbBlockTableRecord
  2
*Paper_Space0
340
77
 70
     0
280
     1
281
     0
  0
BLOCK_RECORD
  5
79
330
1
100
AcDbSymbolTableRecord
100
AcDbBlockTableRecord
  2
Block_0
340
0
102
{BLKREFS
331
7A
102
}
 70
     0
280
     1
281
     0
  0
BLOCK_RECORD
  5
7D
330
1
100
AcDbSymbolTableRecord
100
AcDbBlockTableRecord
  2
Block_1
340
0
102
{BLKREFS
331
7E
102
}
 70
     0
280
     1
281
     0
  0
BLOCK_RECORD
  5
94
330
1
100
AcDbSymbolTableRecord
100
AcDbBlockTableRecord
  2
Block_2
340
0
102
{BLKREFS
331
95
102
}
 70
     0
280
     1
281
     0
  0
BLOCK_RECORD
  5
9D
330
1
100
AcDbSymbolTableRecord
100
AcDbBlockTableRecord
  2
Block_3
340
0
102
{BLKREFS
331
9E
102
}
 70
     0
280
     1
281
     0
  0
BLOCK_RECORD
  5
A1
330
1
100
AcDbSymbolTableRecord
100
AcDbBlockTableRecord
  2
Block_4
340
0
102
{BLKREFS
331
A2
102
}
 70
     0
280
     1
281
     0
  0
BLOCK_RECORD
  5
AB
330
1
100
AcDbSymbolTableRecord
100
AcDbBlockTableRecord
  2
Block_5
340
0
102
{BLKREFS
331
AC
102
}
 70
     0
280
     1
281
     0
  0
BLOCK_RECORD
  5
B7
330
1
100
AcDbSymbolTableRecord
100
AcDbBlockTableRecord
  2
Block_6
340
0
102
{BLKREFS
331
B8
102
}
 70
     0
280
     1
281
     0
  0
BLOCK_RECORD
  5
BB
330
1
100
AcDbSymbolTableRecord
100
AcDbBlockTableRecord
  2
Block_7
340
0
102
{BLKREFS
331
BC
102
}
 70
     0
280
     1
281
     0
  0
BLOCK_RECORD
  5
CB
330
1
100
AcDbSymbolTableRecord
100
AcDbBlockTableRecord
  2
Block_8
340
0
102
{BLKREFS
331
CC
102
}
 70
     0
280
     1
281
     0
  0
BLOCK_RECORD
  5
CF
330
1
100
AcDbSymbolTableRecord
100
AcDbBlockTableRecord
  2
Block_9
340
0
102
{BLKREFS
331
D0
102
}
 70
     0
280
     1
281
     0
  0
BLOCK_RECORD
  5
DC
330
1
100
AcDbSymbolTableRecord
100
AcDbBlockTableRecord
  2
Block_10
340
0
102
{BLKREFS
331
DD
102
}
 70
     0
280
     1
281
     0
  0
BLOCK_RECORD
  5
E3
330
1
100
AcDbSymbolTableRecord
100
AcDbBlockTableRecord
  2
Block_11
340
0
102
{BLKREFS
331
E4
102
}
 70
     0
280
     1
281
     0
  0
BLOCK_RECORD
  5
E7
330
1
100
AcDbSymbolTableRecord
100
AcDbBlockTableRecord
  2
Block_12
340
0
102
{BLKREFS
331
E8
102
}
 70
     0
280
     1
281
     0
  0
ENDTAB
  0
ENDSEC
  0
SECTION
  2
BLOCKS
  0
BLOCK
  5
71
330
70
100
AcDbEntity
  8
0
100
AcDbBlockBegin
  2
*Model_Space
 70
     0
 10
0.0
 20
0.0
 30
0.0
  3
*Model_Space
  1

  0
ENDBLK
  5
72
330
70
100
AcDbEntity
  8
0
100
AcDbBlockEnd
  0
BLOCK
  5
6D
330
6C
100
AcDbEntity
 67
     1
  8
0
100
AcDbBlockBegin
  2
*Paper_Space
 70
     0
 10
0.0
 20
0.0
 30
0.0
  3
*Paper_Space
  1

  0
ENDBLK
  5
6E
330
6C
100
AcDbEntity
 67
     1
  8
0
100
AcDbBlockEnd
  0
BLOCK
  5
75
330
74
100
AcDbEntity
 67
     1
  8
0
100
AcDbBlockBegin
  2
*Paper_Space0
 70
     0
 10
0.0
 20
0.0
 30
0.0
  3
*Paper_Space0
  1

  0
ENDBLK
  5
76
330
74
100
AcDbEntity
 67
     1
  8
0
100
AcDbBlockEnd
  0
BLOCK
  5
7B
330
79
100
AcDbEntity
  8
0
100
AcDbBlockBegin
  2
Block_0
 70
     0
 10
0.0
 20
0.0
 30
0.0
  3
Block_0
  1

  0
INSERT
  5
7E
330
79
100
AcDbEntity
  8
レイヤー 1
100
AcDbBlockReference
  2
Block_1
 10
0.0
 20
0.0
 30
0.0
  0
ENDBLK
  5
7C
330
79
100
AcDbEntity
  8
0
100
AcDbBlockEnd
  0
BLOCK
  5
7F
330
7D
100
AcDbEntity
  8
0
100
AcDbBlockBegin
  2
Block_1
 70
     0
 10
0.0
 20
0.0
 30
0.0
  3
Block_1
  1

  0
LINE
  5
81
330
7D
100
AcDbEntity
  8
レイヤー 1
 62
   250
420
  2299925
370
    25
100
AcDbLine
 10
91.85095705123371
 20
-144.007028833284
 30
0.0
 11
98.85096454948403
 21
-144.007028833284
 31
0.0
  0
LINE
  5
82
330
7D
100
AcDbEntity
  8
レイヤー 1
 62
   250
420
  2299925
370
    25
100
AcDbLine
 10
97.85096828601503
 20
-145.006801085631
 30
0.0
 11
97.85096828601503
 21
-153.0068578739746
 31
0.0
  0
LINE
  5
83
330
7D
100
AcDbEntity
  8
レイヤー 1
 62
   250
420
  2299925
370
    25
100
AcDbLine
 10
91.85095705123371
 20
-145.0068010299996
 30
0.0
 11
97.85096816084523
 21
-145.0068010299996
 31
0.0
  0
LINE
  5
84
330
7D
100
AcDbEntity
  8
レイヤー 1
 62
   250
420
  2299925
370
    25
100
AcDbLine
 10
91.85095705123371
 20
-144.007028833284
 30
0.0
 11
91.85095705123371
 21
-145.0068010299996
 31
0.0
  0
LINE
  5
85
330
7D
100
AcDbEntity
  8
レイヤー 1
 62
   250
420
  2299925
370
    25
100
AcDbLine
 10
98.85096466976923
 20
-144.0070288889151
 30
0.0
 11
98.85096466976923
 21
-152.0071790131155
 31
0.0
  0
LINE
  5
86
330
7D
100
AcDbEntity
  8
レイヤー 1
 62
   250
420
  2299925
370
    25
100
AcDbLine
 10
114.8509403553084
 20
-152.0071790131155
 30
0.0
 11
114.8509403553084
 21
-152.4071584473563
 31
0.0
  0
LINE
  5
87
330
7D
100
AcDbEntity
  8
レイヤー 1
 62
   250
420
  2299925
370
    25
100
AcDbLine
 10
98.85096467465352
 20
-152.0071790131155
 30
0.0
 11
114.8509403553084
 21
-152.0071790131155
 31
0.0
  0
LINE
  5
88
330
7D
100
AcDbEntity
  8
レイヤー 1
 62
   250
420
  2299925
370
    25
100
AcDbLine
 10
114.8509403553084
 20
-152.4071584473563
 30
0.0
 11
97.85096828601503
 21
-153.0068578739746
 31
0.0
  0
SPLINE
  5
89
330
7D
100
AcDbEntity
  8
レイヤー 1
 62
   250
420
  2299925
370
     9
100
AcDbSpline
210
0.0
220
0.0
230
1.0
 70
    11
 71
     3
 72
    17
 73
    13
 74
     0
 42
0.0000000001
 43
0.0000000001
 40
0.0
 40
0.0
 40
0.0
 40
0.0
 40
1.0
 40
1.0
 40
1.0
 40
2.0
 40
2.0
 40
2.0
 40
3.0
 40
3.0
 40
3.0
 40
4.0
 40
4.0
 40
4.0
 40
4.0
 10
118.9513127251837
 20
-144.007028833284
 30
0.0
 10
118.9513127251837
 20
-143.9517485569165
 30
0.0
 10
118.906509947417
 20
-143.9069457802821
 30
0.0
 10
118.8506994199327
 20
-143.9069457802821
 30
0.0
 10
118.7955955324496
 20
-143.9069457802821
 30
0.0
 10
118.7507927558148
 20
-143.9517485569165
 30
0.0
 10
118.7507927558148
 20
-144.007028833284
 30
0.0
 10
118.7507927558148
 20
-144.0623091096514
 30
0.0
 10
118.7955955324496
 20
-144.1071118862859
 30
0.0
 10
118.8506994199327
 20
-144.1071118862859
 30
0.0
 10
118.906509947417
 20
-144.1071118862859
 30
0.0
 10
118.9513127251837
 20
-144.0623091096514
 30
0.0
 10
118.9513127251837
 20
-144.007028833284
 30
0.0
  0
SPLINE
  5
8A
330
7D
100
AcDbEntity
  8
レイヤー 1
 62
   250
420
  2299925
370
     9
100
AcDbSpline
210
0.0
220
0.0
230
1.0
 70
     9
 71
     3
 72
    17
 73
    13
 74
     0
 42
0.0000000001
 43
0.0000000001
 40
0.0
 40
0.0
 40
0.0
 40
0.0
 40
1.0
 40
1.0
 40
1.0
 40
2.0
 40
2.0
 40
2.0
 40
3.0
 40
3.0
 40
3.0
 40
4.0
 40
4.0
 40
4.0
 40
4.0
 10
118.9513127251837
 20
-152.0071790131155
 30
0.0
 10
118.9513127251837
 20
-151.9517223478643
 30
0.0
 10
118.906509947417
 20
-151.9069195712296
 30
0.0
 10
118.8506994199327
 20
-151.9069195712296
 30
0.0
 10
118.7955955324496
 20
-151.9069195712296
 30
0.0
 10
118.7507927558148
 20
-151.9517223478643
 30
0.0
 10
118.7507927558148
 20
-152.0071790131155
 30
0.0
 10
118.7507927558148
 20
-152.0622829005986
 30
0.0
 10
118.7955955324496
 20
-152.107085677234
 30
0.0
 10
118.8506994199327
 20
-152.107085677234
 30
0.0
 10
118.906509947417
 20
-152.107085677234
 30
0.0
 10
118.9513127251837
 20
-152.0622829005986
 30
0.0
 10
118.9513127251837
 20
-152.0071790131155
 30
0.0
  0
SPLINE
  5
8B
330
7D
100
AcDbEntity
  8
レイヤー 1
 62
   250
420
  2299925
370
     9
100
AcDbSpline
210
0.0
220
0.0
230
1.0
 70
     9
 71
     3
 72
    17
 73
    13
 74
     0
 42
0.0000000001
 43
0.0000000001
 40
0.0
 40
0.0
 40
0.0
 40
0.0
 40
1.0
 40
1.0
 40
1.0
 40
2.0
 40
2.0
 40
2.0
 40
3.0
 40
3.0
 40
3.0
 40
4.0
 40
4.0
 40
4.0
 40
4.0
 10
118.9513127251837
 20
-152.4071584473563
 30
0.0
 10
118.9513127251837
 20
-152.3517017821038
 30
0.0
 10
118.906509947417
 20
-152.3068990054697
 30
0.0
 10
118.8506994199327
 20
-152.3068990054697
 30
0.0
 10
118.7955955324496
 20
-152.3068990054697
 30
0.0
 10
118.7507927558148
 20
-152.3517017821038
 30
0.0
 10
118.7507927558148
 20
-152.4071584473563
 30
0.0
 10
118.7507927558148
 20
-152.4622623348394
 30
0.0
 10
118.7955955324496
 20
-152.5070651114741
 30
0.0
 10
118.8506994199327
 20
-152.5070651114741
 30
0.0
 10
118.906509947417
 20
-152.5070651114741
 30
0.0
 10
118.9513127251837
 20
-152.4622623348394
 30
0.0
 10
118.9513127251837
 20
-152.4071584473563
 30
0.0
  0
CIRCLE
  5
8C
330
7D
100
AcDbEntity
  8
レイヤー 1
 62
   250
420
  2299925
370
     9
100
AcDbCircle
 10
114.8509403553084
 20
-157.1067933274585
 30
0.0
 40
0.099906664118076
  0
SPLINE
  5
8D
330
7D
100
AcDbEntity
  8
レイヤー 1
 62
   250
420
  2299925
370
     9
100
AcDbSpline
210
0.0
220
0.0
230
1.0
 70
     9
 71
     3
 72
    17
 73
    13
 74
     0
 42
0.0000000001
 43
0.0000000001
 40
0.0
 40
0.0
 40
0.0
 40
0.0
 40
1.0
 40
1.0
 40
1.0
 40
2.0
 40
2.0
 40
2.0
 40
3.0
 40
3.0
 40
3.0
 40
4.0
 40
4.0
 40
4.0
 40
4.0
 10
91.95104010676455
 20
-157.1067933274586
 30
0.0
 10
91.95104010676455
 20
-157.0516481715281
 30
0.0
 10
91.9062373289975
 20
-157.0068866633401
 30
0.0
 10
91.85095705123371
 20
-157.0068866633401
 30
0.0
 10
91.79567677346991
 20
-157.0068866633401
 30
0.0
 10
91.75105038459207
 20
-157.0516481715281
 30
0.0
 10
91.75105038459207
 20
-157.1067933274586
 30
0.0
 10
91.75105038459207
 20
-157.1618972149417
 30
0.0
 10
91.79567677346991
 20
-157.2066999915764
 30
0.0
 10
91.85095705123371
 20
-157.2066999915764
 30
0.0
 10
91.9062373289975
 20
-157.2066999915764
 30
0.0
 10
91.95104010676455
 20
-157.1618972149417
 30
0.0
 10
91.95104010676455
 20
-157.1067933274586
 30
0.0
  0
SPLINE
  5
8E
330
7D
100
AcDbEntity
  8
レイヤー 1
 62
   250
420
  2299925
370
     9
100
AcDbSpline
210
0.0
220
0.0
230
1.0
 70
    11
 71
     3
 72
    17
 73
    13
 74
     0
 42
0.0000000001
 43
0.0000000001
 40
0.0
 40
0.0
 40
0.0
 40
0.0
 40
1.0
 40
1.0
 40
1.0
 40
2.0
 40
2.0
 40
2.0
 40
3.0
 40
3.0
 40
3.0
 40
4.0
 40
4.0
 40
4.0
 40
4.0
 10
89.90118955172119
 20
-144.007028833284
 30
0.0
 10
89.90118955172119
 20
-143.9517485569165
 30
0.0
 10
89.85642205173265
 20
-143.9069457802821
 30
0.0
 10
89.80128288507957
 20
-143.9069457802821
 30
0.0
 10
89.74600260731513
 20
-143.9069457802821
 30
0.0
 10
89.70123510732657
 20
-143.9517485569165
 30
0.0
 10
89.70123510732657
 20
-144.007028833284
 30
0.0
 10
89.70123510732657
 20
-144.0623091096514
 30
0.0
 10
89.74600260731513
 20
-144.1071118862859
 30
0.0
 10
89.80128288507957
 20
-144.1071118862859
 30
0.0
 10
89.85642205173265
 20
-144.1071118862859
 30
0.0
 10
89.90118955172119
 20
-144.0623091096514
 30
0.0
 10
89.90118955172119
 20
-144.007028833284
 30
0.0
  0
SPLINE
  5
8F
330
7D
100
AcDbEntity
  8
レイヤー 1
 62
   250
420
  2299925
370
     9
100
AcDbSpline
210
0.0
220
0.0
230
1.0
 70
     9
 71
     3
 72
    17
 73
    13
 74
     0
 42
0.0000000001
 43
0.0000000001
 40
0.0
 40
0.0
 40
0.0
 40
0.0
 40
1.0
 40
1.0
 40
1.0
 40
2.0
 40
2.0
 40
2.0
 40
3.0
 40
3.0
 40
3.0
 40
4.0
 40
4.0
 40
4.0
 40
4.0
 10
89.90118955172119
 20
-145.0068010299996
 30
0.0
 10
89.90118955172119
 20
-144.95166186474
 30
0.0
 10
89.85642205173265
 20
-144.906894365882
 30
0.0
 10
89.80128288507957
 20
-144.906894365882
 30
0.0
 10
89.74600260731513
 20
-144.906894365882
 30
0.0
 10
89.70123510732657
 20
-144.95166186474
 30
0.0
 10
89.70123510732657
 20
-145.0068010299996
 30
0.0
 10
89.70123510732657
 20
-145.0622576952517
 30
0.0
 10
89.74600260731513
 20
-145.1070604718865
 30
0.0
 10
89.80128288507957
 20
-145.1070604718865
 30
0.0
 10
89.85642205173265
 20
-145.1070604718865
 30
0.0
 10
89.90118955172119
 20
-145.0622576952517
 30
0.0
 10
89.90118955172119
 20
-145.0068010299996
 30
0.0
  0
SPLINE
  5
90
330
7D
100
AcDbEntity
  8
レイヤー 1
 62
   250
420
  2299925
370
     9
100
AcDbSpline
210
0.0
220
0.0
230
1.0
 70
     9
 71
     3
 72
    17
 73
    13
 74
     0
 42
0.0000000001
 43
0.0000000001
 40
0.0
 40
0.0
 40
0.0
 40
0.0
 40
1.0
 40
1.0
 40
1.0
 40
2.0
 40
2.0
 40
2.0
 40
3.0
 40
3.0
 40
3.0
 40
4.0
 40
4.0
 40
4.0
 40
4.0
 10
97.95101606376739
 20
-157.1067933274586
 30
0.0
 10
97.95101606376739
 20
-157.0516481715281
 30
0.0
 10
97.90624856377883
 20
-157.0068866633401
 30
0.0
 10
97.85096828601503
 20
-157.0068866633401
 30
0.0
 10
97.79582911936165
 20
-157.0068866633401
 30
0.0
 10
97.75106161937308
 20
-157.0516481715281
 30
0.0
 10
97.75106161937308
 20
-157.1067933274586
 30
0.0
 10
97.75106161937308
 20
-157.1618972149417
 30
0.0
 10
97.79582911936165
 20
-157.2066999915764
 30
0.0
 10
97.85096828601503
 20
-157.2066999915764
 30
0.0
 10
97.90624856377883
 20
-157.2066999915764
 30
0.0
 10
97.95101606376739
 20
-157.1618972149417
 30
0.0
 10
97.95101606376739
 20
-157.1067933274586
 30
0.0
  0
LINE
  5
91
330
7D
100
AcDbEntity
  8
レイヤー 1
 62
   250
420
  2299925
370
     9
100
AcDbLine
 10
91.85113344012259
 20
-157.1067933274586
 30
0.0
 11
97.85096816084523
 21
-157.1067933274586
 31
0.0
  0
LINE
  5
92
330
7D
100
AcDbEntity
  8
レイヤー 1
 62
   250
420
  2299925
370
     9
100
AcDbLine
 10
91.85095705123371
 20
-147.6469546293862
 30
0.0
 11
91.85095705123371
 21
-158.1072358019346
 31
0.0
  0
LINE
  5
93
330
7D
100
AcDbEntity
  8
レイヤー 1
 62
   250
420
  2299925
370
     9
100
AcDbLine
 10
97.85096828601503
 20
-155.6467519758185
 30
0.0
 11
97.85096828601503
 21
-158.1072358019346
 31
0.0
  0
INSERT
  5
95
330
7D
100
AcDbEntity
  8
レイヤー 1
100
AcDbBlockReference
  2
Block_2
 10
0.0
 20
0.0
 30
0.0
  0
LINE
  5
9B
330
7D
100
AcDbEntity
  8
レイヤー 1
 62
   250
420
  2299925
370
     9
100
AcDbLine
 10
97.85096828601503
 20
-157.1067933274586
 30
0.0
 11
114.8509403553084
 21
-157.1067933274586
 31
0.0
  0
LINE
  5
9C
330
7D
100
AcDbEntity
  8
レイヤー 1
 62
   250
420
  2299925
370
     9
100
AcDbLine
 10
114.8509403553084
 20
-154.9466997714561
 30
0.0
 11
114.8509403553084
 21
-158.1072358019346
 31
0.0
  0
INSERT
  5
9E
330
7D
100
AcDbEntity
  8
レイヤー 1
100
AcDbBlockReference
  2
Block_3
 10
0.0
 20
0.0
 30
0.0
  0
LINE
  5
A9
330
7D
100
AcDbEntity
  8
レイヤー 1
 62
   250
420
  2299925
370
     9
100
AcDbLine
 10
118.8506994199327
 20
-152.0071790131155
 30
0.0
 11
118.8506994199327
 21
-144.0070288889151
 31
0.0
  0
LINE
  5
AA
330
7D
100
AcDbEntity
  8
レイヤー 1
 62
   250
420
  2299925
370
     9
100
AcDbLine
 10
101.4910352295491
 20
-144.007028833284
 30
0.0
 11
119.8511418944093
 21
-144.007028833284
 31
0.0
  0
INSERT
  5
AC
330
7D
100
AcDbEntity
  8
レイヤー 1
100
AcDbBlockReference
  2
Block_5
 10
0.0
 20
0.0
 30
0.0
  0
LINE
  5
B3
330
7D
100
AcDbEntity
  8
レイヤー 1
 62
   250
420
  2299925
370
     9
100
AcDbLine
 10
118.8506994199327
 20
-152.4071584473563
 30
0.0
 11
118.8506994199327
 21
-153.4069306440722
 31
0.0
  0
LINE
  5
B4
330
7D
100
AcDbEntity
  8
レイヤー 1
 62
   250
420
  2299925
370
     9
100
AcDbLine
 10
118.8506994199327
 20
-152.0071790131155
 30
0.0
 11
118.8506994199327
 21
-152.4071584473563
 31
0.0
  0
LINE
  5
B5
330
7D
100
AcDbEntity
  8
レイヤー 1
 62
   250
420
  2299925
370
     9
100
AcDbLine
 10
117.3906580682925
 20
-152.0071790131155
 30
0.0
 11
119.8511418944093
 21
-152.0071790131155
 31
0.0
  0
LINE
  5
B6
330
7D
100
AcDbEntity
  8
レイヤー 1
 62
   250
420
  2299925
370
     9
100
AcDbLine
 10
117.3906580682925
 20
-152.4071584473563
 30
0.0
 11
119.8511418944093
 21
-152.4071584473563
 31
0.0
  0
INSERT
  5
B8
330
7D
100
AcDbEntity
  8
レイヤー 1
100
AcDbBlockReference
  2
Block_6
 10
0.0
 20
0.0
 30
0.0
  0
LINE
  5
C7
330
7D
100
AcDbEntity
  8
レイヤー 1
 62
   250
420
  2299925
370
     9
100
AcDbLine
 10
89.80128288507957
 20
-144.007028833284
 30
0.0
 11
89.80128288507957
 21
-143.0070802476837
 31
0.0
  0
LINE
  5
C8
330
7D
100
AcDbEntity
  8
レイヤー 1
 62
   250
420
  2299925
370
     9
100
AcDbLine
 10
89.80128288507957
 20
-144.007028833284
 30
0.0
 11
89.80128288507957
 21
-146.0068907267077
 31
0.0
  0
LINE
  5
C9
330
7D
100
AcDbEntity
  8
レイヤー 1
 62
   250
420
  2299925
370
     9
100
AcDbLine
 10
91.2611478847144
 20
-144.007028833284
 30
0.0
 11
88.80119316310711
 21
-144.007028833284
 31
0.0
  0
LINE
  5
CA
330
7D
100
AcDbEntity
  8
レイヤー 1
 62
   250
420
  2299925
370
     9
100
AcDbLine
 10
91.2611478847144
 20
-145.0068010299996
 30
0.0
 11
88.80119316310711
 21
-145.0068010299996
 31
0.0
  0
INSERT
  5
CC
330
7D
100
AcDbEntity
  8
レイヤー 1
100
AcDbBlockReference
  2
Block_8
 10
0.0
 20
0.0
 30
0.0
  0
ENDBLK
  5
80
330
7D
100
AcDbEntity
  8
0
100
AcDbBlockEnd
  0
BLOCK
  5
96
330
94
100
AcDbEntity
  8
0
100
AcDbBlockBegin
  2
Block_2
 70
     0
 10
0.0
 20
0.0
 30
0.0
  3
Block_2
  1

  0
SPLINE
  5
98
330
94
100
AcDbEntity
  8
レイヤー 1
100
AcDbSpline
210
0.0
220
0.0
230
1.0
 70
     9
 71
     3
 72
    17
 73
    13
 74
     0
 42
0.0000000001
 43
0.0000000001
 40
0.0
 40
0.0
 40
0.0
 40
0.0
 40
1.0
 40
1.0
 40
1.0
 40
2.0
 40
2.0
 40
2.0
 40
3.0
 40
3.0
 40
3.0
 40
4.0
 40
4.0
 40
4.0
 40
4.0
 10
94.84657929486475
 20
-155.6525146095244
 30
0.0
 10
94.62264808832351
 20
-155.6525146095244
 30
0.0
 10
94.59026419076215
 20
-155.8640434723187
 30
0.0
 10
94.59026419076215
 20
-155.9804876997201
 30
0.0
 10
94.59026419076215
 20
-156.1561875694679
 30
0.0
 10
94.67156844421406
 20
-156.3191405859202
 30
0.0
 10
94.82832028879291
 20
-156.3191405859202
 30
0.0
 10
94.93132864380189
 20
-156.3191405859202
 30
0.0
 10
95.08084578786172
 20
-156.2598849435739
 30
0.0
 10
95.08084578786172
 20
-155.9742865278467
 30
0.0
 10
95.08084578786172
 20
-155.7500108117569
 30
0.0
 10
94.96164548407209
 20
-155.6525146095244
 30
0.0
 10
94.84657929486475
 20
-155.6525146095244
 30
0.0
  0
SPLINE
  5
99
330
94
100
AcDbEntity
  8
レイヤー 1
100
AcDbSpline
210
0.0
220
0.0
230
1.0
 70
     9
 71
     3
 72
    32
 73
    28
 74
     0
 42
0.0000000001
 43
0.0000000001
 40
0.0
 40
0.0
 40
0.0
 40
0.0
 40
1.0
 40
1.0
 40
1.0
 40
2.0
 40
2.0
 40
2.0
 40
3.0
 40
3.0
 40
3.0
 40
4.0
 40
4.0
 40
4.0
 40
5.0
 40
5.0
 40
5.0
 40
6.0
 40
6.0
 40
6.0
 40
7.0
 40
7.0
 40
7.0
 40
8.0
 40
8.0
 40
8.0
 40
9.0
 40
9.0
 40
9.0
 40
9.0
 10
94.83210989382669
 20
-156.5113769139971
 30
0.0
 10
94.39182669081176
 20
-156.5113769139971
 30
0.0
 10
94.38493649984128
 20
-155.9574055599689
 30
0.0
 10
94.38493649984128
 20
-155.743465130335
 30
0.0
 10
94.38493649984128
 20
-155.5129882423717
 30
0.0
 10
94.40112844862195
 20
-154.8656548006933
 30
0.0
 10
94.86449379138804
 20
-154.8656548006933
 30
0.0
 10
95.01228838770527
 20
-154.8656548006933
 30
0.0
 10
95.22140568365992
 20
-154.9355902390439
 30
0.0
 10
95.25378958122129
 20
-155.2676974438219
 30
0.0
 10
95.25378958122129
 20
-155.2676974438219
 30
0.0
 10
95.07188853960007
 20
-155.2676974438219
 30
0.0
 10
95.07188853960007
 20
-155.2676974438219
 30
0.0
 10
95.06293129133844
 20
-155.2105088587668
 30
0.0
 10
95.03571503700497
 20
-155.0623697529011
 30
0.0
 10
94.86277124364542
 20
-155.0623697529011
 30
0.0
 10
94.61369084006186
 20
-155.0623697529011
 30
0.0
 10
94.57958439475788
 20
-155.3903428430968
 30
0.0
 10
94.56856008920508
 20
-155.5953260244692
 30
0.0
 10
94.64814179491435
 20
-155.517122356954
 30
0.0
 10
94.70567488951804
 20
-155.4578667146077
 30
0.0
 10
94.86070418635426
 20
-155.4578667146077
 30
0.0
 10
95.01401093544789
 20
-155.4578667146077
 30
0.0
 10
95.2720485872931
 20
-155.5660427128446
 30
0.0
 10
95.2720485872931
 20
-155.9722194705555
 30
0.0
 10
95.2720485872931
 20
-156.2915798220382
 30
0.0
 10
95.10254988941881
 20
-156.5113769139971
 30
0.0
 10
94.83210989382669
 20
-156.5113769139971
 30
0.0
  0
HATCH
  5
9A
330
94
100
AcDbEntity
  8
レイヤー 1
 62
   250
420
  2299925
440
 33554687
100
AcDbHatch
 10
0.0
 20
0.0
 30
0.0
210
0.0
220
0.0
230
1.0
  2
SOLID
 70
     1
 71
     1
 91
        2
 92
        1
 93
        1
 72
     4
 94
        3
 73
     0
 74
     0
 95
       17
 96
       13
 40
0.0
 40
0.0
 40
0.0
 40
0.0
 40
1.0
 40
1.0
 40
1.0
 40
2.0
 40
2.0
 40
2.0
 40
3.0
 40
3.0
 40
3.0
 40
4.0
 40
4.0
 40
4.0
 40
4.0
 10
94.84657929486475
 20
-155.6525146095244
 10
94.62264808832351
 20
-155.6525146095244
 10
94.59026419076215
 20
-155.8640434723187
 10
94.59026419076215
 20
-155.9804876997201
 10
94.59026419076215
 20
-156.1561875694679
 10
94.67156844421406
 20
-156.3191405859202
 10
94.82832028879291
 20
-156.3191405859202
 10
94.93132864380189
 20
-156.3191405859202
 10
95.08084578786172
 20
-156.2598849435739
 10
95.08084578786172
 20
-155.9742865278467
 10
95.08084578786172
 20
-155.7500108117569
 10
94.96164548407209
 20
-155.6525146095244
 10
94.84657929486475
 20
-155.6525146095244
 97
        0
 97
        1
330
98
 92
        1
 93
        1
 72
     4
 94
        3
 73
     0
 74
     0
 95
       32
 96
       28
 40
0.0
 40
0.0
 40
0.0
 40
0.0
 40
1.0
 40
1.0
 40
1.0
 40
2.0
 40
2.0
 40
2.0
 40
3.0
 40
3.0
 40
3.0
 40
4.0
 40
4.0
 40
4.0
 40
5.0
 40
5.0
 40
5.0
 40
6.0
 40
6.0
 40
6.0
 40
7.0
 40
7.0
 40
7.0
 40
8.0
 40
8.0
 40
8.0
 40
9.0
 40
9.0
 40
9.0
 40
9.0
 10
94.83210989382669
 20
-156.5113769139971
 10
94.39182669081176
 20
-156.5113769139971
 10
94.38493649984128
 20
-155.9574055599689
 10
94.38493649984128
 20
-155.743465130335
 10
94.38493649984128
 20
-155.5129882423717
 10
94.40112844862195
 20
-154.8656548006933
 10
94.86449379138804
 20
-154.8656548006933
 10
95.01228838770527
 20
-154.8656548006933
 10
95.22140568365992
 20
-154.9355902390439
 10
95.25378958122129
 20
-155.2676974438219
 10
95.25378958122129
 20
-155.2676974438219
 10
95.07188853960007
 20
-155.2676974438219
 10
95.07188853960007
 20
-155.2676974438219
 10
95.06293129133844
 20
-155.2105088587668
 10
95.03571503700497
 20
-155.0623697529011
 10
94.86277124364542
 20
-155.0623697529011
 10
94.61369084006186
 20
-155.0623697529011
 10
94.57958439475788
 20
-155.3903428430968
 10
94.56856008920508
 20
-155.5953260244692
 10
94.64814179491435
 20
-155.517122356954
 10
94.70567488951804
 20
-155.4578667146077
 10
94.86070418635426
 20
-155.4578667146077
 10
95.01401093544789
 20
-155.4578667146077
 10
95.2720485872931
 20
-155.5660427128446
 10
95.2720485872931
 20
-155.9722194705555
 10
95.2720485872931
 20
-156.2915798220382
 10
95.10254988941881
 20
-156.5113769139971
 10
94.83210989382669
 20
-156.5113769139971
 97
        0
 97
        1
330
99
 75
     2
 76
     1
 98
        1
 10
0.0
 20
0.0
450
        0
451
        0
460
0.0
461
0.0
452
        0
462
0.0
453
        0
470

  0
ENDBLK
  5
97
330
94
100
AcDbEntity
  8
0
100
AcDbBlockEnd
  0
BLOCK
  5
9F
330
9D
100
AcDbEntity
  8
0
100
AcDbBlockBegin
  2
Block_3
 70
     0
 10
0.0
 20
0.0
 30
0.0
  3
Block_3
  1

  0
INSERT
  5
A2
330
9D
100
AcDbEntity
  8
レイヤー 1
100
AcDbBlockReference
  2
Block_4
 10
0.0
 20
0.0
 30
0.0
  0
ENDBLK
  5
A0
330
9D
100
AcDbEntity
  8
0
100
AcDbBlockEnd
  0
BLOCK
  5
A3
330
A1
100
AcDbEntity
  8
0
100
AcDbBlockBegin
  2
Block_4
 70
     0
 10
0.0
 20
0.0
 30
0.0
  3
Block_4
  1

  0
SPLINE
  5
A5
330
A1
100
AcDbEntity
  8
レイヤー 1
100
AcDbSpline
210
0.0
220
0.0
230
1.0
 70
    11
 71
     3
 72
    26
 73
    22
 74
     0
 42
0.0000000001
 43
0.0000000001
 40
0.0
 40
0.0
 40
0.0
 40
0.0
 40
1.0
 40
1.0
 40
1.0
 40
2.0
 40
2.0
 40
2.0
 40
3.0
 40
3.0
 40
3.0
 40
4.0
 40
4.0
 40
4.0
 40
5.0
 40
5.0
 40
5.0
 40
6.0
 40
6.0
 40
6.0
 40
7.0
 40
7.0
 40
7.0
 40
7.0
 10
105.8092176384782
 20
-156.4610785199125
 30
0.0
 10
105.8092176384782
 20
-156.4610785199125
 30
0.0
 10
105.8092176384782
 20
-155.3569254168899
 30
0.0
 10
105.8092176384782
 20
-155.3569254168899
 30
0.0
 10
105.8092176384782
 20
-155.3569254168899
 30
0.0
 10
105.5277533373333
 20
-155.3569254168899
 30
0.0
 10
105.5277533373333
 20
-155.3569254168899
 30
0.0
 10
105.5277533373333
 20
-155.3569254168899
 30
0.0
 10
105.5277533373333
 20
-155.2087863110242
 30
0.0
 10
105.5277533373333
 20
-155.2087863110242
 30
0.0
 10
105.8109401862209
 20
-155.1939724004376
 30
0.0
 10
105.8505587843012
 20
-155.0310193839853
 30
0.0
 10
105.8757079813436
 20
-154.916642213875
 30
0.0
 10
105.8757079813436
 20
-154.916642213875
 30
0.0
 10
106.0004204379096
 20
-154.916642213875
 30
0.0
 10
106.0004204379096
 20
-154.916642213875
 30
0.0
 10
106.0004204379096
 20
-154.916642213875
 30
0.0
 10
106.0004204379096
 20
-156.4610785199125
 30
0.0
 10
106.0004204379096
 20
-156.4610785199125
 30
0.0
 10
106.0004204379096
 20
-156.4610785199125
 30
0.0
 10
105.8092176384782
 20
-156.4610785199125
 30
0.0
 10
105.8092176384782
 20
-156.4610785199125
 30
0.0
  0
HATCH
  5
A6
330
A1
100
AcDbEntity
  8
レイヤー 1
 62
   250
420
  2299925
440
 33554687
100
AcDbHatch
 10
0.0
 20
0.0
 30
0.0
210
0.0
220
0.0
230
1.0
  2
SOLID
 70
     1
 71
     1
 91
        1
 92
        1
 93
        1
 72
     4
 94
        3
 73
     0
 74
     0
 95
       26
 96
       22
 40
0.0
 40
0.0
 40
0.0
 40
0.0
 40
1.0
 40
1.0
 40
1.0
 40
2.0
 40
2.0
 40
2.0
 40
3.0
 40
3.0
 40
3.0
 40
4.0
 40
4.0
 40
4.0
 40
5.0
 40
5.0
 40
5.0
 40
6.0
 40
6.0
 40
6.0
 40
7.0
 40
7.0
 40
7.0
 40
7.0
 10
105.8092176384782
 20
-156.4610785199125
 10
105.8092176384782
 20
-156.4610785199125
 10
105.8092176384782
 20
-155.3569254168899
 10
105.8092176384782
 20
-155.3569254168899
 10
105.8092176384782
 20
-155.3569254168899
 10
105.5277533373333
 20
-155.3569254168899
 10
105.5277533373333
 20
-155.3569254168899
 10
105.5277533373333
 20
-155.3569254168899
 10
105.5277533373333
 20
-155.2087863110242
 10
105.5277533373333
 20
-155.2087863110242
 10
105.8109401862209
 20
-155.1939724004376
 10
105.8505587843012
 20
-155.0310193839853
 10
105.8757079813436
 20
-154.916642213875
 10
105.8757079813436
 20
-154.916642213875
 10
106.0004204379096
 20
-154.916642213875
 10
106.0004204379096
 20
-154.916642213875
 10
106.0004204379096
 20
-154.916642213875
 10
106.0004204379096
 20
-156.4610785199125
 10
106.0004204379096
 20
-156.4610785199125
 10
106.0004204379096
 20
-156.4610785199125
 10
105.8092176384782
 20
-156.4610785199125
 10
105.8092176384782
 20
-156.4610785199125
 97
        0
 97
        1
330
A5
 75
     2
 76
     1
 98
        1
 10
0.0
 20
0.0
450
        0
451
        0
460
0.0
461
0.0
452
        0
462
0.0
453
        0
470

  0
SPLINE
  5
A7
330
A1
100
AcDbEntity
  8
レイヤー 1
100
AcDbSpline
210
0.0
220
0.0
230
1.0
 70
     9
 71
     3
 72
    26
 73
    22
 74
     0
 42
0.0000000001
 43
0.0000000001
 40
0.0
 40
0.0
 40
0.0
 40
0.0
 40
1.0
 40
1.0
 40
1.0
 40
2.0
 40
2.0
 40
2.0
 40
3.0
 40
3.0
 40
3.0
 40
4.0
 40
4.0
 40
4.0
 40
5.0
 40
5.0
 40
5.0
 40
6.0
 40
6.0
 40
6.0
 40
7.0
 40
7.0
 40
7.0
 40
7.0
 10
106.7766004507364
 20
-156.4610785199125
 30
0.0
 10
106.7766004507364
 20
-156.4610785199125
 30
0.0
 10
106.5747178553007
 20
-156.4610785199125
 30
0.0
 10
106.5747178553007
 20
-156.4610785199125
 30
0.0
 10
106.5964219568578
 20
-156.1520534548856
 30
0.0
 10
106.7604085019557
 20
-155.633911093904
 30
0.0
 10
107.1066405982233
 20
-155.1281710766693
 30
0.0
 10
107.1066405982233
 20
-155.1281710766693
 30
0.0
 10
106.392472304131
 20
-155.1281710766693
 30
0.0
 10
106.392472304131
 20
-155.1281710766693
 30
0.0
 10
106.392472304131
 20
-155.1281710766693
 30
0.0
 10
106.392472304131
 20
-154.916642213875
 30
0.0
 10
106.392472304131
 20
-154.916642213875
 30
0.0
 10
106.392472304131
 20
-154.916642213875
 30
0.0
 10
107.308523193659
 20
-154.916642213875
 30
0.0
 10
107.308523193659
 20
-154.916642213875
 30
0.0
 10
107.308523193659
 20
-154.916642213875
 30
0.0
 10
107.308523193659
 20
-155.1281710766693
 30
0.0
 10
107.308523193659
 20
-155.1281710766693
 30
0.0
 10
107.032915554839
 20
-155.4182481165274
 30
0.0
 10
106.8055392528125
 20
-156.0104600304418
 30
0.0
 10
106.7766004507364
 20
-156.4610785199125
 30
0.0
  0
HATCH
  5
A8
330
A1
100
AcDbEntity
  8
レイヤー 1
 62
   250
420
  2299925
440
 33554687
100
AcDbHatch
 10
0.0
 20
0.0
 30
0.0
210
0.0
220
0.0
230
1.0
  2
SOLID
 70
     1
 71
     1
 91
        1
 92
        1
 93
        1
 72
     4
 94
        3
 73
     0
 74
     0
 95
       26
 96
       22
 40
0.0
 40
0.0
 40
0.0
 40
0.0
 40
1.0
 40
1.0
 40
1.0
 40
2.0
 40
2.0
 40
2.0
 40
3.0
 40
3.0
 40
3.0
 40
4.0
 40
4.0
 40
4.0
 40
5.0
 40
5.0
 40
5.0
 40
6.0
 40
6.0
 40
6.0
 40
7.0
 40
7.0
 40
7.0
 40
7.0
 10
106.7766004507364
 20
-156.4610785199125
 10
106.7766004507364
 20
-156.4610785199125
 10
106.5747178553007
 20
-156.4610785199125
 10
106.5747178553007
 20
-156.4610785199125
 10
106.5964219568578
 20
-156.1520534548856
 10
106.7604085019557
 20
-155.633911093904
 10
107.1066405982233
 20
-155.1281710766693
 10
107.1066405982233
 20
-155.1281710766693
 10
106.392472304131
 20
-155.1281710766693
 10
106.392472304131
 20
-155.1281710766693
 10
106.392472304131
 20
-155.1281710766693
 10
106.392472304131
 20
-154.916642213875
 10
106.392472304131
 20
-154.916642213875
 10
106.392472304131
 20
-154.916642213875
 10
107.308523193659
 20
-154.916642213875
 10
107.308523193659
 20
-154.916642213875
 10
107.308523193659
 20
-154.916642213875
 10
107.308523193659
 20
-155.1281710766693
 10
107.308523193659
 20
-155.1281710766693
 10
107.032915554839
 20
-155.4182481165274
 10
106.8055392528125
 20
-156.0104600304418
 10
106.7766004507364
 20
-156.4610785199125
 97
        0
 97
        1
330
A7
 75
     2
 76
     1
 98
        1
 10
0.0
 20
0.0
450
        0
451
        0
460
0.0
461
0.0
452
        0
462
0.0
453
        0
470

  0
ENDBLK
  5
A4
330
A1
100
AcDbEntity
  8
0
100
AcDbBlockEnd
  0
BLOCK
  5
AD
330
AB
100
AcDbEntity
  8
0
100
AcDbBlockBegin
  2
Block_5
 70
     0
 10
0.0
 20
0.0
 30
0.0
  3
Block_5
  1

  0
SPLINE
  5
AF
330
AB
100
AcDbEntity
  8
レイヤー 1
100
AcDbSpline
210
0.0
220
0.0
230
1.0
 70
     9
 71
     3
 72
    17
 73
    13
 74
     0
 42
0.0000000001
 43
0.0000000001
 40
0.0
 40
0.0
 40
0.0
 40
0.0
 40
1.0
 40
1.0
 40
1.0
 40
2.0
 40
2.0
 40
2.0
 40
3.0
 40
3.0
 40
3.0
 40
4.0
 40
4.0
 40
4.0
 40
4.0
 10
117.4646646841755
 20
-148.0061251800123
 30
0.0
 10
117.4646646841755
 20
-148.1287705792872
 30
0.0
 10
117.5514810904038
 20
-148.2586506790811
 30
0.0
 10
117.754397214485
 20
-148.2586506790811
 30
0.0
 10
117.9597249054059
 20
-148.2586506790811
 30
0.0
 10
118.0610107126722
 20
-148.1504746808443
 30
0.0
 10
118.0610107126722
 20
-148.0061251800123
 30
0.0
 10
118.0610107126722
 20
-147.8473062781423
 30
0.0
 10
117.9383653133973
 20
-147.7535996809435
 30
0.0
 10
117.7605983863584
 20
-147.7535996809435
 30
0.0
 10
117.5387342371083
 20
-147.7535996809435
 30
0.0
 10
117.4646646841755
 20
-147.8924370289991
 30
0.0
 10
117.4646646841755
 20
-148.0061251800123
 30
0.0
  0
SPLINE
  5
B0
330
AB
100
AcDbEntity
  8
レイヤー 1
100
AcDbSpline
210
0.0
220
0.0
230
1.0
 70
     9
 71
     3
 72
    17
 73
    13
 74
     0
 42
0.0000000001
 43
0.0000000001
 40
0.0
 40
0.0
 40
0.0
 40
0.0
 40
1.0
 40
1.0
 40
1.0
 40
2.0
 40
2.0
 40
2.0
 40
3.0
 40
3.0
 40
3.0
 40
4.0
 40
4.0
 40
4.0
 40
4.0
 10
116.8045843892016
 20
-148.0061251800123
 30
0.0
 10
116.8045843892016
 20
-148.1466850758105
 30
0.0
 10
116.8996690245945
 20
-148.2190320810008
 30
0.0
 10
117.0350612771648
 20
-148.2190320810008
 30
0.0
 10
117.1577066764397
 20
-148.2190320810008
 30
0.0
 10
117.2762179611323
 20
-148.1577093813633
 30
0.0
 10
117.2762179611323
 20
-148.0061251800123
 30
0.0
 10
117.2762179611323
 20
-147.8545409786613
 30
0.0
 10
117.1577066764397
 20
-147.7932182790239
 30
0.0
 10
117.0350612771648
 20
-147.7932182790239
 30
0.0
 10
116.8996690245945
 20
-147.7932182790239
 30
0.0
 10
116.8045843892016
 20
-147.8672878319568
 30
0.0
 10
116.8045843892016
 20
-148.0061251800123
 30
0.0
  0
SPLINE
  5
B1
330
AB
100
AcDbEntity
  8
レイヤー 1
100
AcDbSpline
210
0.0
220
0.0
230
1.0
 70
     9
 71
     3
 72
    29
 73
    25
 74
     0
 42
0.0000000001
 43
0.0000000001
 40
0.0
 40
0.0
 40
0.0
 40
0.0
 40
1.0
 40
1.0
 40
1.0
 40
2.0
 40
2.0
 40
2.0
 40
3.0
 40
3.0
 40
3.0
 40
4.0
 40
4.0
 40
4.0
 40
5.0
 40
5.0
 40
5.0
 40
6.0
 40
6.0
 40
6.0
 40
7.0
 40
7.0
 40
7.0
 40
8.0
 40
8.0
 40
8.0
 40
8.0
 10
118.2556586075888
 20
-148.0061251800123
 30
0.0
 10
118.2556586075888
 20
-148.2331569724903
 30
0.0
 10
118.1181992977274
 20
-148.4498534785125
 30
0.0
 10
117.7692111250716
 20
-148.4498534785125
 30
0.0
 10
117.5132405305175
 20
-148.4498534785125
 30
0.0
 10
117.4181558951246
 20
-148.3289306269803
 30
0.0
 10
117.3568331954871
 20
-148.2386691252667
 30
0.0
 10
117.2975775531408
 20
-148.3451225757609
 30
0.0
 10
117.1832003830306
 20
-148.4098903708836
 30
0.0
 10
117.0223144238694
 20
-148.4098903708836
 30
0.0
 10
116.7473958041465
 20
-148.4098903708836
 30
0.0
 10
116.6120035515761
 20
-148.2403916730093
 30
0.0
 10
116.6120035515761
 20
-148.0061251800123
 30
0.0
 10
116.6120035515761
 20
-147.7642794769478
 30
0.0
 10
116.7560085428596
 20
-147.6020154795925
 30
0.0
 10
117.0223144238694
 20
-147.6020154795925
 30
0.0
 10
117.1832003830306
 20
-147.6020154795925
 30
0.0
 10
117.2975775531408
 20
-147.6688503320064
 30
0.0
 10
117.3568331954871
 20
-147.7753037825006
 30
0.0
 10
117.4074760991203
 20
-147.6995116818251
 30
0.0
 10
117.5025607345132
 20
-147.5641194292548
 30
0.0
 10
117.7650770104893
 20
-147.5641194292548
 30
0.0
 10
118.1395588897359
 20
-147.5641194292548
 30
0.0
 10
118.2556586075888
 20
-147.8021755272856
 30
0.0
 10
118.2556586075888
 20
-148.0061251800123
 30
0.0
  0
HATCH
  5
B2
330
AB
100
AcDbEntity
  8
レイヤー 1
 62
   250
420
  2299925
440
 33554687
100
AcDbHatch
 10
0.0
 20
0.0
 30
0.0
210
0.0
220
0.0
230
1.0
  2
SOLID
 70
     1
 71
     1
 91
        3
 92
        1
 93
        1
 72
     4
 94
        3
 73
     0
 74
     0
 95
       17
 96
       13
 40
0.0
 40
0.0
 40
0.0
 40
0.0
 40
1.0
 40
1.0
 40
1.0
 40
2.0
 40
2.0
 40
2.0
 40
3.0
 40
3.0
 40
3.0
 40
4.0
 40
4.0
 40
4.0
 40
4.0
 10
117.4646646841755
 20
-148.0061251800123
 10
117.4646646841755
 20
-148.1287705792872
 10
117.5514810904038
 20
-148.2586506790811
 10
117.754397214485
 20
-148.2586506790811
 10
117.9597249054059
 20
-148.2586506790811
 10
118.0610107126722
 20
-148.1504746808443
 10
118.0610107126722
 20
-148.0061251800123
 10
118.0610107126722
 20
-147.8473062781423
 10
117.9383653133973
 20
-147.7535996809435
 10
117.7605983863584
 20
-147.7535996809435
 10
117.5387342371083
 20
-147.7535996809435
 10
117.4646646841755
 20
-147.8924370289991
 10
117.4646646841755
 20
-148.0061251800123
 97
        0
 97
        1
330
AF
 92
        1
 93
        1
 72
     4
 94
        3
 73
     0
 74
     0
 95
       17
 96
       13
 40
0.0
 40
0.0
 40
0.0
 40
0.0
 40
1.0
 40
1.0
 40
1.0
 40
2.0
 40
2.0
 40
2.0
 40
3.0
 40
3.0
 40
3.0
 40
4.0
 40
4.0
 40
4.0
 40
4.0
 10
116.8045843892016
 20
-148.0061251800123
 10
116.8045843892016
 20
-148.1466850758105
 10
116.8996690245945
 20
-148.2190320810008
 10
117.0350612771648
 20
-148.2190320810008
 10
117.1577066764397
 20
-148.2190320810008
 10
117.2762179611323
 20
-148.1577093813633
 10
117.2762179611323
 20
-148.0061251800123
 10
117.2762179611323
 20
-147.8545409786613
 10
117.1577066764397
 20
-147.7932182790239
 10
117.0350612771648
 20
-147.7932182790239
 10
116.8996690245945
 20
-147.7932182790239
 10
116.8045843892016
 20
-147.8672878319568
 10
116.8045843892016
 20
-148.0061251800123
 97
        0
 97
        1
330
B0
 92
        1
 93
        1
 72
     4
 94
        3
 73
     0
 74
     0
 95
       29
 96
       25
 40
0.0
 40
0.0
 40
0.0
 40
0.0
 40
1.0
 40
1.0
 40
1.0
 40
2.0
 40
2.0
 40
2.0
 40
3.0
 40
3.0
 40
3.0
 40
4.0
 40
4.0
 40
4.0
 40
5.0
 40
5.0
 40
5.0
 40
6.0
 40
6.0
 40
6.0
 40
7.0
 40
7.0
 40
7.0
 40
8.0
 40
8.0
 40
8.0
 40
8.0
 10
118.2556586075888
 20
-148.0061251800123
 10
118.2556586075888
 20
-148.2331569724903
 10
118.1181992977274
 20
-148.4498534785125
 10
117.7692111250716
 20
-148.4498534785125
 10
117.5132405305175
 20
-148.4498534785125
 10
117.4181558951246
 20
-148.3289306269803
 10
117.3568331954871
 20
-148.2386691252667
 10
117.2975775531408
 20
-148.3451225757609
 10
117.1832003830306
 20
-148.4098903708836
 10
117.0223144238694
 20
-148.4098903708836
 10
116.7473958041465
 20
-148.4098903708836
 10
116.6120035515761
 20
-148.2403916730093
 10
116.6120035515761
 20
-148.0061251800123
 10
116.6120035515761
 20
-147.7642794769478
 10
116.7560085428596
 20
-147.6020154795925
 10
117.0223144238694
 20
-147.6020154795925
 10
117.1832003830306
 20
-147.6020154795925
 10
117.2975775531408
 20
-147.6688503320064
 10
117.3568331954871
 20
-147.7753037825006
 10
117.4074760991203
 20
-147.6995116818251
 10
117.5025607345132
 20
-147.5641194292548
 10
117.7650770104893
 20
-147.5641194292548
 10
118.1395588897359
 20
-147.5641194292548
 10
118.2556586075888
 20
-147.8021755272856
 10
118.2556586075888
 20
-148.0061251800123
 97
        0
 97
        1
330
B1
 75
     2
 76
     1
 98
        1
 10
0.0
 20
0.0
450
        0
451
        0
460
0.0
461
0.0
452
        0
462
0.0
453
        0
470

  0
ENDBLK
  5
AE
330
AB
100
AcDbEntity
  8
0
100
AcDbBlockEnd
  0
BLOCK
  5
B9
330
B7
100
AcDbEntity
  8
0
100
AcDbBlockBegin
  2
Block_6
 70
     0
 10
0.0
 20
0.0
 30
0.0
  3
Block_6
  1

  0
INSERT
  5
BC
330
B7
100
AcDbEntity
  8
レイヤー 1
100
AcDbBlockReference
  2
Block_7
 10
0.0
 20
0.0
 30
0.0
  0
ENDBLK
  5
BA
330
B7
100
AcDbEntity
  8
0
100
AcDbBlockEnd
  0
BLOCK
  5
BD
330
BB
100
AcDbEntity
  8
0
100
AcDbBlockBegin
  2
Block_7
 70
     0
 10
0.0
 20
0.0
 30
0.0
  3
Block_7
  1

  0
SPLINE
  5
BF
330
BB
100
AcDbEntity
  8
レイヤー 1
100
AcDbSpline
210
0.0
220
0.0
230
1.0
 70
     9
 71
     3
 72
    17
 73
    13
 74
     0
 42
0.0000000001
 43
0.0000000001
 40
0.0
 40
0.0
 40
0.0
 40
0.0
 40
1.0
 40
1.0
 40
1.0
 40
2.0
 40
2.0
 40
2.0
 40
3.0
 40
3.0
 40
3.0
 40
4.0
 40
4.0
 40
4.0
 40
4.0
 10
121.0379177214766
 20
-153.082473377528
 30
0.0
 10
121.0379177214766
 20
-153.2950357689679
 30
0.0
 10
121.3214490799127
 20
-153.3349988765968
 30
0.0
 10
121.6663031379862
 20
-153.3349988765968
 30
0.0
 10
121.9856634894688
 20
-153.3349988765968
 30
0.0
 10
122.2943440449472
 20
-153.3043375267781
 30
0.0
 10
122.2943440449472
 20
-153.082473377528
 30
0.0
 10
122.2943440449472
 20
-152.8712890242822
 30
0.0
 10
122.0132242533509
 20
-152.8299478784592
 30
0.0
 10
121.6663031379862
 20
-152.8299478784592
 30
0.0
 10
121.346598276955
 20
-152.8299478784592
 30
0.0
 10
121.0379177214766
 20
-152.8623317760205
 30
0.0
 10
121.0379177214766
 20
-153.082473377528
 30
0.0
  0
SPLINE
  5
C0
330
BB
100
AcDbEntity
  8
レイヤー 1
100
AcDbSpline
210
0.0
220
0.0
230
1.0
 70
     9
 71
     3
 72
    29
 73
    25
 74
     0
 42
0.0000000001
 43
0.0000000001
 40
0.0
 40
0.0
 40
0.0
 40
0.0
 40
1.0
 40
1.0
 40
1.0
 40
2.0
 40
2.0
 40
2.0
 40
3.0
 40
3.0
 40
3.0
 40
4.0
 40
4.0
 40
4.0
 40
5.0
 40
5.0
 40
5.0
 40
6.0
 40
6.0
 40
6.0
 40
7.0
 40
7.0
 40
7.0
 40
8.0
 40
8.0
 40
8.0
 40
8.0
 10
122.2605821091918
 20
-152.7434759817794
 30
0.0
 10
122.470043914695
 20
-152.8354600312356
 30
0.0
 10
122.4889919398638
 20
-152.9832546275528
 30
0.0
 10
122.4889919398638
 20
-153.082473377528
 30
0.0
 10
122.4889919398638
 20
-153.2195881778409
 30
0.0
 10
122.442483150813
 20
-153.3401665198247
 30
0.0
 10
122.2605821091918
 20
-153.4214707732766
 30
0.0
 10
122.0659342142752
 20
-153.5096652176989
 30
0.0
 10
121.82891164489
 20
-153.5258571664796
 30
0.0
 10
121.6663031379862
 20
-153.5258571664796
 30
0.0
 10
121.5222981467027
 20
-153.5258571664796
 30
0.0
 10
121.270461666731
 20
-153.5117322749901
 30
0.0
 10
121.0716796572321
 20
-153.4214707732766
 30
0.0
 10
120.8687635331509
 20
-153.3294867238204
 30
0.0
 10
120.8453368838511
 20
-153.1923719235074
 30
0.0
 10
120.8453368838511
 20
-153.082473377528
 30
0.0
 10
120.8453368838511
 20
-152.9470811249577
 30
0.0
 10
120.8897786156109
 20
-152.8244357256828
 30
0.0
 10
121.0716796572321
 20
-152.7434759817794
 30
0.0
 10
121.2642604948575
 20
-152.6587266328423
 30
0.0
 10
121.4926703255296
 20
-152.6387450790278
 30
0.0
 10
121.6663031379862
 20
-152.6387450790278
 30
0.0
 10
121.8375243836031
 20
-152.6387450790278
 30
0.0
 10
122.0680012715663
 20
-152.6570040850996
 30
0.0
 10
122.2605821091918
 20
-152.7434759817794
 30
0.0
  0
HATCH
  5
C1
330
BB
100
AcDbEntity
  8
レイヤー 1
 62
   250
420
  2299925
440
 33554687
100
AcDbHatch
 10
0.0
 20
0.0
 30
0.0
210
0.0
220
0.0
230
1.0
  2
SOLID
 70
     1
 71
     1
 91
        2
 92
        1
 93
        1
 72
     4
 94
        3
 73
     0
 74
     0
 95
       17
 96
       13
 40
0.0
 40
0.0
 40
0.0
 40
0.0
 40
1.0
 40
1.0
 40
1.0
 40
2.0
 40
2.0
 40
2.0
 40
3.0
 40
3.0
 40
3.0
 40
4.0
 40
4.0
 40
4.0
 40
4.0
 10
121.0379177214766
 20
-153.082473377528
 10
121.0379177214766
 20
-153.2950357689679
 10
121.3214490799127
 20
-153.3349988765968
 10
121.6663031379862
 20
-153.3349988765968
 10
121.9856634894688
 20
-153.3349988765968
 10
122.2943440449472
 20
-153.3043375267781
 10
122.2943440449472
 20
-153.082473377528
 10
122.2943440449472
 20
-152.8712890242822
 10
122.0132242533509
 20
-152.8299478784592
 10
121.6663031379862
 20
-152.8299478784592
 10
121.346598276955
 20
-152.8299478784592
 10
121.0379177214766
 20
-152.8623317760205
 10
121.0379177214766
 20
-153.082473377528
 97
        0
 97
        1
330
BF
 92
        1
 93
        1
 72
     4
 94
        3
 73
     0
 74
     0
 95
       29
 96
       25
 40
0.0
 40
0.0
 40
0.0
 40
0.0
 40
1.0
 40
1.0
 40
1.0
 40
2.0
 40
2.0
 40
2.0
 40
3.0
 40
3.0
 40
3.0
 40
4.0
 40
4.0
 40
4.0
 40
5.0
 40
5.0
 40
5.0
 40
6.0
 40
6.0
 40
6.0
 40
7.0
 40
7.0
 40
7.0
 40
8.0
 40
8.0
 40
8.0
 40
8.0
 10
122.2605821091918
 20
-152.7434759817794
 10
122.470043914695
 20
-152.8354600312356
 10
122.4889919398638
 20
-152.9832546275528
 10
122.4889919398638
 20
-153.082473377528
 10
122.4889919398638
 20
-153.2195881778409
 10
122.442483150813
 20
-153.3401665198247
 10
122.2605821091918
 20
-153.4214707732766
 10
122.0659342142752
 20
-153.5096652176989
 10
121.82891164489
 20
-153.5258571664796
 10
121.6663031379862
 20
-153.5258571664796
 10
121.5222981467027
 20
-153.5258571664796
 10
121.270461666731
 20
-153.5117322749901
 10
121.0716796572321
 20
-153.4214707732766
 10
120.8687635331509
 20
-153.3294867238204
 10
120.8453368838511
 20
-153.1923719235074
 10
120.8453368838511
 20
-153.082473377528
 10
120.8453368838511
 20
-152.9470811249577
 10
120.8897786156109
 20
-152.8244357256828
 10
121.0716796572321
 20
-152.7434759817794
 10
121.2642604948575
 20
-152.6587266328423
 10
121.4926703255296
 20
-152.6387450790278
 10
121.6663031379862
 20
-152.6387450790278
 10
121.8375243836031
 20
-152.6387450790278
 10
122.0680012715663
 20
-152.6570040850996
 10
122.2605821091918
 20
-152.7434759817794
 97
        0
 97
        1
330
C0
 75
     2
 76
     1
 98
        1
 10
0.0
 20
0.0
450
        0
451
        0
460
0.0
461
0.0
452
        0
462
0.0
453
        0
470

  0
SPLINE
  5
C2
330
BB
100
AcDbEntity
  8
レイヤー 1
100
AcDbSpline
210
0.0
220
0.0
230
1.0
 70
    11
 71
     3
 72
    17
 73
    13
 74
     0
 42
0.0000000001
 43
0.0000000001
 40
0.0
 40
0.0
 40
0.0
 40
0.0
 40
1.0
 40
1.0
 40
1.0
 40
2.0
 40
2.0
 40
2.0
 40
3.0
 40
3.0
 40
3.0
 40
4.0
 40
4.0
 40
4.0
 40
4.0
 10
122.4383490362307
 20
-152.455810508761
 30
0.0
 10
122.4383490362307
 20
-152.455810508761
 30
0.0
 10
122.1865125562589
 20
-152.455810508761
 30
0.0
 10
122.1865125562589
 20
-152.455810508761
 30
0.0
 10
122.1865125562589
 20
-152.455810508761
 30
0.0
 10
122.1865125562589
 20
-152.24118106003
 30
0.0
 10
122.1865125562589
 20
-152.24118106003
 30
0.0
 10
122.1865125562589
 20
-152.24118106003
 30
0.0
 10
122.4383490362307
 20
-152.24118106003
 30
0.0
 10
122.4383490362307
 20
-152.24118106003
 30
0.0
 10
122.4383490362307
 20
-152.24118106003
 30
0.0
 10
122.4383490362307
 20
-152.455810508761
 30
0.0
 10
122.4383490362307
 20
-152.455810508761
 30
0.0
  0
HATCH
  5
C3
330
BB
100
AcDbEntity
  8
レイヤー 1
 62
   250
420
  2299925
440
 33554687
100
AcDbHatch
 10
0.0
 20
0.0
 30
0.0
210
0.0
220
0.0
230
1.0
  2
SOLID
 70
     1
 71
     1
 91
        1
 92
        1
 93
        1
 72
     4
 94
        3
 73
     0
 74
     0
 95
       17
 96
       13
 40
0.0
 40
0.0
 40
0.0
 40
0.0
 40
1.0
 40
1.0
 40
1.0
 40
2.0
 40
2.0
 40
2.0
 40
3.0
 40
3.0
 40
3.0
 40
4.0
 40
4.0
 40
4.0
 40
4.0
 10
122.4383490362307
 20
-152.455810508761
 10
122.4383490362307
 20
-152.455810508761
 10
122.1865125562589
 20
-152.455810508761
 10
122.1865125562589
 20
-152.455810508761
 10
122.1865125562589
 20
-152.455810508761
 10
122.1865125562589
 20
-152.24118106003
 10
122.1865125562589
 20
-152.24118106003
 10
122.1865125562589
 20
-152.24118106003
 10
122.4383490362307
 20
-152.24118106003
 10
122.4383490362307
 20
-152.24118106003
 10
122.4383490362307
 20
-152.24118106003
 10
122.4383490362307
 20
-152.455810508761
 10
122.4383490362307
 20
-152.455810508761
 97
        0
 97
        1
330
C2
 75
     2
 76
     1
 98
        1
 10
0.0
 20
0.0
450
        0
451
        0
460
0.0
461
0.0
452
        0
462
0.0
453
        0
470

  0
SPLINE
  5
C4
330
BB
100
AcDbEntity
  8
レイヤー 1
100
AcDbSpline
210
0.0
220
0.0
230
1.0
 70
    11
 71
     3
 72
    14
 73
    10
 74
     0
 42
0.0000000001
 43
0.0000000001
 40
0.0
 40
0.0
 40
0.0
 40
0.0
 40
1.0
 40
1.0
 40
1.0
 40
2.0
 40
2.0
 40
2.0
 40
3.0
 40
3.0
 40
3.0
 40
3.0
 10
121.2366997309755
 20
-151.5163329699334
 30
0.0
 10
121.2366997309755
 20
-151.5163329699334
 30
0.0
 10
121.8926459113671
 20
-151.9059732693152
 30
0.0
 10
121.8926459113671
 20
-151.9059732693152
 30
0.0
 10
121.8926459113671
 20
-151.9059732693152
 30
0.0
 10
121.8926459113671
 20
-151.5163329699334
 30
0.0
 10
121.8926459113671
 20
-151.5163329699334
 30
0.0
 10
121.8926459113671
 20
-151.5163329699334
 30
0.0
 10
121.2366997309755
 20
-151.5163329699334
 30
0.0
 10
121.2366997309755
 20
-151.5163329699334
 30
0.0
  0
SPLINE
  5
C5
330
BB
100
AcDbEntity
  8
レイヤー 1
100
AcDbSpline
210
0.0
220
0.0
230
1.0
 70
    11
 71
     3
 72
    38
 73
    34
 74
     0
 42
0.0000000001
 43
0.0000000001
 40
0.0
 40
0.0
 40
0.0
 40
0.0
 40
1.0
 40
1.0
 40
1.0
 40
2.0
 40
2.0
 40
2.0
 40
3.0
 40
3.0
 40
3.0
 40
4.0
 40
4.0
 40
4.0
 40
5.0
 40
5.0
 40
5.0
 40
6.0
 40
6.0
 40
6.0
 40
7.0
 40
7.0
 40
7.0
 40
8.0
 40
8.0
 40
8.0
 40
9.0
 40
9.0
 40
9.0
 40
10.0
 40
10.0
 40
10.0
 40
11.0
 40
11.0
 40
11.0
 40
11.0
 10
122.091427920866
 20
-151.3306423232784
 30
0.0
 10
122.091427920866
 20
-151.3306423232784
 30
0.0
 10
122.4383490362307
 20
-151.3306423232784
 30
0.0
 10
122.4383490362307
 20
-151.3306423232784
 30
0.0
 10
122.4383490362307
 20
-151.3306423232784
 30
0.0
 10
122.4383490362307
 20
-151.5163329699334
 30
0.0
 10
122.4383490362307
 20
-151.5163329699334
 30
0.0
 10
122.4383490362307
 20
-151.5163329699334
 30
0.0
 10
122.091427920866
 20
-151.5163329699334
 30
0.0
 10
122.091427920866
 20
-151.5163329699334
 30
0.0
 10
122.091427920866
 20
-151.5163329699334
 30
0.0
 10
122.091427920866
 20
-152.0754719671895
 30
0.0
 10
122.091427920866
 20
-152.0754719671895
 30
0.0
 10
122.091427920866
 20
-152.0754719671895
 30
0.0
 10
121.8671522047763
 20
-152.0754719671895
 30
0.0
 10
121.8671522047763
 20
-152.0754719671895
 30
0.0
 10
121.8671522047763
 20
-152.0754719671895
 30
0.0
 10
120.8939127301932
 20
-151.4966959256675
 30
0.0
 10
120.8939127301932
 20
-151.4966959256675
 30
0.0
 10
120.8939127301932
 20
-151.4966959256675
 30
0.0
 10
120.8939127301932
 20
-151.3306423232784
 30
0.0
 10
120.8939127301932
 20
-151.3306423232784
 30
0.0
 10
120.8939127301932
 20
-151.3306423232784
 30
0.0
 10
121.8926459113671
 20
-151.3306423232784
 30
0.0
 10
121.8926459113671
 20
-151.3306423232784
 30
0.0
 10
121.8926459113671
 20
-151.3306423232784
 30
0.0
 10
121.8926459113671
 20
-151.1539089248851
 30
0.0
 10
121.8926459113671
 20
-151.1539089248851
 30
0.0
 10
121.8926459113671
 20
-151.1539089248851
 30
0.0
 10
122.091427920866
 20
-151.1539089248851
 30
0.0
 10
122.091427920866
 20
-151.1539089248851
 30
0.0
 10
122.091427920866
 20
-151.1539089248851
 30
0.0
 10
122.091427920866
 20
-151.3306423232784
 30
0.0
 10
122.091427920866
 20
-151.3306423232784
 30
0.0
  0
HATCH
  5
C6
330
BB
100
AcDbEntity
  8
レイヤー 1
 62
   250
420
  2299925
440
 33554687
100
AcDbHatch
 10
0.0
 20
0.0
 30
0.0
210
0.0
220
0.0
230
1.0
  2
SOLID
 70
     1
 71
     1
 91
        2
 92
        1
 93
        1
 72
     4
 94
        3
 73
     0
 74
     0
 95
       14
 96
       10
 40
0.0
 40
0.0
 40
0.0
 40
0.0
 40
1.0
 40
1.0
 40
1.0
 40
2.0
 40
2.0
 40
2.0
 40
3.0
 40
3.0
 40
3.0
 40
3.0
 10
121.2366997309755
 20
-151.5163329699334
 10
121.2366997309755
 20
-151.5163329699334
 10
121.8926459113671
 20
-151.9059732693152
 10
121.8926459113671
 20
-151.9059732693152
 10
121.8926459113671
 20
-151.9059732693152
 10
121.8926459113671
 20
-151.5163329699334
 10
121.8926459113671
 20
-151.5163329699334
 10
121.8926459113671
 20
-151.5163329699334
 10
121.2366997309755
 20
-151.5163329699334
 10
121.2366997309755
 20
-151.5163329699334
 97
        0
 97
        1
330
C4
 92
        1
 93
        1
 72
     4
 94
        3
 73
     0
 74
     0
 95
       38
 96
       34
 40
0.0
 40
0.0
 40
0.0
 40
0.0
 40
1.0
 40
1.0
 40
1.0
 40
2.0
 40
2.0
 40
2.0
 40
3.0
 40
3.0
 40
3.0
 40
4.0
 40
4.0
 40
4.0
 40
5.0
 40
5.0
 40
5.0
 40
6.0
 40
6.0
 40
6.0
 40
7.0
 40
7.0
 40
7.0
 40
8.0
 40
8.0
 40
8.0
 40
9.0
 40
9.0
 40
9.0
 40
10.0
 40
10.0
 40
10.0
 40
11.0
 40
11.0
 40
11.0
 40
11.0
 10
122.091427920866
 20
-151.3306423232784
 10
122.091427920866
 20
-151.3306423232784
 10
122.4383490362307
 20
-151.3306423232784
 10
122.4383490362307
 20
-151.3306423232784
 10
122.4383490362307
 20
-151.3306423232784
 10
122.4383490362307
 20
-151.5163329699334
 10
122.4383490362307
 20
-151.5163329699334
 10
122.4383490362307
 20
-151.5163329699334
 10
122.091427920866
 20
-151.5163329699334
 10
122.091427920866
 20
-151.5163329699334
 10
122.091427920866
 20
-151.5163329699334
 10
122.091427920866
 20
-152.0754719671895
 10
122.091427920866
 20
-152.0754719671895
 10
122.091427920866
 20
-152.0754719671895
 10
121.8671522047763
 20
-152.0754719671895
 10
121.8671522047763
 20
-152.0754719671895
 10
121.8671522047763
 20
-152.0754719671895
 10
120.8939127301932
 20
-151.4966959256675
 10
120.8939127301932
 20
-151.4966959256675
 10
120.8939127301932
 20
-151.4966959256675
 10
120.8939127301932
 20
-151.3306423232784
 10
120.8939127301932
 20
-151.3306423232784
 10
120.8939127301932
 20
-151.3306423232784
 10
121.8926459113671
 20
-151.3306423232784
 10
121.8926459113671
 20
-151.3306423232784
 10
121.8926459113671
 20
-151.3306423232784
 10
121.8926459113671
 20
-151.1539089248851
 10
121.8926459113671
 20
-151.1539089248851
 10
121.8926459113671
 20
-151.1539089248851
 10
122.091427920866
 20
-151.1539089248851
 10
122.091427920866
 20
-151.1539089248851
 10
122.091427920866
 20
-151.1539089248851
 10
122.091427920866
 20
-151.3306423232784
 10
122.091427920866
 20
-151.3306423232784
 97
        0
 97
        1
330
C5
 75
     2
 76
     1
 98
        1
 10
0.0
 20
0.0
450
        0
451
        0
460
0.0
461
0.0
452
        0
462
0.0
453
        0
470

  0
ENDBLK
  5
BE
330
BB
100
AcDbEntity
  8
0
100
AcDbBlockEnd
  0
BLOCK
  5
CD
330
CB
100
AcDbEntity
  8
0
100
AcDbBlockBegin
  2
Block_8
 70
     0
 10
0.0
 20
0.0
 30
0.0
  3
Block_8
  1

  0
INSERT
  5
D0
330
CB
100
AcDbEntity
  8
レイヤー 1
100
AcDbBlockReference
  2
Block_9
 10
0.0
 20
0.0
 30
0.0
  0
ENDBLK
  5
CE
330
CB
100
AcDbEntity
  8
0
100
AcDbBlockEnd
  0
BLOCK
  5
D1
330
CF
100
AcDbEntity
  8
0
100
AcDbBlockBegin
  2
Block_9
 70
     0
 10
0.0
 20
0.0
 30
0.0
  3
Block_9
  1

  0
SPLINE
  5
D3
330
CF
100
AcDbEntity
  8
レイヤー 1
100
AcDbSpline
210
0.0
220
0.0
230
1.0
 70
    11
 71
     3
 72
    26
 73
    22
 74
     0
 42
0.0000000001
 43
0.0000000001
 40
0.0
 40
0.0
 40
0.0
 40
0.0
 40
1.0
 40
1.0
 40
1.0
 40
2.0
 40
2.0
 40
2.0
 40
3.0
 40
3.0
 40
3.0
 40
4.0
 40
4.0
 40
4.0
 40
5.0
 40
5.0
 40
5.0
 40
6.0
 40
6.0
 40
6.0
 40
7.0
 40
7.0
 40
7.0
 40
7.0
 10
89.15510929845776
 20
-143.5099310622128
 30
0.0
 10
89.15510929845776
 20
-143.5099310622128
 30
0.0
 10
88.05095619543518
 20
-143.5099310622128
 30
0.0
 10
88.05095619543518
 20
-143.5099310622128
 30
0.0
 10
88.05095619543518
 20
-143.5099310622128
 30
0.0
 10
88.05095619543518
 20
-143.7913953633577
 30
0.0
 10
88.05095619543518
 20
-143.7913953633577
 30
0.0
 10
88.05095619543518
 20
-143.7913953633577
 30
0.0
 10
87.90281708956944
 20
-143.7913953633577
 30
0.0
 10
87.90281708956944
 20
-143.7913953633577
 30
0.0
 10
87.88800317898287
 20
-143.5082085144701
 30
0.0
 10
87.72505016253054
 20
-143.4685899163898
 30
0.0
 10
87.61067299242025
 20
-143.4434407193474
 30
0.0
 10
87.61067299242025
 20
-143.4434407193474
 30
0.0
 10
87.61067299242025
 20
-143.3187282627814
 30
0.0
 10
87.61067299242025
 20
-143.3187282627814
 30
0.0
 10
87.61067299242025
 20
-143.3187282627814
 30
0.0
 10
89.15510929845776
 20
-143.3187282627814
 30
0.0
 10
89.15510929845776
 20
-143.3187282627814
 30
0.0
 10
89.15510929845776
 20
-143.3187282627814
 30
0.0
 10
89.15510929845776
 20
-143.5099310622128
 30
0.0
 10
89.15510929845776
 20
-143.5099310622128
 30
0.0
  0
HATCH
  5
D4
330
CF
100
AcDbEntity
  8
レイヤー 1
 62
   250
420
  2299925
440
 33554687
100
AcDbHatch
 10
0.0
 20
0.0
 30
0.0
210
0.0
220
0.0
230
1.0
  2
SOLID
 70
     1
 71
     1
 91
        1
 92
        1
 93
        1
 72
     4
 94
        3
 73
     0
 74
     0
 95
       26
 96
       22
 40
0.0
 40
0.0
 40
0.0
 40
0.0
 40
1.0
 40
1.0
 40
1.0
 40
2.0
 40
2.0
 40
2.0
 40
3.0
 40
3.0
 40
3.0
 40
4.0
 40
4.0
 40
4.0
 40
5.0
 40
5.0
 40
5.0
 40
6.0
 40
6.0
 40
6.0
 40
7.0
 40
7.0
 40
7.0
 40
7.0
 10
89.15510929845776
 20
-143.5099310622128
 10
89.15510929845776
 20
-143.5099310622128
 10
88.05095619543518
 20
-143.5099310622128
 10
88.05095619543518
 20
-143.5099310622128
 10
88.05095619543518
 20
-143.5099310622128
 10
88.05095619543518
 20
-143.7913953633577
 10
88.05095619543518
 20
-143.7913953633577
 10
88.05095619543518
 20
-143.7913953633577
 10
87.90281708956944
 20
-143.7913953633577
 10
87.90281708956944
 20
-143.7913953633577
 10
87.88800317898287
 20
-143.5082085144701
 10
87.72505016253054
 20
-143.4685899163898
 10
87.61067299242025
 20
-143.4434407193474
 10
87.61067299242025
 20
-143.4434407193474
 10
87.61067299242025
 20
-143.3187282627814
 10
87.61067299242025
 20
-143.3187282627814
 10
87.61067299242025
 20
-143.3187282627814
 10
89.15510929845776
 20
-143.3187282627814
 10
89.15510929845776
 20
-143.3187282627814
 10
89.15510929845776
 20
-143.3187282627814
 10
89.15510929845776
 20
-143.5099310622128
 10
89.15510929845776
 20
-143.5099310622128
 97
        0
 97
        1
330
D3
 75
     2
 76
     1
 98
        1
 10
0.0
 20
0.0
450
        0
451
        0
460
0.0
461
0.0
452
        0
462
0.0
453
        0
470

  0
SPLINE
  5
D5
330
CF
100
AcDbEntity
  8
レイヤー 1
100
AcDbSpline
210
0.0
220
0.0
230
1.0
 70
    11
 71
     3
 72
    17
 73
    13
 74
     0
 42
0.0000000001
 43
0.0000000001
 40
0.0
 40
0.0
 40
0.0
 40
0.0
 40
1.0
 40
1.0
 40
1.0
 40
2.0
 40
2.0
 40
2.0
 40
3.0
 40
3.0
 40
3.0
 40
4.0
 40
4.0
 40
4.0
 40
4.0
 10
89.15510929845776
 20
-142.8419270476228
 30
0.0
 10
89.15510929845776
 20
-142.8419270476228
 30
0.0
 10
88.90327281848598
 20
-142.8419270476228
 30
0.0
 10
88.90327281848598
 20
-142.8419270476228
 30
0.0
 10
88.90327281848598
 20
-142.8419270476228
 30
0.0
 10
88.90327281848598
 20
-142.6272975988918
 30
0.0
 10
88.90327281848598
 20
-142.6272975988918
 30
0.0
 10
88.90327281848598
 20
-142.6272975988918
 30
0.0
 10
89.15510929845776
 20
-142.6272975988918
 30
0.0
 10
89.15510929845776
 20
-142.6272975988918
 30
0.0
 10
89.15510929845776
 20
-142.6272975988918
 30
0.0
 10
89.15510929845776
 20
-142.8419270476228
 30
0.0
 10
89.15510929845776
 20
-142.8419270476228
 30
0.0
  0
HATCH
  5
D6
330
CF
100
AcDbEntity
  8
レイヤー 1
 62
   250
420
  2299925
440
 33554687
100
AcDbHatch
 10
0.0
 20
0.0
 30
0.0
210
0.0
220
0.0
230
1.0
  2
SOLID
 70
     1
 71
     1
 91
        1
 92
        1
 93
        1
 72
     4
 94
        3
 73
     0
 74
     0
 95
       17
 96
       13
 40
0.0
 40
0.0
 40
0.0
 40
0.0
 40
1.0
 40
1.0
 40
1.0
 40
2.0
 40
2.0
 40
2.0
 40
3.0
 40
3.0
 40
3.0
 40
4.0
 40
4.0
 40
4.0
 40
4.0
 10
89.15510929845776
 20
-142.8419270476228
 10
89.15510929845776
 20
-142.8419270476228
 10
88.90327281848598
 20
-142.8419270476228
 10
88.90327281848598
 20
-142.8419270476228
 10
88.90327281848598
 20
-142.8419270476228
 10
88.90327281848598
 20
-142.6272975988918
 10
88.90327281848598
 20
-142.6272975988918
 10
88.90327281848598
 20
-142.6272975988918
 10
89.15510929845776
 20
-142.6272975988918
 10
89.15510929845776
 20
-142.6272975988918
 10
89.15510929845776
 20
-142.6272975988918
 10
89.15510929845776
 20
-142.8419270476228
 10
89.15510929845776
 20
-142.8419270476228
 97
        0
 97
        1
330
D5
 75
     2
 76
     1
 98
        1
 10
0.0
 20
0.0
450
        0
451
        0
460
0.0
461
0.0
452
        0
462
0.0
453
        0
470

  0
SPLINE
  5
D7
330
CF
100
AcDbEntity
  8
レイヤー 1
100
AcDbSpline
210
0.0
220
0.0
230
1.0
 70
     9
 71
     3
 72
    17
 73
    13
 74
     0
 42
0.0000000001
 43
0.0000000001
 40
0.0
 40
0.0
 40
0.0
 40
0.0
 40
1.0
 40
1.0
 40
1.0
 40
2.0
 40
2.0
 40
2.0
 40
3.0
 40
3.0
 40
3.0
 40
4.0
 40
4.0
 40
4.0
 40
4.0
 10
87.75467798370369
 20
-141.9999457110278
 30
0.0
 10
87.75467798370369
 20
-142.2128526120162
 30
0.0
 10
88.03820934213975
 20
-142.2524712100966
 30
0.0
 10
88.38306340021325
 20
-142.2524712100966
 30
0.0
 10
88.70242375169594
 20
-142.2524712100966
 30
0.0
 10
89.0111043071743
 20
-142.2218098602779
 30
0.0
 10
89.0111043071743
 20
-141.9999457110278
 30
0.0
 10
89.0111043071743
 20
-141.788761357782
 30
0.0
 10
88.72998451557792
 20
-141.747420211959
 30
0.0
 10
88.38306340021325
 20
-141.747420211959
 30
0.0
 10
88.06335853918207
 20
-141.747420211959
 30
0.0
 10
87.75467798370369
 20
-141.7798041095203
 30
0.0
 10
87.75467798370369
 20
-141.9999457110278
 30
0.0
  0
SPLINE
  5
D8
330
CF
100
AcDbEntity
  8
レイヤー 1
100
AcDbSpline
210
0.0
220
0.0
230
1.0
 70
     9
 71
     3
 72
    29
 73
    25
 74
     0
 42
0.0000000001
 43
0.0000000001
 40
0.0
 40
0.0
 40
0.0
 40
0.0
 40
1.0
 40
1.0
 40
1.0
 40
2.0
 40
2.0
 40
2.0
 40
3.0
 40
3.0
 40
3.0
 40
4.0
 40
4.0
 40
4.0
 40
5.0
 40
5.0
 40
5.0
 40
6.0
 40
6.0
 40
6.0
 40
7.0
 40
7.0
 40
7.0
 40
8.0
 40
8.0
 40
8.0
 40
8.0
 10
88.97734237141886
 20
-141.6609483152792
 30
0.0
 10
89.18680417692206
 20
-141.7529323647354
 30
0.0
 10
89.20575220209093
 20
-141.9007269610526
 30
0.0
 10
89.20575220209093
 20
-141.9999457110278
 30
0.0
 10
89.20575220209093
 20
-142.1370605113407
 30
0.0
 10
89.15924341304005
 20
-142.2576388533245
 30
0.0
 10
88.97734237141886
 20
-142.3389431067764
 30
0.0
 10
88.78269447650223
 20
-142.4271375511987
 30
0.0
 10
88.54567190711705
 20
-142.443674009528
 30
0.0
 10
88.38306340021325
 20
-142.443674009528
 30
0.0
 10
88.23905840892981
 20
-142.443674009528
 30
0.0
 10
87.98722192895807
 20
-142.4292046084899
 30
0.0
 10
87.78843991945915
 20
-142.3389431067764
 30
0.0
 10
87.58552379537793
 20
-142.2469590573202
 30
0.0
 10
87.56209714607823
 20
-142.1098442570072
 30
0.0
 10
87.56209714607823
 20
-141.9999457110278
 30
0.0
 10
87.56209714607823
 20
-141.8645534584575
 30
0.0
 10
87.60653887783794
 20
-141.7419080591826
 30
0.0
 10
87.78843991945915
 20
-141.6609483152792
 30
0.0
 10
87.98102075708461
 20
-141.5761989663421
 30
0.0
 10
88.20943058775666
 20
-141.5562174125276
 30
0.0
 10
88.38306340021325
 20
-141.5562174125276
 30
0.0
 10
88.55428464583019
 20
-141.5562174125276
 30
0.0
 10
88.7847615337934
 20
-141.5744764185994
 30
0.0
 10
88.97734237141886
 20
-141.6609483152792
 30
0.0
  0
HATCH
  5
D9
330
CF
100
AcDbEntity
  8
レイヤー 1
 62
   250
420
  2299925
440
 33554687
100
AcDbHatch
 10
0.0
 20
0.0
 30
0.0
210
0.0
220
0.0
230
1.0
  2
SOLID
 70
     1
 71
     1
 91
        2
 92
        1
 93
        1
 72
     4
 94
        3
 73
     0
 74
     0
 95
       17
 96
       13
 40
0.0
 40
0.0
 40
0.0
 40
0.0
 40
1.0
 40
1.0
 40
1.0
 40
2.0
 40
2.0
 40
2.0
 40
3.0
 40
3.0
 40
3.0
 40
4.0
 40
4.0
 40
4.0
 40
4.0
 10
87.75467798370369
 20
-141.9999457110278
 10
87.75467798370369
 20
-142.2128526120162
 10
88.03820934213975
 20
-142.2524712100966
 10
88.38306340021325
 20
-142.2524712100966
 10
88.70242375169594
 20
-142.2524712100966
 10
89.0111043071743
 20
-142.2218098602779
 10
89.0111043071743
 20
-141.9999457110278
 10
89.0111043071743
 20
-141.788761357782
 10
88.72998451557792
 20
-141.747420211959
 10
88.38306340021325
 20
-141.747420211959
 10
88.06335853918207
 20
-141.747420211959
 10
87.75467798370369
 20
-141.7798041095203
 10
87.75467798370369
 20
-141.9999457110278
 97
        0
 97
        1
330
D7
 92
        1
 93
        1
 72
     4
 94
        3
 73
     0
 74
     0
 95
       29
 96
       25
 40
0.0
 40
0.0
 40
0.0
 40
0.0
 40
1.0
 40
1.0
 40
1.0
 40
2.0
 40
2.0
 40
2.0
 40
3.0
 40
3.0
 40
3.0
 40
4.0
 40
4.0
 40
4.0
 40
5.0
 40
5.0
 40
5.0
 40
6.0
 40
6.0
 40
6.0
 40
7.0
 40
7.0
 40
7.0
 40
8.0
 40
8.0
 40
8.0
 40
8.0
 10
88.97734237141886
 20
-141.6609483152792
 10
89.18680417692206
 20
-141.7529323647354
 10
89.20575220209093
 20
-141.9007269610526
 10
89.20575220209093
 20
-141.9999457110278
 10
89.20575220209093
 20
-142.1370605113407
 10
89.15924341304005
 20
-142.2576388533245
 10
88.97734237141886
 20
-142.3389431067764
 10
88.78269447650223
 20
-142.4271375511987
 10
88.54567190711705
 20
-142.443674009528
 10
88.38306340021325
 20
-142.443674009528
 10
88.23905840892981
 20
-142.443674009528
 10
87.98722192895807
 20
-142.4292046084899
 10
87.78843991945915
 20
-142.3389431067764
 10
87.58552379537793
 20
-142.2469590573202
 10
87.56209714607823
 20
-142.1098442570072
 10
87.56209714607823
 20
-141.9999457110278
 10
87.56209714607823
 20
-141.8645534584575
 10
87.60653887783794
 20
-141.7419080591826
 10
87.78843991945915
 20
-141.6609483152792
 10
87.98102075708461
 20
-141.5761989663421
 10
88.20943058775666
 20
-141.5562174125276
 10
88.38306340021325
 20
-141.5562174125276
 10
88.55428464583019
 20
-141.5562174125276
 10
88.7847615337934
 20
-141.5744764185994
 10
88.97734237141886
 20
-141.6609483152792
 97
        0
 97
        1
330
D8
 75
     2
 76
     1
 98
        1
 10
0.0
 20
0.0
450
        0
451
        0
460
0.0
461
0.0
452
        0
462
0.0
453
        0
470

  0
ENDBLK
  5
D2
330
CF
100
AcDbEntity
  8
0
100
AcDbBlockEnd
  0
BLOCK
  5
DE
330
DC
100
AcDbEntity
  8
0
100
AcDbBlockBegin
  2
Block_10
 70
     0
 10
0.0
 20
0.0
 30
0.0
  3
Block_10
  1

  0
LINE
  5
E0
330
DC
100
AcDbEntity
  8
レイヤー 1
 62
    18
420
        0
370
     9
100
AcDbLine
 10
109.546420897643
 20
-151.2137334500255
 30
0.0
 11
109.2795760397827
 21
-150.2499612167544
 31
0.0
  0
LINE
  5
E1
330
DC
100
AcDbEntity
  8
レイヤー 1
 62
    18
420
        0
370
     9
100
AcDbLine
 10
109.546420897643
 20
-151.2137334500255
 30
0.0
 11
109.5119866902653
 21
-149.599772887222
 31
0.0
  0
LINE
  5
E2
330
DC
100
AcDbEntity
  8
レイヤー 1
 62
    18
420
        0
370
     9
100
AcDbLine
 10
109.546420897643
 20
-151.2137334500255
 30
0.0
 11
109.7972689751489
 21
-150.2455529946393
 31
0.0
  0
ENDBLK
  5
DF
330
DC
100
AcDbEntity
  8
0
100
AcDbBlockEnd
  0
BLOCK
  5
E5
330
E3
100
AcDbEntity
  8
0
100
AcDbBlockBegin
  2
Block_11
 70
     0
 10
0.0
 20
0.0
 30
0.0
  3
Block_11
  1

  0
INSERT
  5
E8
330
E3
100
AcDbEntity
  8
レイヤー 1
100
AcDbBlockReference
  2
Block_12
 10
0.0
 20
0.0
 30
0.0
  0
ENDBLK
  5
E6
330
E3
100
AcDbEntity
  8
0
100
AcDbBlockEnd
  0
BLOCK
  5
E9
330
E7
100
AcDbEntity
  8
0
100
AcDbBlockBegin
  2
Block_12
 70
     0
 10
0.0
 20
0.0
 30
0.0
  3
Block_12
  1

  0
SPLINE
  5
EB
330
E7
100
AcDbEntity
  8
レイヤー 1
100
AcDbSpline
210
0.0
220
0.0
230
1.0
 70
     9
 71
     3
 72
    17
 73
    13
 74
     0
 42
0.0000000001
 43
0.0000000001
 40
0.0
 40
0.0
 40
0.0
 40
0.0
 40
1.0
 40
1.0
 40
1.0
 40
2.0
 40
2.0
 40
2.0
 40
3.0
 40
3.0
 40
3.0
 40
4.0
 40
4.0
 40
4.0
 40
4.0
 10
105.5604817444432
 20
-148.5333970440298
 30
0.0
 10
105.5432562670169
 20
-148.5628526104287
 30
0.0
 10
105.4926133633838
 20
-148.6560424433047
 30
0.0
 10
105.4819335673795
 20
-148.6749904684736
 30
0.0
 10
105.6724473477138
 20
-148.7342461108199
 30
0.0
 10
105.6934624301739
 20
-148.7406195374676
 30
0.0
 10
105.7654649258155
 20
-148.7681803013496
 30
0.0
 10
105.8205864535796
 20
-148.6813638951213
 30
0.0
 10
105.8436685933307
 20
-148.6072943421884
 30
0.0
 10
105.8584825039173
 20
-148.5333970440298
 30
0.0
 10
105.8584825039173
 20
-148.5333970440298
 30
0.0
 10
105.5604817444432
 20
-148.5333970440298
 30
0.0
 10
105.5604817444432
 20
-148.5333970440298
 30
0.0
  0
SPLINE
  5
EC
330
E7
100
AcDbEntity
  8
レイヤー 1
100
AcDbSpline
210
0.0
220
0.0
230
1.0
 70
    11
 71
     3
 72
    20
 73
    16
 74
     0
 42
0.0000000001
 43
0.0000000001
 40
0.0
 40
0.0
 40
0.0
 40
0.0
 40
1.0
 40
1.0
 40
1.0
 40
2.0
 40
2.0
 40
2.0
 40
3.0
 40
3.0
 40
3.0
 40
4.0
 40
4.0
 40
4.0
 40
5.0
 40
5.0
 40
5.0
 40
5.0
 10
105.4967474779661
 20
-147.6829752234959
 30
0.0
 10
105.4967474779661
 20
-147.6829752234959
 30
0.0
 10
105.4650525995018
 20
-147.6829752234959
 30
0.0
 10
105.4650525995018
 20
-147.6829752234959
 30
0.0
 10
105.5115613885526
 20
-147.7823662282454
 30
0.0
 10
105.5432562670169
 20
-147.8626369530517
 30
0.0
 10
105.5773627123209
 20
-147.9895887216831
 30
0.0
 10
105.5773627123209
 20
-147.9895887216831
 30
0.0
 10
105.7844129509844
 20
-147.9895887216831
 30
0.0
 10
105.7844129509844
 20
-147.9895887216831
 30
0.0
 10
105.8164523389973
 20
-147.8965711435814
 30
0.0
 10
105.8395344787484
 20
-147.8119940494185
 30
0.0
 10
105.8629611280481
 20
-147.6829752234959
 30
0.0
 10
105.8629611280481
 20
-147.6829752234959
 30
0.0
 10
105.4967474779661
 20
-147.6829752234959
 30
0.0
 10
105.4967474779661
 20
-147.6829752234959
 30
0.0
  0
SPLINE
  5
ED
330
E7
100
AcDbEntity
  8
レイヤー 1
100
AcDbSpline
210
0.0
220
0.0
230
1.0
 70
     9
 71
     3
 72
   242
 73
   238
 74
     0
 42
0.0000000001
 43
0.0000000001
 40
0.0
 40
0.0
 40
0.0
 40
0.0
 40
1.0
 40
1.0
 40
1.0
 40
2.0
 40
2.0
 40
2.0
 40
3.0
 40
3.0
 40
3.0
 40
4.0
 40
4.0
 40
4.0
 40
5.0
 40
5.0
 40
5.0
 40
6.0
 40
6.0
 40
6.0
 40
7.0
 40
7.0
 40
7.0
 40
8.0
 40
8.0
 40
8.0
 40
9.0
 40
9.0
 40
9.0
 40
10.0
 40
10.0
 40
10.0
 40
11.0
 40
11.0
 40
11.0
 40
12.0
 40
12.0
 40
12.0
 40
13.0
 40
13.0
 40
13.0
 40
14.0
 40
14.0
 40
14.0
 40
15.0
 40
15.0
 40
15.0
 40
16.0
 40
16.0
 40
16.0
 40
17.0
 40
17.0
 40
17.0
 40
18.0
 40
18.0
 40
18.0
 40
19.0
 40
19.0
 40
19.0
 40
20.0
 40
20.0
 40
20.0
 40
21.0
 40
21.0
 40
21.0
 40
22.0
 40
22.0
 40
22.0
 40
23.0
 40
23.0
 40
23.0
 40
24.0
 40
24.0
 40
24.0
 40
25.0
 40
25.0
 40
25.0
 40
26.0
 40
26.0
 40
26.0
 40
27.0
 40
27.0
 40
27.0
 40
28.0
 40
28.0
 40
28.0
 40
29.0
 40
29.0
 40
29.0
 40
30.0
 40
30.0
 40
30.0
 40
31.0
 40
31.0
 40
31.0
 40
32.0
 40
32.0
 40
32.0
 40
33.0
 40
33.0
 40
33.0
 40
34.0
 40
34.0
 40
34.0
 40
35.0
 40
35.0
 40
35.0
 40
36.0
 40
36.0
 40
36.0
 40
37.0
 40
37.0
 40
37.0
 40
38.0
 40
38.0
 40
38.0
 40
39.0
 40
39.0
 40
39.0
 40
40.0
 40
40.0
 40
40.0
 40
41.0
 40
41.0
 40
41.0
 40
42.0
 40
42.0
 40
42.0
 40
43.0
 40
43.0
 40
43.0
 40
44.0
 40
44.0
 40
44.0
 40
45.0
 40
45.0
 40
45.0
 40
46.0
 40
46.0
 40
46.0
 40
47.0
 40
47.0
 40
47.0
 40
48.0
 40
48.0
 40
48.0
 40
49.0
 40
49.0
 40
49.0
 40
50.0
 40
50.0
 40
50.0
 40
51.0
 40
51.0
 40
51.0
 40
52.0
 40
52.0
 40
52.0
 40
53.0
 40
53.0
 40
53.0
 40
54.0
 40
54.0
 40
54.0
 40
55.0
 40
55.0
 40
55.0
 40
56.0
 40
56.0
 40
56.0
 40
57.0
 40
57.0
 40
57.0
 40
58.0
 40
58.0
 40
58.0
 40
59.0
 40
59.0
 40
59.0
 40
60.0
 40
60.0
 40
60.0
 40
61.0
 40
61.0
 40
61.0
 40
62.0
 40
62.0
 40
62.0
 40
63.0
 40
63.0
 40
63.0
 40
64.0
 40
64.0
 40
64.0
 40
65.0
 40
65.0
 40
65.0
 40
66.0
 40
66.0
 40
66.0
 40
67.0
 40
67.0
 40
67.0
 40
68.0
 40
68.0
 40
68.0
 40
69.0
 40
69.0
 40
69.0
 40
70.0
 40
70.0
 40
70.0
 40
71.0
 40
71.0
 40
71.0
 40
72.0
 40
72.0
 40
72.0
 40
73.0
 40
73.0
 40
73.0
 40
74.0
 40
74.0
 40
74.0
 40
75.0
 40
75.0
 40
75.0
 40
76.0
 40
76.0
 40
76.0
 40
77.0
 40
77.0
 40
77.0
 40
78.0
 40
78.0
 40
78.0
 40
79.0
 40
79.0
 40
79.0
 40
79.0
 10
106.1251328944756
 20
-148.1482353687789
 30
0.0
 10
106.1251328944756
 20
-148.1482353687789
 30
0.0
 10
105.8712293572127
 20
-148.1482353687789
 30
0.0
 10
105.8712293572127
 20
-148.1482353687789
 30
0.0
 10
105.8712293572127
 20
-148.1482353687789
 30
0.0
 10
105.5942436801986
 20
-148.1482353687789
 30
0.0
 10
105.5942436801986
 20
-148.1482353687789
 30
0.0
 10
105.5942436801986
 20
-148.1482353687789
 30
0.0
 10
105.7210231940558
 20
-148.1906100432475
 30
0.0
 10
105.7210231940558
 20
-148.1906100432475
 30
0.0
 10
105.7317029900601
 20
-148.194916412604
 30
0.0
 10
105.7444498433555
 20
-148.2011175844775
 30
0.0
 10
105.7444498433555
 20
-148.2138644377729
 30
0.0
 10
105.7444498433555
 20
-148.2350517750072
 30
0.0
 10
105.7127549648912
 20
-148.2414252016549
 30
0.0
 10
105.6913953728827
 20
-148.2455593162372
 30
0.0
 10
105.6810600864269
 20
-148.2688137107626
 30
0.0
 10
105.6514322652538
 20
-148.3344427797566
 30
0.0
 10
105.6321397305364
 20
-148.3788845115164
 30
0.0
 10
105.6321397305364
 20
-148.3788845115164
 30
0.0
 10
105.902924235677
 20
-148.3788845115164
 30
0.0
 10
105.902924235677
 20
-148.3788845115164
 30
0.0
 10
105.9938747564876
 20
-148.3788845115164
 30
0.0
 10
106.1905897086954
 20
-148.3745781421598
 30
0.0
 10
106.3325276426877
 20
-148.3661376582209
 30
0.0
 10
106.3325276426877
 20
-148.3661376582209
 30
0.0
 10
106.3325276426877
 20
-148.5439045852599
 30
0.0
 10
106.3325276426877
 20
-148.5439045852599
 30
0.0
 10
106.2498453510417
 20
-148.5395982159033
 30
0.0
 10
106.2288302685817
 20
-148.5395982159033
 30
0.0
 10
106.0489962842516
 20
-148.535464101321
 30
0.0
 10
106.0173014057873
 20
-148.6898043790602
 30
0.0
 10
105.9728596740276
 20
-148.7702473586407
 30
0.0
 10
105.9284179422679
 20
-148.8400105422171
 30
0.0
 10
106.0489962842516
 20
-148.8994384393376
 30
0.0
 10
106.1547607156488
 20
-148.9669623108485
 30
0.0
 10
106.2584580897548
 20
-149.0496446024945
 30
0.0
 10
106.2584580897548
 20
-149.0496446024945
 30
0.0
 10
106.1399468050622
 20
-149.2167317335291
 30
0.0
 10
106.1399468050622
 20
-149.2167317335291
 30
0.0
 10
106.116864665311
 20
-149.1977837083602
 30
0.0
 10
106.1041178120156
 20
-149.1891709696471
 30
0.0
 10
105.9918076991965
 20
-149.10442162071
 30
0.0
 10
105.9432318528545
 20
-149.0665255703722
 30
0.0
 10
105.8839762105082
 20
-149.0306965773257
 30
0.0
 10
105.8037054857018
 20
-148.9862548455659
 30
0.0
 10
105.5921766229075
 20
-149.1722900017694
 30
0.0
 10
105.3866766772123
 20
-149.1957166510691
 30
0.0
 10
105.0969441469028
 20
-149.2253444722423
 30
0.0
 10
105.0969441469028
 20
-149.2253444722423
 30
0.0
 10
104.9932467727968
 20
-149.0455104879122
 30
0.0
 10
104.9932467727968
 20
-149.0455104879122
 30
0.0
 10
105.3105400669883
 20
-149.0410318637814
 30
0.0
 10
105.4864121915103
 20
-149.0158826667391
 30
0.0
 10
105.6386854119584
 20
-148.9056396112111
 30
0.0
 10
105.5201741272658
 20
-148.8548244528036
 30
0.0
 10
105.4311184089721
 20
-148.8274359436959
 30
0.0
 10
105.3952894159255
 20
-148.8146890904005
 30
0.0
 10
105.3761691359823
 20
-148.8422498542825
 30
0.0
 10
105.3613552253958
 20
-148.8611978794514
 30
0.0
 10
105.3337944615138
 20
-148.8953043247553
 30
0.0
 10
105.3337944615138
 20
-148.8953043247553
 30
0.0
 10
105.137079509306
 20
-148.8126220331093
 30
0.0
 10
105.137079509306
 20
-148.8126220331093
 30
0.0
 10
105.2195895461777
 20
-148.7321790535288
 30
0.0
 10
105.2809122458152
 20
-148.6369221633616
 30
0.0
 10
105.3381008308703
 20
-148.535464101321
 30
0.0
 10
105.1477593053103
 20
-148.5395982159033
 30
0.0
 10
105.126571968076
 20
-148.5395982159033
 30
0.0
 10
105.0440619312043
 20
-148.5439045852599
 30
0.0
 10
105.0440619312043
 20
-148.5439045852599
 30
0.0
 10
105.0440619312043
 20
-148.3661376582209
 30
0.0
 10
105.0440619312043
 20
-148.3661376582209
 30
0.0
 10
105.1835882983569
 20
-148.3725110848687
 30
0.0
 10
105.3930501038601
 20
-148.3768174542252
 30
0.0
 10
105.4185438104509
 20
-148.3768174542252
 30
0.0
 10
105.4354247783286
 20
-148.3428832636955
 30
0.0
 10
105.4905463060926
 20
-148.2223049217117
 30
0.0
 10
105.5094943312615
 20
-148.1482353687789
 30
0.0
 10
105.4905463060926
 20
-148.1482353687789
 30
0.0
 10
105.3127793790537
 20
-148.1546087954266
 30
0.0
 10
105.1181314841371
 20
-148.167355648722
 30
0.0
 10
105.1181314841371
 20
-148.167355648722
 30
0.0
 10
105.1181314841371
 20
-148.3006808440012
 30
0.0
 10
105.1181314841371
 20
-148.3006808440012
 30
0.0
 10
105.0693833830208
 20
-148.3260022958178
 30
0.0
 10
105.0101277406745
 20
-148.3576971742821
 30
0.0
 10
104.8769748001696
 20
-148.4233262432761
 30
0.0
 10
104.8769748001696
 20
-148.4233262432761
 30
0.0
 10
104.8769748001696
 20
-148.5692260370764
 30
0.0
 10
104.8769748001696
 20
-148.5692260370764
 30
0.0
 10
104.8769748001696
 20
-148.5692260370764
 30
0.0
 10
104.8769748001696
 20
-149.0368977491991
 30
0.0
 10
104.8769748001696
 20
-149.0368977491991
 30
0.0
 10
104.8769748001696
 20
-149.1636772630563
 30
0.0
 10
104.8409735523488
 20
-149.2229329054026
 30
0.0
 10
104.5574421939127
 20
-149.214664676238
 30
0.0
 10
104.5574421939127
 20
-149.214664676238
 30
0.0
 10
104.4537448198067
 20
-149.0072699280259
 30
0.0
 10
104.4537448198067
 20
-149.0072699280259
 30
0.0
 10
104.5173068315095
 20
-149.0200167813214
 30
0.0
 10
104.5658826778516
 20
-149.0241508959037
 30
0.0
 10
104.606190295029
 20
-149.0241508959037
 30
0.0
 10
104.682326905253
 20
-149.0241508959037
 30
0.0
 10
104.692834446483
 20
-149.0010687561525
 30
0.0
 10
104.692834446483
 20
-148.9352674323842
 30
0.0
 10
104.692834446483
 20
-148.9352674323842
 30
0.0
 10
104.692834446483
 20
-148.5058362801478
 30
0.0
 10
104.692834446483
 20
-148.5058362801478
 30
0.0
 10
104.5955104990247
 20
-148.545971642551
 30
0.0
 10
104.578629531147
 20
-148.5523450691987
 30
0.0
 10
104.5321207420961
 20
-148.5714653491418
 30
0.0
 10
104.5278143727396
 20
-148.5924804316019
 30
0.0
 10
104.5236802581573
 20
-148.622108252775
 30
0.0
 10
104.5045599782141
 20
-148.622108252775
 30
0.0
 10
104.4961194942753
 20
-148.622108252775
 30
0.0
 10
104.4856119530452
 20
-148.6179741381927
 30
0.0
 10
104.4792385263975
 20
-148.5947197436673
 30
0.0
 10
104.4792385263975
 20
-148.5947197436673
 30
0.0
 10
104.426356310699
 20
-148.4021389060418
 30
0.0
 10
104.426356310699
 20
-148.4021389060418
 30
0.0
 10
104.5722561044993
 20
-148.3556301169909
 30
0.0
 10
104.6378851734933
 20
-148.3323757224655
 30
0.0
 10
104.692834446483
 20
-148.3111883852312
 30
0.0
 10
104.692834446483
 20
-148.3111883852312
 30
0.0
 10
104.692834446483
 20
-147.8986382008725
 30
0.0
 10
104.692834446483
 20
-147.8986382008725
 30
0.0
 10
104.692834446483
 20
-147.8986382008725
 30
0.0
 10
104.6399522307844
 20
-147.8986382008725
 30
0.0
 10
104.6399522307844
 20
-147.8986382008725
 30
0.0
 10
104.6399522307844
 20
-147.8986382008725
 30
0.0
 10
104.5617485632693
 20
-147.8986382008725
 30
0.0
 10
104.5617485632693
 20
-147.8986382008725
 30
0.0
 10
104.4940524369841
 20
-147.8986382008725
 30
0.0
 10
104.4856119530452
 20
-147.8986382008725
 30
0.0
 10
104.4496107052244
 20
-147.9050116275202
 30
0.0
 10
104.4496107052244
 20
-147.9050116275202
 30
0.0
 10
104.4496107052244
 20
-147.7103637326036
 30
0.0
 10
104.4496107052244
 20
-147.7103637326036
 30
0.0
 10
104.4771714691064
 20
-147.7167371592513
 30
0.0
 10
104.4856119530452
 20
-147.7167371592513
 30
0.0
 10
104.5553751366216
 20
-147.7167371592513
 30
0.0
 10
104.5553751366216
 20
-147.7167371592513
 30
0.0
 10
104.6887003319007
 20
-147.7167371592513
 30
0.0
 10
104.6887003319007
 20
-147.7167371592513
 30
0.0
 10
104.6887003319007
 20
-147.646973975675
 30
0.0
 10
104.6887003319007
 20
-147.5644639388033
 30
0.0
 10
104.6864610198353
 20
-147.5601575694468
 30
0.0
 10
104.6780205358964
 20
-147.3803235851167
 30
0.0
 10
104.6780205358964
 20
-147.3613755599478
 30
0.0
 10
104.6759534786053
 20
-147.314866770897
 30
0.0
 10
104.6759534786053
 20
-147.314866770897
 30
0.0
 10
104.8917887107562
 20
-147.3233072548358
 30
0.0
 10
104.8917887107562
 20
-147.3233072548358
 30
0.0
 10
104.9022962519862
 20
-147.3233072548358
 30
0.0
 10
104.9234835892205
 20
-147.325374312127
 30
0.0
 10
104.9234835892205
 20
-147.3422552800047
 30
0.0
 10
104.9234835892205
 20
-147.3613755599478
 30
0.0
 10
104.9086696786339
 20
-147.3718831011779
 30
0.0
 10
104.8833482268173
 20
-147.391003381121
 30
0.0
 10
104.8833482268173
 20
-147.4416462847542
 30
0.0
 10
104.8769748001696
 20
-147.6702283702005
 30
0.0
 10
104.8790418574608
 20
-147.7167371592513
 30
0.0
 10
105.0080606833834
 20
-147.7167371592513
 30
0.0
 10
105.0208075366788
 20
-147.7167371592513
 30
0.0
 10
105.1181314841371
 20
-147.7082966753125
 30
0.0
 10
105.1181314841371
 20
-147.7082966753125
 30
0.0
 10
105.1181314841371
 20
-147.9029445702291
 30
0.0
 10
105.1181314841371
 20
-147.9029445702291
 30
0.0
 10
105.0800631790251
 20
-147.9007052581637
 30
0.0
 10
105.0123670527399
 20
-147.8965711435814
 30
0.0
 10
104.8769748001696
 20
-147.8986382008725
 30
0.0
 10
104.8769748001696
 20
-147.8986382008725
 30
0.0
 10
104.8769748001696
 20
-148.2371188322983
 30
0.0
 10
104.8769748001696
 20
-148.2371188322983
 30
0.0
 10
104.9319240731594
 20
-148.2138644377729
 30
0.0
 10
104.9975531421534
 20
-148.1863036738909
 30
0.0
 10
105.0461289884954
 20
-148.1630492793654
 30
0.0
 10
105.0461289884954
 20
-148.1630492793654
 30
0.0
 10
105.0461289884954
 20
-147.9854546071009
 30
0.0
 10
105.0461289884954
 20
-147.9854546071009
 30
0.0
 10
105.1603339038314
 20
-147.998029205622
 30
0.0
 10
105.278845188524
 20
-147.998029205622
 30
0.0
 10
105.3952894159255
 20
-147.998029205622
 30
0.0
 10
105.3718627666258
 20
-147.9029445702291
 30
0.0
 10
105.344474257518
 20
-147.8204345333574
 30
0.0
 10
105.2809122458152
 20
-147.6871093380782
 30
0.0
 10
105.2364705140554
 20
-147.6891763953694
 30
0.0
 10
105.154132731958
 20
-147.6934827647259
 30
0.0
 10
105.1158921720717
 20
-147.6955498220171
 30
0.0
 10
105.1158921720717
 20
-147.6955498220171
 30
0.0
 10
105.1158921720717
 20
-147.515715837687
 30
0.0
 10
105.1158921720717
 20
-147.515715837687
 30
0.0
 10
105.240776883412
 20
-147.5241563216259
 30
0.0
 10
105.4142374410943
 20
-147.5284626909824
 30
0.0
 10
105.4967474779661
 20
-147.5284626909824
 30
0.0
 10
105.4967474779661
 20
-147.5284626909824
 30
0.0
 10
105.5794297696121
 20
-147.5284626909824
 30
0.0
 10
105.5794297696121
 20
-147.5284626909824
 30
0.0
 10
105.5794297696121
 20
-147.3655096745301
 30
0.0
 10
105.5794297696121
 20
-147.3550021333001
 30
0.0
 10
105.5773627123209
 20
-147.3000528603104
 30
0.0
 10
105.5773627123209
 20
-147.3000528603104
 30
0.0
 10
105.8016384284107
 20
-147.325374312127
 30
0.0
 10
105.8016384284107
 20
-147.325374312127
 30
0.0
 10
105.805772542993
 20
-147.325374312127
 30
0.0
 10
105.826787625453
 20
-147.3274413694181
 30
0.0
 10
105.826787625453
 20
-147.3443223372958
 30
0.0
 10
105.826787625453
 20
-147.3591362478824
 30
0.0
 10
105.8164523389973
 20
-147.3677489865955
 30
0.0
 10
105.7888915751153
 20
-147.3825628971821
 30
0.0
 10
105.7823458936933
 20
-147.4480197114019
 30
0.0
 10
105.7802788364021
 20
-147.4692070486361
 30
0.0
 10
105.7802788364021
 20
-147.5284626909824
 30
0.0
 10
105.7802788364021
 20
-147.5284626909824
 30
0.0
 10
105.875363471795
 20
-147.5284626909824
 30
0.0
 10
105.875363471795
 20
-147.5284626909824
 30
0.0
 10
105.958045763441
 20
-147.5284626909824
 30
0.0
 10
106.1313340663491
 20
-147.5241563216259
 30
0.0
 10
106.2563910324637
 20
-147.515715837687
 30
0.0
 10
106.2563910324637
 20
-147.515715837687
 30
0.0
 10
106.2563910324637
 20
-147.6955498220171
 30
0.0
 10
106.2563910324637
 20
-147.6955498220171
 30
0.0
 10
106.2267632112905
 20
-147.6934827647259
 30
0.0
 10
106.1082519265979
 20
-147.6891763953694
 30
0.0
 10
106.0679443094205
 20
-147.6871093380782
 30
0.0
 10
106.0531303988339
 20
-147.7379244964857
 30
0.0
 10
106.0193684630785
 20
-147.8500623545305
 30
0.0
 10
105.9539116488587
 20
-147.9895887216831
 30
0.0
 10
105.9959418137788
 20
-147.9895887216831
 30
0.0
 10
106.2732720003414
 20
-147.9706406965143
 30
0.0
 10
106.3345946999788
 20
-147.9684013844488
 30
0.0
 10
106.3345946999788
 20
-147.9684013844488
 30
0.0
 10
106.3345946999788
 20
-148.1525417381354
 30
0.0
 10
106.3345946999788
 20
-148.1525417381354
 30
0.0
 10
106.3049668788057
 20
-148.1525417381354
 30
0.0
 10
106.288085910928
 20
-148.1482353687789
 30
0.0
 10
106.1251328944756
 20
-148.1482353687789
 30
0.0
  0
HATCH
  5
EE
330
E7
100
AcDbEntity
  8
レイヤー 1
 62
    18
420
        0
440
 33554687
100
AcDbHatch
 10
0.0
 20
0.0
 30
0.0
210
0.0
220
0.0
230
1.0
  2
SOLID
 70
     1
 71
     1
 91
        3
 92
        1
 93
        1
 72
     4
 94
        3
 73
     0
 74
     0
 95
       17
 96
       13
 40
0.0
 40
0.0
 40
0.0
 40
0.0
 40
1.0
 40
1.0
 40
1.0
 40
2.0
 40
2.0
 40
2.0
 40
3.0
 40
3.0
 40
3.0
 40
4.0
 40
4.0
 40
4.0
 40
4.0
 10
105.5604817444432
 20
-148.5333970440298
 10
105.5432562670169
 20
-148.5628526104287
 10
105.4926133633838
 20
-148.6560424433047
 10
105.4819335673795
 20
-148.6749904684736
 10
105.6724473477138
 20
-148.7342461108199
 10
105.6934624301739
 20
-148.7406195374676
 10
105.7654649258155
 20
-148.7681803013496
 10
105.8205864535796
 20
-148.6813638951213
 10
105.8436685933307
 20
-148.6072943421884
 10
105.8584825039173
 20
-148.5333970440298
 10
105.8584825039173
 20
-148.5333970440298
 10
105.5604817444432
 20
-148.5333970440298
 10
105.5604817444432
 20
-148.5333970440298
 97
        0
 97
        1
330
EB
 92
        1
 93
        1
 72
     4
 94
        3
 73
     0
 74
     0
 95
       20
 96
       16
 40
0.0
 40
0.0
 40
0.0
 40
0.0
 40
1.0
 40
1.0
 40
1.0
 40
2.0
 40
2.0
 40
2.0
 40
3.0
 40
3.0
 40
3.0
 40
4.0
 40
4.0
 40
4.0
 40
5.0
 40
5.0
 40
5.0
 40
5.0
 10
105.4967474779661
 20
-147.6829752234959
 10
105.4967474779661
 20
-147.6829752234959
 10
105.4650525995018
 20
-147.6829752234959
 10
105.4650525995018
 20
-147.6829752234959
 10
105.5115613885526
 20
-147.7823662282454
 10
105.5432562670169
 20
-147.8626369530517
 10
105.5773627123209
 20
-147.9895887216831
 10
105.5773627123209
 20
-147.9895887216831
 10
105.7844129509844
 20
-147.9895887216831
 10
105.7844129509844
 20
-147.9895887216831
 10
105.8164523389973
 20
-147.8965711435814
 10
105.8395344787484
 20
-147.8119940494185
 10
105.8629611280481
 20
-147.6829752234959
 10
105.8629611280481
 20
-147.6829752234959
 10
105.4967474779661
 20
-147.6829752234959
 10
105.4967474779661
 20
-147.6829752234959
 97
        0
 97
        1
330
EC
 92
        1
 93
        1
 72
     4
 94
        3
 73
     0
 74
     0
 95
      242
 96
      238
 40
0.0
 40
0.0
 40
0.0
 40
0.0
 40
1.0
 40
1.0
 40
1.0
 40
2.0
 40
2.0
 40
2.0
 40
3.0
 40
3.0
 40
3.0
 40
4.0
 40
4.0
 40
4.0
 40
5.0
 40
5.0
 40
5.0
 40
6.0
 40
6.0
 40
6.0
 40
7.0
 40
7.0
 40
7.0
 40
8.0
 40
8.0
 40
8.0
 40
9.0
 40
9.0
 40
9.0
 40
10.0
 40
10.0
 40
10.0
 40
11.0
 40
11.0
 40
11.0
 40
12.0
 40
12.0
 40
12.0
 40
13.0
 40
13.0
 40
13.0
 40
14.0
 40
14.0
 40
14.0
 40
15.0
 40
15.0
 40
15.0
 40
16.0
 40
16.0
 40
16.0
 40
17.0
 40
17.0
 40
17.0
 40
18.0
 40
18.0
 40
18.0
 40
19.0
 40
19.0
 40
19.0
 40
20.0
 40
20.0
 40
20.0
 40
21.0
 40
21.0
 40
21.0
 40
22.0
 40
22.0
 40
22.0
 40
23.0
 40
23.0
 40
23.0
 40
24.0
 40
24.0
 40
24.0
 40
25.0
 40
25.0
 40
25.0
 40
26.0
 40
26.0
 40
26.0
 40
27.0
 40
27.0
 40
27.0
 40
28.0
 40
28.0
 40
28.0
 40
29.0
 40
29.0
 40
29.0
 40
30.0
 40
30.0
 40
30.0
 40
31.0
 40
31.0
 40
31.0
 40
32.0
 40
32.0
 40
32.0
 40
33.0
 40
33.0
 40
33.0
 40
34.0
 40
34.0
 40
34.0
 40
35.0
 40
35.0
 40
35.0
 40
36.0
 40
36.0
 40
36.0
 40
37.0
 40
37.0
 40
37.0
 40
38.0
 40
38.0
 40
38.0
 40
39.0
 40
39.0
 40
39.0
 40
40.0
 40
40.0
 40
40.0
 40
41.0
 40
41.0
 40
41.0
 40
42.0
 40
42.0
 40
42.0
 40
43.0
 40
43.0
 40
43.0
 40
44.0
 40
44.0
 40
44.0
 40
45.0
 40
45.0
 40
45.0
 40
46.0
 40
46.0
 40
46.0
 40
47.0
 40
47.0
 40
47.0
 40
48.0
 40
48.0
 40
48.0
 40
49.0
 40
49.0
 40
49.0
 40
50.0
 40
50.0
 40
50.0
 40
51.0
 40
51.0
 40
51.0
 40
52.0
 40
52.0
 40
52.0
 40
53.0
 40
53.0
 40
53.0
 40
54.0
 40
54.0
 40
54.0
 40
55.0
 40
55.0
 40
55.0
 40
56.0
 40
56.0
 40
56.0
 40
57.0
 40
57.0
 40
57.0
 40
58.0
 40
58.0
 40
58.0
 40
59.0
 40
59.0
 40
59.0
 40
60.0
 40
60.0
 40
60.0
 40
61.0
 40
61.0
 40
61.0
 40
62.0
 40
62.0
 40
62.0
 40
63.0
 40
63.0
 40
63.0
 40
64.0
 40
64.0
 40
64.0
 40
65.0
 40
65.0
 40
65.0
 40
66.0
 40
66.0
 40
66.0
 40
67.0
 40
67.0
 40
67.0
 40
68.0
 40
68.0
 40
68.0
 40
69.0
 40
69.0
 40
69.0
 40
70.0
 40
70.0
 40
70.0
 40
71.0
 40
71.0
 40
71.0
 40
72.0
 40
72.0
 40
72.0
 40
73.0
 40
73.0
 40
73.0
 40
74.0
 40
74.0
 40
74.0
 40
75.0
 40
75.0
 40
75.0
 40
76.0
 40
76.0
 40
76.0
 40
77.0
 40
77.0
 40
77.0
 40
78.0
 40
78.0
 40
78.0
 40
79.0
 40
79.0
 40
79.0
 40
79.0
 10
106.1251328944756
 20
-148.1482353687789
 10
106.1251328944756
 20
-148.1482353687789
 10
105.8712293572127
 20
-148.1482353687789
 10
105.8712293572127
 20
-148.1482353687789
 10
105.8712293572127
 20
-148.1482353687789
 10
105.5942436801986
 20
-148.1482353687789
 10
105.5942436801986
 20
-148.1482353687789
 10
105.5942436801986
 20
-148.1482353687789
 10
105.7210231940558
 20
-148.1906100432475
 10
105.7210231940558
 20
-148.1906100432475
 10
105.7317029900601
 20
-148.194916412604
 10
105.7444498433555
 20
-148.2011175844775
 10
105.7444498433555
 20
-148.2138644377729
 10
105.7444498433555
 20
-148.2350517750072
 10
105.7127549648912
 20
-148.2414252016549
 10
105.6913953728827
 20
-148.2455593162372
 10
105.6810600864269
 20
-148.2688137107626
 10
105.6514322652538
 20
-148.3344427797566
 10
105.6321397305364
 20
-148.3788845115164
 10
105.6321397305364
 20
-148.3788845115164
 10
105.902924235677
 20
-148.3788845115164
 10
105.902924235677
 20
-148.3788845115164
 10
105.9938747564876
 20
-148.3788845115164
 10
106.1905897086954
 20
-148.3745781421598
 10
106.3325276426877
 20
-148.3661376582209
 10
106.3325276426877
 20
-148.3661376582209
 10
106.3325276426877
 20
-148.5439045852599
 10
106.3325276426877
 20
-148.5439045852599
 10
106.2498453510417
 20
-148.5395982159033
 10
106.2288302685817
 20
-148.5395982159033
 10
106.0489962842516
 20
-148.535464101321
 10
106.0173014057873
 20
-148.6898043790602
 10
105.9728596740276
 20
-148.7702473586407
 10
105.9284179422679
 20
-148.8400105422171
 10
106.0489962842516
 20
-148.8994384393376
 10
106.1547607156488
 20
-148.9669623108485
 10
106.2584580897548
 20
-149.0496446024945
 10
106.2584580897548
 20
-149.0496446024945
 10
106.1399468050622
 20
-149.2167317335291
 10
106.1399468050622
 20
-149.2167317335291
 10
106.116864665311
 20
-149.1977837083602
 10
106.1041178120156
 20
-149.1891709696471
 10
105.9918076991965
 20
-149.10442162071
 10
105.9432318528545
 20
-149.0665255703722
 10
105.8839762105082
 20
-149.0306965773257
 10
105.8037054857018
 20
-148.9862548455659
 10
105.5921766229075
 20
-149.1722900017694
 10
105.3866766772123
 20
-149.1957166510691
 10
105.0969441469028
 20
-149.2253444722423
 10
105.0969441469028
 20
-149.2253444722423
 10
104.9932467727968
 20
-149.0455104879122
 10
104.9932467727968
 20
-149.0455104879122
 10
105.3105400669883
 20
-149.0410318637814
 10
105.4864121915103
 20
-149.0158826667391
 10
105.6386854119584
 20
-148.9056396112111
 10
105.5201741272658
 20
-148.8548244528036
 10
105.4311184089721
 20
-148.8274359436959
 10
105.3952894159255
 20
-148.8146890904005
 10
105.3761691359823
 20
-148.8422498542825
 10
105.3613552253958
 20
-148.8611978794514
 10
105.3337944615138
 20
-148.8953043247553
 10
105.3337944615138
 20
-148.8953043247553
 10
105.137079509306
 20
-148.8126220331093
 10
105.137079509306
 20
-148.8126220331093
 10
105.2195895461777
 20
-148.7321790535288
 10
105.2809122458152
 20
-148.6369221633616
 10
105.3381008308703
 20
-148.535464101321
 10
105.1477593053103
 20
-148.5395982159033
 10
105.126571968076
 20
-148.5395982159033
 10
105.0440619312043
 20
-148.5439045852599
 10
105.0440619312043
 20
-148.5439045852599
 10
105.0440619312043
 20
-148.3661376582209
 10
105.0440619312043
 20
-148.3661376582209
 10
105.1835882983569
 20
-148.3725110848687
 10
105.3930501038601
 20
-148.3768174542252
 10
105.4185438104509
 20
-148.3768174542252
 10
105.4354247783286
 20
-148.3428832636955
 10
105.4905463060926
 20
-148.2223049217117
 10
105.5094943312615
 20
-148.1482353687789
 10
105.4905463060926
 20
-148.1482353687789
 10
105.3127793790537
 20
-148.1546087954266
 10
105.1181314841371
 20
-148.167355648722
 10
105.1181314841371
 20
-148.167355648722
 10
105.1181314841371
 20
-148.3006808440012
 10
105.1181314841371
 20
-148.3006808440012
 10
105.0693833830208
 20
-148.3260022958178
 10
105.0101277406745
 20
-148.3576971742821
 10
104.8769748001696
 20
-148.4233262432761
 10
104.8769748001696
 20
-148.4233262432761
 10
104.8769748001696
 20
-148.5692260370764
 10
104.8769748001696
 20
-148.5692260370764
 10
104.8769748001696
 20
-148.5692260370764
 10
104.8769748001696
 20
-149.0368977491991
 10
104.8769748001696
 20
-149.0368977491991
 10
104.8769748001696
 20
-149.1636772630563
 10
104.8409735523488
 20
-149.2229329054026
 10
104.5574421939127
 20
-149.214664676238
 10
104.5574421939127
 20
-149.214664676238
 10
104.4537448198067
 20
-149.0072699280259
 10
104.4537448198067
 20
-149.0072699280259
 10
104.5173068315095
 20
-149.0200167813214
 10
104.5658826778516
 20
-149.0241508959037
 10
104.606190295029
 20
-149.0241508959037
 10
104.682326905253
 20
-149.0241508959037
 10
104.692834446483
 20
-149.0010687561525
 10
104.692834446483
 20
-148.9352674323842
 10
104.692834446483
 20
-148.9352674323842
 10
104.692834446483
 20
-148.5058362801478
 10
104.692834446483
 20
-148.5058362801478
 10
104.5955104990247
 20
-148.545971642551
 10
104.578629531147
 20
-148.5523450691987
 10
104.5321207420961
 20
-148.5714653491418
 10
104.5278143727396
 20
-148.5924804316019
 10
104.5236802581573
 20
-148.622108252775
 10
104.5045599782141
 20
-148.622108252775
 10
104.4961194942753
 20
-148.622108252775
 10
104.4856119530452
 20
-148.6179741381927
 10
104.4792385263975
 20
-148.5947197436673
 10
104.4792385263975
 20
-148.5947197436673
 10
104.426356310699
 20
-148.4021389060418
 10
104.426356310699
 20
-148.4021389060418
 10
104.5722561044993
 20
-148.3556301169909
 10
104.6378851734933
 20
-148.3323757224655
 10
104.692834446483
 20
-148.3111883852312
 10
104.692834446483
 20
-148.3111883852312
 10
104.692834446483
 20
-147.8986382008725
 10
104.692834446483
 20
-147.8986382008725
 10
104.692834446483
 20
-147.8986382008725
 10
104.6399522307844
 20
-147.8986382008725
 10
104.6399522307844
 20
-147.8986382008725
 10
104.6399522307844
 20
-147.8986382008725
 10
104.5617485632693
 20
-147.8986382008725
 10
104.5617485632693
 20
-147.8986382008725
 10
104.4940524369841
 20
-147.8986382008725
 10
104.4856119530452
 20
-147.8986382008725
 10
104.4496107052244
 20
-147.9050116275202
 10
104.4496107052244
 20
-147.9050116275202
 10
104.4496107052244
 20
-147.7103637326036
 10
104.4496107052244
 20
-147.7103637326036
 10
104.4771714691064
 20
-147.7167371592513
 10
104.4856119530452
 20
-147.7167371592513
 10
104.5553751366216
 20
-147.7167371592513
 10
104.5553751366216
 20
-147.7167371592513
 10
104.6887003319007
 20
-147.7167371592513
 10
104.6887003319007
 20
-147.7167371592513
 10
104.6887003319007
 20
-147.646973975675
 10
104.6887003319007
 20
-147.5644639388033
 10
104.6864610198353
 20
-147.5601575694468
 10
104.6780205358964
 20
-147.3803235851167
 10
104.6780205358964
 20
-147.3613755599478
 10
104.6759534786053
 20
-147.314866770897
 10
104.6759534786053
 20
-147.314866770897
 10
104.8917887107562
 20
-147.3233072548358
 10
104.8917887107562
 20
-147.3233072548358
 10
104.9022962519862
 20
-147.3233072548358
 10
104.9234835892205
 20
-147.325374312127
 10
104.9234835892205
 20
-147.3422552800047
 10
104.9234835892205
 20
-147.3613755599478
 10
104.9086696786339
 20
-147.3718831011779
 10
104.8833482268173
 20
-147.391003381121
 10
104.8833482268173
 20
-147.4416462847542
 10
104.8769748001696
 20
-147.6702283702005
 10
104.8790418574608
 20
-147.7167371592513
 10
105.0080606833834
 20
-147.7167371592513
 10
105.0208075366788
 20
-147.7167371592513
 10
105.1181314841371
 20
-147.7082966753125
 10
105.1181314841371
 20
-147.7082966753125
 10
105.1181314841371
 20
-147.9029445702291
 10
105.1181314841371
 20
-147.9029445702291
 10
105.0800631790251
 20
-147.9007052581637
 10
105.0123670527399
 20
-147.8965711435814
 10
104.8769748001696
 20
-147.8986382008725
 10
104.8769748001696
 20
-147.8986382008725
 10
104.8769748001696
 20
-148.2371188322983
 10
104.8769748001696
 20
-148.2371188322983
 10
104.9319240731594
 20
-148.2138644377729
 10
104.9975531421534
 20
-148.1863036738909
 10
105.0461289884954
 20
-148.1630492793654
 10
105.0461289884954
 20
-148.1630492793654
 10
105.0461289884954
 20
-147.9854546071009
 10
105.0461289884954
 20
-147.9854546071009
 10
105.1603339038314
 20
-147.998029205622
 10
105.278845188524
 20
-147.998029205622
 10
105.3952894159255
 20
-147.998029205622
 10
105.3718627666258
 20
-147.9029445702291
 10
105.344474257518
 20
-147.8204345333574
 10
105.2809122458152
 20
-147.6871093380782
 10
105.2364705140554
 20
-147.6891763953694
 10
105.154132731958
 20
-147.6934827647259
 10
105.1158921720717
 20
-147.6955498220171
 10
105.1158921720717
 20
-147.6955498220171
 10
105.1158921720717
 20
-147.515715837687
 10
105.1158921720717
 20
-147.515715837687
 10
105.240776883412
 20
-147.5241563216259
 10
105.4142374410943
 20
-147.5284626909824
 10
105.4967474779661
 20
-147.5284626909824
 10
105.4967474779661
 20
-147.5284626909824
 10
105.5794297696121
 20
-147.5284626909824
 10
105.5794297696121
 20
-147.5284626909824
 10
105.5794297696121
 20
-147.3655096745301
 10
105.5794297696121
 20
-147.3550021333001
 10
105.5773627123209
 20
-147.3000528603104
 10
105.5773627123209
 20
-147.3000528603104
 10
105.8016384284107
 20
-147.325374312127
 10
105.8016384284107
 20
-147.325374312127
 10
105.805772542993
 20
-147.325374312127
 10
105.826787625453
 20
-147.3274413694181
 10
105.826787625453
 20
-147.3443223372958
 10
105.826787625453
 20
-147.3591362478824
 10
105.8164523389973
 20
-147.3677489865955
 10
105.7888915751153
 20
-147.3825628971821
 10
105.7823458936933
 20
-147.4480197114019
 10
105.7802788364021
 20
-147.4692070486361
 10
105.7802788364021
 20
-147.5284626909824
 10
105.7802788364021
 20
-147.5284626909824
 10
105.875363471795
 20
-147.5284626909824
 10
105.875363471795
 20
-147.5284626909824
 10
105.958045763441
 20
-147.5284626909824
 10
106.1313340663491
 20
-147.5241563216259
 10
106.2563910324637
 20
-147.515715837687
 10
106.2563910324637
 20
-147.515715837687
 10
106.2563910324637
 20
-147.6955498220171
 10
106.2563910324637
 20
-147.6955498220171
 10
106.2267632112905
 20
-147.6934827647259
 10
106.1082519265979
 20
-147.6891763953694
 10
106.0679443094205
 20
-147.6871093380782
 10
106.0531303988339
 20
-147.7379244964857
 10
106.0193684630785
 20
-147.8500623545305
 10
105.9539116488587
 20
-147.9895887216831
 10
105.9959418137788
 20
-147.9895887216831
 10
106.2732720003414
 20
-147.9706406965143
 10
106.3345946999788
 20
-147.9684013844488
 10
106.3345946999788
 20
-147.9684013844488
 10
106.3345946999788
 20
-148.1525417381354
 10
106.3345946999788
 20
-148.1525417381354
 10
106.3049668788057
 20
-148.1525417381354
 10
106.288085910928
 20
-148.1482353687789
 10
106.1251328944756
 20
-148.1482353687789
 97
        0
 97
        1
330
ED
 75
     2
 76
     1
 98
        1
 10
0.0
 20
0.0
450
        0
451
        0
460
0.0
461
0.0
452
        0
462
0.0
453
        0
470

  0
SPLINE
  5
EF
330
E7
100
AcDbEntity
  8
レイヤー 1
100
AcDbSpline
210
0.0
220
0.0
230
1.0
 70
    11
 71
     3
 72
    17
 73
    13
 74
     0
 42
0.0000000001
 43
0.0000000001
 40
0.0
 40
0.0
 40
0.0
 40
0.0
 40
1.0
 40
1.0
 40
1.0
 40
2.0
 40
2.0
 40
2.0
 40
3.0
 40
3.0
 40
3.0
 40
4.0
 40
4.0
 40
4.0
 40
4.0
 10
107.9816948514768
 20
-148.9480142856796
 30
0.0
 10
107.9816948514768
 20
-148.9480142856796
 30
0.0
 10
107.275105767452
 20
-148.9480142856796
 30
0.0
 10
107.275105767452
 20
-148.9480142856796
 30
0.0
 10
107.275105767452
 20
-148.9480142856796
 30
0.0
 10
107.275105767452
 20
-149.0623914557899
 30
0.0
 10
107.275105767452
 20
-149.0623914557899
 30
0.0
 10
107.275105767452
 20
-149.0623914557899
 30
0.0
 10
107.9816948514768
 20
-149.0623914557899
 30
0.0
 10
107.9816948514768
 20
-149.0623914557899
 30
0.0
 10
107.9816948514768
 20
-149.0623914557899
 30
0.0
 10
107.9816948514768
 20
-148.9480142856796
 30
0.0
 10
107.9816948514768
 20
-148.9480142856796
 30
0.0
  0
SPLINE
  5
F0
330
E7
100
AcDbEntity
  8
レイヤー 1
100
AcDbSpline
210
0.0
220
0.0
230
1.0
 70
    11
 71
     3
 72
    17
 73
    13
 74
     0
 42
0.0000000001
 43
0.0000000001
 40
0.0
 40
0.0
 40
0.0
 40
0.0
 40
1.0
 40
1.0
 40
1.0
 40
2.0
 40
2.0
 40
2.0
 40
3.0
 40
3.0
 40
3.0
 40
4.0
 40
4.0
 40
4.0
 40
4.0
 10
107.9816948514768
 20
-148.7046182896467
 30
0.0
 10
107.9816948514768
 20
-148.7046182896467
 30
0.0
 10
107.275105767452
 20
-148.7046182896467
 30
0.0
 10
107.275105767452
 20
-148.7046182896467
 30
0.0
 10
107.275105767452
 20
-148.7046182896467
 30
0.0
 10
107.275105767452
 20
-148.818995459757
 30
0.0
 10
107.275105767452
 20
-148.818995459757
 30
0.0
 10
107.275105767452
 20
-148.818995459757
 30
0.0
 10
107.9816948514768
 20
-148.818995459757
 30
0.0
 10
107.9816948514768
 20
-148.818995459757
 30
0.0
 10
107.9816948514768
 20
-148.818995459757
 30
0.0
 10
107.9816948514768
 20
-148.7046182896467
 30
0.0
 10
107.9816948514768
 20
-148.7046182896467
 30
0.0
  0
SPLINE
  5
F1
330
E7
100
AcDbEntity
  8
レイヤー 1
100
AcDbSpline
210
0.0
220
0.0
230
1.0
 70
    11
 71
     3
 72
    17
 73
    13
 74
     0
 42
0.0000000001
 43
0.0000000001
 40
0.0
 40
0.0
 40
0.0
 40
0.0
 40
1.0
 40
1.0
 40
1.0
 40
2.0
 40
2.0
 40
2.0
 40
3.0
 40
3.0
 40
3.0
 40
4.0
 40
4.0
 40
4.0
 40
4.0
 10
107.9816948514768
 20
-148.4719020896181
 30
0.0
 10
107.9816948514768
 20
-148.4719020896181
 30
0.0
 10
107.275105767452
 20
-148.4719020896181
 30
0.0
 10
107.275105767452
 20
-148.4719020896181
 30
0.0
 10
107.275105767452
 20
-148.4719020896181
 30
0.0
 10
107.275105767452
 20
-148.5799058330807
 30
0.0
 10
107.275105767452
 20
-148.5799058330807
 30
0.0
 10
107.275105767452
 20
-148.5799058330807
 30
0.0
 10
107.9816948514768
 20
-148.5799058330807
 30
0.0
 10
107.9816948514768
 20
-148.5799058330807
 30
0.0
 10
107.9816948514768
 20
-148.5799058330807
 30
0.0
 10
107.9816948514768
 20
-148.4719020896181
 30
0.0
 10
107.9816948514768
 20
-148.4719020896181
 30
0.0
  0
SPLINE
  5
F2
330
E7
100
AcDbEntity
  8
レイヤー 1
100
AcDbSpline
210
0.0
220
0.0
230
1.0
 70
     9
 71
     3
 72
   203
 73
   199
 74
     0
 42
0.0000000001
 43
0.0000000001
 40
0.0
 40
0.0
 40
0.0
 40
0.0
 40
1.0
 40
1.0
 40
1.0
 40
2.0
 40
2.0
 40
2.0
 40
3.0
 40
3.0
 40
3.0
 40
4.0
 40
4.0
 40
4.0
 40
5.0
 40
5.0
 40
5.0
 40
6.0
 40
6.0
 40
6.0
 40
7.0
 40
7.0
 40
7.0
 40
8.0
 40
8.0
 40
8.0
 40
9.0
 40
9.0
 40
9.0
 40
10.0
 40
10.0
 40
10.0
 40
11.0
 40
11.0
 40
11.0
 40
12.0
 40
12.0
 40
12.0
 40
13.0
 40
13.0
 40
13.0
 40
14.0
 40
14.0
 40
14.0
 40
15.0
 40
15.0
 40
15.0
 40
16.0
 40
16.0
 40
16.0
 40
17.0
 40
17.0
 40
17.0
 40
18.0
 40
18.0
 40
18.0
 40
19.0
 40
19.0
 40
19.0
 40
20.0
 40
20.0
 40
20.0
 40
21.0
 40
21.0
 40
21.0
 40
22.0
 40
22.0
 40
22.0
 40
23.0
 40
23.0
 40
23.0
 40
24.0
 40
24.0
 40
24.0
 40
25.0
 40
25.0
 40
25.0
 40
26.0
 40
26.0
 40
26.0
 40
27.0
 40
27.0
 40
27.0
 40
28.0
 40
28.0
 40
28.0
 40
29.0
 40
29.0
 40
29.0
 40
30.0
 40
30.0
 40
30.0
 40
31.0
 40
31.0
 40
31.0
 40
32.0
 40
32.0
 40
32.0
 40
33.0
 40
33.0
 40
33.0
 40
34.0
 40
34.0
 40
34.0
 40
35.0
 40
35.0
 40
35.0
 40
36.0
 40
36.0
 40
36.0
 40
37.0
 40
37.0
 40
37.0
 40
38.0
 40
38.0
 40
38.0
 40
39.0
 40
39.0
 40
39.0
 40
40.0
 40
40.0
 40
40.0
 40
41.0
 40
41.0
 40
41.0
 40
42.0
 40
42.0
 40
42.0
 40
43.0
 40
43.0
 40
43.0
 40
44.0
 40
44.0
 40
44.0
 40
45.0
 40
45.0
 40
45.0
 40
46.0
 40
46.0
 40
46.0
 40
47.0
 40
47.0
 40
47.0
 40
48.0
 40
48.0
 40
48.0
 40
49.0
 40
49.0
 40
49.0
 40
50.0
 40
50.0
 40
50.0
 40
51.0
 40
51.0
 40
51.0
 40
52.0
 40
52.0
 40
52.0
 40
53.0
 40
53.0
 40
53.0
 40
54.0
 40
54.0
 40
54.0
 40
55.0
 40
55.0
 40
55.0
 40
56.0
 40
56.0
 40
56.0
 40
57.0
 40
57.0
 40
57.0
 40
58.0
 40
58.0
 40
58.0
 40
59.0
 40
59.0
 40
59.0
 40
60.0
 40
60.0
 40
60.0
 40
61.0
 40
61.0
 40
61.0
 40
62.0
 40
62.0
 40
62.0
 40
63.0
 40
63.0
 40
63.0
 40
64.0
 40
64.0
 40
64.0
 40
65.0
 40
65.0
 40
65.0
 40
66.0
 40
66.0
 40
66.0
 40
66.0
 10
107.8166747777333
 20
-148.215931495064
 30
0.0
 10
107.8166747777333
 20
-148.215931495064
 30
0.0
 10
107.2582247995743
 20
-148.215931495064
 30
0.0
 10
107.2582247995743
 20
-148.215931495064
 30
0.0
 10
107.24754500357
 20
-148.2603732268238
 30
0.0
 10
107.2389322648569
 20
-148.2920681052881
 30
0.0
 10
107.22652992111
 20
-148.3303086651743
 30
0.0
 10
107.2516791181523
 20
-148.3303086651743
 30
0.0
 10
107.2664930287389
 20
-148.3323757224655
 30
0.0
 10
107.2730387101609
 20
-148.3323757224655
 30
0.0
 10
107.2730387101609
 20
-148.3323757224655
 30
0.0
 10
107.4611409236555
 20
-148.3323757224655
 30
0.0
 10
107.4611409236555
 20
-148.3323757224655
 30
0.0
 10
107.4611409236555
 20
-148.3323757224655
 30
0.0
 10
107.8356228029022
 20
-148.3323757224655
 30
0.0
 10
107.8356228029022
 20
-148.3323757224655
 30
0.0
 10
107.8862657065354
 20
-148.3323757224655
 30
0.0
 10
108.1697970649714
 20
-148.3196288691701
 30
0.0
 10
108.2014919434357
 20
-148.3196288691701
 30
0.0
 10
108.1994248861446
 20
-148.3471896330521
 30
0.0
 10
108.1973578288534
 20
-148.3661376582209
 30
0.0
 10
108.1973578288534
 20
-148.3957654793941
 30
0.0
 10
108.1952907715623
 20
-148.4274603578584
 30
0.0
 10
108.1952907715623
 20
-148.5628526104287
 30
0.0
 10
108.1952907715623
 20
-148.5904133743107
 30
0.0
 10
108.1952907715623
 20
-148.5904133743107
 30
0.0
 10
108.1952907715623
 20
-148.8358764276348
 30
0.0
 10
108.1952907715623
 20
-148.8358764276348
 30
0.0
 10
108.1952907715623
 20
-148.8804904141687
 30
0.0
 10
108.1994248861446
 20
-149.0772053663765
 30
0.0
 10
108.2039035102754
 20
-149.2294785868246
 30
0.0
 10
108.2039035102754
 20
-149.2294785868246
 30
0.0
 10
107.9772162273459
 20
-149.2294785868246
 30
0.0
 10
107.9772162273459
 20
-149.2294785868246
 30
0.0
 10
107.9772162273459
 20
-149.2294785868246
 30
0.0
 10
107.9796277941856
 20
-149.1957166510691
 30
0.0
 10
107.9796277941856
 20
-149.1957166510691
 30
0.0
 10
107.9796277941856
 20
-149.1957166510691
 30
0.0
 10
107.2771728247432
 20
-149.1957166510691
 30
0.0
 10
107.2771728247432
 20
-149.1957166510691
 30
0.0
 10
107.2771728247432
 20
-149.1957166510691
 30
0.0
 10
107.2792398820343
 20
-149.2294785868246
 30
0.0
 10
107.2792398820343
 20
-149.2294785868246
 30
0.0
 10
107.2792398820343
 20
-149.2294785868246
 30
0.0
 10
107.0615098473665
 20
-149.2294785868246
 30
0.0
 10
107.0615098473665
 20
-149.2294785868246
 30
0.0
 10
107.0656439619488
 20
-149.1743570590606
 30
0.0
 10
107.0656439619488
 20
-149.1616102057651
 30
0.0
 10
107.0718451338223
 20
-149.0475775452034
 30
0.0
 10
107.0739121911134
 20
-149.0200167813214
 30
0.0
 10
107.0763237579531
 20
-148.8866915860422
 30
0.0
 10
107.0763237579531
 20
-148.8675713060991
 30
0.0
 10
107.0763237579531
 20
-148.8675713060991
 30
0.0
 10
107.0763237579531
 20
-148.6644829272436
 30
0.0
 10
107.0763237579531
 20
-148.6644829272436
 30
0.0
 10
106.936452881252
 20
-148.9142523499242
 30
0.0
 10
106.7672986929262
 20
-149.0455104879122
 30
0.0
 10
106.661534261529
 20
-149.110967302132
 30
0.0
 10
106.661534261529
 20
-149.110967302132
 30
0.0
 10
106.4879014490724
 20
-148.9714409349794
 30
0.0
 10
106.4879014490724
 20
-148.9714409349794
 30
0.0
 10
106.5767849125919
 20
-148.9204535217977
 30
0.0
 10
106.7207899038753
 20
-148.8336371155694
 30
0.0
 10
106.8582492137368
 20
-148.639161475427
 30
0.0
 10
106.9491997345474
 20
-148.5122097067955
 30
0.0
 10
107.0150010583157
 20
-148.3683769702864
 30
0.0
 10
107.0487629940711
 20
-148.215931495064
 30
0.0
 10
106.8203531633991
 20
-148.2181708071295
 30
0.0
 10
106.640519179069
 20
-148.2245442337772
 30
0.0
 10
106.5450900341276
 20
-148.2266112910683
 30
0.0
 10
106.5450900341276
 20
-148.2266112910683
 30
0.0
 10
106.5450900341276
 20
-148.0488443640294
 30
0.0
 10
106.5450900341276
 20
-148.0488443640294
 30
0.0
 10
106.7418049863354
 20
-148.0552177906772
 30
0.0
 10
107.0253363447714
 20
-148.0595241600337
 30
0.0
 10
107.1755425079283
 20
-148.0595241600337
 30
0.0
 10
107.1755425079283
 20
-148.0595241600337
 30
0.0
 10
107.3891384280138
 20
-148.0595241600337
 30
0.0
 10
107.3891384280138
 20
-148.0595241600337
 30
0.0
 10
107.3891384280138
 20
-148.0595241600337
 30
0.0
 10
107.3891384280138
 20
-147.9515204165711
 30
0.0
 10
107.3891384280138
 20
-147.9515204165711
 30
0.0
 10
107.3891384280138
 20
-147.9515204165711
 30
0.0
 10
107.2434108889877
 20
-147.9515204165711
 30
0.0
 10
107.2434108889877
 20
-147.9515204165711
 30
0.0
 10
107.0739121911134
 20
-147.9515204165711
 30
0.0
 10
106.9047580027877
 20
-147.9558267859277
 30
0.0
 10
106.737670871753
 20
-147.9622002125754
 30
0.0
 10
106.737670871753
 20
-147.9622002125754
 30
0.0
 10
106.737670871753
 20
-147.7908067121842
 30
0.0
 10
106.737670871753
 20
-147.7908067121842
 30
0.0
 10
106.8920111494922
 20
-147.8013142534142
 30
0.0
 10
107.0783908152443
 20
-147.8013142534142
 30
0.0
 10
107.2434108889877
 20
-147.8013142534142
 30
0.0
 10
107.2434108889877
 20
-147.8013142534142
 30
0.0
 10
107.3891384280138
 20
-147.8013142534142
 30
0.0
 10
107.3891384280138
 20
-147.8013142534142
 30
0.0
 10
107.3891384280138
 20
-147.8013142534142
 30
0.0
 10
107.3891384280138
 20
-147.6829752234959
 30
0.0
 10
107.3891384280138
 20
-147.6829752234959
 30
0.0
 10
107.3891384280138
 20
-147.6829752234959
 30
0.0
 10
107.2582247995743
 20
-147.6829752234959
 30
0.0
 10
107.2582247995743
 20
-147.6829752234959
 30
0.0
 10
107.2117160105234
 20
-147.6829752234959
 30
0.0
 10
107.0084553768937
 20
-147.6914157074348
 30
0.0
 10
106.9660807024251
 20
-147.6914157074348
 30
0.0
 10
106.7631645783439
 20
-147.6955498220171
 30
0.0
 10
106.6870279681199
 20
-147.6976168793082
 30
0.0
 10
106.6088243006047
 20
-147.6998561913736
 30
0.0
 10
106.6088243006047
 20
-147.6998561913736
 30
0.0
 10
106.6088243006047
 20
-147.515715837687
 30
0.0
 10
106.6088243006047
 20
-147.515715837687
 30
0.0
 10
106.7228569611665
 20
-147.5241563216259
 30
0.0
 10
106.7672986929262
 20
-147.5241563216259
 30
0.0
 10
107.150393310886
 20
-147.532769060339
 30
0.0
 10
107.0866590444089
 20
-147.4375121701719
 30
0.0
 10
107.0590982805269
 20
-147.4099514062898
 30
0.0
 10
107.0232692874803
 20
-147.373950158469
 30
0.0
 10
107.0232692874803
 20
-147.373950158469
 30
0.0
 10
107.198969157228
 20
-147.2914401215972
 30
0.0
 10
107.198969157228
 20
-147.2914401215972
 30
0.0
 10
107.2389322648569
 20
-147.3274413694181
 30
0.0
 10
107.2833739966166
 20
-147.3698160438867
 30
0.0
 10
107.3574435495495
 20
-147.4797145898661
 30
0.0
 10
107.3574435495495
 20
-147.4797145898661
 30
0.0
 10
107.2434108889877
 20
-147.5348361176302
 30
0.0
 10
107.2434108889877
 20
-147.5348361176302
 30
0.0
 10
107.2434108889877
 20
-147.5348361176302
 30
0.0
 10
107.2537461754435
 20
-147.5348361176302
 30
0.0
 10
107.2537461754435
 20
-147.5348361176302
 30
0.0
 10
107.2537461754435
 20
-147.5348361176302
 30
0.0
 10
107.7763671605559
 20
-147.5348361176302
 30
0.0
 10
107.7763671605559
 20
-147.5348361176302
 30
0.0
 10
107.7763671605559
 20
-147.5348361176302
 30
0.0
 10
107.681282525163
 20
-147.4903943858705
 30
0.0
 10
107.681282525163
 20
-147.4903943858705
 30
0.0
 10
107.708843289045
 20
-147.4523260807584
 30
0.0
 10
107.7656873645516
 20
-147.3718831011779
 30
0.0
 10
107.7805012751382
 20
-147.297813548245
 30
0.0
 10
107.7805012751382
 20
-147.297813548245
 30
0.0
 10
107.9944417047722
 20
-147.3613755599478
 30
0.0
 10
107.9944417047722
 20
-147.3613755599478
 30
0.0
 10
108.0027099339368
 20
-147.363442617239
 30
0.0
 10
108.0240695259454
 20
-147.373950158469
 30
0.0
 10
108.0240695259454
 20
-147.3951374957033
 30
0.0
 10
108.0240695259454
 20
-147.4332058008153
 30
0.0
 10
107.9582682021771
 20
-147.4332058008153
 30
0.0
 10
107.9393201770082
 20
-147.4332058008153
 30
0.0
 10
107.9286403810039
 20
-147.4523260807584
 30
0.0
 10
107.9055582412528
 20
-147.4924614431616
 30
0.0
 10
107.8759304200796
 20
-147.532769060339
 30
0.0
 10
108.2755614963686
 20
-147.5263956336913
 30
0.0
 10
108.3051893175417
 20
-147.5241563216259
 30
0.0
 10
108.3813259277658
 20
-147.5179551497524
 30
0.0
 10
108.3813259277658
 20
-147.5179551497524
 30
0.0
 10
108.3813259277658
 20
-147.6998561913736
 30
0.0
 10
108.3813259277658
 20
-147.6998561913736
 30
0.0
 10
108.3623779025969
 20
-147.6998561913736
 30
0.0
 10
108.336884196006
 20
-147.6976168793082
 30
0.0
 10
108.1170871040471
 20
-147.6891763953694
 30
0.0
 10
108.0660996908654
 20
-147.6871093380782
 30
0.0
 10
107.8463025989065
 20
-147.6829752234959
 30
0.0
 10
107.8018608671467
 20
-147.6829752234959
 30
0.0
 10
107.8018608671467
 20
-147.6829752234959
 30
0.0
 10
107.5858533802216
 20
-147.6829752234959
 30
0.0
 10
107.5858533802216
 20
-147.6829752234959
 30
0.0
 10
107.5858533802216
 20
-147.6829752234959
 30
0.0
 10
107.5858533802216
 20
-147.8013142534142
 30
0.0
 10
107.5858533802216
 20
-147.8013142534142
 30
0.0
 10
107.5858533802216
 20
-147.8013142534142
 30
0.0
 10
107.7594861926782
 20
-147.8013142534142
 30
0.0
 10
107.7594861926782
 20
-147.8013142534142
 30
0.0
 10
107.9224392091305
 20
-147.8013142534142
 30
0.0
 10
108.1126084799163
 20
-147.8013142534142
 30
0.0
 10
108.2693603244951
 20
-147.7908067121842
 30
0.0
 10
108.2693603244951
 20
-147.7908067121842
 30
0.0
 10
108.2693603244951
 20
-147.9622002125754
 30
0.0
 10
108.2693603244951
 20
-147.9622002125754
 30
0.0
 10
108.059898518992
 20
-147.9537597286365
 30
0.0
 10
107.8631835667842
 20
-147.9515204165711
 30
0.0
 10
107.7594861926782
 20
-147.9515204165711
 30
0.0
 10
107.7594861926782
 20
-147.9515204165711
 30
0.0
 10
107.5858533802216
 20
-147.9515204165711
 30
0.0
 10
107.5858533802216
 20
-147.9515204165711
 30
0.0
 10
107.5858533802216
 20
-147.9515204165711
 30
0.0
 10
107.5858533802216
 20
-148.0595241600337
 30
0.0
 10
107.5858533802216
 20
-148.0595241600337
 30
0.0
 10
107.5858533802216
 20
-148.0595241600337
 30
0.0
 10
107.8166747777333
 20
-148.0595241600337
 30
0.0
 10
107.8166747777333
 20
-148.0595241600337
 30
0.0
 10
107.9499999730125
 20
-148.0595241600337
 30
0.0
 10
108.2376654460308
 20
-148.0552177906772
 30
0.0
 10
108.447127251534
 20
-148.0488443640294
 30
0.0
 10
108.447127251534
 20
-148.0488443640294
 30
0.0
 10
108.447127251534
 20
-148.2266112910683
 30
0.0
 10
108.447127251534
 20
-148.2266112910683
 30
0.0
 10
108.2545464139086
 20
-148.2202378644206
 30
0.0
 10
107.9413872342994
 20
-148.215931495064
 30
0.0
 10
107.8166747777333
 20
-148.215931495064
 30
0.0
  0
HATCH
  5
F3
330
E7
100
AcDbEntity
  8
レイヤー 1
 62
    18
420
        0
440
 33554687
100
AcDbHatch
 10
0.0
 20
0.0
 30
0.0
210
0.0
220
0.0
230
1.0
  2
SOLID
 70
     1
 71
     1
 91
        4
 92
        1
 93
        1
 72
     4
 94
        3
 73
     0
 74
     0
 95
       17
 96
       13
 40
0.0
 40
0.0
 40
0.0
 40
0.0
 40
1.0
 40
1.0
 40
1.0
 40
2.0
 40
2.0
 40
2.0
 40
3.0
 40
3.0
 40
3.0
 40
4.0
 40
4.0
 40
4.0
 40
4.0
 10
107.9816948514768
 20
-148.9480142856796
 10
107.9816948514768
 20
-148.9480142856796
 10
107.275105767452
 20
-148.9480142856796
 10
107.275105767452
 20
-148.9480142856796
 10
107.275105767452
 20
-148.9480142856796
 10
107.275105767452
 20
-149.0623914557899
 10
107.275105767452
 20
-149.0623914557899
 10
107.275105767452
 20
-149.0623914557899
 10
107.9816948514768
 20
-149.0623914557899
 10
107.9816948514768
 20
-149.0623914557899
 10
107.9816948514768
 20
-149.0623914557899
 10
107.9816948514768
 20
-148.9480142856796
 10
107.9816948514768
 20
-148.9480142856796
 97
        0
 97
        1
330
EF
 92
        1
 93
        1
 72
     4
 94
        3
 73
     0
 74
     0
 95
       17
 96
       13
 40
0.0
 40
0.0
 40
0.0
 40
0.0
 40
1.0
 40
1.0
 40
1.0
 40
2.0
 40
2.0
 40
2.0
 40
3.0
 40
3.0
 40
3.0
 40
4.0
 40
4.0
 40
4.0
 40
4.0
 10
107.9816948514768
 20
-148.7046182896467
 10
107.9816948514768
 20
-148.7046182896467
 10
107.275105767452
 20
-148.7046182896467
 10
107.275105767452
 20
-148.7046182896467
 10
107.275105767452
 20
-148.7046182896467
 10
107.275105767452
 20
-148.818995459757
 10
107.275105767452
 20
-148.818995459757
 10
107.275105767452
 20
-148.818995459757
 10
107.9816948514768
 20
-148.818995459757
 10
107.9816948514768
 20
-148.818995459757
 10
107.9816948514768
 20
-148.818995459757
 10
107.9816948514768
 20
-148.7046182896467
 10
107.9816948514768
 20
-148.7046182896467
 97
        0
 97
        1
330
F0
 92
        1
 93
        1
 72
     4
 94
        3
 73
     0
 74
     0
 95
       17
 96
       13
 40
0.0
 40
0.0
 40
0.0
 40
0.0
 40
1.0
 40
1.0
 40
1.0
 40
2.0
 40
2.0
 40
2.0
 40
3.0
 40
3.0
 40
3.0
 40
4.0
 40
4.0
 40
4.0
 40
4.0
 10
107.9816948514768
 20
-148.4719020896181
 10
107.9816948514768
 20
-148.4719020896181
 10
107.275105767452
 20
-148.4719020896181
 10
107.275105767452
 20
-148.4719020896181
 10
107.275105767452
 20
-148.4719020896181
 10
107.275105767452
 20
-148.5799058330807
 10
107.275105767452
 20
-148.5799058330807
 10
107.275105767452
 20
-148.5799058330807
 10
107.9816948514768
 20
-148.5799058330807
 10
107.9816948514768
 20
-148.5799058330807
 10
107.9816948514768
 20
-148.5799058330807
 10
107.9816948514768
 20
-148.4719020896181
 10
107.9816948514768
 20
-148.4719020896181
 97
        0
 97
        1
330
F1
 92
        1
 93
        1
 72
     4
 94
        3
 73
     0
 74
     0
 95
      203
 96
      199
 40
0.0
 40
0.0
 40
0.0
 40
0.0
 40
1.0
 40
1.0
 40
1.0
 40
2.0
 40
2.0
 40
2.0
 40
3.0
 40
3.0
 40
3.0
 40
4.0
 40
4.0
 40
4.0
 40
5.0
 40
5.0
 40
5.0
 40
6.0
 40
6.0
 40
6.0
 40
7.0
 40
7.0
 40
7.0
 40
8.0
 40
8.0
 40
8.0
 40
9.0
 40
9.0
 40
9.0
 40
10.0
 40
10.0
 40
10.0
 40
11.0
 40
11.0
 40
11.0
 40
12.0
 40
12.0
 40
12.0
 40
13.0
 40
13.0
 40
13.0
 40
14.0
 40
14.0
 40
14.0
 40
15.0
 40
15.0
 40
15.0
 40
16.0
 40
16.0
 40
16.0
 40
17.0
 40
17.0
 40
17.0
 40
18.0
 40
18.0
 40
18.0
 40
19.0
 40
19.0
 40
19.0
 40
20.0
 40
20.0
 40
20.0
 40
21.0
 40
21.0
 40
21.0
 40
22.0
 40
22.0
 40
22.0
 40
23.0
 40
23.0
 40
23.0
 40
24.0
 40
24.0
 40
24.0
 40
25.0
 40
25.0
 40
25.0
 40
26.0
 40
26.0
 40
26.0
 40
27.0
 40
27.0
 40
27.0
 40
28.0
 40
28.0
 40
28.0
 40
29.0
 40
29.0
 40
29.0
 40
30.0
 40
30.0
 40
30.0
 40
31.0
 40
31.0
 40
31.0
 40
32.0
 40
32.0
 40
32.0
 40
33.0
 40
33.0
 40
33.0
 40
34.0
 40
34.0
 40
34.0
 40
35.0
 40
35.0
 40
35.0
 40
36.0
 40
36.0
 40
36.0
 40
37.0
 40
37.0
 40
37.0
 40
38.0
 40
38.0
 40
38.0
 40
39.0
 40
39.0
 40
39.0
 40
40.0
 40
40.0
 40
40.0
 40
41.0
 40
41.0
 40
41.0
 40
42.0
 40
42.0
 40
42.0
 40
43.0
 40
43.0
 40
43.0
 40
44.0
 40
44.0
 40
44.0
 40
45.0
 40
45.0
 40
45.0
 40
46.0
 40
46.0
 40
46.0
 40
47.0
 40
47.0
 40
47.0
 40
48.0
 40
48.0
 40
48.0
 40
49.0
 40
49.0
 40
49.0
 40
50.0
 40
50.0
 40
50.0
 40
51.0
 40
51.0
 40
51.0
 40
52.0
 40
52.0
 40
52.0
 40
53.0
 40
53.0
 40
53.0
 40
54.0
 40
54.0
 40
54.0
 40
55.0
 40
55.0
 40
55.0
 40
56.0
 40
56.0
 40
56.0
 40
57.0
 40
57.0
 40
57.0
 40
58.0
 40
58.0
 40
58.0
 40
59.0
 40
59.0
 40
59.0
 40
60.0
 40
60.0
 40
60.0
 40
61.0
 40
61.0
 40
61.0
 40
62.0
 40
62.0
 40
62.0
 40
63.0
 40
63.0
 40
63.0
 40
64.0
 40
64.0
 40
64.0
 40
65.0
 40
65.0
 40
65.0
 40
66.0
 40
66.0
 40
66.0
 40
66.0
 10
107.8166747777333
 20
-148.215931495064
 10
107.8166747777333
 20
-148.215931495064
 10
107.2582247995743
 20
-148.215931495064
 10
107.2582247995743
 20
-148.215931495064
 10
107.24754500357
 20
-148.2603732268238
 10
107.2389322648569
 20
-148.2920681052881
 10
107.22652992111
 20
-148.3303086651743
 10
107.2516791181523
 20
-148.3303086651743
 10
107.2664930287389
 20
-148.3323757224655
 10
107.2730387101609
 20
-148.3323757224655
 10
107.2730387101609
 20
-148.3323757224655
 10
107.4611409236555
 20
-148.3323757224655
 10
107.4611409236555
 20
-148.3323757224655
 10
107.4611409236555
 20
-148.3323757224655
 10
107.8356228029022
 20
-148.3323757224655
 10
107.8356228029022
 20
-148.3323757224655
 10
107.8862657065354
 20
-148.3323757224655
 10
108.1697970649714
 20
-148.3196288691701
 10
108.2014919434357
 20
-148.3196288691701
 10
108.1994248861446
 20
-148.3471896330521
 10
108.1973578288534
 20
-148.3661376582209
 10
108.1973578288534
 20
-148.3957654793941
 10
108.1952907715623
 20
-148.4274603578584
 10
108.1952907715623
 20
-148.5628526104287
 10
108.1952907715623
 20
-148.5904133743107
 10
108.1952907715623
 20
-148.5904133743107
 10
108.1952907715623
 20
-148.8358764276348
 10
108.1952907715623
 20
-148.8358764276348
 10
108.1952907715623
 20
-148.8804904141687
 10
108.1994248861446
 20
-149.0772053663765
 10
108.2039035102754
 20
-149.2294785868246
 10
108.2039035102754
 20
-149.2294785868246
 10
107.9772162273459
 20
-149.2294785868246
 10
107.9772162273459
 20
-149.2294785868246
 10
107.9772162273459
 20
-149.2294785868246
 10
107.9796277941856
 20
-149.1957166510691
 10
107.9796277941856
 20
-149.1957166510691
 10
107.9796277941856
 20
-149.1957166510691
 10
107.2771728247432
 20
-149.1957166510691
 10
107.2771728247432
 20
-149.1957166510691
 10
107.2771728247432
 20
-149.1957166510691
 10
107.2792398820343
 20
-149.2294785868246
 10
107.2792398820343
 20
-149.2294785868246
 10
107.2792398820343
 20
-149.2294785868246
 10
107.0615098473665
 20
-149.2294785868246
 10
107.0615098473665
 20
-149.2294785868246
 10
107.0656439619488
 20
-149.1743570590606
 10
107.0656439619488
 20
-149.1616102057651
 10
107.0718451338223
 20
-149.0475775452034
 10
107.0739121911134
 20
-149.0200167813214
 10
107.0763237579531
 20
-148.8866915860422
 10
107.0763237579531
 20
-148.8675713060991
 10
107.0763237579531
 20
-148.8675713060991
 10
107.0763237579531
 20
-148.6644829272436
 10
107.0763237579531
 20
-148.6644829272436
 10
106.936452881252
 20
-148.9142523499242
 10
106.7672986929262
 20
-149.0455104879122
 10
106.661534261529
 20
-149.110967302132
 10
106.661534261529
 20
-149.110967302132
 10
106.4879014490724
 20
-148.9714409349794
 10
106.4879014490724
 20
-148.9714409349794
 10
106.5767849125919
 20
-148.9204535217977
 10
106.7207899038753
 20
-148.8336371155694
 10
106.8582492137368
 20
-148.639161475427
 10
106.9491997345474
 20
-148.5122097067955
 10
107.0150010583157
 20
-148.3683769702864
 10
107.0487629940711
 20
-148.215931495064
 10
106.8203531633991
 20
-148.2181708071295
 10
106.640519179069
 20
-148.2245442337772
 10
106.5450900341276
 20
-148.2266112910683
 10
106.5450900341276
 20
-148.2266112910683
 10
106.5450900341276
 20
-148.0488443640294
 10
106.5450900341276
 20
-148.0488443640294
 10
106.7418049863354
 20
-148.0552177906772
 10
107.0253363447714
 20
-148.0595241600337
 10
107.1755425079283
 20
-148.0595241600337
 10
107.1755425079283
 20
-148.0595241600337
 10
107.3891384280138
 20
-148.0595241600337
 10
107.3891384280138
 20
-148.0595241600337
 10
107.3891384280138
 20
-148.0595241600337
 10
107.3891384280138
 20
-147.9515204165711
 10
107.3891384280138
 20
-147.9515204165711
 10
107.3891384280138
 20
-147.9515204165711
 10
107.2434108889877
 20
-147.9515204165711
 10
107.2434108889877
 20
-147.9515204165711
 10
107.0739121911134
 20
-147.9515204165711
 10
106.9047580027877
 20
-147.9558267859277
 10
106.737670871753
 20
-147.9622002125754
 10
106.737670871753
 20
-147.9622002125754
 10
106.737670871753
 20
-147.7908067121842
 10
106.737670871753
 20
-147.7908067121842
 10
106.8920111494922
 20
-147.8013142534142
 10
107.0783908152443
 20
-147.8013142534142
 10
107.2434108889877
 20
-147.8013142534142
 10
107.2434108889877
 20
-147.8013142534142
 10
107.3891384280138
 20
-147.8013142534142
 10
107.3891384280138
 20
-147.8013142534142
 10
107.3891384280138
 20
-147.8013142534142
 10
107.3891384280138
 20
-147.6829752234959
 10
107.3891384280138
 20
-147.6829752234959
 10
107.3891384280138
 20
-147.6829752234959
 10
107.2582247995743
 20
-147.6829752234959
 10
107.2582247995743
 20
-147.6829752234959
 10
107.2117160105234
 20
-147.6829752234959
 10
107.0084553768937
 20
-147.6914157074348
 10
106.9660807024251
 20
-147.6914157074348
 10
106.7631645783439
 20
-147.6955498220171
 10
106.6870279681199
 20
-147.6976168793082
 10
106.6088243006047
 20
-147.6998561913736
 10
106.6088243006047
 20
-147.6998561913736
 10
106.6088243006047
 20
-147.515715837687
 10
106.6088243006047
 20
-147.515715837687
 10
106.7228569611665
 20
-147.5241563216259
 10
106.7672986929262
 20
-147.5241563216259
 10
107.150393310886
 20
-147.532769060339
 10
107.0866590444089
 20
-147.4375121701719
 10
107.0590982805269
 20
-147.4099514062898
 10
107.0232692874803
 20
-147.373950158469
 10
107.0232692874803
 20
-147.373950158469
 10
107.198969157228
 20
-147.2914401215972
 10
107.198969157228
 20
-147.2914401215972
 10
107.2389322648569
 20
-147.3274413694181
 10
107.2833739966166
 20
-147.3698160438867
 10
107.3574435495495
 20
-147.4797145898661
 10
107.3574435495495
 20
-147.4797145898661
 10
107.2434108889877
 20
-147.5348361176302
 10
107.2434108889877
 20
-147.5348361176302
 10
107.2434108889877
 20
-147.5348361176302
 10
107.2537461754435
 20
-147.5348361176302
 10
107.2537461754435
 20
-147.5348361176302
 10
107.2537461754435
 20
-147.5348361176302
 10
107.7763671605559
 20
-147.5348361176302
 10
107.7763671605559
 20
-147.5348361176302
 10
107.7763671605559
 20
-147.5348361176302
 10
107.681282525163
 20
-147.4903943858705
 10
107.681282525163
 20
-147.4903943858705
 10
107.708843289045
 20
-147.4523260807584
 10
107.7656873645516
 20
-147.3718831011779
 10
107.7805012751382
 20
-147.297813548245
 10
107.7805012751382
 20
-147.297813548245
 10
107.9944417047722
 20
-147.3613755599478
 10
107.9944417047722
 20
-147.3613755599478
 10
108.0027099339368
 20
-147.363442617239
 10
108.0240695259454
 20
-147.373950158469
 10
108.0240695259454
 20
-147.3951374957033
 10
108.0240695259454
 20
-147.4332058008153
 10
107.9582682021771
 20
-147.4332058008153
 10
107.9393201770082
 20
-147.4332058008153
 10
107.9286403810039
 20
-147.4523260807584
 10
107.9055582412528
 20
-147.4924614431616
 10
107.8759304200796
 20
-147.532769060339
 10
108.2755614963686
 20
-147.5263956336913
 10
108.3051893175417
 20
-147.5241563216259
 10
108.3813259277658
 20
-147.5179551497524
 10
108.3813259277658
 20
-147.5179551497524
 10
108.3813259277658
 20
-147.6998561913736
 10
108.3813259277658
 20
-147.6998561913736
 10
108.3623779025969
 20
-147.6998561913736
 10
108.336884196006
 20
-147.6976168793082
 10
108.1170871040471
 20
-147.6891763953694
 10
108.0660996908654
 20
-147.6871093380782
 10
107.8463025989065
 20
-147.6829752234959
 10
107.8018608671467
 20
-147.6829752234959
 10
107.8018608671467
 20
-147.6829752234959
 10
107.5858533802216
 20
-147.6829752234959
 10
107.5858533802216
 20
-147.6829752234959
 10
107.5858533802216
 20
-147.6829752234959
 10
107.5858533802216
 20
-147.8013142534142
 10
107.5858533802216
 20
-147.8013142534142
 10
107.5858533802216
 20
-147.8013142534142
 10
107.7594861926782
 20
-147.8013142534142
 10
107.7594861926782
 20
-147.8013142534142
 10
107.9224392091305
 20
-147.8013142534142
 10
108.1126084799163
 20
-147.8013142534142
 10
108.2693603244951
 20
-147.7908067121842
 10
108.2693603244951
 20
-147.7908067121842
 10
108.2693603244951
 20
-147.9622002125754
 10
108.2693603244951
 20
-147.9622002125754
 10
108.059898518992
 20
-147.9537597286365
 10
107.8631835667842
 20
-147.9515204165711
 10
107.7594861926782
 20
-147.9515204165711
 10
107.7594861926782
 20
-147.9515204165711
 10
107.5858533802216
 20
-147.9515204165711
 10
107.5858533802216
 20
-147.9515204165711
 10
107.5858533802216
 20
-147.9515204165711
 10
107.5858533802216
 20
-148.0595241600337
 10
107.5858533802216
 20
-148.0595241600337
 10
107.5858533802216
 20
-148.0595241600337
 10
107.8166747777333
 20
-148.0595241600337
 10
107.8166747777333
 20
-148.0595241600337
 10
107.9499999730125
 20
-148.0595241600337
 10
108.2376654460308
 20
-148.0552177906772
 10
108.447127251534
 20
-148.0488443640294
 10
108.447127251534
 20
-148.0488443640294
 10
108.447127251534
 20
-148.2266112910683
 10
108.447127251534
 20
-148.2266112910683
 10
108.2545464139086
 20
-148.2202378644206
 10
107.9413872342994
 20
-148.215931495064
 10
107.8166747777333
 20
-148.215931495064
 97
        0
 97
        1
330
F2
 75
     2
 76
     1
 98
        1
 10
0.0
 20
0.0
450
        0
451
        0
460
0.0
461
0.0
452
        0
462
0.0
453
        0
470

  0
SPLINE
  5
F4
330
E7
100
AcDbEntity
  8
レイヤー 1
100
AcDbSpline
210
0.0
220
0.0
230
1.0
 70
     9
 71
     3
 72
    29
 73
    25
 74
     0
 42
0.0000000001
 43
0.0000000001
 40
0.0
 40
0.0
 40
0.0
 40
0.0
 40
1.0
 40
1.0
 40
1.0
 40
2.0
 40
2.0
 40
2.0
 40
3.0
 40
3.0
 40
3.0
 40
4.0
 40
4.0
 40
4.0
 40
5.0
 40
5.0
 40
5.0
 40
6.0
 40
6.0
 40
6.0
 40
7.0
 40
7.0
 40
7.0
 40
8.0
 40
8.0
 40
8.0
 40
8.0
 10
109.6921847599033
 20
-147.6638549435528
 30
0.0
 10
109.6921847599033
 20
-147.6638549435528
 30
0.0
 10
109.3387179631167
 20
-147.6638549435528
 30
0.0
 10
109.3387179631167
 20
-147.6638549435528
 30
0.0
 10
109.2267523598461
 20
-147.6638549435528
 30
0.0
 10
109.0872259926934
 20
-147.6702283702005
 30
0.0
 10
108.9790499944566
 20
-147.6829752234959
 30
0.0
 10
108.9790499944566
 20
-147.6829752234959
 30
0.0
 10
108.9790499944566
 20
-147.4480197114019
 30
0.0
 10
108.9790499944566
 20
-147.4480197114019
 30
0.0
 10
109.0975612791492
 20
-147.4628336219884
 30
0.0
 10
109.2815293780615
 20
-147.467139991345
 30
0.0
 10
109.3387179631167
 20
-147.467139991345
 30
0.0
 10
109.3387179631167
 20
-147.467139991345
 30
0.0
 10
109.6921847599033
 20
-147.467139991345
 30
0.0
 10
109.6921847599033
 20
-147.467139991345
 30
0.0
 10
109.7111327850722
 20
-147.467139991345
 30
0.0
 10
109.9143934187019
 20
-147.467139991345
 30
0.0
 10
110.0559868431457
 20
-147.4480197114019
 30
0.0
 10
110.0559868431457
 20
-147.4480197114019
 30
0.0
 10
110.0559868431457
 20
-147.6829752234959
 30
0.0
 10
110.0559868431457
 20
-147.6829752234959
 30
0.0
 10
109.8995795081154
 20
-147.6638549435528
 30
0.0
 10
109.709065727781
 20
-147.6638549435528
 30
0.0
 10
109.6921847599033
 20
-147.6638549435528
 30
0.0
  0
SPLINE
  5
F5
330
E7
100
AcDbEntity
  8
レイヤー 1
100
AcDbSpline
210
0.0
220
0.0
230
1.0
 70
     9
 71
     3
 72
    47
 73
    43
 74
     0
 42
0.0000000001
 43
0.0000000001
 40
0.0
 40
0.0
 40
0.0
 40
0.0
 40
1.0
 40
1.0
 40
1.0
 40
2.0
 40
2.0
 40
2.0
 40
3.0
 40
3.0
 40
3.0
 40
4.0
 40
4.0
 40
4.0
 40
5.0
 40
5.0
 40
5.0
 40
6.0
 40
6.0
 40
6.0
 40
7.0
 40
7.0
 40
7.0
 40
8.0
 40
8.0
 40
8.0
 40
9.0
 40
9.0
 40
9.0
 40
10.0
 40
10.0
 40
10.0
 40
11.0
 40
11.0
 40
11.0
 40
12.0
 40
12.0
 40
12.0
 40
13.0
 40
13.0
 40
13.0
 40
14.0
 40
14.0
 40
14.0
 40
14.0
 10
109.7934705671697
 20
-148.1926771005386
 30
0.0
 10
109.7934705671697
 20
-148.1926771005386
 30
0.0
 10
109.6921847599033
 20
-148.1926771005386
 30
0.0
 10
109.6921847599033
 20
-148.1926771005386
 30
0.0
 10
109.6921847599033
 20
-148.2794935067669
 30
0.0
 10
109.6708251678948
 20
-148.6687892966002
 30
0.0
 10
109.474110215687
 20
-148.8887586433333
 30
0.0
 10
109.321836995239
 20
-149.0579128316591
 30
0.0
 10
109.1144422470269
 20
-149.1278482700097
 30
0.0
 10
109.0300374076383
 20
-149.1554090338917
 30
0.0
 10
109.0300374076383
 20
-149.1554090338917
 30
0.0
 10
108.8353895127217
 20
-148.9883219028571
 30
0.0
 10
108.8353895127217
 20
-148.9883219028571
 30
0.0
 10
108.9325412054057
 20
-148.9755750495616
 30
0.0
 10
109.1082410751535
 20
-148.9521484002619
 30
0.0
 10
109.2963432886481
 20
-148.763873931993
 30
0.0
 10
109.370412841581
 20
-148.6920436911256
 30
0.0
 10
109.474110215687
 20
-148.5523450691987
 30
0.0
 10
109.474110215687
 20
-148.1926771005386
 30
0.0
 10
109.474110215687
 20
-148.1926771005386
 30
0.0
 10
109.2436333277238
 20
-148.1926771005386
 30
0.0
 10
109.2436333277238
 20
-148.1926771005386
 30
0.0
 10
109.0575981715203
 20
-148.1926771005386
 30
0.0
 10
108.8712185057683
 20
-148.1969834698952
 30
0.0
 10
108.6851833495648
 20
-148.2117973804817
 30
0.0
 10
108.6851833495648
 20
-148.2117973804817
 30
0.0
 10
108.6851833495648
 20
-147.9918280337486
 30
0.0
 10
108.6851833495648
 20
-147.9918280337486
 30
0.0
 10
108.8732855630594
 20
-148.0066419443351
 30
0.0
 10
109.1588839787867
 20
-148.0107760589174
 30
0.0
 10
109.2436333277238
 20
-148.0107760589174
 30
0.0
 10
109.2436333277238
 20
-148.0107760589174
 30
0.0
 10
109.7934705671697
 20
-148.0107760589174
 30
0.0
 10
109.7934705671697
 20
-148.0107760589174
 30
0.0
 10
109.812763101887
 20
-148.0107760589174
 30
0.0
 10
110.1300563960786
 20
-148.0107760589174
 30
0.0
 10
110.3584662267506
 20
-147.9918280337486
 30
0.0
 10
110.3584662267506
 20
-147.9918280337486
 30
0.0
 10
110.3584662267506
 20
-148.2117973804817
 30
0.0
 10
110.3584662267506
 20
-148.2117973804817
 30
0.0
 10
110.170364013256
 20
-148.1969834698952
 30
0.0
 10
109.9819172902128
 20
-148.1926771005386
 30
0.0
 10
109.7934705671697
 20
-148.1926771005386
 30
0.0
  0
HATCH
  5
F6
330
E7
100
AcDbEntity
  8
レイヤー 1
 62
    18
420
        0
440
 33554687
100
AcDbHatch
 10
0.0
 20
0.0
 30
0.0
210
0.0
220
0.0
230
1.0
  2
SOLID
 70
     1
 71
     1
 91
        2
 92
        1
 93
        1
 72
     4
 94
        3
 73
     0
 74
     0
 95
       29
 96
       25
 40
0.0
 40
0.0
 40
0.0
 40
0.0
 40
1.0
 40
1.0
 40
1.0
 40
2.0
 40
2.0
 40
2.0
 40
3.0
 40
3.0
 40
3.0
 40
4.0
 40
4.0
 40
4.0
 40
5.0
 40
5.0
 40
5.0
 40
6.0
 40
6.0
 40
6.0
 40
7.0
 40
7.0
 40
7.0
 40
8.0
 40
8.0
 40
8.0
 40
8.0
 10
109.6921847599033
 20
-147.6638549435528
 10
109.6921847599033
 20
-147.6638549435528
 10
109.3387179631167
 20
-147.6638549435528
 10
109.3387179631167
 20
-147.6638549435528
 10
109.2267523598461
 20
-147.6638549435528
 10
109.0872259926934
 20
-147.6702283702005
 10
108.9790499944566
 20
-147.6829752234959
 10
108.9790499944566
 20
-147.6829752234959
 10
108.9790499944566
 20
-147.4480197114019
 10
108.9790499944566
 20
-147.4480197114019
 10
109.0975612791492
 20
-147.4628336219884
 10
109.2815293780615
 20
-147.467139991345
 10
109.3387179631167
 20
-147.467139991345
 10
109.3387179631167
 20
-147.467139991345
 10
109.6921847599033
 20
-147.467139991345
 10
109.6921847599033
 20
-147.467139991345
 10
109.7111327850722
 20
-147.467139991345
 10
109.9143934187019
 20
-147.467139991345
 10
110.0559868431457
 20
-147.4480197114019
 10
110.0559868431457
 20
-147.4480197114019
 10
110.0559868431457
 20
-147.6829752234959
 10
110.0559868431457
 20
-147.6829752234959
 10
109.8995795081154
 20
-147.6638549435528
 10
109.709065727781
 20
-147.6638549435528
 10
109.6921847599033
 20
-147.6638549435528
 97
        0
 97
        1
330
F4
 92
        1
 93
        1
 72
     4
 94
        3
 73
     0
 74
     0
 95
       47
 96
       43
 40
0.0
 40
0.0
 40
0.0
 40
0.0
 40
1.0
 40
1.0
 40
1.0
 40
2.0
 40
2.0
 40
2.0
 40
3.0
 40
3.0
 40
3.0
 40
4.0
 40
4.0
 40
4.0
 40
5.0
 40
5.0
 40
5.0
 40
6.0
 40
6.0
 40
6.0
 40
7.0
 40
7.0
 40
7.0
 40
8.0
 40
8.0
 40
8.0
 40
9.0
 40
9.0
 40
9.0
 40
10.0
 40
10.0
 40
10.0
 40
11.0
 40
11.0
 40
11.0
 40
12.0
 40
12.0
 40
12.0
 40
13.0
 40
13.0
 40
13.0
 40
14.0
 40
14.0
 40
14.0
 40
14.0
 10
109.7934705671697
 20
-148.1926771005386
 10
109.7934705671697
 20
-148.1926771005386
 10
109.6921847599033
 20
-148.1926771005386
 10
109.6921847599033
 20
-148.1926771005386
 10
109.6921847599033
 20
-148.2794935067669
 10
109.6708251678948
 20
-148.6687892966002
 10
109.474110215687
 20
-148.8887586433333
 10
109.321836995239
 20
-149.0579128316591
 10
109.1144422470269
 20
-149.1278482700097
 10
109.0300374076383
 20
-149.1554090338917
 10
109.0300374076383
 20
-149.1554090338917
 10
108.8353895127217
 20
-148.9883219028571
 10
108.8353895127217
 20
-148.9883219028571
 10
108.9325412054057
 20
-148.9755750495616
 10
109.1082410751535
 20
-148.9521484002619
 10
109.2963432886481
 20
-148.763873931993
 10
109.370412841581
 20
-148.6920436911256
 10
109.474110215687
 20
-148.5523450691987
 10
109.474110215687
 20
-148.1926771005386
 10
109.474110215687
 20
-148.1926771005386
 10
109.2436333277238
 20
-148.1926771005386
 10
109.2436333277238
 20
-148.1926771005386
 10
109.0575981715203
 20
-148.1926771005386
 10
108.8712185057683
 20
-148.1969834698952
 10
108.6851833495648
 20
-148.2117973804817
 10
108.6851833495648
 20
-148.2117973804817
 10
108.6851833495648
 20
-147.9918280337486
 10
108.6851833495648
 20
-147.9918280337486
 10
108.8732855630594
 20
-148.0066419443351
 10
109.1588839787867
 20
-148.0107760589174
 10
109.2436333277238
 20
-148.0107760589174
 10
109.2436333277238
 20
-148.0107760589174
 10
109.7934705671697
 20
-148.0107760589174
 10
109.7934705671697
 20
-148.0107760589174
 10
109.812763101887
 20
-148.0107760589174
 10
110.1300563960786
 20
-148.0107760589174
 10
110.3584662267506
 20
-147.9918280337486
 10
110.3584662267506
 20
-147.9918280337486
 10
110.3584662267506
 20
-148.2117973804817
 10
110.3584662267506
 20
-148.2117973804817
 10
110.170364013256
 20
-148.1969834698952
 10
109.9819172902128
 20
-148.1926771005386
 10
109.7934705671697
 20
-148.1926771005386
 97
        0
 97
        1
330
F5
 75
     2
 76
     1
 98
        1
 10
0.0
 20
0.0
450
        0
451
        0
460
0.0
461
0.0
452
        0
462
0.0
453
        0
470

  0
SPLINE
  5
F7
330
E7
100
AcDbEntity
  8
レイヤー 1
100
AcDbSpline
210
0.0
220
0.0
230
1.0
 70
     9
 71
     3
 72
    29
 73
    25
 74
     0
 42
0.0000000001
 43
0.0000000001
 40
0.0
 40
0.0
 40
0.0
 40
0.0
 40
1.0
 40
1.0
 40
1.0
 40
2.0
 40
2.0
 40
2.0
 40
3.0
 40
3.0
 40
3.0
 40
4.0
 40
4.0
 40
4.0
 40
5.0
 40
5.0
 40
5.0
 40
6.0
 40
6.0
 40
6.0
 40
7.0
 40
7.0
 40
7.0
 40
8.0
 40
8.0
 40
8.0
 40
8.0
 10
111.6393527281665
 20
-148.3556301169909
 30
0.0
 10
111.6393527281665
 20
-148.3556301169909
 30
0.0
 10
111.1549723029404
 20
-148.3556301169909
 30
0.0
 10
111.1549723029404
 20
-148.3556301169909
 30
0.0
 10
111.1274115390584
 20
-148.3556301169909
 30
0.0
 10
110.8101182448669
 20
-148.3556301169909
 30
0.0
 10
110.5985893820726
 20
-148.3809515688075
 30
0.0
 10
110.5985893820726
 20
-148.3809515688075
 30
0.0
 10
110.5985893820726
 20
-148.1504746808443
 30
0.0
 10
110.5985893820726
 20
-148.1504746808443
 30
0.0
 10
110.7574082839426
 20
-148.1737290753698
 30
0.0
 10
110.9475775547284
 20
-148.1757961326609
 30
0.0
 10
111.1549723029404
 20
-148.1757961326609
 30
0.0
 10
111.1549723029404
 20
-148.1757961326609
 30
0.0
 10
111.6393527281665
 20
-148.1757961326609
 30
0.0
 10
111.6393527281665
 20
-148.1757961326609
 30
0.0
 10
111.8257323939185
 20
-148.1757961326609
 30
0.0
 10
112.011767550122
 20
-148.1737290753698
 30
0.0
 10
112.1957356490344
 20
-148.1504746808443
 30
0.0
 10
112.1957356490344
 20
-148.1504746808443
 30
0.0
 10
112.1957356490344
 20
-148.3809515688075
 30
0.0
 10
112.1957356490344
 20
-148.3809515688075
 30
0.0
 10
112.011767550122
 20
-148.3576971742821
 30
0.0
 10
111.7644096942811
 20
-148.3556301169909
 30
0.0
 10
111.6393527281665
 20
-148.3556301169909
 30
0.0
  0
HATCH
  5
F8
330
E7
100
AcDbEntity
  8
レイヤー 1
 62
    18
420
        0
440
 33554687
100
AcDbHatch
 10
0.0
 20
0.0
 30
0.0
210
0.0
220
0.0
230
1.0
  2
SOLID
 70
     1
 71
     1
 91
        1
 92
        1
 93
        1
 72
     4
 94
        3
 73
     0
 74
     0
 95
       29
 96
       25
 40
0.0
 40
0.0
 40
0.0
 40
0.0
 40
1.0
 40
1.0
 40
1.0
 40
2.0
 40
2.0
 40
2.0
 40
3.0
 40
3.0
 40
3.0
 40
4.0
 40
4.0
 40
4.0
 40
5.0
 40
5.0
 40
5.0
 40
6.0
 40
6.0
 40
6.0
 40
7.0
 40
7.0
 40
7.0
 40
8.0
 40
8.0
 40
8.0
 40
8.0
 10
111.6393527281665
 20
-148.3556301169909
 10
111.6393527281665
 20
-148.3556301169909
 10
111.1549723029404
 20
-148.3556301169909
 10
111.1549723029404
 20
-148.3556301169909
 10
111.1274115390584
 20
-148.3556301169909
 10
110.8101182448669
 20
-148.3556301169909
 10
110.5985893820726
 20
-148.3809515688075
 10
110.5985893820726
 20
-148.3809515688075
 10
110.5985893820726
 20
-148.1504746808443
 10
110.5985893820726
 20
-148.1504746808443
 10
110.7574082839426
 20
-148.1737290753698
 10
110.9475775547284
 20
-148.1757961326609
 10
111.1549723029404
 20
-148.1757961326609
 10
111.1549723029404
 20
-148.1757961326609
 10
111.6393527281665
 20
-148.1757961326609
 10
111.6393527281665
 20
-148.1757961326609
 10
111.8257323939185
 20
-148.1757961326609
 10
112.011767550122
 20
-148.1737290753698
 10
112.1957356490344
 20
-148.1504746808443
 10
112.1957356490344
 20
-148.1504746808443
 10
112.1957356490344
 20
-148.3809515688075
 10
112.1957356490344
 20
-148.3809515688075
 10
112.011767550122
 20
-148.3576971742821
 10
111.7644096942811
 20
-148.3556301169909
 10
111.6393527281665
 20
-148.3556301169909
 97
        0
 97
        1
330
F7
 75
     2
 76
     1
 98
        1
 10
0.0
 20
0.0
450
        0
451
        0
460
0.0
461
0.0
452
        0
462
0.0
453
        0
470

  0
SPLINE
  5
F9
330
E7
100
AcDbEntity
  8
レイヤー 1
100
AcDbSpline
210
0.0
220
0.0
230
1.0
 70
     9
 71
     3
 72
    47
 73
    43
 74
     0
 42
0.0000000001
 43
0.0000000001
 40
0.0
 40
0.0
 40
0.0
 40
0.0
 40
1.0
 40
1.0
 40
1.0
 40
2.0
 40
2.0
 40
2.0
 40
3.0
 40
3.0
 40
3.0
 40
4.0
 40
4.0
 40
4.0
 40
5.0
 40
5.0
 40
5.0
 40
6.0
 40
6.0
 40
6.0
 40
7.0
 40
7.0
 40
7.0
 40
8.0
 40
8.0
 40
8.0
 40
9.0
 40
9.0
 40
9.0
 40
10.0
 40
10.0
 40
10.0
 40
11.0
 40
11.0
 40
11.0
 40
12.0
 40
12.0
 40
12.0
 40
13.0
 40
13.0
 40
13.0
 40
14.0
 40
14.0
 40
14.0
 40
14.0
 10
113.8597167684101
 20
-147.7611788910111
 30
0.0
 10
113.7897813300595
 20
-148.0404038800906
 30
0.0
 10
113.7136447198355
 20
-148.3451225757609
 30
0.0
 10
113.4004855402263
 20
-148.677229780539
 30
0.0
 10
113.163462970841
 20
-148.9269992032196
 30
0.0
 10
112.9181721722913
 20
-149.0262179531948
 30
0.0
 10
112.8124077408941
 20
-149.0685926276634
 30
0.0
 10
112.8124077408941
 20
-149.0685926276634
 30
0.0
 10
112.6177598459775
 20
-148.8866915860422
 30
0.0
 10
112.6177598459775
 20
-148.8866915860422
 30
0.0
 10
112.803795002181
 20
-148.8400105422171
 30
0.0
 10
113.1658745376807
 20
-148.7469929641153
 30
0.0
 10
113.4618082398637
 20
-148.2519327428849
 30
0.0
 10
113.6226941990249
 20
-147.9854546071009
 30
0.0
 10
113.6354410523203
 20
-147.8119940494185
 30
0.0
 10
113.6437092814849
 20
-147.7210435286079
 30
0.0
 10
113.6437092814849
 20
-147.7210435286079
 30
0.0
 10
113.1383137737987
 20
-147.7210435286079
 30
0.0
 10
113.1383137737987
 20
-147.7210435286079
 30
0.0
 10
113.0198024891061
 20
-147.7210435286079
 30
0.0
 10
112.5988118208086
 20
-147.7399915537768
 30
0.0
 10
112.4465386003606
 20
-147.7504990950068
 30
0.0
 10
112.4465386003606
 20
-147.7504990950068
 30
0.0
 10
112.4465386003606
 20
-147.5412095442779
 30
0.0
 10
112.4465386003606
 20
-147.5412095442779
 30
0.0
 10
112.5881320248043
 20
-147.553784142799
 30
0.0
 10
112.8654622113669
 20
-147.5580905121556
 30
0.0
 10
112.9815619292199
 20
-147.5580905121556
 30
0.0
 10
112.9815619292199
 20
-147.5580905121556
 30
0.0
 10
113.3370957832976
 20
-147.5580905121556
 30
0.0
 10
113.3370957832976
 20
-147.5580905121556
 30
0.0
 10
113.3646565471797
 20
-147.5580905121556
 30
0.0
 10
113.5251979967923
 20
-147.5560234548645
 30
0.0
 10
113.6354410523203
 20
-147.5412095442779
 30
0.0
 10
113.6926296373754
 20
-147.5348361176302
 30
0.0
 10
113.7095106052532
 20
-147.515715837687
 30
0.0
 10
113.7325927450043
 20
-147.4924614431616
 30
0.0
 10
113.7325927450043
 20
-147.4924614431616
 30
0.0
 10
113.9210394680475
 20
-147.6426676063185
 30
0.0
 10
113.9210394680475
 20
-147.6426676063185
 30
0.0
 10
113.9062255574609
 20
-147.6722954274916
 30
0.0
 10
113.8955457614567
 20
-147.6914157074348
 30
0.0
 10
113.8597167684101
 20
-147.7611788910111
 30
0.0
  0
HATCH
  5
FA
330
E7
100
AcDbEntity
  8
レイヤー 1
 62
    18
420
        0
440
 33554687
100
AcDbHatch
 10
0.0
 20
0.0
 30
0.0
210
0.0
220
0.0
230
1.0
  2
SOLID
 70
     1
 71
     1
 91
        1
 92
        1
 93
        1
 72
     4
 94
        3
 73
     0
 74
     0
 95
       47
 96
       43
 40
0.0
 40
0.0
 40
0.0
 40
0.0
 40
1.0
 40
1.0
 40
1.0
 40
2.0
 40
2.0
 40
2.0
 40
3.0
 40
3.0
 40
3.0
 40
4.0
 40
4.0
 40
4.0
 40
5.0
 40
5.0
 40
5.0
 40
6.0
 40
6.0
 40
6.0
 40
7.0
 40
7.0
 40
7.0
 40
8.0
 40
8.0
 40
8.0
 40
9.0
 40
9.0
 40
9.0
 40
10.0
 40
10.0
 40
10.0
 40
11.0
 40
11.0
 40
11.0
 40
12.0
 40
12.0
 40
12.0
 40
13.0
 40
13.0
 40
13.0
 40
14.0
 40
14.0
 40
14.0
 40
14.0
 10
113.8597167684101
 20
-147.7611788910111
 10
113.7897813300595
 20
-148.0404038800906
 10
113.7136447198355
 20
-148.3451225757609
 10
113.4004855402263
 20
-148.677229780539
 10
113.163462970841
 20
-148.9269992032196
 10
112.9181721722913
 20
-149.0262179531948
 10
112.8124077408941
 20
-149.0685926276634
 10
112.8124077408941
 20
-149.0685926276634
 10
112.6177598459775
 20
-148.8866915860422
 10
112.6177598459775
 20
-148.8866915860422
 10
112.803795002181
 20
-148.8400105422171
 10
113.1658745376807
 20
-148.7469929641153
 10
113.4618082398637
 20
-148.2519327428849
 10
113.6226941990249
 20
-147.9854546071009
 10
113.6354410523203
 20
-147.8119940494185
 10
113.6437092814849
 20
-147.7210435286079
 10
113.6437092814849
 20
-147.7210435286079
 10
113.1383137737987
 20
-147.7210435286079
 10
113.1383137737987
 20
-147.7210435286079
 10
113.0198024891061
 20
-147.7210435286079
 10
112.5988118208086
 20
-147.7399915537768
 10
112.4465386003606
 20
-147.7504990950068
 10
112.4465386003606
 20
-147.7504990950068
 10
112.4465386003606
 20
-147.5412095442779
 10
112.4465386003606
 20
-147.5412095442779
 10
112.5881320248043
 20
-147.553784142799
 10
112.8654622113669
 20
-147.5580905121556
 10
112.9815619292199
 20
-147.5580905121556
 10
112.9815619292199
 20
-147.5580905121556
 10
113.3370957832976
 20
-147.5580905121556
 10
113.3370957832976
 20
-147.5580905121556
 10
113.3646565471797
 20
-147.5580905121556
 10
113.5251979967923
 20
-147.5560234548645
 10
113.6354410523203
 20
-147.5412095442779
 10
113.6926296373754
 20
-147.5348361176302
 10
113.7095106052532
 20
-147.515715837687
 10
113.7325927450043
 20
-147.4924614431616
 10
113.7325927450043
 20
-147.4924614431616
 10
113.9210394680475
 20
-147.6426676063185
 10
113.9210394680475
 20
-147.6426676063185
 10
113.9062255574609
 20
-147.6722954274916
 10
113.8955457614567
 20
-147.6914157074348
 10
113.8597167684101
 20
-147.7611788910111
 97
        0
 97
        1
330
F9
 75
     2
 76
     1
 98
        1
 10
0.0
 20
0.0
450
        0
451
        0
460
0.0
461
0.0
452
        0
462
0.0
453
        0
470

  0
SPLINE
  5
FB
330
E7
100
AcDbEntity
  8
レイヤー 1
100
AcDbSpline
210
0.0
220
0.0
230
1.0
 70
    11
 71
     3
 72
    17
 73
    13
 74
     0
 42
0.0000000001
 43
0.0000000001
 40
0.0
 40
0.0
 40
0.0
 40
0.0
 40
1.0
 40
1.0
 40
1.0
 40
2.0
 40
2.0
 40
2.0
 40
3.0
 40
3.0
 40
3.0
 40
4.0
 40
4.0
 40
4.0
 40
4.0
 10
114.2500460868889
 20
-147.543276601569
 30
0.0
 10
114.2500460868889
 20
-147.6025322439153
 30
0.0
 10
114.2965548759397
 20
-147.6490410329662
 30
0.0
 10
114.355810518286
 20
-147.6490410329662
 30
0.0
 10
114.4150661606323
 20
-147.6490410329662
 30
0.0
 10
114.4636420069743
 20
-147.6025322439153
 30
0.0
 10
114.4636420069743
 20
-147.543276601569
 30
0.0
 10
114.4636420069743
 20
-147.4840209592227
 30
0.0
 10
114.4150661606323
 20
-147.4354451128807
 30
0.0
 10
114.355810518286
 20
-147.4354451128807
 30
0.0
 10
114.2965548759397
 20
-147.4354451128807
 30
0.0
 10
114.2500460868889
 20
-147.4840209592227
 30
0.0
 10
114.2500460868889
 20
-147.543276601569
 30
0.0
  0
SPLINE
  5
FC
330
E7
100
AcDbEntity
  8
レイヤー 1
100
AcDbSpline
210
0.0
220
0.0
230
1.0
 70
     9
 71
     3
 72
    17
 73
    13
 74
     0
 42
0.0000000001
 43
0.0000000001
 40
0.0
 40
0.0
 40
0.0
 40
0.0
 40
1.0
 40
1.0
 40
1.0
 40
2.0
 40
2.0
 40
2.0
 40
3.0
 40
3.0
 40
3.0
 40
4.0
 40
4.0
 40
4.0
 40
4.0
 10
114.5649278142407
 20
-147.543276601569
 30
0.0
 10
114.5649278142407
 20
-147.657481516905
 30
0.0
 10
114.4719102361389
 20
-147.7527384070722
 30
0.0
 10
114.355810518286
 20
-147.7527384070722
 30
0.0
 10
114.2414333481757
 20
-147.7527384070722
 30
0.0
 10
114.1463487127828
 20
-147.657481516905
 30
0.0
 10
114.1463487127828
 20
-147.543276601569
 30
0.0
 10
114.1463487127828
 20
-147.4268323741676
 30
0.0
 10
114.2414333481757
 20
-147.3338147960658
 30
0.0
 10
114.355810518286
 20
-147.3338147960658
 30
0.0
 10
114.4698431788478
 20
-147.3338147960658
 30
0.0
 10
114.5649278142407
 20
-147.4268323741676
 30
0.0
 10
114.5649278142407
 20
-147.543276601569
 30
0.0
  0
HATCH
  5
FD
330
E7
100
AcDbEntity
  8
レイヤー 1
 62
    18
420
        0
440
 33554687
100
AcDbHatch
 10
0.0
 20
0.0
 30
0.0
210
0.0
220
0.0
230
1.0
  2
SOLID
 70
     1
 71
     1
 91
        2
 92
        1
 93
        1
 72
     4
 94
        3
 73
     0
 74
     0
 95
       17
 96
       13
 40
0.0
 40
0.0
 40
0.0
 40
0.0
 40
1.0
 40
1.0
 40
1.0
 40
2.0
 40
2.0
 40
2.0
 40
3.0
 40
3.0
 40
3.0
 40
4.0
 40
4.0
 40
4.0
 40
4.0
 10
114.2500460868889
 20
-147.543276601569
 10
114.2500460868889
 20
-147.6025322439153
 10
114.2965548759397
 20
-147.6490410329662
 10
114.355810518286
 20
-147.6490410329662
 10
114.4150661606323
 20
-147.6490410329662
 10
114.4636420069743
 20
-147.6025322439153
 10
114.4636420069743
 20
-147.543276601569
 10
114.4636420069743
 20
-147.4840209592227
 10
114.4150661606323
 20
-147.4354451128807
 10
114.355810518286
 20
-147.4354451128807
 10
114.2965548759397
 20
-147.4354451128807
 10
114.2500460868889
 20
-147.4840209592227
 10
114.2500460868889
 20
-147.543276601569
 97
        0
 97
        1
330
FB
 92
        1
 93
        1
 72
     4
 94
        3
 73
     0
 74
     0
 95
       17
 96
       13
 40
0.0
 40
0.0
 40
0.0
 40
0.0
 40
1.0
 40
1.0
 40
1.0
 40
2.0
 40
2.0
 40
2.0
 40
3.0
 40
3.0
 40
3.0
 40
4.0
 40
4.0
 40
4.0
 40
4.0
 10
114.5649278142407
 20
-147.543276601569
 10
114.5649278142407
 20
-147.657481516905
 10
114.4719102361389
 20
-147.7527384070722
 10
114.355810518286
 20
-147.7527384070722
 10
114.2414333481757
 20
-147.7527384070722
 10
114.1463487127828
 20
-147.657481516905
 10
114.1463487127828
 20
-147.543276601569
 10
114.1463487127828
 20
-147.4268323741676
 10
114.2414333481757
 20
-147.3338147960658
 10
114.355810518286
 20
-147.3338147960658
 10
114.4698431788478
 20
-147.3338147960658
 10
114.5649278142407
 20
-147.4268323741676
 10
114.5649278142407
 20
-147.543276601569
 97
        0
 97
        1
330
FC
 75
     2
 76
     1
 98
        1
 10
0.0
 20
0.0
450
        0
451
        0
460
0.0
461
0.0
452
        0
462
0.0
453
        0
470

  0
ENDBLK
  5
EA
330
E7
100
AcDbEntity
  8
0
100
AcDbBlockEnd
  0
ENDSEC
  0
SECTION
  2
ENTITIES
  0
INSERT
  5
7A
330
70
100
AcDbEntity
  8
レイヤー 1
100
AcDbBlockReference
  2
Block_0
 10
0.0
 20
0.0
 30
0.0
  0
LINE
  5
DA
330
70
100
AcDbEntity
  8
レイヤー 1
  6
AI-Linetype-0
 62
   154
420
    23468
370
    25
100
AcDbLine
 10
104.7394433473273
 20
-151.4198111135542
 30
0.0
 11
114.7852977231376
 21
-151.4198111135542
 31
0.0
  0
INSERT
  5
DD
330
70
100
AcDbEntity
  8
レイヤー 1
100
AcDbBlockReference
  2
Block_10
 10
0.0
 20
0.0
 30
0.0
  0
INSERT
  5
E4
330
70
100
AcDbEntity
  8
レイヤー 1
100
AcDbBlockReference
  2
Block_11
 10
0.0
 20
0.0
 30
0.0
  0
ENDSEC
  0
SECTION
  2
OBJECTS
  0
DICTIONARY
  5
C
330
0
100
AcDbDictionary
281
     1
  3
ACAD_COLOR
350
63
  3
ACAD_DETAILVIEWSTYLE
350
6A
  3
ACAD_GROUP
350
D
  3
ACAD_LAYOUT
350
62
  3
ACAD_MATERIAL
350
10
  3
ACAD_MLEADERSTYLE
350
66
  3
ACAD_MLINESTYLE
350
5F
  3
ACAD_PLOTSETTINGS
350
61
  3
ACAD_PLOTSTYLENAME
350
E
  3
ACAD_SCALELIST
350
42
  3
ACAD_SECTIONVIEWSTYLE
350
68
  3
ACAD_TABLESTYLE
350
64
  3
ACAD_VISUALSTYLE
350
29
  3
ACDB_RECOMPOSE_DATA
350
106
  3
AcDbVariableDictionary
350
FE
  0
DICTIONARY
  5
63
102
{ACAD_REACTORS
330
C
102
}
330
C
100
AcDbDictionary
281
     1
  0
DICTIONARY
  5
6A
102
{ACAD_REACTORS
330
C
102
}
330
C
100
AcDbDictionary
281
     1
  3
Imperial24
350
6B
  0
DICTIONARY
  5
D
102
{ACAD_REACTORS
330
C
102
}
330
C
100
AcDbDictionary
281
     1
  0
DICTIONARY
  5
62
102
{ACAD_REACTORS
330
C
102
}
330
C
100
AcDbDictionary
281
     1
  3
Layout1
350
6F
  3
Layout2
350
77
  3
Model
350
73
  0
DICTIONARY
  5
10
102
{ACAD_REACTORS
330
C
102
}
330
C
100
AcDbDictionary
281
     1
  3
ByBlock
350
19
  3
ByLayer
350
11
  3
Global
350
21
  0
DICTIONARY
  5
66
102
{ACAD_REACTORS
330
C
102
}
330
C
100
AcDbDictionary
281
     1
  3
Standard
350
67
  0
DICTIONARY
  5
5F
102
{ACAD_REACTORS
330
C
102
}
330
C
100
AcDbDictionary
281
     1
  3
Standard
350
60
  0
DICTIONARY
  5
61
102
{ACAD_REACTORS
330
C
102
}
330
C
100
AcDbDictionary
281
     1
  0
ACDBDICTIONARYWDFLT
  5
E
102
{ACAD_REACTORS
330
C
102
}
330
C
100
AcDbDictionary
281
     1
  3
Normal
350
F
100
AcDbDictionaryWithDefault
340
F
  0
DICTIONARY
  5
42
102
{ACAD_REACTORS
330
C
102
}
330
C
100
AcDbDictionary
281
     1
  3
A0
350
43
  3
A1
350
44
  3
A2
350
45
  3
A3
350
46
  3
A4
350
47
  3
A5
350
48
  3
A6
350
49
  3
A7
350
4A
  3
A8
350
4B
  3
A9
350
4C
  3
B0
350
4D
  3
B1
350
4E
  3
B2
350
4F
  3
B3
350
50
  3
B4
350
51
  3
B5
350
52
  3
B6
350
53
  0
DICTIONARY
  5
68
102
{ACAD_REACTORS
330
C
102
}
330
C
100
AcDbDictionary
281
     1
  3
Imperial24
350
69
  0
DICTIONARY
  5
64
102
{ACAD_REACTORS
330
C
102
}
330
C
100
AcDbDictionary
281
     1
  3
Standard
350
65
  0
DICTIONARY
  5
29
102
{ACAD_REACTORS
330
C
102
}
330
C
100
AcDbDictionary
281
     1
  3
2dWireframe
350
2F
  3
Basic
350
2E
  3
Brighten
350
35
  3
ColorChange
350
39
  3
Conceptual
350
32
  3
Dim
350
34
  3
EdgeColorOff
350
41
  3
Facepattern
350
38
  3
Flat
350
2A
  3
FlatWithEdges
350
2B
  3
Gouraud
350
2C
  3
GouraudWithEdges
350
2D
  3
Hidden
350
31
  3
JitterOff
350
3F
  3
Linepattern
350
37
  3
OverhangOff
350
40
  3
Realistic
350
33
  3
Shaded
350
3E
  3
Shaded with edges
350
3D
  3
Shades of Gray
350
3A
  3
Sketchy
350
3B
  3
Thicken
350
36
  3
Wireframe
350
30
  3
X-Ray
350
3C
  0
XRECORD
  5
106
102
{ACAD_REACTORS
330
C
102
}
330
C
100
AcDbXrecord
280
     1
 90
        1
330
65
  0
DICTIONARY
  5
FE
102
{ACAD_REACTORS
330
C
102
}
330
C
100
AcDbDictionary
281
     1
  3
CANNOSCALE
350
103
  3
CMLEADERSTYLE
350
100
  3
CTABLESTYLE
350
FF
  3
CVIEWDETAILSTYLE
350
101
  3
CVIEWSECTIONSTYLE
350
102
  0
ACDBDETAILVIEWSTYLE
  5
6B
102
{ACAD_XDICTIONARY
360
13B
102
}
102
{ACAD_REACTORS
330
6A
102
}
330
6A
100
AcDbModelDocViewStyle
 70
     0
  3
Imperial24
290
     0
100
AcDbDetailViewStyle
 70
     0
 71
     0
 90
        3
 71
     1
340
55
 62
   256
 40
0.24
340
0
 62
   256
 40
0.24
300

 40
0.36
280
     3
 71
     2
340
5D
 90
       25
 62
   256
 71
     3
340
55
 62
   256
 40
0.24
 90
        1
 40
0.75
 90
        1
300
%<\AcVar ViewType \f "%tc1">% %<\AcVar ViewDetailId>%\PSCALE %<\AcVar ViewScale \f "%sn">%
 71
     4
340
5D
 90
       25
 62
   256
340
5D
 90
       25
 62
   256
280
     0
  0
LAYOUT
  5
6F
102
{ACAD_REACTORS
330
62
102
}
330
62
100
AcDbPlotSettings
  1

  2

  4

  6

 40
0.0
 41
0.0
 42
0.0
 43
0.0
 44
0.0
 45
0.0
 46
0.0
 47
0.0
 48
0.0
 49
0.0
140
0.0
141
0.0
142
1.0
143
1.0
 70
   688
 72
     0
 73
     0
 74
     5
  7

 75
    16
147
1.0
 76
     0
 77
     2
 78
   300
148
0.0
149
0.0
100
AcDbLayout
  1
Layout1
 70
     1
 71
     1
 10
0.0
 20
0.0
 11
12.0
 21
9.0
 12
0.0
 22
0.0
 32
0.0
 14
0.0
 24
0.0
 34
0.0
 15
0.0
 25
0.0
 35
0.0
146
0.0
 13
0.0
 23
0.0
 33
0.0
 16
1.0
 26
0.0
 36
0.0
 17
0.0
 27
1.0
 37
0.0
 76
     0
330
6C
  0
LAYOUT
  5
77
102
{ACAD_REACTORS
330
62
102
}
330
62
100
AcDbPlotSettings
  1

  2

  4

  6

 40
0.0
 41
0.0
 42
0.0
 43
0.0
 44
0.0
 45
0.0
 46
0.0
 47
0.0
 48
0.0
 49
0.0
140
0.0
141
0.0
142
1.0
143
1.0
 70
   688
 72
     0
 73
     0
 74
     5
  7

 75
    16
147
1.0
 76
     0
 77
     2
 78
   300
148
0.0
149
0.0
100
AcDbLayout
  1
Layout2
 70
     1
 71
     2
 10
0.0
 20
0.0
 11
12.0
 21
9.0
 12
0.0
 22
0.0
 32
0.0
 14
0.0
 24
0.0
 34
0.0
 15
0.0
 25
0.0
 35
0.0
146
0.0
 13
0.0
 23
0.0
 33
0.0
 16
1.0
 26
0.0
 36
0.0
 17
0.0
 27
1.0
 37
0.0
 76
     0
330
74
  0
LAYOUT
  5
73
102
{ACAD_REACTORS
330
62
102
}
330
62
100
AcDbPlotSettings
  1

  2

  4

  6

 40
0.0
 41
0.0
 42
0.0
 43
0.0
 44
0.0
 45
0.0
 46
0.0
 47
0.0
 48
0.0
 49
0.0
140
0.0
141
0.0
142
1.0
143
1.0
 70
  1712
 72
     0
 73
     0
 74
     0
  7

 75
     0
147
1.0
 76
     0
 77
     2
 78
   300
148
0.0
149
0.0
100
AcDbLayout
  1
Model
 70
     1
 71
     0
 10
0.0
 20
0.0
 11
12.0
 21
9.0
 12
0.0
 22
0.0
 32
0.0
 14
0.0
 24
0.0
 34
0.0
 15
0.0
 25
0.0
 35
0.0
146
0.0
 13
0.0
 23
0.0
 33
0.0
 16
1.0
 26
0.0
 36
0.0
 17
0.0
 27
1.0
 37
0.0
 76
     0
330
70
  0
MATERIAL
  5
19
102
{ACAD_XDICTIONARY
360
1A
102
}
102
{ACAD_REACTORS
330
10
102
}
330
10
100
AcDbMaterial
  1
ByBlock
 72
     0
 43
0.0208333333333333
 43
0.0
 43
0.0
 43
0.0
 43
0.0
 43
0.0208333333333333
 43
0.0
 43
0.0
 43
0.0
 43
0.0
 43
1.0
 43
0.0
 43
0.0
 43
0.0
 43
0.0
 43
1.0
 77
     0
 47
0.0208333333333333
 47
0.0
 47
0.0
 47
0.0
 47
0.0
 47
0.0208333333333333
 47
0.0
 47
0.0
 47
0.0
 47
0.0
 47
1.0
 47
0.0
 47
0.0
 47
0.0
 47
0.0
 47
1.0
171
     0
 49
0.0208333333333333
 49
0.0
 49
0.0
 49
0.0
 49
0.0
 49
0.0208333333333333
 49
0.0
 49
0.0
 49
0.0
 49
0.0
 49
1.0
 49
0.0
 49
0.0
 49
0.0
 49
0.0
 49
1.0
175
     0
142
0.0208333333333333
142
0.0
142
0.0
142
0.0
142
0.0
142
0.0208333333333333
142
0.0
142
0.0
142
0.0
142
0.0
142
1.0
142
0.0
142
0.0
142
0.0
142
0.0
142
1.0
179
     0
144
0.0208333333333333
144
0.0
144
0.0
144
0.0
144
0.0
144
0.0208333333333333
144
0.0
144
0.0
144
0.0
144
0.0
144
1.0
144
0.0
144
0.0
144
0.0
144
0.0
144
1.0
147
0.0208333333333333
147
0.0
147
0.0
147
0.0
147
0.0
147
0.0208333333333333
147
0.0
147
0.0
147
0.0
147
0.0
147
1.0
147
0.0
147
0.0
147
0.0
147
0.0
147
1.0
  0
MATERIAL
  5
11
102
{ACAD_XDICTIONARY
360
12
102
}
102
{ACAD_REACTORS
330
10
102
}
330
10
100
AcDbMaterial
  1
ByLayer
 72
     0
 43
0.0208333333333333
 43
0.0
 43
0.0
 43
0.0
 43
0.0
 43
0.0208333333333333
 43
0.0
 43
0.0
 43
0.0
 43
0.0
 43
1.0
 43
0.0
 43
0.0
 43
0.0
 43
0.0
 43
1.0
 77
     0
 47
0.0208333333333333
 47
0.0
 47
0.0
 47
0.0
 47
0.0
 47
0.0208333333333333
 47
0.0
 47
0.0
 47
0.0
 47
0.0
 47
1.0
 47
0.0
 47
0.0
 47
0.0
 47
0.0
 47
1.0
171
     0
 49
0.0208333333333333
 49
0.0
 49
0.0
 49
0.0
 49
0.0
 49
0.0208333333333333
 49
0.0
 49
0.0
 49
0.0
 49
0.0
 49
1.0
 49
0.0
 49
0.0
 49
0.0
 49
0.0
 49
1.0
175
     0
142
0.0208333333333333
142
0.0
142
0.0
142
0.0
142
0.0
142
0.0208333333333333
142
0.0
142
0.0
142
0.0
142
0.0
142
1.0
142
0.0
142
0.0
142
0.0
142
0.0
142
1.0
179
     0
144
0.0208333333333333
144
0.0
144
0.0
144
0.0
144
0.0
144
0.0208333333333333
144
0.0
144
0.0
144
0.0
144
0.0
144
1.0
144
0.0
144
0.0
144
0.0
144
0.0
144
1.0
147
0.0208333333333333
147
0.0
147
0.0
147
0.0
147
0.0
147
0.0208333333333333
147
0.0
147
0.0
147
0.0
147
0.0
147
1.0
147
0.0
147
0.0
147
0.0
147
0.0
147
1.0
  0
MATERIAL
  5
21
102
{ACAD_XDICTIONARY
360
22
102
}
102
{ACAD_REACTORS
330
10
102
}
330
10
100
AcDbMaterial
  1
Global
 72
     0
 43
0.0208333333333333
 43
0.0
 43
0.0
 43
0.0
 43
0.0
 43
0.0208333333333333
 43
0.0
 43
0.0
 43
0.0
 43
0.0
 43
1.0
 43
0.0
 43
0.0
 43
0.0
 43
0.0
 43
1.0
 77
     0
 47
0.0208333333333333
 47
0.0
 47
0.0
 47
0.0
 47
0.0
 47
0.0208333333333333
 47
0.0
 47
0.0
 47
0.0
 47
0.0
 47
1.0
 47
0.0
 47
0.0
 47
0.0
 47
0.0
 47
1.0
171
     0
 49
0.0208333333333333
 49
0.0
 49
0.0
 49
0.0
 49
0.0
 49
0.0208333333333333
 49
0.0
 49
0.0
 49
0.0
 49
0.0
 49
1.0
 49
0.0
 49
0.0
 49
0.0
 49
0.0
 49
1.0
175
     0
142
0.0208333333333333
142
0.0
142
0.0
142
0.0
142
0.0
142
0.0208333333333333
142
0.0
142
0.0
142
0.0
142
0.0
142
1.0
142
0.0
142
0.0
142
0.0
142
0.0
142
1.0
179
     0
144
0.0208333333333333
144
0.0
144
0.0
144
0.0
144
0.0
144
0.0208333333333333
144
0.0
144
0.0
144
0.0
144
0.0
144
1.0
144
0.0
144
0.0
144
0.0
144
0.0
144
1.0
147
0.0208333333333333
147
0.0
147
0.0
147
0.0
147
0.0
147
0.0208333333333333
147
0.0
147
0.0
147
0.0
147
0.0
147
1.0
147
0.0
147
0.0
147
0.0
147
0.0
147
1.0
  0
MLEADERSTYLE
  5
67
102
{ACAD_XDICTIONARY
360
137
102
}
102
{ACAD_REACTORS
330
66
102
}
330
66
100
AcDbMLeaderStyle
179
     2
170
     2
171
     1
172
     0
 90
        2
 40
0.0
 41
0.0
173
     1
 91
-1056964608
340
5B
 92
       -2
290
     1
 42
0.09
291
     1
 43
0.36
  3
Standard
 44
0.18
300

342
55
174
     1
178
     6
175
     1
176
     0
 93
-1056964608
 45
0.18
292
     0
297
     0
 46
0.18
 94
-1056964608
 47
1.0
 49
1.0
140
1.0
293
     1
141
0.0
294
     1
177
     0
142
1.0
295
     0
296
     0
143
0.125
271
     0
272
     9
273
     9
  0
MLINESTYLE
  5
60
102
{ACAD_REACTORS
330
5F
102
}
330
5F
100
AcDbMlineStyle
  2
STANDARD
 70
     0
  3

 62
   256
 51
90.0
 52
90.0
 71
     2
 49
0.5
 62
   256
  6
BYLAYER
 49
-0.5
 62
   256
  6
BYLAYER
  0
ACDBPLACEHOLDER
  5
F
102
{ACAD_REACTORS
330
E
102
}
330
E
  0
SCALE
  5
43
102
{ACAD_REACTORS
330
42
102
}
330
42
100
AcDbScale
 70
     0
300
1:1
140
1.0
141
1.0
290
     1
  0
SCALE
  5
44
102
{ACAD_REACTORS
330
42
102
}
330
42
100
AcDbScale
 70
     0
300
1/128" = 1'-0"
140
0.0078125
141
12.0
290
     0
  0
SCALE
  5
45
102
{ACAD_REACTORS
330
42
102
}
330
42
100
AcDbScale
 70
     0
300
1/64" = 1'-0"
140
0.015625
141
12.0
290
     0
  0
SCALE
  5
46
102
{ACAD_REACTORS
330
42
102
}
330
42
100
AcDbScale
 70
     0
300
1/32" = 1'-0"
140
0.03125
141
12.0
290
     0
  0
SCALE
  5
47
102
{ACAD_REACTORS
330
42
102
}
330
42
100
AcDbScale
 70
     0
300
1/16" = 1'-0"
140
0.0625
141
12.0
290
     0
  0
SCALE
  5
48
102
{ACAD_REACTORS
330
42
102
}
330
42
100
AcDbScale
 70
     0
300
3/32" = 1'-0"
140
0.09375
141
12.0
290
     0
  0
SCALE
  5
49
102
{ACAD_REACTORS
330
42
102
}
330
42
100
AcDbScale
 70
     0
300
1/8" = 1'-0"
140
0.125
141
12.0
290
     0
  0
SCALE
  5
4A
102
{ACAD_REACTORS
330
42
102
}
330
42
100
AcDbScale
 70
     0
300
3/16" = 1'-0"
140
0.1875
141
12.0
290
     0
  0
SCALE
  5
4B
102
{ACAD_REACTORS
330
42
102
}
330
42
100
AcDbScale
 70
     0
300
1/4" = 1'-0"
140
0.25
141
12.0
290
     0
  0
SCALE
  5
4C
102
{ACAD_REACTORS
330
42
102
}
330
42
100
AcDbScale
 70
     0
300
3/8" = 1'-0"
140
0.375
141
12.0
290
     0
  0
SCALE
  5
4D
102
{ACAD_REACTORS
330
42
102
}
330
42
100
AcDbScale
 70
     0
300
1/2" = 1'-0"
140
0.5
141
12.0
290
     0
  0
SCALE
  5
4E
102
{ACAD_REACTORS
330
42
102
}
330
42
100
AcDbScale
 70
     0
300
3/4" = 1'-0"
140
0.75
141
12.0
290
     0
  0
SCALE
  5
4F
102
{ACAD_REACTORS
330
42
102
}
330
42
100
AcDbScale
 70
     0
300
1" = 1'-0"
140
1.0
141
12.0
290
     0
  0
SCALE
  5
50
102
{ACAD_REACTORS
330
42
102
}
330
42
100
AcDbScale
 70
     0
300
1-1/2" = 1'-0"
140
1.5
141
12.0
290
     0
  0
SCALE
  5
51
102
{ACAD_REACTORS
330
42
102
}
330
42
100
AcDbScale
 70
     0
300
3" = 1'-0"
140
3.0
141
12.0
290
     0
  0
SCALE
  5
52
102
{ACAD_REACTORS
330
42
102
}
330
42
100
AcDbScale
 70
     0
300
6" = 1'-0"
140
6.0
141
12.0
290
     0
  0
SCALE
  5
53
102
{ACAD_REACTORS
330
42
102
}
330
42
100
AcDbScale
 70
     0
300
1'-0" = 1'-0"
140
12.0
141
12.0
290
     0
  0
ACDBSECTIONVIEWSTYLE
  5
69
102
{ACAD_XDICTIONARY
360
139
102
}
102
{ACAD_REACTORS
330
68
102
}
330
68
100
AcDbModelDocViewStyle
 70
     0
  3
Imperial24
290
     0
100
AcDbSectionViewStyle
 70
     0
 71
     0
 90
       78
 71
     1
340
55
 62
   256
 40
0.24
340
0
340
0
 62
   256
 40
0.24
300
I, O, Q, S, X, Z
 40
0.48
 90
        3
 40
0.18
 90
        1
 71
     2
340
5D
 90
       25
 62
   256
340
5D
 90
       50
 62
   256
 40
0.24
 40
0.0
 40
0.24
 71
     3
340
55
 62
   256
 40
0.24
 90
        1
 40
0.75
 90
        1
300
%<\AcVar ViewType \f "%tc1">% %<\AcVar ViewSectionStartId>%-%<\AcVar ViewSectionEndId>%\PSCALE %<\AcVar ViewScale \f "%sn">%
 71
     4
 62
   256
 62
   257
300
ANSI31
 40
1.0
 90
        0
290
     0
290
     0
 90
        6
 40
0.0
 40
1.570796326794896
 40
0.2617993877991494
 40
1.308996938995747
 40
-0.2617993877991494
 40
1.832595714594046
  0
TABLESTYLE
  5
65
102
{ACAD_XDICTIONARY
360
104
102
}
102
{ACAD_REACTORS
330
64
102
}
330
64
100
AcDbTableStyle
280
     0
  3
Standard
 70
     0
 71
     0
 40
0.06
 41
0.06
280
     0
281
     0
  7
Standard
140
0.18
170
     2
 62
     0
 63
     7
283
     0
 90
      512
 91
        0
  1

274
    -2
284
     1
 64
     0
275
    -2
285
     1
 65
     0
276
    -2
286
     1
 66
     0
277
    -2
287
     1
 67
     0
278
    -2
288
     1
 68
     0
279
    -2
289
     1
 69
     0
  7
Standard
140
0.25
170
     5
 62
     0
 63
     7
283
     0
 90
      512
 91
        0
  1

274
    -2
284
     1
 64
     0
275
    -2
285
     1
 65
     0
276
    -2
286
     1
 66
     0
277
    -2
287
     1
 67
     0
278
    -2
288
     1
 68
     0
279
    -2
289
     1
 69
     0
  7
Standard
140
0.18
170
     5
 62
     0
 63
     7
283
     0
 90
      512
 91
        0
  1

274
    -2
284
     1
 64
     0
275
    -2
285
     1
 65
     0
276
    -2
286
     1
 66
     0
277
    -2
287
     1
 67
     0
278
    -2
288
     1
 68
     0
279
    -2
289
     1
 69
     0
  0
VISUALSTYLE
  5
2F
102
{ACAD_XDICTIONARY
360
111
102
}
102
{ACAD_REACTORS
330
29
102
}
330
29
100
AcDbVisualStyle
  2
2dWireframe
 70
     4
177
     2
291
     0
 71
     0
176
     1
 72
     2
176
     1
 73
     0
176
     1
 90
        0
176
     1
 40
0.6
176
     1
 41
30.0
176
     1
 63
     7
421
 16777215
176
     1
 74
     1
176
     1
 91
        4
176
     1
 64
     7
176
     1
 65
   257
176
     1
 75
     1
176
     1
175
     1
176
     1
 42
1.0
176
     1
 92
        0
176
     1
 66
   257
176
     1
 43
1.0
176
     1
 76
     1
176
     1
 77
     6
176
     1
 78
     2
176
     1
 67
     7
176
     1
 79
     5
176
     1
170
     0
176
     1
171
     0
176
     1
290
     0
176
     1
 93
        1
176
     1
 44
0.0
176
     1
173
     0
176
     1
1001
ACAD
1000
AcDbSavedByObjectVersion
1070
     0
  0
VISUALSTYLE
  5
2E
102
{ACAD_XDICTIONARY
360
10F
102
}
102
{ACAD_REACTORS
330
29
102
}
330
29
100
AcDbVisualStyle
  2
Basic
 70
     7
177
     2
291
     1
 71
     1
176
     1
 72
     0
176
     1
 73
     1
176
     1
 90
        0
176
     1
 40
0.6
176
     1
 41
30.0
176
     1
 63
     7
421
 16777215
176
     1
 74
     0
176
     1
 91
        4
176
     1
 64
     7
176
     1
 65
   257
176
     1
 75
     1
176
     1
175
     1
176
     1
 42
1.0
176
     1
 92
        8
176
     1
 66
     7
176
     1
 43
1.0
176
     1
 76
     1
176
     1
 77
     6
176
     1
 78
     2
176
     1
 67
     7
176
     1
 79
     5
176
     1
170
     0
176
     1
171
     0
176
     1
290
     0
176
     1
 93
        1
176
     1
 44
0.0
176
     1
173
     0
176
     1
1001
ACAD
1000
AcDbSavedByObjectVersion
1070
     0
  0
VISUALSTYLE
  5
35
102
{ACAD_XDICTIONARY
360
11D
102
}
102
{ACAD_REACTORS
330
29
102
}
330
29
100
AcDbVisualStyle
  2
Brighten
 70
    12
177
     2
291
     1
 71
     2
176
     1
 72
     2
176
     1
 73
     0
176
     1
 90
        0
176
     1
 40
0.6
176
     1
 41
30.0
176
     1
 63
     7
421
 16777215
176
     1
 74
     1
176
     1
 91
        4
176
     1
 64
     7
176
     1
 65
   257
176
     1
 75
     1
176
     1
175
     1
176
     1
 42
1.0
176
     1
 92
        8
176
     1
 66
     7
176
     1
 43
1.0
176
     1
 76
     1
176
     1
 77
     6
176
     1
 78
     2
176
     1
 67
     7
176
     1
 79
     5
176
     1
170
     0
176
     1
171
     0
176
     1
290
     0
176
     1
 93
        1
176
     1
 44
50.0
176
     1
173
     0
176
     1
1001
ACAD
1000
AcDbSavedByObjectVersion
1070
     0
  0
VISUALSTYLE
  5
39
102
{ACAD_XDICTIONARY
360
125
102
}
102
{ACAD_REACTORS
330
29
102
}
330
29
100
AcDbVisualStyle
  2
ColorChange
 70
    16
177
     2
291
     1
 71
     2
176
     1
 72
     2
176
     1
 73
     3
176
     1
 90
        0
176
     1
 40
0.6
176
     1
 41
30.0
176
     1
 63
     8
421
  8421504
176
     1
 74
     1
176
     1
 91
        4
176
     1
 64
     7
176
     1
 65
   257
176
     1
 75
     1
176
     1
175
     1
176
     1
 42
1.0
176
     1
 92
        8
176
     1
 66
     8
424
  8421504
176
     1
 43
1.0
176
     1
 76
     1
176
     1
 77
     6
176
     1
 78
     2
176
     1
 67
     7
176
     1
 79
     5
176
     1
170
     0
176
     1
171
     0
176
     1
290
     0
176
     1
 93
        1
176
     1
 44
0.0
176
     1
173
     0
176
     1
1001
ACAD
1000
AcDbSavedByObjectVersion
1070
     0
  0
VISUALSTYLE
  5
32
102
{ACAD_XDICTIONARY
360
117
102
}
102
{ACAD_REACTORS
330
29
102
}
330
29
100
AcDbVisualStyle
  2
Conceptual
 70
     9
177
     2
291
     0
 71
     3
176
     1
 72
     2
176
     1
 73
     0
176
     1
 90
        0
176
     1
 40
0.6
176
     1
 41
30.0
176
     1
 63
     7
421
 16777215
176
     1
 74
     2
176
     1
 91
        2
176
     1
 64
     7
176
     1
 65
   257
176
     1
 75
     1
176
     1
175
     1
176
     1
 42
179.0
176
     1
 92
        8
176
     1
 66
     7
176
     1
 43
1.0
176
     1
 76
     1
176
     1
 77
     6
176
     1
 78
     2
176
     1
 67
     7
176
     1
 79
     3
176
     1
170
     0
176
     1
171
     0
176
     1
290
     0
176
     1
 93
        1
176
     1
 44
0.0
176
     1
173
     0
176
     1
1001
ACAD
1000
AcDbSavedByObjectVersion
1070
     0
  0
VISUALSTYLE
  5
34
102
{ACAD_XDICTIONARY
360
11B
102
}
102
{ACAD_REACTORS
330
29
102
}
330
29
100
AcDbVisualStyle
  2
Dim
 70
    11
177
     2
291
     1
 71
     2
176
     1
 72
     2
176
     1
 73
     0
176
     1
 90
        0
176
     1
 40
0.6
176
     1
 41
30.0
176
     1
 63
     7
421
 16777215
176
     1
 74
     1
176
     1
 91
        4
176
     1
 64
     7
176
     1
 65
   257
176
     1
 75
     1
176
     1
175
     1
176
     1
 42
1.0
176
     1
 92
        8
176
     1
 66
     7
176
     1
 43
1.0
176
     1
 76
     1
176
     1
 77
     6
176
     1
 78
     2
176
     1
 67
     7
176
     1
 79
     5
176
     1
170
     0
176
     1
171
     0
176
     1
290
     0
176
     1
 93
        1
176
     1
 44
-50.0
176
     1
173
     0
176
     1
1001
ACAD
1000
AcDbSavedByObjectVersion
1070
     0
  0
VISUALSTYLE
  5
41
102
{ACAD_XDICTIONARY
360
135
102
}
102
{ACAD_REACTORS
330
29
102
}
330
29
100
AcDbVisualStyle
  2
EdgeColorOff
 70
    22
177
     2
291
     1
 71
     2
176
     0
 72
     2
176
     0
 73
     0
176
     0
 90
        0
176
     0
 40
0.6
176
     0
 41
30.0
176
     0
 63
     7
421
 16777215
176
     0
 74
     1
176
     0
 91
        4
176
     0
 64
     7
176
     0
 65
   257
176
     0
 75
     1
176
     0
175
     1
176
     0
 42
1.0
176
     0
 92
        8
176
     2
 66
     7
176
     0
 43
1.0
176
     0
 76
     1
176
     0
 77
     6
176
     0
 78
     2
176
     0
 67
     7
176
     0
 79
     5
176
     0
170
     0
176
     0
171
     0
176
     0
290
     0
176
     0
 93
        1
176
     0
 44
0.0
176
     0
173
     0
176
     0
1001
ACAD
1000
AcDbSavedByObjectVersion
1070
     0
  0
VISUALSTYLE
  5
38
102
{ACAD_XDICTIONARY
360
123
102
}
102
{ACAD_REACTORS
330
29
102
}
330
29
100
AcDbVisualStyle
  2
Facepattern
 70
    15
177
     2
291
     1
 71
     2
176
     1
 72
     2
176
     1
 73
     0
176
     1
 90
        0
176
     1
 40
0.6
176
     1
 41
30.0
176
     1
 63
     7
421
 16777215
176
     1
 74
     1
176
     1
 91
        4
176
     1
 64
     7
176
     1
 65
   257
176
     1
 75
     1
176
     1
175
     1
176
     1
 42
1.0
176
     1
 92
        8
176
     1
 66
     7
176
     1
 43
1.0
176
     1
 76
     1
176
     1
 77
     6
176
     1
 78
     2
176
     1
 67
     7
176
     1
 79
     5
176
     1
170
     0
176
     1
171
     0
176
     1
290
     0
176
     1
 93
        1
176
     1
 44
0.0
176
     1
173
     0
176
     1
1001
ACAD
1000
AcDbSavedByObjectVersion
1070
     0
  0
VISUALSTYLE
  5
2A
102
{ACAD_XDICTIONARY
360
107
102
}
102
{ACAD_REACTORS
330
29
102
}
330
29
100
AcDbVisualStyle
  2
Flat
 70
     0
177
     2
291
     1
 71
     2
176
     1
 72
     1
176
     1
 73
     1
176
     1
 90
        2
176
     1
 40
0.6
176
     1
 41
30.0
176
     1
 63
     7
421
 16777215
176
     1
 74
     0
176
     1
 91
        0
176
     1
 64
     7
176
     1
 65
   257
176
     1
 75
     1
176
     1
175
     1
176
     1
 42
1.0
176
     1
 92
        8
176
     1
 66
     7
176
     1
 43
1.0
176
     1
 76
     1
176
     1
 77
     6
176
     1
 78
     2
176
     1
 67
     7
176
     1
 79
     5
176
     1
170
     0
176
     1
171
     0
176
     1
290
     0
176
     1
 93
       13
176
     1
 44
0.0
176
     1
173
     0
176
     1
1001
ACAD
1000
AcDbSavedByObjectVersion
1070
     0
  0
VISUALSTYLE
  5
2B
102
{ACAD_XDICTIONARY
360
109
102
}
102
{ACAD_REACTORS
330
29
102
}
330
29
100
AcDbVisualStyle
  2
FlatWithEdges
 70
     1
177
     2
291
     1
 71
     2
176
     1
 72
     1
176
     1
 73
     1
176
     1
 90
        2
176
     1
 40
0.6
176
     1
 41
30.0
176
     1
 63
     7
421
 16777215
176
     1
 74
     1
176
     1
 91
        0
176
     1
 64
     7
176
     1
 65
   257
176
     1
 75
     1
176
     1
175
     1
176
     1
 42
1.0
176
     1
 92
        0
176
     1
 66
   257
176
     1
 43
1.0
176
     1
 76
     1
176
     1
 77
     6
176
     1
 78
     2
176
     1
 67
     7
176
     1
 79
     5
176
     1
170
     0
176
     1
171
     0
176
     1
290
     0
176
     1
 93
       13
176
     1
 44
0.0
176
     1
173
     0
176
     1
1001
ACAD
1000
AcDbSavedByObjectVersion
1070
     0
  0
VISUALSTYLE
  5
2C
102
{ACAD_XDICTIONARY
360
10B
102
}
102
{ACAD_REACTORS
330
29
102
}
330
29
100
AcDbVisualStyle
  2
Gouraud
 70
     2
177
     2
291
     1
 71
     2
176
     1
 72
     2
176
     1
 73
     1
176
     1
 90
        2
176
     1
 40
0.6
176
     1
 41
30.0
176
     1
 63
     7
421
 16777215
176
     1
 74
     0
176
     1
 91
        0
176
     1
 64
     7
176
     1
 65
   257
176
     1
 75
     1
176
     1
175
     1
176
     1
 42
1.0
176
     1
 92
        0
176
     1
 66
     7
176
     1
 43
1.0
176
     1
 76
     1
176
     1
 77
     6
176
     1
 78
     2
176
     1
 67
     7
176
     1
 79
     5
176
     1
170
     0
176
     1
171
     0
176
     1
290
     0
176
     1
 93
       13
176
     1
 44
0.0
176
     1
173
     0
176
     1
1001
ACAD
1000
AcDbSavedByObjectVersion
1070
     0
  0
VISUALSTYLE
  5
2D
102
{ACAD_XDICTIONARY
360
10D
102
}
102
{ACAD_REACTORS
330
29
102
}
330
29
100
AcDbVisualStyle
  2
GouraudWithEdges
 70
     3
177
     2
291
     1
 71
     2
176
     1
 72
     2
176
     1
 73
     1
176
     1
 90
        2
176
     1
 40
0.6
176
     1
 41
30.0
176
     1
 63
     7
421
 16777215
176
     1
 74
     1
176
     1
 91
        0
176
     1
 64
     7
176
     1
 65
   257
176
     1
 75
     1
176
     1
175
     1
176
     1
 42
1.0
176
     1
 92
        0
176
     1
 66
   257
176
     1
 43
1.0
176
     1
 76
     1
176
     1
 77
     6
176
     1
 78
     2
176
     1
 67
     7
176
     1
 79
     5
176
     1
170
     0
176
     1
171
     0
176
     1
290
     0
176
     1
 93
       13
176
     1
 44
0.0
176
     1
173
     0
176
     1
1001
ACAD
1000
AcDbSavedByObjectVersion
1070
     0
  0
VISUALSTYLE
  5
31
102
{ACAD_XDICTIONARY
360
115
102
}
102
{ACAD_REACTORS
330
29
102
}
330
29
100
AcDbVisualStyle
  2
Hidden
 70
     6
177
     2
291
     0
 71
     1
176
     1
 72
     2
176
     1
 73
     2
176
     1
 90
        0
176
     1
 40
0.6
176
     1
 41
30.0
176
     1
 63
     7
421
 16777215
176
     1
 74
     2
176
     1
 91
        2
176
     1
 64
     7
176
     1
 65
   257
176
     1
 75
     2
176
     1
175
     1
176
     1
 42
40.0
176
     1
 92
        0
176
     1
 66
   257
176
     1
 43
1.0
176
     1
 76
     1
176
     1
 77
     6
176
     1
 78
     2
176
     1
 67
     7
176
     1
 79
     3
176
     1
170
     0
176
     1
171
     0
176
     1
290
     0
176
     1
 93
        1
176
     1
 44
0.0
176
     1
173
     0
176
     1
1001
ACAD
1000
AcDbSavedByObjectVersion
1070
     0
  0
VISUALSTYLE
  5
3F
102
{ACAD_XDICTIONARY
360
131
102
}
102
{ACAD_REACTORS
330
29
102
}
330
29
100
AcDbVisualStyle
  2
JitterOff
 70
    20
177
     2
291
     1
 71
     2
176
     0
 72
     2
176
     0
 73
     0
176
     0
 90
        0
176
     0
 40
0.6
176
     0
 41
30.0
176
     0
 63
     7
421
 16777215
176
     0
 74
     1
176
     0
 91
        4
176
     0
 64
     7
176
     0
 65
   257
176
     0
 75
     1
176
     0
175
     1
176
     0
 42
1.0
176
     0
 92
       10
176
     2
 66
     7
176
     0
 43
1.0
176
     0
 76
     1
176
     0
 77
     6
176
     0
 78
     2
176
     0
 67
     7
176
     0
 79
     5
176
     0
170
     0
176
     0
171
     0
176
     0
290
     0
176
     0
 93
        1
176
     0
 44
0.0
176
     0
173
     0
176
     0
1001
ACAD
1000
AcDbSavedByObjectVersion
1070
     0
  0
VISUALSTYLE
  5
37
102
{ACAD_XDICTIONARY
360
121
102
}
102
{ACAD_REACTORS
330
29
102
}
330
29
100
AcDbVisualStyle
  2
Linepattern
 70
    14
177
     2
291
     1
 71
     2
176
     1
 72
     2
176
     1
 73
     0
176
     1
 90
        0
176
     1
 40
0.6
176
     1
 41
30.0
176
     1
 63
     7
421
 16777215
176
     1
 74
     1
176
     1
 91
        4
176
     1
 64
     7
176
     1
 65
   257
176
     1
 75
     7
176
     1
175
     7
176
     1
 42
1.0
176
     1
 92
        8
176
     1
 66
     7
176
     1
 43
1.0
176
     1
 76
     1
176
     1
 77
     6
176
     1
 78
     2
176
     1
 67
     7
176
     1
 79
     5
176
     1
170
     0
176
     1
171
     0
176
     1
290
     0
176
     1
 93
        1
176
     1
 44
0.0
176
     1
173
     0
176
     1
1001
ACAD
1000
AcDbSavedByObjectVersion
1070
     0
  0
VISUALSTYLE
  5
40
102
{ACAD_XDICTIONARY
360
133
102
}
102
{ACAD_REACTORS
330
29
102
}
330
29
100
AcDbVisualStyle
  2
OverhangOff
 70
    21
177
     2
291
     1
 71
     2
176
     0
 72
     2
176
     0
 73
     0
176
     0
 90
        0
176
     0
 40
0.6
176
     0
 41
30.0
176
     0
 63
     7
421
 16777215
176
     0
 74
     1
176
     0
 91
        4
176
     0
 64
     7
176
     0
 65
   257
176
     0
 75
     1
176
     0
175
     1
176
     0
 42
1.0
176
     0
 92
        9
176
     2
 66
     7
176
     0
 43
1.0
176
     0
 76
     1
176
     0
 77
     6
176
     0
 78
     2
176
     0
 67
     7
176
     0
 79
     5
176
     0
170
     0
176
     0
171
     0
176
     0
290
     0
176
     0
 93
        1
176
     0
 44
0.0
176
     0
173
     0
176
     0
1001
ACAD
1000
AcDbSavedByObjectVersion
1070
     0
  0
VISUALSTYLE
  5
33
102
{ACAD_XDICTIONARY
360
119
102
}
102
{ACAD_REACTORS
330
29
102
}
330
29
100
AcDbVisualStyle
  2
Realistic
 70
     8
177
     2
291
     0
 71
     2
176
     1
 72
     3
176
     1
 73
     0
176
     1
 90
        2
176
     1
 40
0.6
176
     1
 41
30.0
176
     1
 63
     7
421
 16777215
176
     1
 74
     0
176
     1
 91
        0
176
     1
 64
     7
176
     1
 65
   257
176
     1
 75
     1
176
     1
175
     1
176
     1
 42
1.0
176
     1
 92
        8
176
     1
 66
   257
176
     1
 43
1.0
176
     1
 76
     1
176
     1
 77
     6
176
     1
 78
     2
176
     1
 67
     7
176
     1
 79
     3
176
     1
170
     0
176
     1
171
     0
176
     1
290
     0
176
     1
 93
       13
176
     1
 44
0.0
176
     1
173
     0
176
     1
1001
ACAD
1000
AcDbSavedByObjectVersion
1070
     0
  0
VISUALSTYLE
  5
3E
102
{ACAD_XDICTIONARY
360
12F
102
}
102
{ACAD_REACTORS
330
29
102
}
330
29
100
AcDbVisualStyle
  2
Shaded
 70
    27
177
     2
291
     0
 71
     2
176
     1
 72
     2
176
     1
 73
     1
176
     1
 90
        2
176
     1
 40
0.6
176
     1
 41
30.0
176
     1
 63
     7
421
 16777215
176
     1
 74
     0
176
     1
 91
        4
176
     1
 64
     7
176
     1
 65
   257
176
     1
 75
     1
176
     1
175
     1
176
     1
 42
1.0
176
     1
 92
        8
176
     1
 66
   257
176
     1
 43
1.0
176
     1
 76
     1
176
     1
 77
     6
176
     1
 78
     2
176
     1
 67
     8
425
  7895160
176
     1
 79
     3
176
     1
170
     0
176
     1
171
     0
176
     1
290
     0
176
     1
 93
        5
176
     1
 44
0.0
176
     1
173
     0
176
     1
1001
ACAD
1000
AcDbSavedByObjectVersion
1070
     0
  0
VISUALSTYLE
  5
3D
102
{ACAD_XDICTIONARY
360
12D
102
}
102
{ACAD_REACTORS
330
29
102
}
330
29
100
AcDbVisualStyle
  2
Shaded with edges
 70
    26
177
     2
291
     0
 71
     2
176
     1
 72
     2
176
     1
 73
     1
176
     1
 90
        2
176
     1
 40
0.6
176
     1
 41
30.0
176
     1
 63
     7
421
 16777215
176
     1
 74
     1
176
     1
 91
        2
176
     1
 64
     7
176
     1
 65
   257
176
     1
 75
     2
176
     1
175
     1
176
     1
 42
1.0
176
     1
 92
        8
176
     1
 66
   257
176
     1
 43
1.0
176
     1
 76
     1
176
     1
 77
     6
176
     1
 78
     2
176
     1
 67
     7
176
     1
 79
     3
176
     1
170
     0
176
     1
171
     0
176
     1
290
     0
176
     1
 93
        5
176
     1
 44
0.0
176
     1
173
     0
176
     1
1001
ACAD
1000
AcDbSavedByObjectVersion
1070
     0
  0
VISUALSTYLE
  5
3A
102
{ACAD_XDICTIONARY
360
127
102
}
102
{ACAD_REACTORS
330
29
102
}
330
29
100
AcDbVisualStyle
  2
Shades of Gray
 70
    23
177
     2
291
     0
 71
     2
176
     1
 72
     2
176
     1
 73
     3
176
     1
 90
        0
176
     1
 40
0.6
176
     1
 41
30.0
176
     1
 63
     7
421
 16777215
176
     1
 74
     2
176
     1
 91
        2
176
     1
 64
     7
176
     1
 65
     7
176
     1
 75
     1
176
     1
175
     1
176
     1
 42
40.0
176
     1
 92
        8
176
     1
 66
     7
176
     1
 43
1.0
176
     1
 76
     1
176
     1
 77
     6
176
     1
 78
     2
176
     1
 67
     7
176
     1
 79
     3
176
     1
170
     0
176
     1
171
     0
176
     1
290
     0
176
     1
 93
        1
176
     1
 44
0.0
176
     1
173
     0
176
     1
1001
ACAD
1000
AcDbSavedByObjectVersion
1070
     0
  0
VISUALSTYLE
  5
3B
102
{ACAD_XDICTIONARY
360
129
102
}
102
{ACAD_REACTORS
330
29
102
}
330
29
100
AcDbVisualStyle
  2
Sketchy
 70
    24
177
     2
291
     0
 71
     1
176
     1
 72
     2
176
     1
 73
     2
176
     1
 90
        0
176
     1
 40
0.6
176
     1
 41
30.0
176
     1
 63
     7
421
 16777215
176
     1
 74
     2
176
     1
 91
        2
176
     1
 64
     7
176
     1
 65
     7
176
     1
 75
     1
176
     1
175
     1
176
     1
 42
40.0
176
     1
 92
       11
176
     1
 66
     7
176
     1
 43
1.0
176
     1
 76
     1
176
     1
 77
     6
176
     1
 78
     2
176
     1
 67
     7
176
     1
 79
     6
176
     1
170
     0
176
     1
171
     0
176
     1
290
     0
176
     1
 93
        1
176
     1
 44
0.0
176
     1
173
     0
176
     1
1001
ACAD
1000
AcDbSavedByObjectVersion
1070
     0
  0
VISUALSTYLE
  5
36
102
{ACAD_XDICTIONARY
360
11F
102
}
102
{ACAD_REACTORS
330
29
102
}
330
29
100
AcDbVisualStyle
  2
Thicken
 70
    13
177
     2
291
     1
 71
     2
176
     1
 72
     2
176
     1
 73
     0
176
     1
 90
        0
176
     1
 40
0.6
176
     1
 41
30.0
176
     1
 63
     7
421
 16777215
176
     1
 74
     1
176
     1
 91
        4
176
     1
 64
     7
176
     1
 65
   257
176
     1
 75
     1
176
     1
175
     1
176
     1
 42
1.0
176
     1
 92
       12
176
     1
 66
     7
176
     1
 43
1.0
176
     1
 76
     1
176
     1
 77
     6
176
     1
 78
     2
176
     1
 67
     7
176
     1
 79
     5
176
     1
170
     0
176
     1
171
     0
176
     1
290
     0
176
     1
 93
        1
176
     1
 44
0.0
176
     1
173
     0
176
     1
1001
ACAD
1000
AcDbSavedByObjectVersion
1070
     0
  0
VISUALSTYLE
  5
30
102
{ACAD_XDICTIONARY
360
113
102
}
102
{ACAD_REACTORS
330
29
102
}
330
29
100
AcDbVisualStyle
  2
Wireframe
 70
     5
177
     2
291
     0
 71
     0
176
     1
 72
     2
176
     1
 73
     0
176
     1
 90
        0
176
     1
 40
0.6
176
     1
 41
30.0
176
     1
 63
     7
421
 16777215
176
     1
 74
     1
176
     1
 91
        4
176
     1
 64
     7
176
     1
 65
   257
176
     1
 75
     1
176
     1
175
     1
176
     1
 42
1.0
176
     1
 92
        0
176
     1
 66
   257
176
     1
 43
1.0
176
     1
 76
     1
176
     1
 77
     6
176
     1
 78
     2
176
     1
 67
     7
176
     1
 79
     3
176
     1
170
     0
176
     1
171
     0
176
     1
290
     0
176
     1
 93
        1
176
     1
 44
0.0
176
     1
173
     0
176
     1
1001
ACAD
1000
AcDbSavedByObjectVersion
1070
     0
  0
VISUALSTYLE
  5
3C
102
{ACAD_XDICTIONARY
360
12B
102
}
102
{ACAD_REACTORS
330
29
102
}
330
29
100
AcDbVisualStyle
  2
X-Ray
 70
    25
177
     2
291
     0
 71
     2
176
     1
 72
     2
176
     1
 73
     1
176
     1
 90
        1
176
     1
 40
0.5
176
     1
 41
30.0
176
     1
 63
     7
421
 16777215
176
     1
 74
     1
176
     1
 91
        0
176
     1
 64
     7
176
     1
 65
   257
176
     1
 75
     1
176
     1
175
     1
176
     1
 42
1.0
176
     1
 92
        8
176
     1
 66
     7
176
     1
 43
1.0
176
     1
 76
     1
176
     1
 77
     6
176
     1
 78
     2
176
     1
 67
     7
176
     1
 79
     3
176
     1
170
     0
176
     1
171
     0
176
     1
290
     0
176
     1
 93
       13
176
     1
 44
0.0
176
     1
173
     0
176
     1
1001
ACAD
1000
AcDbSavedByObjectVersion
1070
     0
  0
DICTIONARYVAR
  5
103
102
{ACAD_REACTORS
330
FE
102
}
330
FE
100
DictionaryVariables
280
     0
  1
1:1
  0
DICTIONARYVAR
  5
100
102
{ACAD_REACTORS
330
FE
102
}
330
FE
100
DictionaryVariables
280
     0
  1
STANDARD
  0
DICTIONARYVAR
  5
FF
102
{ACAD_REACTORS
330
FE
102
}
330
FE
100
DictionaryVariables
280
     0
  1
STANDARD
  0
DICTIONARYVAR
  5
101
102
{ACAD_REACTORS
330
FE
102
}
330
FE
100
DictionaryVariables
280
     0
  1
Imperial24
  0
DICTIONARYVAR
  5
102
102
{ACAD_REACTORS
330
FE
102
}
330
FE
100
DictionaryVariables
280
     0
  1
Imperial24
  0
DICTIONARY
  5
13B
330
6B
100
AcDbDictionary
280
     1
281
     1
  3
ACAD_XREC_ROUNDTRIP
360
13C
  0
DICTIONARY
  5
1A
330
19
100
AcDbDictionary
280
     1
281
     1
  3
BUMPTILE
360
1C
  3
DIFFUSETILE
360
1B
  3
OPACITYTILE
360
1F
  3
REFLECTIONTILE
360
1E
  3
REFRACTIONTILE
360
20
  3
SPECULARTILE
360
1D
  0
DICTIONARY
  5
12
330
11
100
AcDbDictionary
280
     1
281
     1
  3
BUMPTILE
360
14
  3
DIFFUSETILE
360
13
  3
OPACITYTILE
360
17
  3
REFLECTIONTILE
360
16
  3
REFRACTIONTILE
360
18
  3
SPECULARTILE
360
15
  0
DICTIONARY
  5
22
330
21
100
AcDbDictionary
280
     1
281
     1
  3
BUMPTILE
360
24
  3
DIFFUSETILE
360
23
  3
OPACITYTILE
360
27
  3
REFLECTIONTILE
360
26
  3
REFRACTIONTILE
360
28
  3
SPECULARTILE
360
25
  0
DICTIONARY
  5
137
330
67
100
AcDbDictionary
280
     1
281
     1
  3
ACAD_XREC_ROUNDTRIP
360
138
  0
DICTIONARY
  5
139
330
69
100
AcDbDictionary
280
     1
281
     1
  3
ACAD_XREC_ROUNDTRIP
360
13A
  0
DICTIONARY
  5
104
330
65
100
AcDbDictionary
280
     1
281
     1
  3
ACAD_ROUNDTRIP_2008_TABLESTYLE_CELLSTYLEMAP
360
105
  0
DICTIONARY
  5
111
330
2F
100
AcDbDictionary
280
     1
281
     1
  3
ACAD_XREC_ROUNDTRIP
360
112
  0
DICTIONARY
  5
10F
330
2E
100
AcDbDictionary
280
     1
281
     1
  3
ACAD_XREC_ROUNDTRIP
360
110
  0
DICTIONARY
  5
11D
330
35
100
AcDbDictionary
280
     1
281
     1
  3
ACAD_XREC_ROUNDTRIP
360
11E
  0
DICTIONARY
  5
125
330
39
100
AcDbDictionary
280
     1
281
     1
  3
ACAD_XREC_ROUNDTRIP
360
126
  0
DICTIONARY
  5
117
330
32
100
AcDbDictionary
280
     1
281
     1
  3
ACAD_XREC_ROUNDTRIP
360
118
  0
DICTIONARY
  5
11B
330
34
100
AcDbDictionary
280
     1
281
     1
  3
ACAD_XREC_ROUNDTRIP
360
11C
  0
DICTIONARY
  5
135
330
41
100
AcDbDictionary
280
     1
281
     1
  3
ACAD_XREC_ROUNDTRIP
360
136
  0
DICTIONARY
  5
123
330
38
100
AcDbDictionary
280
     1
281
     1
  3
ACAD_XREC_ROUNDTRIP
360
124
  0
DICTIONARY
  5
107
330
2A
100
AcDbDictionary
280
     1
281
     1
  3
ACAD_XREC_ROUNDTRIP
360
108
  0
DICTIONARY
  5
109
330
2B
100
AcDbDictionary
280
     1
281
     1
  3
ACAD_XREC_ROUNDTRIP
360
10A
  0
DICTIONARY
  5
10B
330
2C
100
AcDbDictionary
280
     1
281
     1
  3
ACAD_XREC_ROUNDTRIP
360
10C
  0
DICTIONARY
  5
10D
330
2D
100
AcDbDictionary
280
     1
281
     1
  3
ACAD_XREC_ROUNDTRIP
360
10E
  0
DICTIONARY
  5
115
330
31
100
AcDbDictionary
280
     1
281
     1
  3
ACAD_XREC_ROUNDTRIP
360
116
  0
DICTIONARY
  5
131
330
3F
100
AcDbDictionary
280
     1
281
     1
  3
ACAD_XREC_ROUNDTRIP
360
132
  0
DICTIONARY
  5
121
330
37
100
AcDbDictionary
280
     1
281
     1
  3
ACAD_XREC_ROUNDTRIP
360
122
  0
DICTIONARY
  5
133
330
40
100
AcDbDictionary
280
     1
281
     1
  3
ACAD_XREC_ROUNDTRIP
360
134
  0
DICTIONARY
  5
119
330
33
100
AcDbDictionary
280
     1
281
     1
  3
ACAD_XREC_ROUNDTRIP
360
11A
  0
DICTIONARY
  5
12F
330
3E
100
AcDbDictionary
280
     1
281
     1
  3
ACAD_XREC_ROUNDTRIP
360
130
  0
DICTIONARY
  5
12D
330
3D
100
AcDbDictionary
280
     1
281
     1
  3
ACAD_XREC_ROUNDTRIP
360
12E
  0
DICTIONARY
  5
127
330
3A
100
AcDbDictionary
280
     1
281
     1
  3
ACAD_XREC_ROUNDTRIP
360
128
  0
DICTIONARY
  5
129
330
3B
100
AcDbDictionary
280
     1
281
     1
  3
ACAD_XREC_ROUNDTRIP
360
12A
  0
DICTIONARY
  5
11F
330
36
100
AcDbDictionary
280
     1
281
     1
  3
ACAD_XREC_ROUNDTRIP
360
120
  0
DICTIONARY
  5
113
330
30
100
AcDbDictionary
280
     1
281
     1
  3
ACAD_XREC_ROUNDTRIP
360
114
  0
DICTIONARY
  5
12B
330
3C
100
AcDbDictionary
280
     1
281
     1
  3
ACAD_XREC_ROUNDTRIP
360
12C
  0
XRECORD
  5
13C
102
{ACAD_REACTORS
330
13B
102
}
330
13B
100
AcDbXrecord
280
     1
102
DISPLAYNAME
  1
Imperial24
102
FLAGS
 90
        0
  0
XRECORD
  5
1C
102
{ACAD_REACTORS
330
1A
102
}
330
1A
100
AcDbXrecord
280
     1
270
     1
271
     1
  0
XRECORD
  5
1B
102
{ACAD_REACTORS
330
1A
102
}
330
1A
100
AcDbXrecord
280
     1
270
     1
271
     1
  0
XRECORD
  5
1F
102
{ACAD_REACTORS
330
1A
102
}
330
1A
100
AcDbXrecord
280
     1
270
     1
271
     1
  0
XRECORD
  5
1E
102
{ACAD_REACTORS
330
1A
102
}
330
1A
100
AcDbXrecord
280
     1
270
     1
271
     1
  0
XRECORD
  5
20
102
{ACAD_REACTORS
330
1A
102
}
330
1A
100
AcDbXrecord
280
     1
270
     1
271
     1
  0
XRECORD
  5
1D
102
{ACAD_REACTORS
330
1A
102
}
330
1A
100
AcDbXrecord
280
     1
270
     1
271
     1
  0
XRECORD
  5
14
102
{ACAD_REACTORS
330
12
102
}
330
12
100
AcDbXrecord
280
     1
270
     1
271
     1
  0
XRECORD
  5
13
102
{ACAD_REACTORS
330
12
102
}
330
12
100
AcDbXrecord
280
     1
270
     1
271
     1
  0
XRECORD
  5
17
102
{ACAD_REACTORS
330
12
102
}
330
12
100
AcDbXrecord
280
     1
270
     1
271
     1
  0
XRECORD
  5
16
102
{ACAD_REACTORS
330
12
102
}
330
12
100
AcDbXrecord
280
     1
270
     1
271
     1
  0
XRECORD
  5
18
102
{ACAD_REACTORS
330
12
102
}
330
12
100
AcDbXrecord
280
     1
270
     1
271
     1
  0
XRECORD
  5
15
102
{ACAD_REACTORS
330
12
102
}
330
12
100
AcDbXrecord
280
     1
270
     1
271
     1
  0
XRECORD
  5
24
102
{ACAD_REACTORS
330
22
102
}
330
22
100
AcDbXrecord
280
     1
270
     1
271
     1
  0
XRECORD
  5
23
102
{ACAD_REACTORS
330
22
102
}
330
22
100
AcDbXrecord
280
     1
270
     1
271
     1
  0
XRECORD
  5
27
102
{ACAD_REACTORS
330
22
102
}
330
22
100
AcDbXrecord
280
     1
270
     1
271
     1
  0
XRECORD
  5
26
102
{ACAD_REACTORS
330
22
102
}
330
22
100
AcDbXrecord
280
     1
270
     1
271
     1
  0
XRECORD
  5
28
102
{ACAD_REACTORS
330
22
102
}
330
22
100
AcDbXrecord
280
     1
270
     1
271
     1
  0
XRECORD
  5
25
102
{ACAD_REACTORS
330
22
102
}
330
22
100
AcDbXrecord
280
     1
270
     1
271
     1
  0
XRECORD
  5
138
102
{ACAD_REACTORS
330
137
102
}
330
137
100
AcDbXrecord
280
     1
102
ACAD_ROUNDTRIP_2012_MLEADER_STYLE
298
     1
  0
XRECORD
  5
13A
102
{ACAD_REACTORS
330
139
102
}
330
139
100
AcDbXrecord
280
     1
102
DISPLAYNAME
  1
Imperial24
102
FLAGS
 90
        0
  0
CELLSTYLEMAP
  5
105
102
{ACAD_REACTORS
330
104
102
}
330
104
100
AcDbCellStyleMap
 90
        3
300
CELLSTYLE
  1
TABLEFORMAT_BEGIN
 90
        5
170
     1
 91
        0
 92
    32768
 62
   257
 93
        1
300
CONTENTFORMAT
  1
CONTENTFORMAT_BEGIN
 90
        0
 91
        0
 92
      512
 93
        0
300

 40
0.0
140
1.0
 94
        5
 62
     0
340
55
144
0.25
309
CONTENTFORMAT_END
171
     0
 94
        0
309
TABLEFORMAT_END
  1
CELLSTYLE_BEGIN
 90
        1
 91
        1
300
_TITLE
309
CELLSTYLE_END
300
CELLSTYLE
  1
TABLEFORMAT_BEGIN
 90
        5
170
     1
 91
        0
 92
        0
 62
   257
 93
        1
300
CONTENTFORMAT
  1
CONTENTFORMAT_BEGIN
 90
        0
 91
        0
 92
      512
 93
        0
300

 40
0.0
140
1.0
 94
        5
 62
     0
340
55
144
0.18
309
CONTENTFORMAT_END
171
     0
 94
        0
309
TABLEFORMAT_END
  1
CELLSTYLE_BEGIN
 90
        2
 91
        1
300
_HEADER
309
CELLSTYLE_END
300
CELLSTYLE
  1
TABLEFORMAT_BEGIN
 90
        5
170
     1
 91
        0
 92
        0
 62
   257
 93
        1
300
CONTENTFORMAT
  1
CONTENTFORMAT_BEGIN
 90
        0
 91
        0
 92
      512
 93
        0
300

 40
0.0
140
1.0
 94
        2
 62
     0
340
55
144
0.18
309
CONTENTFORMAT_END
171
     0
 94
        0
309
TABLEFORMAT_END
  1
CELLSTYLE_BEGIN
 90
        3
 91
        2
300
_DATA
309
CELLSTYLE_END
  0
XRECORD
  5
112
102
{ACAD_REACTORS
330
111
102
}
330
111
100
AcDbXrecord
280
     1
102
RTVSPost2010Prop28
280
     1
102
RTVSPost2010PropOp28
 70
     1
102
RTVSPost2010Prop29
280
     1
102
RTVSPost2010PropOp29
 70
     1
102
RTVSPost2010Prop30
280
     0
102
RTVSPost2010PropOp30
 70
     1
102
RTVSPost2010Prop31
280
     0
102
RTVSPost2010PropOp31
 70
     1
102
RTVSPost2010Prop32
280
     0
102
RTVSPost2010PropOp32
 70
     1
102
RTVSPost2010Prop33
280
     0
102
RTVSPost2010PropOp33
 70
     1
102
RTVSPost2010Prop34
280
     0
102
RTVSPost2010PropOp34
 70
     1
102
RTVSPost2010Prop35
280
     0
102
RTVSPost2010PropOp35
 70
     1
102
RTVSPost2010Prop36
280
     0
102
RTVSPost2010PropOp36
 70
     1
102
RTVSPost2010Prop37
 90
       50
102
RTVSPost2010PropOp37
 70
     1
102
RTVSPost2010Prop38
140
0.0
102
RTVSPost2010PropOp38
 70
     1
102
RTVSPost2010Prop39
140
1.0
102
RTVSPost2010PropOp39
 70
     1
102
RTVSPost2010Prop40
 90
        0
102
RTVSPost2010PropOp40
 70
     1
102
RTVSPost2010Prop41ColorIndex
 90
       18
102
RTVSPost2010Prop41ColorRGB
 90
        0
102
RTVSPost2010PropOp41
 70
     1
102
RTVSPost2010Prop42
 90
       50
102
RTVSPost2010PropOp42
 70
     1
102
RTVSPost2010Prop43
 90
        3
102
RTVSPost2010PropOp43
 70
     1
102
RTVSPost2010Prop44ColorIndex
 90
        5
102
RTVSPost2010Prop44ColorRGB
 90
      255
102
RTVSPost2010PropOp44
 70
     1
102
RTVSPost2010Prop45
280
     0
102
RTVSPost2010PropOp45
 70
     1
102
RTVSPost2010Prop46
 90
       50
102
RTVSPost2010PropOp46
 70
     1
102
RTVSPost2010Prop47
 90
       50
102
RTVSPost2010PropOp47
 70
     1
102
RTVSPost2010Prop48
 90
       50
102
RTVSPost2010PropOp48
 70
     1
102
RTVSPost2010Prop49
280
     0
102
RTVSPost2010PropOp49
 70
     1
102
RTVSPost2010Prop50
 90
       50
102
RTVSPost2010PropOp50
 70
     1
102
RTVSPost2010Prop51ColorIndex
 90
      256
102
RTVSPost2010Prop51ColorRGB
 90
-16777216
102
RTVSPost2010PropOp51
 70
     0
102
RTVSPost2010Prop52
140
1.0
102
RTVSPost2010PropOp52
 70
     0
102
RTVSPost2010Prop53
 90
        2
102
RTVSPost2010PropOp53
 70
     1
102
RTVSPost2010Prop54
  1
strokes_ogs.tif
102
RTVSPost2010PropOp54
 70
     1
102
RTVSPost2010Prop55
280
     0
102
RTVSPost2010PropOp55
 70
     1
102
RTVSPost2010Prop56
140
1.0
102
RTVSPost2010PropOp56
 70
     1
102
RTVSPost2010Prop57
140
1.0
102
RTVSPost2010PropOp57
 70
     1
  0
XRECORD
  5
110
102
{ACAD_REACTORS
330
10F
102
}
330
10F
100
AcDbXrecord
280
     1
102
RTVSPost2010Prop28
280
     0
102
RTVSPost2010PropOp28
 70
     1
102
RTVSPost2010Prop29
280
     1
102
RTVSPost2010PropOp29
 70
     1
102
RTVSPost2010Prop30
280
     1
102
RTVSPost2010PropOp30
 70
     1
102
RTVSPost2010Prop31
280
     0
102
RTVSPost2010PropOp31
 70
     1
102
RTVSPost2010Prop32
280
     0
102
RTVSPost2010PropOp32
 70
     1
102
RTVSPost2010Prop33
280
     0
102
RTVSPost2010PropOp33
 70
     1
102
RTVSPost2010Prop34
280
     0
102
RTVSPost2010PropOp34
 70
     1
102
RTVSPost2010Prop35
280
     0
102
RTVSPost2010PropOp35
 70
     1
102
RTVSPost2010Prop36
280
     0
102
RTVSPost2010PropOp36
 70
     1
102
RTVSPost2010Prop37
 90
       50
102
RTVSPost2010PropOp37
 70
     1
102
RTVSPost2010Prop38
140
0.0
102
RTVSPost2010PropOp38
 70
     1
102
RTVSPost2010Prop39
140
1.0
102
RTVSPost2010PropOp39
 70
     1
102
RTVSPost2010Prop40
 90
        0
102
RTVSPost2010PropOp40
 70
     1
102
RTVSPost2010Prop41ColorIndex
 90
       18
102
RTVSPost2010Prop41ColorRGB
 90
        0
102
RTVSPost2010PropOp41
 70
     1
102
RTVSPost2010Prop42
 90
       50
102
RTVSPost2010PropOp42
 70
     1
102
RTVSPost2010Prop43
 90
        3
102
RTVSPost2010PropOp43
 70
     1
102
RTVSPost2010Prop44ColorIndex
 90
        5
102
RTVSPost2010Prop44ColorRGB
 90
      255
102
RTVSPost2010PropOp44
 70
     1
102
RTVSPost2010Prop45
280
     0
102
RTVSPost2010PropOp45
 70
     1
102
RTVSPost2010Prop46
 90
       50
102
RTVSPost2010PropOp46
 70
     1
102
RTVSPost2010Prop47
 90
       50
102
RTVSPost2010PropOp47
 70
     1
102
RTVSPost2010Prop48
 90
       50
102
RTVSPost2010PropOp48
 70
     1
102
RTVSPost2010Prop49
280
     0
102
RTVSPost2010PropOp49
 70
     1
102
RTVSPost2010Prop50
 90
       50
102
RTVSPost2010PropOp50
 70
     1
102
RTVSPost2010Prop51ColorIndex
 90
      256
102
RTVSPost2010Prop51ColorRGB
 90
-16777216
102
RTVSPost2010PropOp51
 70
     0
102
RTVSPost2010Prop52
140
1.0
102
RTVSPost2010PropOp52
 70
     0
102
RTVSPost2010Prop53
 90
        2
102
RTVSPost2010PropOp53
 70
     1
102
RTVSPost2010Prop54
  1
strokes_ogs.tif
102
RTVSPost2010PropOp54
 70
     1
102
RTVSPost2010Prop55
280
     0
102
RTVSPost2010PropOp55
 70
     1
102
RTVSPost2010Prop56
140
1.0
102
RTVSPost2010PropOp56
 70
     1
102
RTVSPost2010Prop57
140
1.0
102
RTVSPost2010PropOp57
 70
     1
  0
XRECORD
  5
11E
102
{ACAD_REACTORS
330
11D
102
}
330
11D
100
AcDbXrecord
280
     1
102
RTVSPost2010Prop28
280
     0
102
RTVSPost2010PropOp28
 70
     1
102
RTVSPost2010Prop29
280
     1
102
RTVSPost2010PropOp29
 70
     1
102
RTVSPost2010Prop30
280
     1
102
RTVSPost2010PropOp30
 70
     1
102
RTVSPost2010Prop31
280
     0
102
RTVSPost2010PropOp31
 70
     1
102
RTVSPost2010Prop32
280
     0
102
RTVSPost2010PropOp32
 70
     1
102
RTVSPost2010Prop33
280
     0
102
RTVSPost2010PropOp33
 70
     1
102
RTVSPost2010Prop34
280
     0
102
RTVSPost2010PropOp34
 70
     1
102
RTVSPost2010Prop35
280
     0
102
RTVSPost2010PropOp35
 70
     1
102
RTVSPost2010Prop36
280
     0
102
RTVSPost2010PropOp36
 70
     1
102
RTVSPost2010Prop37
 90
       50
102
RTVSPost2010PropOp37
 70
     1
102
RTVSPost2010Prop38
140
0.0
102
RTVSPost2010PropOp38
 70
     1
102
RTVSPost2010Prop39
140
1.0
102
RTVSPost2010PropOp39
 70
     1
102
RTVSPost2010Prop40
 90
        0
102
RTVSPost2010PropOp40
 70
     1
102
RTVSPost2010Prop41ColorIndex
 90
       18
102
RTVSPost2010Prop41ColorRGB
 90
        0
102
RTVSPost2010PropOp41
 70
     1
102
RTVSPost2010Prop42
 90
       50
102
RTVSPost2010PropOp42
 70
     1
102
RTVSPost2010Prop43
 90
        3
102
RTVSPost2010PropOp43
 70
     1
102
RTVSPost2010Prop44ColorIndex
 90
        5
102
RTVSPost2010Prop44ColorRGB
 90
      255
102
RTVSPost2010PropOp44
 70
     1
102
RTVSPost2010Prop45
280
     0
102
RTVSPost2010PropOp45
 70
     1
102
RTVSPost2010Prop46
 90
       50
102
RTVSPost2010PropOp46
 70
     1
102
RTVSPost2010Prop47
 90
       50
102
RTVSPost2010PropOp47
 70
     1
102
RTVSPost2010Prop48
 90
       50
102
RTVSPost2010PropOp48
 70
     1
102
RTVSPost2010Prop49
280
     0
102
RTVSPost2010PropOp49
 70
     1
102
RTVSPost2010Prop50
 90
       50
102
RTVSPost2010PropOp50
 70
     1
102
RTVSPost2010Prop51ColorIndex
 90
      256
102
RTVSPost2010Prop51ColorRGB
 90
-16777216
102
RTVSPost2010PropOp51
 70
     0
102
RTVSPost2010Prop52
140
1.0
102
RTVSPost2010PropOp52
 70
     0
102
RTVSPost2010Prop53
 90
        2
102
RTVSPost2010PropOp53
 70
     1
102
RTVSPost2010Prop54
  1
strokes_ogs.tif
102
RTVSPost2010PropOp54
 70
     1
102
RTVSPost2010Prop55
280
     0
102
RTVSPost2010PropOp55
 70
     1
102
RTVSPost2010Prop56
140
1.0
102
RTVSPost2010PropOp56
 70
     1
102
RTVSPost2010Prop57
140
1.0
102
RTVSPost2010PropOp57
 70
     1
  0
XRECORD
  5
126
102
{ACAD_REACTORS
330
125
102
}
330
125
100
AcDbXrecord
280
     1
102
RTVSPost2010Prop28
280
     0
102
RTVSPost2010PropOp28
 70
     1
102
RTVSPost2010Prop29
280
     1
102
RTVSPost2010PropOp29
 70
     1
102
RTVSPost2010Prop30
280
     1
102
RTVSPost2010PropOp30
 70
     1
102
RTVSPost2010Prop31
280
     0
102
RTVSPost2010PropOp31
 70
     1
102
RTVSPost2010Prop32
280
     0
102
RTVSPost2010PropOp32
 70
     1
102
RTVSPost2010Prop33
280
     0
102
RTVSPost2010PropOp33
 70
     1
102
RTVSPost2010Prop34
280
     0
102
RTVSPost2010PropOp34
 70
     1
102
RTVSPost2010Prop35
280
     0
102
RTVSPost2010PropOp35
 70
     1
102
RTVSPost2010Prop36
280
     0
102
RTVSPost2010PropOp36
 70
     1
102
RTVSPost2010Prop37
 90
       50
102
RTVSPost2010PropOp37
 70
     1
102
RTVSPost2010Prop38
140
0.0
102
RTVSPost2010PropOp38
 70
     1
102
RTVSPost2010Prop39
140
1.0
102
RTVSPost2010PropOp39
 70
     1
102
RTVSPost2010Prop40
 90
        0
102
RTVSPost2010PropOp40
 70
     1
102
RTVSPost2010Prop41ColorIndex
 90
       18
102
RTVSPost2010Prop41ColorRGB
 90
        0
102
RTVSPost2010PropOp41
 70
     1
102
RTVSPost2010Prop42
 90
       50
102
RTVSPost2010PropOp42
 70
     1
102
RTVSPost2010Prop43
 90
        3
102
RTVSPost2010PropOp43
 70
     1
102
RTVSPost2010Prop44ColorIndex
 90
        5
102
RTVSPost2010Prop44ColorRGB
 90
      255
102
RTVSPost2010PropOp44
 70
     1
102
RTVSPost2010Prop45
280
     0
102
RTVSPost2010PropOp45
 70
     1
102
RTVSPost2010Prop46
 90
       50
102
RTVSPost2010PropOp46
 70
     1
102
RTVSPost2010Prop47
 90
       50
102
RTVSPost2010PropOp47
 70
     1
102
RTVSPost2010Prop48
 90
       50
102
RTVSPost2010PropOp48
 70
     1
102
RTVSPost2010Prop49
280
     0
102
RTVSPost2010PropOp49
 70
     1
102
RTVSPost2010Prop50
 90
       50
102
RTVSPost2010PropOp50
 70
     1
102
RTVSPost2010Prop51ColorIndex
 90
      256
102
RTVSPost2010Prop51ColorRGB
 90
-16777216
102
RTVSPost2010PropOp51
 70
     0
102
RTVSPost2010Prop52
140
1.0
102
RTVSPost2010PropOp52
 70
     0
102
RTVSPost2010Prop53
 90
        2
102
RTVSPost2010PropOp53
 70
     1
102
RTVSPost2010Prop54
  1
strokes_ogs.tif
102
RTVSPost2010PropOp54
 70
     1
102
RTVSPost2010Prop55
280
     0
102
RTVSPost2010PropOp55
 70
     1
102
RTVSPost2010Prop56
140
1.0
102
RTVSPost2010PropOp56
 70
     1
102
RTVSPost2010Prop57
140
1.0
102
RTVSPost2010PropOp57
 70
     1
  0
XRECORD
  5
118
102
{ACAD_REACTORS
330
117
102
}
330
117
100
AcDbXrecord
280
     1
102
RTVSPost2010Prop28
280
     0
102
RTVSPost2010PropOp28
 70
     1
102
RTVSPost2010Prop29
280
     1
102
RTVSPost2010PropOp29
 70
     1
102
RTVSPost2010Prop30
280
     1
102
RTVSPost2010PropOp30
 70
     1
102
RTVSPost2010Prop31
280
     0
102
RTVSPost2010PropOp31
 70
     1
102
RTVSPost2010Prop32
280
     0
102
RTVSPost2010PropOp32
 70
     1
102
RTVSPost2010Prop33
280
     0
102
RTVSPost2010PropOp33
 70
     1
102
RTVSPost2010Prop34
280
     0
102
RTVSPost2010PropOp34
 70
     1
102
RTVSPost2010Prop35
280
     0
102
RTVSPost2010PropOp35
 70
     1
102
RTVSPost2010Prop36
280
     0
102
RTVSPost2010PropOp36
 70
     1
102
RTVSPost2010Prop37
 90
       50
102
RTVSPost2010PropOp37
 70
     1
102
RTVSPost2010Prop38
140
0.0
102
RTVSPost2010PropOp38
 70
     1
102
RTVSPost2010Prop39
140
1.0
102
RTVSPost2010PropOp39
 70
     1
102
RTVSPost2010Prop40
 90
        0
102
RTVSPost2010PropOp40
 70
     1
102
RTVSPost2010Prop41ColorIndex
 90
       18
102
RTVSPost2010Prop41ColorRGB
 90
        0
102
RTVSPost2010PropOp41
 70
     1
102
RTVSPost2010Prop42
 90
       50
102
RTVSPost2010PropOp42
 70
     1
102
RTVSPost2010Prop43
 90
        3
102
RTVSPost2010PropOp43
 70
     1
102
RTVSPost2010Prop44ColorIndex
 90
        5
102
RTVSPost2010Prop44ColorRGB
 90
      255
102
RTVSPost2010PropOp44
 70
     1
102
RTVSPost2010Prop45
280
     0
102
RTVSPost2010PropOp45
 70
     1
102
RTVSPost2010Prop46
 90
       50
102
RTVSPost2010PropOp46
 70
     1
102
RTVSPost2010Prop47
 90
       50
102
RTVSPost2010PropOp47
 70
     1
102
RTVSPost2010Prop48
 90
       50
102
RTVSPost2010PropOp48
 70
     1
102
RTVSPost2010Prop49
280
     0
102
RTVSPost2010PropOp49
 70
     1
102
RTVSPost2010Prop50
 90
       50
102
RTVSPost2010PropOp50
 70
     1
102
RTVSPost2010Prop51ColorIndex
 90
      256
102
RTVSPost2010Prop51ColorRGB
 90
-16777216
102
RTVSPost2010PropOp51
 70
     0
102
RTVSPost2010Prop52
140
1.0
102
RTVSPost2010PropOp52
 70
     0
102
RTVSPost2010Prop53
 90
        2
102
RTVSPost2010PropOp53
 70
     1
102
RTVSPost2010Prop54
  1
strokes_ogs.tif
102
RTVSPost2010PropOp54
 70
     1
102
RTVSPost2010Prop55
280
     0
102
RTVSPost2010PropOp55
 70
     1
102
RTVSPost2010Prop56
140
1.0
102
RTVSPost2010PropOp56
 70
     1
102
RTVSPost2010Prop57
140
1.0
102
RTVSPost2010PropOp57
 70
     1
  0
XRECORD
  5
11C
102
{ACAD_REACTORS
330
11B
102
}
330
11B
100
AcDbXrecord
280
     1
102
RTVSPost2010Prop28
280
     0
102
RTVSPost2010PropOp28
 70
     1
102
RTVSPost2010Prop29
280
     1
102
RTVSPost2010PropOp29
 70
     1
102
RTVSPost2010Prop30
280
     1
102
RTVSPost2010PropOp30
 70
     1
102
RTVSPost2010Prop31
280
     0
102
RTVSPost2010PropOp31
 70
     1
102
RTVSPost2010Prop32
280
     0
102
RTVSPost2010PropOp32
 70
     1
102
RTVSPost2010Prop33
280
     0
102
RTVSPost2010PropOp33
 70
     1
102
RTVSPost2010Prop34
280
     0
102
RTVSPost2010PropOp34
 70
     1
102
RTVSPost2010Prop35
280
     0
102
RTVSPost2010PropOp35
 70
     1
102
RTVSPost2010Prop36
280
     0
102
RTVSPost2010PropOp36
 70
     1
102
RTVSPost2010Prop37
 90
       50
102
RTVSPost2010PropOp37
 70
     1
102
RTVSPost2010Prop38
140
0.0
102
RTVSPost2010PropOp38
 70
     1
102
RTVSPost2010Prop39
140
1.0
102
RTVSPost2010PropOp39
 70
     1
102
RTVSPost2010Prop40
 90
        0
102
RTVSPost2010PropOp40
 70
     1
102
RTVSPost2010Prop41ColorIndex
 90
       18
102
RTVSPost2010Prop41ColorRGB
 90
        0
102
RTVSPost2010PropOp41
 70
     1
102
RTVSPost2010Prop42
 90
       50
102
RTVSPost2010PropOp42
 70
     1
102
RTVSPost2010Prop43
 90
        3
102
RTVSPost2010PropOp43
 70
     1
102
RTVSPost2010Prop44ColorIndex
 90
        5
102
RTVSPost2010Prop44ColorRGB
 90
      255
102
RTVSPost2010PropOp44
 70
     1
102
RTVSPost2010Prop45
280
     0
102
RTVSPost2010PropOp45
 70
     1
102
RTVSPost2010Prop46
 90
       50
102
RTVSPost2010PropOp46
 70
     1
102
RTVSPost2010Prop47
 90
       50
102
RTVSPost2010PropOp47
 70
     1
102
RTVSPost2010Prop48
 90
       50
102
RTVSPost2010PropOp48
 70
     1
102
RTVSPost2010Prop49
280
     0
102
RTVSPost2010PropOp49
 70
     1
102
RTVSPost2010Prop50
 90
       50
102
RTVSPost2010PropOp50
 70
     1
102
RTVSPost2010Prop51ColorIndex
 90
      256
102
RTVSPost2010Prop51ColorRGB
 90
-16777216
102
RTVSPost2010PropOp51
 70
     0
102
RTVSPost2010Prop52
140
1.0
102
RTVSPost2010PropOp52
 70
     0
102
RTVSPost2010Prop53
 90
        2
102
RTVSPost2010PropOp53
 70
     1
102
RTVSPost2010Prop54
  1
strokes_ogs.tif
102
RTVSPost2010PropOp54
 70
     1
102
RTVSPost2010Prop55
280
     0
102
RTVSPost2010PropOp55
 70
     1
102
RTVSPost2010Prop56
140
1.0
102
RTVSPost2010PropOp56
 70
     1
102
RTVSPost2010Prop57
140
1.0
102
RTVSPost2010PropOp57
 70
     1
  0
XRECORD
  5
136
102
{ACAD_REACTORS
330
135
102
}
330
135
100
AcDbXrecord
280
     1
102
RTVSPost2010Prop28
280
     0
102
RTVSPost2010PropOp28
 70
     0
102
RTVSPost2010Prop29
280
     1
102
RTVSPost2010PropOp29
 70
     0
102
RTVSPost2010Prop30
280
     1
102
RTVSPost2010PropOp30
 70
     0
102
RTVSPost2010Prop31
280
     0
102
RTVSPost2010PropOp31
 70
     0
102
RTVSPost2010Prop32
280
     0
102
RTVSPost2010PropOp32
 70
     0
102
RTVSPost2010Prop33
280
     0
102
RTVSPost2010PropOp33
 70
     0
102
RTVSPost2010Prop34
280
     0
102
RTVSPost2010PropOp34
 70
     0
102
RTVSPost2010Prop35
280
     0
102
RTVSPost2010PropOp35
 70
     0
102
RTVSPost2010Prop36
280
     0
102
RTVSPost2010PropOp36
 70
     0
102
RTVSPost2010Prop37
 90
       50
102
RTVSPost2010PropOp37
 70
     0
102
RTVSPost2010Prop38
140
0.0
102
RTVSPost2010PropOp38
 70
     0
102
RTVSPost2010Prop39
140
1.0
102
RTVSPost2010PropOp39
 70
     0
102
RTVSPost2010Prop40
 90
        0
102
RTVSPost2010PropOp40
 70
     0
102
RTVSPost2010Prop41ColorIndex
 90
       18
102
RTVSPost2010Prop41ColorRGB
 90
        0
102
RTVSPost2010PropOp41
 70
     0
102
RTVSPost2010Prop42
 90
       50
102
RTVSPost2010PropOp42
 70
     0
102
RTVSPost2010Prop43
 90
        3
102
RTVSPost2010PropOp43
 70
     0
102
RTVSPost2010Prop44ColorIndex
 90
        5
102
RTVSPost2010Prop44ColorRGB
 90
      255
102
RTVSPost2010PropOp44
 70
     0
102
RTVSPost2010Prop45
280
     0
102
RTVSPost2010PropOp45
 70
     0
102
RTVSPost2010Prop46
 90
       50
102
RTVSPost2010PropOp46
 70
     0
102
RTVSPost2010Prop47
 90
       50
102
RTVSPost2010PropOp47
 70
     0
102
RTVSPost2010Prop48
 90
       50
102
RTVSPost2010PropOp48
 70
     0
102
RTVSPost2010Prop49
280
     0
102
RTVSPost2010PropOp49
 70
     0
102
RTVSPost2010Prop50
 90
       50
102
RTVSPost2010PropOp50
 70
     0
102
RTVSPost2010Prop51ColorIndex
 90
      256
102
RTVSPost2010Prop51ColorRGB
 90
-16777216
102
RTVSPost2010PropOp51
 70
     0
102
RTVSPost2010Prop52
140
1.0
102
RTVSPost2010PropOp52
 70
     0
102
RTVSPost2010Prop53
 90
        2
102
RTVSPost2010PropOp53
 70
     0
102
RTVSPost2010Prop54
  1
strokes_ogs.tif
102
RTVSPost2010PropOp54
 70
     0
102
RTVSPost2010Prop55
280
     0
102
RTVSPost2010PropOp55
 70
     0
102
RTVSPost2010Prop56
140
1.0
102
RTVSPost2010PropOp56
 70
     0
102
RTVSPost2010Prop57
140
1.0
102
RTVSPost2010PropOp57
 70
     0
  0
XRECORD
  5
124
102
{ACAD_REACTORS
330
123
102
}
330
123
100
AcDbXrecord
280
     1
102
RTVSPost2010Prop28
280
     0
102
RTVSPost2010PropOp28
 70
     1
102
RTVSPost2010Prop29
280
     1
102
RTVSPost2010PropOp29
 70
     1
102
RTVSPost2010Prop30
280
     1
102
RTVSPost2010PropOp30
 70
     1
102
RTVSPost2010Prop31
280
     0
102
RTVSPost2010PropOp31
 70
     1
102
RTVSPost2010Prop32
280
     0
102
RTVSPost2010PropOp32
 70
     1
102
RTVSPost2010Prop33
280
     0
102
RTVSPost2010PropOp33
 70
     1
102
RTVSPost2010Prop34
280
     0
102
RTVSPost2010PropOp34
 70
     1
102
RTVSPost2010Prop35
280
     0
102
RTVSPost2010PropOp35
 70
     1
102
RTVSPost2010Prop36
280
     0
102
RTVSPost2010PropOp36
 70
     1
102
RTVSPost2010Prop37
 90
       50
102
RTVSPost2010PropOp37
 70
     1
102
RTVSPost2010Prop38
140
0.0
102
RTVSPost2010PropOp38
 70
     1
102
RTVSPost2010Prop39
140
1.0
102
RTVSPost2010PropOp39
 70
     1
102
RTVSPost2010Prop40
 90
        0
102
RTVSPost2010PropOp40
 70
     1
102
RTVSPost2010Prop41ColorIndex
 90
       18
102
RTVSPost2010Prop41ColorRGB
 90
        0
102
RTVSPost2010PropOp41
 70
     1
102
RTVSPost2010Prop42
 90
       50
102
RTVSPost2010PropOp42
 70
     1
102
RTVSPost2010Prop43
 90
        3
102
RTVSPost2010PropOp43
 70
     1
102
RTVSPost2010Prop44ColorIndex
 90
        5
102
RTVSPost2010Prop44ColorRGB
 90
      255
102
RTVSPost2010PropOp44
 70
     1
102
RTVSPost2010Prop45
280
     0
102
RTVSPost2010PropOp45
 70
     1
102
RTVSPost2010Prop46
 90
       50
102
RTVSPost2010PropOp46
 70
     1
102
RTVSPost2010Prop47
 90
       50
102
RTVSPost2010PropOp47
 70
     1
102
RTVSPost2010Prop48
 90
       50
102
RTVSPost2010PropOp48
 70
     1
102
RTVSPost2010Prop49
280
     0
102
RTVSPost2010PropOp49
 70
     1
102
RTVSPost2010Prop50
 90
       50
102
RTVSPost2010PropOp50
 70
     1
102
RTVSPost2010Prop51ColorIndex
 90
      256
102
RTVSPost2010Prop51ColorRGB
 90
-16777216
102
RTVSPost2010PropOp51
 70
     0
102
RTVSPost2010Prop52
140
1.0
102
RTVSPost2010PropOp52
 70
     0
102
RTVSPost2010Prop53
 90
        2
102
RTVSPost2010PropOp53
 70
     1
102
RTVSPost2010Prop54
  1
strokes_ogs.tif
102
RTVSPost2010PropOp54
 70
     1
102
RTVSPost2010Prop55
280
     0
102
RTVSPost2010PropOp55
 70
     1
102
RTVSPost2010Prop56
140
1.0
102
RTVSPost2010PropOp56
 70
     1
102
RTVSPost2010Prop57
140
1.0
102
RTVSPost2010PropOp57
 70
     1
  0
XRECORD
  5
108
102
{ACAD_REACTORS
330
107
102
}
330
107
100
AcDbXrecord
280
     1
102
RTVSPost2010Prop28
280
     0
102
RTVSPost2010PropOp28
 70
     1
102
RTVSPost2010Prop29
280
     1
102
RTVSPost2010PropOp29
 70
     1
102
RTVSPost2010Prop30
280
     1
102
RTVSPost2010PropOp30
 70
     1
102
RTVSPost2010Prop31
280
     0
102
RTVSPost2010PropOp31
 70
     1
102
RTVSPost2010Prop32
280
     0
102
RTVSPost2010PropOp32
 70
     1
102
RTVSPost2010Prop33
280
     0
102
RTVSPost2010PropOp33
 70
     1
102
RTVSPost2010Prop34
280
     0
102
RTVSPost2010PropOp34
 70
     1
102
RTVSPost2010Prop35
280
     0
102
RTVSPost2010PropOp35
 70
     1
102
RTVSPost2010Prop36
280
     0
102
RTVSPost2010PropOp36
 70
     1
102
RTVSPost2010Prop37
 90
       50
102
RTVSPost2010PropOp37
 70
     1
102
RTVSPost2010Prop38
140
0.0
102
RTVSPost2010PropOp38
 70
     1
102
RTVSPost2010Prop39
140
1.0
102
RTVSPost2010PropOp39
 70
     1
102
RTVSPost2010Prop40
 90
        0
102
RTVSPost2010PropOp40
 70
     1
102
RTVSPost2010Prop41ColorIndex
 90
       18
102
RTVSPost2010Prop41ColorRGB
 90
        0
102
RTVSPost2010PropOp41
 70
     1
102
RTVSPost2010Prop42
 90
       50
102
RTVSPost2010PropOp42
 70
     1
102
RTVSPost2010Prop43
 90
        3
102
RTVSPost2010PropOp43
 70
     1
102
RTVSPost2010Prop44ColorIndex
 90
        5
102
RTVSPost2010Prop44ColorRGB
 90
      255
102
RTVSPost2010PropOp44
 70
     1
102
RTVSPost2010Prop45
280
     0
102
RTVSPost2010PropOp45
 70
     1
102
RTVSPost2010Prop46
 90
       50
102
RTVSPost2010PropOp46
 70
     1
102
RTVSPost2010Prop47
 90
       50
102
RTVSPost2010PropOp47
 70
     1
102
RTVSPost2010Prop48
 90
       50
102
RTVSPost2010PropOp48
 70
     1
102
RTVSPost2010Prop49
280
     0
102
RTVSPost2010PropOp49
 70
     1
102
RTVSPost2010Prop50
 90
       50
102
RTVSPost2010PropOp50
 70
     1
102
RTVSPost2010Prop51ColorIndex
 90
      256
102
RTVSPost2010Prop51ColorRGB
 90
-16777216
102
RTVSPost2010PropOp51
 70
     0
102
RTVSPost2010Prop52
140
1.0
102
RTVSPost2010PropOp52
 70
     0
102
RTVSPost2010Prop53
 90
        2
102
RTVSPost2010PropOp53
 70
     1
102
RTVSPost2010Prop54
  1
strokes_ogs.tif
102
RTVSPost2010PropOp54
 70
     1
102
RTVSPost2010Prop55
280
     0
102
RTVSPost2010PropOp55
 70
     1
102
RTVSPost2010Prop56
140
1.0
102
RTVSPost2010PropOp56
 70
     1
102
RTVSPost2010Prop57
140
1.0
102
RTVSPost2010PropOp57
 70
     1
  0
XRECORD
  5
10A
102
{ACAD_REACTORS
330
109
102
}
330
109
100
AcDbXrecord
280
     1
102
RTVSPost2010Prop28
280
     0
102
RTVSPost2010PropOp28
 70
     1
102
RTVSPost2010Prop29
280
     1
102
RTVSPost2010PropOp29
 70
     1
102
RTVSPost2010Prop30
280
     1
102
RTVSPost2010PropOp30
 70
     1
102
RTVSPost2010Prop31
280
     0
102
RTVSPost2010PropOp31
 70
     1
102
RTVSPost2010Prop32
280
     0
102
RTVSPost2010PropOp32
 70
     1
102
RTVSPost2010Prop33
280
     0
102
RTVSPost2010PropOp33
 70
     1
102
RTVSPost2010Prop34
280
     0
102
RTVSPost2010PropOp34
 70
     1
102
RTVSPost2010Prop35
280
     0
102
RTVSPost2010PropOp35
 70
     1
102
RTVSPost2010Prop36
280
     0
102
RTVSPost2010PropOp36
 70
     1
102
RTVSPost2010Prop37
 90
       50
102
RTVSPost2010PropOp37
 70
     1
102
RTVSPost2010Prop38
140
0.0
102
RTVSPost2010PropOp38
 70
     1
102
RTVSPost2010Prop39
140
1.0
102
RTVSPost2010PropOp39
 70
     1
102
RTVSPost2010Prop40
 90
        0
102
RTVSPost2010PropOp40
 70
     1
102
RTVSPost2010Prop41ColorIndex
 90
       18
102
RTVSPost2010Prop41ColorRGB
 90
        0
102
RTVSPost2010PropOp41
 70
     1
102
RTVSPost2010Prop42
 90
       50
102
RTVSPost2010PropOp42
 70
     1
102
RTVSPost2010Prop43
 90
        3
102
RTVSPost2010PropOp43
 70
     1
102
RTVSPost2010Prop44ColorIndex
 90
        5
102
RTVSPost2010Prop44ColorRGB
 90
      255
102
RTVSPost2010PropOp44
 70
     1
102
RTVSPost2010Prop45
280
     0
102
RTVSPost2010PropOp45
 70
     1
102
RTVSPost2010Prop46
 90
       50
102
RTVSPost2010PropOp46
 70
     1
102
RTVSPost2010Prop47
 90
       50
102
RTVSPost2010PropOp47
 70
     1
102
RTVSPost2010Prop48
 90
       50
102
RTVSPost2010PropOp48
 70
     1
102
RTVSPost2010Prop49
280
     0
102
RTVSPost2010PropOp49
 70
     1
102
RTVSPost2010Prop50
 90
       50
102
RTVSPost2010PropOp50
 70
     1
102
RTVSPost2010Prop51ColorIndex
 90
      256
102
RTVSPost2010Prop51ColorRGB
 90
-16777216
102
RTVSPost2010PropOp51
 70
     0
102
RTVSPost2010Prop52
140
1.0
102
RTVSPost2010PropOp52
 70
     0
102
RTVSPost2010Prop53
 90
        2
102
RTVSPost2010PropOp53
 70
     1
102
RTVSPost2010Prop54
  1
strokes_ogs.tif
102
RTVSPost2010PropOp54
 70
     1
102
RTVSPost2010Prop55
280
     0
102
RTVSPost2010PropOp55
 70
     1
102
RTVSPost2010Prop56
140
1.0
102
RTVSPost2010PropOp56
 70
     1
102
RTVSPost2010Prop57
140
1.0
102
RTVSPost2010PropOp57
 70
     1
  0
XRECORD
  5
10C
102
{ACAD_REACTORS
330
10B
102
}
330
10B
100
AcDbXrecord
280
     1
102
RTVSPost2010Prop28
280
     0
102
RTVSPost2010PropOp28
 70
     1
102
RTVSPost2010Prop29
280
     1
102
RTVSPost2010PropOp29
 70
     1
102
RTVSPost2010Prop30
280
     1
102
RTVSPost2010PropOp30
 70
     1
102
RTVSPost2010Prop31
280
     0
102
RTVSPost2010PropOp31
 70
     1
102
RTVSPost2010Prop32
280
     0
102
RTVSPost2010PropOp32
 70
     1
102
RTVSPost2010Prop33
280
     0
102
RTVSPost2010PropOp33
 70
     1
102
RTVSPost2010Prop34
280
     0
102
RTVSPost2010PropOp34
 70
     1
102
RTVSPost2010Prop35
280
     0
102
RTVSPost2010PropOp35
 70
     1
102
RTVSPost2010Prop36
280
     0
102
RTVSPost2010PropOp36
 70
     1
102
RTVSPost2010Prop37
 90
       50
102
RTVSPost2010PropOp37
 70
     1
102
RTVSPost2010Prop38
140
0.0
102
RTVSPost2010PropOp38
 70
     1
102
RTVSPost2010Prop39
140
1.0
102
RTVSPost2010PropOp39
 70
     1
102
RTVSPost2010Prop40
 90
        0
102
RTVSPost2010PropOp40
 70
     1
102
RTVSPost2010Prop41ColorIndex
 90
       18
102
RTVSPost2010Prop41ColorRGB
 90
        0
102
RTVSPost2010PropOp41
 70
     1
102
RTVSPost2010Prop42
 90
       50
102
RTVSPost2010PropOp42
 70
     1
102
RTVSPost2010Prop43
 90
        3
102
RTVSPost2010PropOp43
 70
     1
102
RTVSPost2010Prop44ColorIndex
 90
        5
102
RTVSPost2010Prop44ColorRGB
 90
      255
102
RTVSPost2010PropOp44
 70
     1
102
RTVSPost2010Prop45
280
     0
102
RTVSPost2010PropOp45
 70
     1
102
RTVSPost2010Prop46
 90
       50
102
RTVSPost2010PropOp46
 70
     1
102
RTVSPost2010Prop47
 90
       50
102
RTVSPost2010PropOp47
 70
     1
102
RTVSPost2010Prop48
 90
       50
102
RTVSPost2010PropOp48
 70
     1
102
RTVSPost2010Prop49
280
     0
102
RTVSPost2010PropOp49
 70
     1
102
RTVSPost2010Prop50
 90
       50
102
RTVSPost2010PropOp50
 70
     1
102
RTVSPost2010Prop51ColorIndex
 90
      256
102
RTVSPost2010Prop51ColorRGB
 90
-16777216
102
RTVSPost2010PropOp51
 70
     0
102
RTVSPost2010Prop52
140
1.0
102
RTVSPost2010PropOp52
 70
     0
102
RTVSPost2010Prop53
 90
        2
102
RTVSPost2010PropOp53
 70
     1
102
RTVSPost2010Prop54
  1
strokes_ogs.tif
102
RTVSPost2010PropOp54
 70
     1
102
RTVSPost2010Prop55
280
     0
102
RTVSPost2010PropOp55
 70
     1
102
RTVSPost2010Prop56
140
1.0
102
RTVSPost2010PropOp56
 70
     1
102
RTVSPost2010Prop57
140
1.0
102
RTVSPost2010PropOp57
 70
     1
  0
XRECORD
  5
10E
102
{ACAD_REACTORS
330
10D
102
}
330
10D
100
AcDbXrecord
280
     1
102
RTVSPost2010Prop28
280
     0
102
RTVSPost2010PropOp28
 70
     1
102
RTVSPost2010Prop29
280
     1
102
RTVSPost2010PropOp29
 70
     1
102
RTVSPost2010Prop30
280
     1
102
RTVSPost2010PropOp30
 70
     1
102
RTVSPost2010Prop31
280
     0
102
RTVSPost2010PropOp31
 70
     1
102
RTVSPost2010Prop32
280
     0
102
RTVSPost2010PropOp32
 70
     1
102
RTVSPost2010Prop33
280
     0
102
RTVSPost2010PropOp33
 70
     1
102
RTVSPost2010Prop34
280
     0
102
RTVSPost2010PropOp34
 70
     1
102
RTVSPost2010Prop35
280
     0
102
RTVSPost2010PropOp35
 70
     1
102
RTVSPost2010Prop36
280
     0
102
RTVSPost2010PropOp36
 70
     1
102
RTVSPost2010Prop37
 90
       50
102
RTVSPost2010PropOp37
 70
     1
102
RTVSPost2010Prop38
140
0.0
102
RTVSPost2010PropOp38
 70
     1
102
RTVSPost2010Prop39
140
1.0
102
RTVSPost2010PropOp39
 70
     1
102
RTVSPost2010Prop40
 90
        0
102
RTVSPost2010PropOp40
 70
     1
102
RTVSPost2010Prop41ColorIndex
 90
       18
102
RTVSPost2010Prop41ColorRGB
 90
        0
102
RTVSPost2010PropOp41
 70
     1
102
RTVSPost2010Prop42
 90
       50
102
RTVSPost2010PropOp42
 70
     1
102
RTVSPost2010Prop43
 90
        3
102
RTVSPost2010PropOp43
 70
     1
102
RTVSPost2010Prop44ColorIndex
 90
        5
102
RTVSPost2010Prop44ColorRGB
 90
      255
102
RTVSPost2010PropOp44
 70
     1
102
RTVSPost2010Prop45
280
     0
102
RTVSPost2010PropOp45
 70
     1
102
RTVSPost2010Prop46
 90
       50
102
RTVSPost2010PropOp46
 70
     1
102
RTVSPost2010Prop47
 90
       50
102
RTVSPost2010PropOp47
 70
     1
102
RTVSPost2010Prop48
 90
       50
102
RTVSPost2010PropOp48
 70
     1
102
RTVSPost2010Prop49
280
     0
102
RTVSPost2010PropOp49
 70
     1
102
RTVSPost2010Prop50
 90
       50
102
RTVSPost2010PropOp50
 70
     1
102
RTVSPost2010Prop51ColorIndex
 90
      256
102
RTVSPost2010Prop51ColorRGB
 90
-16777216
102
RTVSPost2010PropOp51
 70
     0
102
RTVSPost2010Prop52
140
1.0
102
RTVSPost2010PropOp52
 70
     0
102
RTVSPost2010Prop53
 90
        2
102
RTVSPost2010PropOp53
 70
     1
102
RTVSPost2010Prop54
  1
strokes_ogs.tif
102
RTVSPost2010PropOp54
 70
     1
102
RTVSPost2010Prop55
280
     0
102
RTVSPost2010PropOp55
 70
     1
102
RTVSPost2010Prop56
140
1.0
102
RTVSPost2010PropOp56
 70
     1
102
RTVSPost2010Prop57
140
1.0
102
RTVSPost2010PropOp57
 70
     1
  0
XRECORD
  5
116
102
{ACAD_REACTORS
330
115
102
}
330
115
100
AcDbXrecord
280
     1
102
RTVSPost2010Prop28
280
     0
102
RTVSPost2010PropOp28
 70
     1
102
RTVSPost2010Prop29
280
     1
102
RTVSPost2010PropOp29
 70
     1
102
RTVSPost2010Prop30
280
     1
102
RTVSPost2010PropOp30
 70
     1
102
RTVSPost2010Prop31
280
     0
102
RTVSPost2010PropOp31
 70
     1
102
RTVSPost2010Prop32
280
     0
102
RTVSPost2010PropOp32
 70
     1
102
RTVSPost2010Prop33
280
     0
102
RTVSPost2010PropOp33
 70
     1
102
RTVSPost2010Prop34
280
     0
102
RTVSPost2010PropOp34
 70
     1
102
RTVSPost2010Prop35
280
     0
102
RTVSPost2010PropOp35
 70
     1
102
RTVSPost2010Prop36
280
     0
102
RTVSPost2010PropOp36
 70
     1
102
RTVSPost2010Prop37
 90
       50
102
RTVSPost2010PropOp37
 70
     1
102
RTVSPost2010Prop38
140
0.0
102
RTVSPost2010PropOp38
 70
     1
102
RTVSPost2010Prop39
140
1.0
102
RTVSPost2010PropOp39
 70
     1
102
RTVSPost2010Prop40
 90
        0
102
RTVSPost2010PropOp40
 70
     1
102
RTVSPost2010Prop41ColorIndex
 90
       18
102
RTVSPost2010Prop41ColorRGB
 90
        0
102
RTVSPost2010PropOp41
 70
     1
102
RTVSPost2010Prop42
 90
       50
102
RTVSPost2010PropOp42
 70
     1
102
RTVSPost2010Prop43
 90
        3
102
RTVSPost2010PropOp43
 70
     1
102
RTVSPost2010Prop44ColorIndex
 90
        5
102
RTVSPost2010Prop44ColorRGB
 90
      255
102
RTVSPost2010PropOp44
 70
     1
102
RTVSPost2010Prop45
280
     0
102
RTVSPost2010PropOp45
 70
     1
102
RTVSPost2010Prop46
 90
       50
102
RTVSPost2010PropOp46
 70
     1
102
RTVSPost2010Prop47
 90
       50
102
RTVSPost2010PropOp47
 70
     1
102
RTVSPost2010Prop48
 90
       50
102
RTVSPost2010PropOp48
 70
     1
102
RTVSPost2010Prop49
280
     0
102
RTVSPost2010PropOp49
 70
     1
102
RTVSPost2010Prop50
 90
       50
102
RTVSPost2010PropOp50
 70
     1
102
RTVSPost2010Prop51ColorIndex
 90
      256
102
RTVSPost2010Prop51ColorRGB
 90
-16777216
102
RTVSPost2010PropOp51
 70
     0
102
RTVSPost2010Prop52
140
1.0
102
RTVSPost2010PropOp52
 70
     0
102
RTVSPost2010Prop53
 90
        2
102
RTVSPost2010PropOp53
 70
     1
102
RTVSPost2010Prop54
  1
strokes_ogs.tif
102
RTVSPost2010PropOp54
 70
     1
102
RTVSPost2010Prop55
280
     0
102
RTVSPost2010PropOp55
 70
     1
102
RTVSPost2010Prop56
140
1.0
102
RTVSPost2010PropOp56
 70
     1
102
RTVSPost2010Prop57
140
1.0
102
RTVSPost2010PropOp57
 70
     1
  0
XRECORD
  5
132
102
{ACAD_REACTORS
330
131
102
}
330
131
100
AcDbXrecord
280
     1
102
RTVSPost2010Prop28
280
     0
102
RTVSPost2010PropOp28
 70
     0
102
RTVSPost2010Prop29
280
     1
102
RTVSPost2010PropOp29
 70
     0
102
RTVSPost2010Prop30
280
     1
102
RTVSPost2010PropOp30
 70
     0
102
RTVSPost2010Prop31
280
     0
102
RTVSPost2010PropOp31
 70
     0
102
RTVSPost2010Prop32
280
     0
102
RTVSPost2010PropOp32
 70
     0
102
RTVSPost2010Prop33
280
     0
102
RTVSPost2010PropOp33
 70
     0
102
RTVSPost2010Prop34
280
     0
102
RTVSPost2010PropOp34
 70
     0
102
RTVSPost2010Prop35
280
     0
102
RTVSPost2010PropOp35
 70
     0
102
RTVSPost2010Prop36
280
     0
102
RTVSPost2010PropOp36
 70
     0
102
RTVSPost2010Prop37
 90
       50
102
RTVSPost2010PropOp37
 70
     0
102
RTVSPost2010Prop38
140
0.0
102
RTVSPost2010PropOp38
 70
     0
102
RTVSPost2010Prop39
140
1.0
102
RTVSPost2010PropOp39
 70
     0
102
RTVSPost2010Prop40
 90
        0
102
RTVSPost2010PropOp40
 70
     0
102
RTVSPost2010Prop41ColorIndex
 90
       18
102
RTVSPost2010Prop41ColorRGB
 90
        0
102
RTVSPost2010PropOp41
 70
     0
102
RTVSPost2010Prop42
 90
       50
102
RTVSPost2010PropOp42
 70
     0
102
RTVSPost2010Prop43
 90
        3
102
RTVSPost2010PropOp43
 70
     0
102
RTVSPost2010Prop44ColorIndex
 90
        5
102
RTVSPost2010Prop44ColorRGB
 90
      255
102
RTVSPost2010PropOp44
 70
     0
102
RTVSPost2010Prop45
280
     0
102
RTVSPost2010PropOp45
 70
     0
102
RTVSPost2010Prop46
 90
       50
102
RTVSPost2010PropOp46
 70
     0
102
RTVSPost2010Prop47
 90
       50
102
RTVSPost2010PropOp47
 70
     0
102
RTVSPost2010Prop48
 90
       50
102
RTVSPost2010PropOp48
 70
     0
102
RTVSPost2010Prop49
280
     0
102
RTVSPost2010PropOp49
 70
     0
102
RTVSPost2010Prop50
 90
       50
102
RTVSPost2010PropOp50
 70
     0
102
RTVSPost2010Prop51ColorIndex
 90
      256
102
RTVSPost2010Prop51ColorRGB
 90
-16777216
102
RTVSPost2010PropOp51
 70
     0
102
RTVSPost2010Prop52
140
1.0
102
RTVSPost2010PropOp52
 70
     0
102
RTVSPost2010Prop53
 90
        2
102
RTVSPost2010PropOp53
 70
     0
102
RTVSPost2010Prop54
  1
strokes_ogs.tif
102
RTVSPost2010PropOp54
 70
     0
102
RTVSPost2010Prop55
280
     0
102
RTVSPost2010PropOp55
 70
     0
102
RTVSPost2010Prop56
140
1.0
102
RTVSPost2010PropOp56
 70
     0
102
RTVSPost2010Prop57
140
1.0
102
RTVSPost2010PropOp57
 70
     0
  0
XRECORD
  5
122
102
{ACAD_REACTORS
330
121
102
}
330
121
100
AcDbXrecord
280
     1
102
RTVSPost2010Prop28
280
     0
102
RTVSPost2010PropOp28
 70
     1
102
RTVSPost2010Prop29
280
     1
102
RTVSPost2010PropOp29
 70
     1
102
RTVSPost2010Prop30
280
     1
102
RTVSPost2010PropOp30
 70
     1
102
RTVSPost2010Prop31
280
     0
102
RTVSPost2010PropOp31
 70
     1
102
RTVSPost2010Prop32
280
     0
102
RTVSPost2010PropOp32
 70
     1
102
RTVSPost2010Prop33
280
     0
102
RTVSPost2010PropOp33
 70
     1
102
RTVSPost2010Prop34
280
     0
102
RTVSPost2010PropOp34
 70
     1
102
RTVSPost2010Prop35
280
     0
102
RTVSPost2010PropOp35
 70
     1
102
RTVSPost2010Prop36
280
     0
102
RTVSPost2010PropOp36
 70
     1
102
RTVSPost2010Prop37
 90
       50
102
RTVSPost2010PropOp37
 70
     1
102
RTVSPost2010Prop38
140
0.0
102
RTVSPost2010PropOp38
 70
     1
102
RTVSPost2010Prop39
140
1.0
102
RTVSPost2010PropOp39
 70
     1
102
RTVSPost2010Prop40
 90
        0
102
RTVSPost2010PropOp40
 70
     1
102
RTVSPost2010Prop41ColorIndex
 90
       18
102
RTVSPost2010Prop41ColorRGB
 90
        0
102
RTVSPost2010PropOp41
 70
     1
102
RTVSPost2010Prop42
 90
       50
102
RTVSPost2010PropOp42
 70
     1
102
RTVSPost2010Prop43
 90
        3
102
RTVSPost2010PropOp43
 70
     1
102
RTVSPost2010Prop44ColorIndex
 90
        5
102
RTVSPost2010Prop44ColorRGB
 90
      255
102
RTVSPost2010PropOp44
 70
     1
102
RTVSPost2010Prop45
280
     0
102
RTVSPost2010PropOp45
 70
     1
102
RTVSPost2010Prop46
 90
       50
102
RTVSPost2010PropOp46
 70
     1
102
RTVSPost2010Prop47
 90
       50
102
RTVSPost2010PropOp47
 70
     1
102
RTVSPost2010Prop48
 90
       50
102
RTVSPost2010PropOp48
 70
     1
102
RTVSPost2010Prop49
280
     0
102
RTVSPost2010PropOp49
 70
     1
102
RTVSPost2010Prop50
 90
       50
102
RTVSPost2010PropOp50
 70
     1
102
RTVSPost2010Prop51ColorIndex
 90
      256
102
RTVSPost2010Prop51ColorRGB
 90
-16777216
102
RTVSPost2010PropOp51
 70
     0
102
RTVSPost2010Prop52
140
1.0
102
RTVSPost2010PropOp52
 70
     0
102
RTVSPost2010Prop53
 90
        2
102
RTVSPost2010PropOp53
 70
     1
102
RTVSPost2010Prop54
  1
strokes_ogs.tif
102
RTVSPost2010PropOp54
 70
     1
102
RTVSPost2010Prop55
280
     0
102
RTVSPost2010PropOp55
 70
     1
102
RTVSPost2010Prop56
140
1.0
102
RTVSPost2010PropOp56
 70
     1
102
RTVSPost2010Prop57
140
1.0
102
RTVSPost2010PropOp57
 70
     1
  0
XRECORD
  5
134
102
{ACAD_REACTORS
330
133
102
}
330
133
100
AcDbXrecord
280
     1
102
RTVSPost2010Prop28
280
     0
102
RTVSPost2010PropOp28
 70
     0
102
RTVSPost2010Prop29
280
     1
102
RTVSPost2010PropOp29
 70
     0
102
RTVSPost2010Prop30
280
     1
102
RTVSPost2010PropOp30
 70
     0
102
RTVSPost2010Prop31
280
     0
102
RTVSPost2010PropOp31
 70
     0
102
RTVSPost2010Prop32
280
     0
102
RTVSPost2010PropOp32
 70
     0
102
RTVSPost2010Prop33
280
     0
102
RTVSPost2010PropOp33
 70
     0
102
RTVSPost2010Prop34
280
     0
102
RTVSPost2010PropOp34
 70
     0
102
RTVSPost2010Prop35
280
     0
102
RTVSPost2010PropOp35
 70
     0
102
RTVSPost2010Prop36
280
     0
102
RTVSPost2010PropOp36
 70
     0
102
RTVSPost2010Prop37
 90
       50
102
RTVSPost2010PropOp37
 70
     0
102
RTVSPost2010Prop38
140
0.0
102
RTVSPost2010PropOp38
 70
     0
102
RTVSPost2010Prop39
140
1.0
102
RTVSPost2010PropOp39
 70
     0
102
RTVSPost2010Prop40
 90
        0
102
RTVSPost2010PropOp40
 70
     0
102
RTVSPost2010Prop41ColorIndex
 90
       18
102
RTVSPost2010Prop41ColorRGB
 90
        0
102
RTVSPost2010PropOp41
 70
     0
102
RTVSPost2010Prop42
 90
       50
102
RTVSPost2010PropOp42
 70
     0
102
RTVSPost2010Prop43
 90
        3
102
RTVSPost2010PropOp43
 70
     0
102
RTVSPost2010Prop44ColorIndex
 90
        5
102
RTVSPost2010Prop44ColorRGB
 90
      255
102
RTVSPost2010PropOp44
 70
     0
102
RTVSPost2010Prop45
280
     0
102
RTVSPost2010PropOp45
 70
     0
102
RTVSPost2010Prop46
 90
       50
102
RTVSPost2010PropOp46
 70
     0
102
RTVSPost2010Prop47
 90
       50
102
RTVSPost2010PropOp47
 70
     0
102
RTVSPost2010Prop48
 90
       50
102
RTVSPost2010PropOp48
 70
     0
102
RTVSPost2010Prop49
280
     0
102
RTVSPost2010PropOp49
 70
     0
102
RTVSPost2010Prop50
 90
       50
102
RTVSPost2010PropOp50
 70
     0
102
RTVSPost2010Prop51ColorIndex
 90
      256
102
RTVSPost2010Prop51ColorRGB
 90
-16777216
102
RTVSPost2010PropOp51
 70
     0
102
RTVSPost2010Prop52
140
1.0
102
RTVSPost2010PropOp52
 70
     0
102
RTVSPost2010Prop53
 90
        2
102
RTVSPost2010PropOp53
 70
     0
102
RTVSPost2010Prop54
  1
strokes_ogs.tif
102
RTVSPost2010PropOp54
 70
     0
102
RTVSPost2010Prop55
280
     0
102
RTVSPost2010PropOp55
 70
     0
102
RTVSPost2010Prop56
140
1.0
102
RTVSPost2010PropOp56
 70
     0
102
RTVSPost2010Prop57
140
1.0
102
RTVSPost2010PropOp57
 70
     0
  0
XRECORD
  5
11A
102
{ACAD_REACTORS
330
119
102
}
330
119
100
AcDbXrecord
280
     1
102
RTVSPost2010Prop28
280
     0
102
RTVSPost2010PropOp28
 70
     1
102
RTVSPost2010Prop29
280
     1
102
RTVSPost2010PropOp29
 70
     1
102
RTVSPost2010Prop30
280
     1
102
RTVSPost2010PropOp30
 70
     1
102
RTVSPost2010Prop31
280
     0
102
RTVSPost2010PropOp31
 70
     1
102
RTVSPost2010Prop32
280
     0
102
RTVSPost2010PropOp32
 70
     1
102
RTVSPost2010Prop33
280
     0
102
RTVSPost2010PropOp33
 70
     1
102
RTVSPost2010Prop34
280
     0
102
RTVSPost2010PropOp34
 70
     1
102
RTVSPost2010Prop35
280
     0
102
RTVSPost2010PropOp35
 70
     1
102
RTVSPost2010Prop36
280
     0
102
RTVSPost2010PropOp36
 70
     1
102
RTVSPost2010Prop37
 90
       50
102
RTVSPost2010PropOp37
 70
     1
102
RTVSPost2010Prop38
140
0.0
102
RTVSPost2010PropOp38
 70
     1
102
RTVSPost2010Prop39
140
1.0
102
RTVSPost2010PropOp39
 70
     1
102
RTVSPost2010Prop40
 90
        0
102
RTVSPost2010PropOp40
 70
     1
102
RTVSPost2010Prop41ColorIndex
 90
       18
102
RTVSPost2010Prop41ColorRGB
 90
        0
102
RTVSPost2010PropOp41
 70
     1
102
RTVSPost2010Prop42
 90
       50
102
RTVSPost2010PropOp42
 70
     1
102
RTVSPost2010Prop43
 90
        3
102
RTVSPost2010PropOp43
 70
     1
102
RTVSPost2010Prop44ColorIndex
 90
        5
102
RTVSPost2010Prop44ColorRGB
 90
      255
102
RTVSPost2010PropOp44
 70
     1
102
RTVSPost2010Prop45
280
     0
102
RTVSPost2010PropOp45
 70
     1
102
RTVSPost2010Prop46
 90
       50
102
RTVSPost2010PropOp46
 70
     1
102
RTVSPost2010Prop47
 90
       50
102
RTVSPost2010PropOp47
 70
     1
102
RTVSPost2010Prop48
 90
       50
102
RTVSPost2010PropOp48
 70
     1
102
RTVSPost2010Prop49
280
     0
102
RTVSPost2010PropOp49
 70
     1
102
RTVSPost2010Prop50
 90
       50
102
RTVSPost2010PropOp50
 70
     1
102
RTVSPost2010Prop51ColorIndex
 90
      256
102
RTVSPost2010Prop51ColorRGB
 90
-16777216
102
RTVSPost2010PropOp51
 70
     0
102
RTVSPost2010Prop52
140
1.0
102
RTVSPost2010PropOp52
 70
     0
102
RTVSPost2010Prop53
 90
        2
102
RTVSPost2010PropOp53
 70
     1
102
RTVSPost2010Prop54
  1
strokes_ogs.tif
102
RTVSPost2010PropOp54
 70
     1
102
RTVSPost2010Prop55
280
     0
102
RTVSPost2010PropOp55
 70
     1
102
RTVSPost2010Prop56
140
1.0
102
RTVSPost2010PropOp56
 70
     1
102
RTVSPost2010Prop57
140
1.0
102
RTVSPost2010PropOp57
 70
     1
  0
XRECORD
  5
130
102
{ACAD_REACTORS
330
12F
102
}
330
12F
100
AcDbXrecord
280
     1
102
RTVSPost2010Prop28
280
     0
102
RTVSPost2010PropOp28
 70
     1
102
RTVSPost2010Prop29
280
     1
102
RTVSPost2010PropOp29
 70
     1
102
RTVSPost2010Prop30
280
     1
102
RTVSPost2010PropOp30
 70
     1
102
RTVSPost2010Prop31
280
     0
102
RTVSPost2010PropOp31
 70
     1
102
RTVSPost2010Prop32
280
     0
102
RTVSPost2010PropOp32
 70
     1
102
RTVSPost2010Prop33
280
     0
102
RTVSPost2010PropOp33
 70
     1
102
RTVSPost2010Prop34
280
     0
102
RTVSPost2010PropOp34
 70
     1
102
RTVSPost2010Prop35
280
     0
102
RTVSPost2010PropOp35
 70
     1
102
RTVSPost2010Prop36
280
     0
102
RTVSPost2010PropOp36
 70
     1
102
RTVSPost2010Prop37
 90
       50
102
RTVSPost2010PropOp37
 70
     1
102
RTVSPost2010Prop38
140
0.0
102
RTVSPost2010PropOp38
 70
     1
102
RTVSPost2010Prop39
140
1.0
102
RTVSPost2010PropOp39
 70
     1
102
RTVSPost2010Prop40
 90
        0
102
RTVSPost2010PropOp40
 70
     1
102
RTVSPost2010Prop41ColorIndex
 90
       18
102
RTVSPost2010Prop41ColorRGB
 90
        0
102
RTVSPost2010PropOp41
 70
     1
102
RTVSPost2010Prop42
 90
       50
102
RTVSPost2010PropOp42
 70
     1
102
RTVSPost2010Prop43
 90
        3
102
RTVSPost2010PropOp43
 70
     1
102
RTVSPost2010Prop44ColorIndex
 90
        5
102
RTVSPost2010Prop44ColorRGB
 90
      255
102
RTVSPost2010PropOp44
 70
     1
102
RTVSPost2010Prop45
280
     0
102
RTVSPost2010PropOp45
 70
     1
102
RTVSPost2010Prop46
 90
       50
102
RTVSPost2010PropOp46
 70
     1
102
RTVSPost2010Prop47
 90
       50
102
RTVSPost2010PropOp47
 70
     1
102
RTVSPost2010Prop48
 90
       50
102
RTVSPost2010PropOp48
 70
     1
102
RTVSPost2010Prop49
280
     0
102
RTVSPost2010PropOp49
 70
     1
102
RTVSPost2010Prop50
 90
       50
102
RTVSPost2010PropOp50
 70
     1
102
RTVSPost2010Prop51ColorIndex
 90
      256
102
RTVSPost2010Prop51ColorRGB
 90
-16777216
102
RTVSPost2010PropOp51
 70
     0
102
RTVSPost2010Prop52
140
1.0
102
RTVSPost2010PropOp52
 70
     0
102
RTVSPost2010Prop53
 90
        2
102
RTVSPost2010PropOp53
 70
     1
102
RTVSPost2010Prop54
  1
strokes_ogs.tif
102
RTVSPost2010PropOp54
 70
     1
102
RTVSPost2010Prop55
280
     0
102
RTVSPost2010PropOp55
 70
     1
102
RTVSPost2010Prop56
140
1.0
102
RTVSPost2010PropOp56
 70
     1
102
RTVSPost2010Prop57
140
1.0
102
RTVSPost2010PropOp57
 70
     1
  0
XRECORD
  5
12E
102
{ACAD_REACTORS
330
12D
102
}
330
12D
100
AcDbXrecord
280
     1
102
RTVSPost2010Prop28
280
     0
102
RTVSPost2010PropOp28
 70
     1
102
RTVSPost2010Prop29
280
     1
102
RTVSPost2010PropOp29
 70
     1
102
RTVSPost2010Prop30
280
     1
102
RTVSPost2010PropOp30
 70
     1
102
RTVSPost2010Prop31
280
     0
102
RTVSPost2010PropOp31
 70
     1
102
RTVSPost2010Prop32
280
     0
102
RTVSPost2010PropOp32
 70
     1
102
RTVSPost2010Prop33
280
     0
102
RTVSPost2010PropOp33
 70
     1
102
RTVSPost2010Prop34
280
     0
102
RTVSPost2010PropOp34
 70
     1
102
RTVSPost2010Prop35
280
     0
102
RTVSPost2010PropOp35
 70
     1
102
RTVSPost2010Prop36
280
     0
102
RTVSPost2010PropOp36
 70
     1
102
RTVSPost2010Prop37
 90
       50
102
RTVSPost2010PropOp37
 70
     1
102
RTVSPost2010Prop38
140
0.0
102
RTVSPost2010PropOp38
 70
     1
102
RTVSPost2010Prop39
140
1.0
102
RTVSPost2010PropOp39
 70
     1
102
RTVSPost2010Prop40
 90
        0
102
RTVSPost2010PropOp40
 70
     1
102
RTVSPost2010Prop41ColorIndex
 90
       18
102
RTVSPost2010Prop41ColorRGB
 90
        0
102
RTVSPost2010PropOp41
 70
     1
102
RTVSPost2010Prop42
 90
       50
102
RTVSPost2010PropOp42
 70
     1
102
RTVSPost2010Prop43
 90
        3
102
RTVSPost2010PropOp43
 70
     1
102
RTVSPost2010Prop44ColorIndex
 90
        5
102
RTVSPost2010Prop44ColorRGB
 90
      255
102
RTVSPost2010PropOp44
 70
     1
102
RTVSPost2010Prop45
280
     0
102
RTVSPost2010PropOp45
 70
     1
102
RTVSPost2010Prop46
 90
       50
102
RTVSPost2010PropOp46
 70
     1
102
RTVSPost2010Prop47
 90
       50
102
RTVSPost2010PropOp47
 70
     1
102
RTVSPost2010Prop48
 90
       50
102
RTVSPost2010PropOp48
 70
     1
102
RTVSPost2010Prop49
280
     0
102
RTVSPost2010PropOp49
 70
     1
102
RTVSPost2010Prop50
 90
       50
102
RTVSPost2010PropOp50
 70
     1
102
RTVSPost2010Prop51ColorIndex
 90
      256
102
RTVSPost2010Prop51ColorRGB
 90
-16777216
102
RTVSPost2010PropOp51
 70
     0
102
RTVSPost2010Prop52
140
1.0
102
RTVSPost2010PropOp52
 70
     0
102
RTVSPost2010Prop53
 90
        2
102
RTVSPost2010PropOp53
 70
     1
102
RTVSPost2010Prop54
  1
strokes_ogs.tif
102
RTVSPost2010PropOp54
 70
     1
102
RTVSPost2010Prop55
280
     0
102
RTVSPost2010PropOp55
 70
     1
102
RTVSPost2010Prop56
140
1.0
102
RTVSPost2010PropOp56
 70
     1
102
RTVSPost2010Prop57
140
1.0
102
RTVSPost2010PropOp57
 70
     1
  0
XRECORD
  5
128
102
{ACAD_REACTORS
330
127
102
}
330
127
100
AcDbXrecord
280
     1
102
RTVSPost2010Prop28
280
     0
102
RTVSPost2010PropOp28
 70
     1
102
RTVSPost2010Prop29
280
     1
102
RTVSPost2010PropOp29
 70
     1
102
RTVSPost2010Prop30
280
     1
102
RTVSPost2010PropOp30
 70
     1
102
RTVSPost2010Prop31
280
     0
102
RTVSPost2010PropOp31
 70
     1
102
RTVSPost2010Prop32
280
     0
102
RTVSPost2010PropOp32
 70
     1
102
RTVSPost2010Prop33
280
     0
102
RTVSPost2010PropOp33
 70
     1
102
RTVSPost2010Prop34
280
     0
102
RTVSPost2010PropOp34
 70
     1
102
RTVSPost2010Prop35
280
     0
102
RTVSPost2010PropOp35
 70
     1
102
RTVSPost2010Prop36
280
     0
102
RTVSPost2010PropOp36
 70
     1
102
RTVSPost2010Prop37
 90
       50
102
RTVSPost2010PropOp37
 70
     1
102
RTVSPost2010Prop38
140
0.0
102
RTVSPost2010PropOp38
 70
     1
102
RTVSPost2010Prop39
140
1.0
102
RTVSPost2010PropOp39
 70
     1
102
RTVSPost2010Prop40
 90
        0
102
RTVSPost2010PropOp40
 70
     1
102
RTVSPost2010Prop41ColorIndex
 90
       18
102
RTVSPost2010Prop41ColorRGB
 90
        0
102
RTVSPost2010PropOp41
 70
     1
102
RTVSPost2010Prop42
 90
       50
102
RTVSPost2010PropOp42
 70
     1
102
RTVSPost2010Prop43
 90
        3
102
RTVSPost2010PropOp43
 70
     1
102
RTVSPost2010Prop44ColorIndex
 90
        5
102
RTVSPost2010Prop44ColorRGB
 90
      255
102
RTVSPost2010PropOp44
 70
     1
102
RTVSPost2010Prop45
280
     0
102
RTVSPost2010PropOp45
 70
     1
102
RTVSPost2010Prop46
 90
       50
102
RTVSPost2010PropOp46
 70
     1
102
RTVSPost2010Prop47
 90
       50
102
RTVSPost2010PropOp47
 70
     1
102
RTVSPost2010Prop48
 90
       50
102
RTVSPost2010PropOp48
 70
     1
102
RTVSPost2010Prop49
280
     0
102
RTVSPost2010PropOp49
 70
     1
102
RTVSPost2010Prop50
 90
       50
102
RTVSPost2010PropOp50
 70
     1
102
RTVSPost2010Prop51ColorIndex
 90
      256
102
RTVSPost2010Prop51ColorRGB
 90
-16777216
102
RTVSPost2010PropOp51
 70
     0
102
RTVSPost2010Prop52
140
1.0
102
RTVSPost2010PropOp52
 70
     0
102
RTVSPost2010Prop53
 90
        2
102
RTVSPost2010PropOp53
 70
     1
102
RTVSPost2010Prop54
  1
strokes_ogs.tif
102
RTVSPost2010PropOp54
 70
     1
102
RTVSPost2010Prop55
280
     0
102
RTVSPost2010PropOp55
 70
     1
102
RTVSPost2010Prop56
140
1.0
102
RTVSPost2010PropOp56
 70
     1
102
RTVSPost2010Prop57
140
1.0
102
RTVSPost2010PropOp57
 70
     1
  0
XRECORD
  5
12A
102
{ACAD_REACTORS
330
129
102
}
330
129
100
AcDbXrecord
280
     1
102
RTVSPost2010Prop28
280
     0
102
RTVSPost2010PropOp28
 70
     1
102
RTVSPost2010Prop29
280
     1
102
RTVSPost2010PropOp29
 70
     1
102
RTVSPost2010Prop30
280
     1
102
RTVSPost2010PropOp30
 70
     1
102
RTVSPost2010Prop31
280
     0
102
RTVSPost2010PropOp31
 70
     1
102
RTVSPost2010Prop32
280
     0
102
RTVSPost2010PropOp32
 70
     1
102
RTVSPost2010Prop33
280
     0
102
RTVSPost2010PropOp33
 70
     1
102
RTVSPost2010Prop34
280
     0
102
RTVSPost2010PropOp34
 70
     1
102
RTVSPost2010Prop35
280
     0
102
RTVSPost2010PropOp35
 70
     1
102
RTVSPost2010Prop36
280
     0
102
RTVSPost2010PropOp36
 70
     1
102
RTVSPost2010Prop37
 90
       50
102
RTVSPost2010PropOp37
 70
     1
102
RTVSPost2010Prop38
140
0.0
102
RTVSPost2010PropOp38
 70
     1
102
RTVSPost2010Prop39
140
1.0
102
RTVSPost2010PropOp39
 70
     1
102
RTVSPost2010Prop40
 90
        0
102
RTVSPost2010PropOp40
 70
     1
102
RTVSPost2010Prop41ColorIndex
 90
       18
102
RTVSPost2010Prop41ColorRGB
 90
        0
102
RTVSPost2010PropOp41
 70
     1
102
RTVSPost2010Prop42
 90
       50
102
RTVSPost2010PropOp42
 70
     1
102
RTVSPost2010Prop43
 90
        3
102
RTVSPost2010PropOp43
 70
     1
102
RTVSPost2010Prop44ColorIndex
 90
        5
102
RTVSPost2010Prop44ColorRGB
 90
      255
102
RTVSPost2010PropOp44
 70
     1
102
RTVSPost2010Prop45
280
     0
102
RTVSPost2010PropOp45
 70
     1
102
RTVSPost2010Prop46
 90
       50
102
RTVSPost2010PropOp46
 70
     1
102
RTVSPost2010Prop47
 90
       50
102
RTVSPost2010PropOp47
 70
     1
102
RTVSPost2010Prop48
 90
       50
102
RTVSPost2010PropOp48
 70
     1
102
RTVSPost2010Prop49
280
     0
102
RTVSPost2010PropOp49
 70
     1
102
RTVSPost2010Prop50
 90
       50
102
RTVSPost2010PropOp50
 70
     1
102
RTVSPost2010Prop51ColorIndex
 90
      256
102
RTVSPost2010Prop51ColorRGB
 90
-16777216
102
RTVSPost2010PropOp51
 70
     0
102
RTVSPost2010Prop52
140
1.0
102
RTVSPost2010PropOp52
 70
     0
102
RTVSPost2010Prop53
 90
        2
102
RTVSPost2010PropOp53
 70
     1
102
RTVSPost2010Prop54
  1
strokes_ogs.tif
102
RTVSPost2010PropOp54
 70
     1
102
RTVSPost2010Prop55
280
     0
102
RTVSPost2010PropOp55
 70
     1
102
RTVSPost2010Prop56
140
1.0
102
RTVSPost2010PropOp56
 70
     1
102
RTVSPost2010Prop57
140
1.0
102
RTVSPost2010PropOp57
 70
     1
  0
XRECORD
  5
120
102
{ACAD_REACTORS
330
11F
102
}
330
11F
100
AcDbXrecord
280
     1
102
RTVSPost2010Prop28
280
     0
102
RTVSPost2010PropOp28
 70
     1
102
RTVSPost2010Prop29
280
     1
102
RTVSPost2010PropOp29
 70
     1
102
RTVSPost2010Prop30
280
     1
102
RTVSPost2010PropOp30
 70
     1
102
RTVSPost2010Prop31
280
     0
102
RTVSPost2010PropOp31
 70
     1
102
RTVSPost2010Prop32
280
     0
102
RTVSPost2010PropOp32
 70
     1
102
RTVSPost2010Prop33
280
     0
102
RTVSPost2010PropOp33
 70
     1
102
RTVSPost2010Prop34
280
     0
102
RTVSPost2010PropOp34
 70
     1
102
RTVSPost2010Prop35
280
     0
102
RTVSPost2010PropOp35
 70
     1
102
RTVSPost2010Prop36
280
     0
102
RTVSPost2010PropOp36
 70
     1
102
RTVSPost2010Prop37
 90
       50
102
RTVSPost2010PropOp37
 70
     1
102
RTVSPost2010Prop38
140
0.0
102
RTVSPost2010PropOp38
 70
     1
102
RTVSPost2010Prop39
140
1.0
102
RTVSPost2010PropOp39
 70
     1
102
RTVSPost2010Prop40
 90
        0
102
RTVSPost2010PropOp40
 70
     1
102
RTVSPost2010Prop41ColorIndex
 90
       18
102
RTVSPost2010Prop41ColorRGB
 90
        0
102
RTVSPost2010PropOp41
 70
     1
102
RTVSPost2010Prop42
 90
       50
102
RTVSPost2010PropOp42
 70
     1
102
RTVSPost2010Prop43
 90
        3
102
RTVSPost2010PropOp43
 70
     1
102
RTVSPost2010Prop44ColorIndex
 90
        5
102
RTVSPost2010Prop44ColorRGB
 90
      255
102
RTVSPost2010PropOp44
 70
     1
102
RTVSPost2010Prop45
280
     0
102
RTVSPost2010PropOp45
 70
     1
102
RTVSPost2010Prop46
 90
       50
102
RTVSPost2010PropOp46
 70
     1
102
RTVSPost2010Prop47
 90
       50
102
RTVSPost2010PropOp47
 70
     1
102
RTVSPost2010Prop48
 90
       50
102
RTVSPost2010PropOp48
 70
     1
102
RTVSPost2010Prop49
280
     0
102
RTVSPost2010PropOp49
 70
     1
102
RTVSPost2010Prop50
 90
       50
102
RTVSPost2010PropOp50
 70
     1
102
RTVSPost2010Prop51ColorIndex
 90
      256
102
RTVSPost2010Prop51ColorRGB
 90
-16777216
102
RTVSPost2010PropOp51
 70
     0
102
RTVSPost2010Prop52
140
1.0
102
RTVSPost2010PropOp52
 70
     0
102
RTVSPost2010Prop53
 90
        2
102
RTVSPost2010PropOp53
 70
     1
102
RTVSPost2010Prop54
  1
strokes_ogs.tif
102
RTVSPost2010PropOp54
 70
     1
102
RTVSPost2010Prop55
280
     0
102
RTVSPost2010PropOp55
 70
     1
102
RTVSPost2010Prop56
140
1.0
102
RTVSPost2010PropOp56
 70
     1
102
RTVSPost2010Prop57
140
1.0
102
RTVSPost2010PropOp57
 70
     1
  0
XRECORD
  5
114
102
{ACAD_REACTORS
330
113
102
}
330
113
100
AcDbXrecord
280
     1
102
RTVSPost2010Prop28
280
     0
102
RTVSPost2010PropOp28
 70
     1
102
RTVSPost2010Prop29
280
     1
102
RTVSPost2010PropOp29
 70
     1
102
RTVSPost2010Prop30
280
     1
102
RTVSPost2010PropOp30
 70
     1
102
RTVSPost2010Prop31
280
     0
102
RTVSPost2010PropOp31
 70
     1
102
RTVSPost2010Prop32
280
     0
102
RTVSPost2010PropOp32
 70
     1
102
RTVSPost2010Prop33
280
     0
102
RTVSPost2010PropOp33
 70
     1
102
RTVSPost2010Prop34
280
     0
102
RTVSPost2010PropOp34
 70
     1
102
RTVSPost2010Prop35
280
     0
102
RTVSPost2010PropOp35
 70
     1
102
RTVSPost2010Prop36
280
     0
102
RTVSPost2010PropOp36
 70
     1
102
RTVSPost2010Prop37
 90
       50
102
RTVSPost2010PropOp37
 70
     1
102
RTVSPost2010Prop38
140
0.0
102
RTVSPost2010PropOp38
 70
     1
102
RTVSPost2010Prop39
140
1.0
102
RTVSPost2010PropOp39
 70
     1
102
RTVSPost2010Prop40
 90
        0
102
RTVSPost2010PropOp40
 70
     1
102
RTVSPost2010Prop41ColorIndex
 90
       18
102
RTVSPost2010Prop41ColorRGB
 90
        0
102
RTVSPost2010PropOp41
 70
     1
102
RTVSPost2010Prop42
 90
       50
102
RTVSPost2010PropOp42
 70
     1
102
RTVSPost2010Prop43
 90
        3
102
RTVSPost2010PropOp43
 70
     1
102
RTVSPost2010Prop44ColorIndex
 90
        5
102
RTVSPost2010Prop44ColorRGB
 90
      255
102
RTVSPost2010PropOp44
 70
     1
102
RTVSPost2010Prop45
280
     0
102
RTVSPost2010PropOp45
 70
     1
102
RTVSPost2010Prop46
 90
       50
102
RTVSPost2010PropOp46
 70
     1
102
RTVSPost2010Prop47
 90
       50
102
RTVSPost2010PropOp47
 70
     1
102
RTVSPost2010Prop48
 90
       50
102
RTVSPost2010PropOp48
 70
     1
102
RTVSPost2010Prop49
280
     0
102
RTVSPost2010PropOp49
 70
     1
102
RTVSPost2010Prop50
 90
       50
102
RTVSPost2010PropOp50
 70
     1
102
RTVSPost2010Prop51ColorIndex
 90
      256
102
RTVSPost2010Prop51ColorRGB
 90
-16777216
102
RTVSPost2010PropOp51
 70
     0
102
RTVSPost2010Prop52
140
1.0
102
RTVSPost2010PropOp52
 70
     0
102
RTVSPost2010Prop53
 90
        2
102
RTVSPost2010PropOp53
 70
     1
102
RTVSPost2010Prop54
  1
strokes_ogs.tif
102
RTVSPost2010PropOp54
 70
     1
102
RTVSPost2010Prop55
280
     0
102
RTVSPost2010PropOp55
 70
     1
102
RTVSPost2010Prop56
140
1.0
102
RTVSPost2010PropOp56
 70
     1
102
RTVSPost2010Prop57
140
1.0
102
RTVSPost2010PropOp57
 70
     1
  0
XRECORD
  5
12C
102
{ACAD_REACTORS
330
12B
102
}
330
12B
100
AcDbXrecord
280
     1
102
RTVSPost2010Prop28
280
     0
102
RTVSPost2010PropOp28
 70
     1
102
RTVSPost2010Prop29
280
     1
102
RTVSPost2010PropOp29
 70
     1
102
RTVSPost2010Prop30
280
     1
102
RTVSPost2010PropOp30
 70
     1
102
RTVSPost2010Prop31
280
     0
102
RTVSPost2010PropOp31
 70
     1
102
RTVSPost2010Prop32
280
     0
102
RTVSPost2010PropOp32
 70
     1
102
RTVSPost2010Prop33
280
     0
102
RTVSPost2010PropOp33
 70
     1
102
RTVSPost2010Prop34
280
     0
102
RTVSPost2010PropOp34
 70
     1
102
RTVSPost2010Prop35
280
     0
102
RTVSPost2010PropOp35
 70
     1
102
RTVSPost2010Prop36
280
     0
102
RTVSPost2010PropOp36
 70
     1
102
RTVSPost2010Prop37
 90
       50
102
RTVSPost2010PropOp37
 70
     1
102
RTVSPost2010Prop38
140
0.0
102
RTVSPost2010PropOp38
 70
     1
102
RTVSPost2010Prop39
140
1.0
102
RTVSPost2010PropOp39
 70
     1
102
RTVSPost2010Prop40
 90
        0
102
RTVSPost2010PropOp40
 70
     1
102
RTVSPost2010Prop41ColorIndex
 90
       18
102
RTVSPost2010Prop41ColorRGB
 90
        0
102
RTVSPost2010PropOp41
 70
     1
102
RTVSPost2010Prop42
 90
       50
102
RTVSPost2010PropOp42
 70
     1
102
RTVSPost2010Prop43
 90
        3
102
RTVSPost2010PropOp43
 70
     1
102
RTVSPost2010Prop44ColorIndex
 90
        5
102
RTVSPost2010Prop44ColorRGB
 90
      255
102
RTVSPost2010PropOp44
 70
     1
102
RTVSPost2010Prop45
280
     0
102
RTVSPost2010PropOp45
 70
     1
102
RTVSPost2010Prop46
 90
       50
102
RTVSPost2010PropOp46
 70
     1
102
RTVSPost2010Prop47
 90
       50
102
RTVSPost2010PropOp47
 70
     1
102
RTVSPost2010Prop48
 90
       50
102
RTVSPost2010PropOp48
 70
     1
102
RTVSPost2010Prop49
280
     0
102
RTVSPost2010PropOp49
 70
     1
102
RTVSPost2010Prop50
 90
       50
102
RTVSPost2010PropOp50
 70
     1
102
RTVSPost2010Prop51ColorIndex
 90
      256
102
RTVSPost2010Prop51ColorRGB
 90
-16777216
102
RTVSPost2010PropOp51
 70
     0
102
RTVSPost2010Prop52
140
1.0
102
RTVSPost2010PropOp52
 70
     0
102
RTVSPost2010Prop53
 90
        2
102
RTVSPost2010PropOp53
 70
     1
102
RTVSPost2010Prop54
  1
strokes_ogs.tif
102
RTVSPost2010PropOp54
 70
     1
102
RTVSPost2010Prop55
280
     0
102
RTVSPost2010PropOp55
 70
     1
102
RTVSPost2010Prop56
140
1.0
102
RTVSPost2010PropOp56
 70
     1
102
RTVSPost2010Prop57
140
1.0
102
RTVSPost2010PropOp57
 70
     1
  0
ENDSEC
  0
EOF
