  0
SECTION
  2
HEADER
  9
$ACADVER
  1
AC1024
  9
$ACADMAINTVER
 70
     6
  9
$DWGCODEPAGE
  3
UNDEFINED
  9
$INSBASE
 10
0.0
 20
0.0
 30
0.0
  9
$EXTMIN
 10
1.000000000000000E+20
 20
1.000000000000000E+20
 30
1.000000000000000E+20
  9
$EXTMAX
 10
-1.000000000000000E+20
 20
-1.000000000000000E+20
 30
-1.000000000000000E+20
  9
$LIMMIN
 10
0.0
 20
0.0
  9
$LIMMAX
 10
12.0
 20
9.0
  9
$ORTHOMODE
 70
     0
  9
$REGENMODE
 70
     1
  9
$FILLMODE
 70
     1
  9
$QTEXTMODE
 70
     0
  9
$MIRRTEXT
 70
     1
  9
$LTSCALE
 40
1.0
  9
$ATTMODE
 70
     1
  9
$TEXTSIZE
 40
0.2
  9
$TRACEWID
 40
0.05
  9
$TEXTSTYLE
  7
Standard
  9
$CLAYER
  8
0
  9
$CELTYPE
  6
ByLayer
  9
$CECOLOR
 62
   256
  9
$CELTSCALE
 40
1.0
  9
$DISPSILH
 70
     0
  9
$DIMSCALE
 40
1.0
  9
$DIMASZ
 40
0.18
  9
$DIMEXO
 40
0.0625
  9
$DIMDLI
 40
0.38
  9
$DIMRND
 40
0.0
  9
$DIMDLE
 40
0.0
  9
$DIMEXE
 40
0.18
  9
$DIMTP
 40
0.0
  9
$DIMTM
 40
0.0
  9
$DIMTXT
 40
0.18
  9
$DIMCEN
 40
0.09
  9
$DIMTSZ
 40
0.0
  9
$DIMTOL
 70
     0
  9
$DIMLIM
 70
     0
  9
$DIMTIH
 70
     1
  9
$DIMTOH
 70
     1
  9
$DIMSE1
 70
     0
  9
$DIMSE2
 70
     0
  9
$DIMTAD
 70
     0
  9
$DIMZIN
 70
     0
  9
$DIMBLK
  1

  9
$DIMASO
 70
     1
  9
$DIMSHO
 70
     1
  9
$DIMPOST
  1

  9
$DIMAPOST
  1

  9
$DIMALT
 70
     0
  9
$DIMALTD
 70
     2
  9
$DIMALTF
 40
25.4
  9
$DIMLFAC
 40
1.0
  9
$DIMTOFL
 70
     0
  9
$DIMTVP
 40
0.0
  9
$DIMTIX
 70
     0
  9
$DIMSOXD
 70
     0
  9
$DIMSAH
 70
     0
  9
$DIMBLK1
  1

  9
$DIMBLK2
  1

  9
$DIMSTYLE
  2
Standard
  9
$DIMCLRD
 70
     0
  9
$DIMCLRE
 70
     0
  9
$DIMCLRT
 70
     0
  9
$DIMTFAC
 40
1.0
  9
$DIMGAP
 40
0.09
  9
$DIMJUST
 70
     0
  9
$DIMSD1
 70
     0
  9
$DIMSD2
 70
     0
  9
$DIMTOLJ
 70
     1
  9
$DIMTZIN
 70
     0
  9
$DIMALTZ
 70
     0
  9
$DIMALTTZ
 70
     0
  9
$DIMUPT
 70
     0
  9
$DIMDEC
 70
     4
  9
$DIMTDEC
 70
     4
  9
$DIMALTU
 70
     2
  9
$DIMALTTD
 70
     2
  9
$DIMTXSTY
  7
Standard
  9
$DIMAUNIT
 70
     0
  9
$DIMADEC
 70
     0
  9
$DIMALTRND
 40
0.0
  9
$DIMAZIN
 70
     0
  9
$DIMDSEP
 70
    46
  9
$DIMATFIT
 70
     3
  9
$DIMFRAC
 70
     0
  9
$DIMLDRBLK
  1

  9
$DIMLUNIT
 70
     2
  9
$DIMLWD
 70
    -2
  9
$DIMLWE
 70
    -2
  9
$DIMTMOVE
 70
     0
  9
$DIMFXL
 40
1.0
  9
$DIMFXLON
 70
     0
  9
$DIMJOGANG
 40
0.7853981633974483
  9
$DIMTFILL
 70
     0
  9
$DIMTFILLCLR
 70
     0
  9
$DIMARCSYM
 70
     0
  9
$DIMLTYPE
  6

  9
$DIMLTEX1
  6

  9
$DIMLTEX2
  6

  9
$DIMTXTDIRECTION
 70
     0
  9
$LUNITS
 70
     2
  9
$LUPREC
 70
     4
  9
$SKETCHINC
 40
0.1
  9
$FILLETRAD
 40
0.5
  9
$AUNITS
 70
     0
  9
$AUPREC
 70
     0
  9
$MENU
  1
.
  9
$ELEVATION
 40
0.0
  9
$PELEVATION
 40
0.0
  9
$THICKNESS
 40
0.0
  9
$LIMCHECK
 70
     0
  9
$CHAMFERA
 40
0.5
  9
$CHAMFERB
 40
0.5
  9
$CHAMFERC
 40
1.0
  9
$CHAMFERD
 40
0.0
  9
$SKPOLY
 70
     0
  9
$TDCREATE
 40
2458263.5746875
  9
$TDUCREATE
 40
2458263.1996875
  9
$TDUPDATE
 40
2458263.5746875
  9
$TDUUPDATE
 40
2458263.1996875
  9
$TDINDWG
 40
0.0000000116
  9
$TDUSRTIMER
 40
0.0000000116
  9
$USRTIMER
 70
     1
  9
$ANGBASE
 50
0.0
  9
$ANGDIR
 70
     0
  9
$PDMODE
 70
     0
  9
$PDSIZE
 40
0.0
  9
$PLINEWID
 40
0.0
  9
$SPLFRAME
 70
     0
  9
$SPLINETYPE
 70
     6
  9
$SPLINESEGS
 70
     8
  9
$HANDSEED
  5
110
  9
$SURFTAB1
 70
     6
  9
$SURFTAB2
 70
     6
  9
$SURFTYPE
 70
     6
  9
$SURFU
 70
     6
  9
$SURFV
 70
     6
  9
$UCSBASE
  2

  9
$UCSNAME
  2

  9
$UCSORG
 10
0.0
 20
0.0
 30
0.0
  9
$UCSXDIR
 10
1.0
 20
0.0
 30
0.0
  9
$UCSYDIR
 10
0.0
 20
1.0
 30
0.0
  9
$UCSORTHOREF
  2

  9
$UCSORTHOVIEW
 70
     0
  9
$UCSORGTOP
 10
0.0
 20
0.0
 30
0.0
  9
$UCSORGBOTTOM
 10
0.0
 20
0.0
 30
0.0
  9
$UCSORGLEFT
 10
0.0
 20
0.0
 30
0.0
  9
$UCSORGRIGHT
 10
0.0
 20
0.0
 30
0.0
  9
$UCSORGFRONT
 10
0.0
 20
0.0
 30
0.0
  9
$UCSORGBACK
 10
0.0
 20
0.0
 30
0.0
  9
$PUCSBASE
  2

  9
$PUCSNAME
  2

  9
$PUCSORG
 10
0.0
 20
0.0
 30
0.0
  9
$PUCSXDIR
 10
1.0
 20
0.0
 30
0.0
  9
$PUCSYDIR
 10
0.0
 20
1.0
 30
0.0
  9
$PUCSORTHOREF
  2

  9
$PUCSORTHOVIEW
 70
     0
  9
$PUCSORGTOP
 10
0.0
 20
0.0
 30
0.0
  9
$PUCSORGBOTTOM
 10
0.0
 20
0.0
 30
0.0
  9
$PUCSORGLEFT
 10
0.0
 20
0.0
 30
0.0
  9
$PUCSORGRIGHT
 10
0.0
 20
0.0
 30
0.0
  9
$PUCSORGFRONT
 10
0.0
 20
0.0
 30
0.0
  9
$PUCSORGBACK
 10
0.0
 20
0.0
 30
0.0
  9
$USERI1
 70
     0
  9
$USERI2
 70
     0
  9
$USERI3
 70
     0
  9
$USERI4
 70
     0
  9
$USERI5
 70
     0
  9
$USERR1
 40
0.0
  9
$USERR2
 40
0.0
  9
$USERR3
 40
0.0
  9
$USERR4
 40
0.0
  9
$USERR5
 40
0.0
  9
$WORLDVIEW
 70
     1
  9
$SHADEDGE
 70
     3
  9
$SHADEDIF
 70
    70
  9
$TILEMODE
 70
     1
  9
$MAXACTVP
 70
    64
  9
$PINSBASE
 10
0.0
 20
0.0
 30
0.0
  9
$PLIMCHECK
 70
     0
  9
$PEXTMIN
 10
1.000000000000000E+20
 20
1.000000000000000E+20
 30
1.000000000000000E+20
  9
$PEXTMAX
 10
-1.000000000000000E+20
 20
-1.000000000000000E+20
 30
-1.000000000000000E+20
  9
$PLIMMIN
 10
0.0
 20
0.0
  9
$PLIMMAX
 10
12.0
 20
9.0
  9
$UNITMODE
 70
     0
  9
$VISRETAIN
 70
     1
  9
$PLINEGEN
 70
     0
  9
$PSLTSCALE
 70
     1
  9
$TREEDEPTH
 70
  3020
  9
$CMLSTYLE
  2
Standard
  9
$CMLJUST
 70
     0
  9
$CMLSCALE
 40
1.0
  9
$PROXYGRAPHICS
 70
     1
  9
$MEASUREMENT
 70
     0
  9
$CELWEIGHT
370
    -1
  9
$ENDCAPS
280
     0
  9
$JOINSTYLE
280
     0
  9
$LWDISPLAY
290
     1
  9
$INSUNITS
 70
     1
  9
$HYPERLINKBASE
  1

  9
$STYLESHEET
  1

  9
$XEDIT
290
     1
  9
$CEPSNTYPE
380
     0
  9
$PSTYLEMODE
290
     1
  9
$FINGERPRINTGUID
  2
{CC550CA3-D6CB-711B-332F-199BECC26AE0}
  9
$VERSIONGUID
  2
{FAEB1C32-E019-11D5-929B-00C0DF256EC4}
  9
$EXTNAMES
290
     1
  9
$PSVPSCALE
 40
0.0
  9
$OLESTARTUP
290
     0
  9
$SORTENTS
280
   127
  9
$INDEXCTL
280
     0
  9
$HIDETEXT
280
     1
  9
$XCLIPFRAME
280
     2
  9
$HALOGAP
280
     0
  9
$OBSCOLOR
 70
   257
  9
$OBSLTYPE
280
     0
  9
$INTERSECTIONDISPLAY
280
     0
  9
$INTERSECTIONCOLOR
 70
   257
  9
$DIMASSOC
280
     2
  9
$PROJECTNAME
  1

  9
$CAMERADISPLAY
290
     0
  9
$LENSLENGTH
 40
50.0
  9
$CAMERAHEIGHT
 40
0.0
  9
$STEPSPERSEC
 40
2.0
  9
$STEPSIZE
 40
6.0
  9
$3DDWFPREC
 40
2.0
  9
$PSOLWIDTH
 40
0.25
  9
$PSOLHEIGHT
 40
4.0
  9
$LOFTANG1
 40
1.570796326794897
  9
$LOFTANG2
 40
1.570796326794897
  9
$LOFTMAG1
 40
0.0
  9
$LOFTMAG2
 40
0.0
  9
$LOFTPARAM
 70
     7
  9
$LOFTNORMALS
280
     1
  9
$LATITUDE
 40
37.795
  9
$LONGITUDE
 40
-122.394
  9
$NORTHDIRECTION
 40
0.0
  9
$TIMEZONE
 70
 -8000
  9
$LIGHTGLYPHDISPLAY
280
     1
  9
$TILEMODELIGHTSYNCH
280
     1
  9
$CMATERIAL
347
3C
  9
$SOLIDHIST
280
     1
  9
$SHOWHIST
280
     1
  9
$DWFFRAME
280
     2
  9
$DGNFRAME
280
     2
  9
$REALWORLDSCALE
290
     1
  9
$INTERFERECOLOR
 62
   256
  9
$CSHADOW
280
     0
  9
$SHADOWPLANELOCATION
 40
0.0
  0
ENDSEC
  0
SECTION
  2
CLASSES
  0
CLASS
  1
ACDBDICTIONARYWDFLT
  2
AcDbDictionaryWithDefault
  3
ObjectDBX Classes
 90
        0
 91
        4
280
     0
281
     0
  0
CLASS
  1
VISUALSTYLE
  2
AcDbVisualStyle
  3
ObjectDBX Classes
 90
     4095
 91
        4
280
     0
281
     0
  0
CLASS
  1
MATERIAL
  2
AcDbMaterial
  3
ObjectDBX Classes
 90
     1153
 91
        4
280
     0
281
     0
  0
CLASS
  1
SUN
  2
AcDbSun
  3
SCENEOE
 90
     1024
 91
        4
280
     0
281
     0
  0
ENDSEC
  0
SECTION
  2
TABLES
  0
TABLE
  2
VPORT
  5
8
330
0
100
AcDbSymbolTable
 70
     1
  0
VPORT
  5
29
330
8
100
AcDbSymbolTableRecord
100
AcDbViewportTableRecord
  2
*Active
 70
     0
 10
0.0
 20
0.0
 11
1.0
 21
1.0
 12
0.0
 22
0.0
 13
0.0
 23
0.0
 14
0.5
 24
0.5
 15
0.5
 25
0.5
 16
0.0
 26
0.0
 36
1.0
 17
105.0007777515277
 27
-148.5000416295416
 37
0.0
 40
297.0000832590831
 41
0.7070757462376333
 42
50.0
 43
0.0
 44
0.0
 50
0.0
 51
0.0
 71
     0
 72
   100
 73
     1
 74
     3
 75
     0
 76
     0
 77
     0
 78
     0
281
     0
 65
     1
110
0.0
120
0.0
130
0.0
111
1.0
121
0.0
131
0.0
112
0.0
122
1.0
132
0.0
 79
     0
146
0.0
 60
     3
 61
     5
292
     1
282
     1
141
0.0
142
0.0
 63
   250
361
3F
  0
ENDTAB
  0
TABLE
  2
LTYPE
  5
5
330
0
100
AcDbSymbolTable
 70
     1
  0
LTYPE
  5
14
330
5
100
AcDbSymbolTableRecord
100
AcDbLinetypeTableRecord
  2
ByBlock
 70
     0
  3

 72
    65
 73
     0
 40
0.0
  0
LTYPE
  5
15
330
5
100
AcDbSymbolTableRecord
100
AcDbLinetypeTableRecord
  2
ByLayer
 70
     0
  3

 72
    65
 73
     0
 40
0.0
  0
LTYPE
  5
16
330
5
100
AcDbSymbolTableRecord
100
AcDbLinetypeTableRecord
  2
Continuous
 70
     0
  3
Solid line
 72
    65
 73
     0
 40
0.0
  0
ENDTAB
  0
TABLE
  2
LAYER
  5
2
330
0
100
AcDbSymbolTable
 70
     2
  0
LAYER
  5
10
330
2
100
AcDbSymbolTableRecord
100
AcDbLayerTableRecord
  2
0
 70
     0
 62
     7
  6
Continuous
370
    -3
390
F
347
3E
  0
LAYER
  5
40
330
2
100
AcDbSymbolTableRecord
100
AcDbLayerTableRecord
  2
_U+30EC_U+30A4_U+30E4_U+30FC 1
 70
     0
 62
     7
  6
Continuous
370
    -3
390
F
347
3E
  0
ENDTAB
  0
TABLE
  2
STYLE
  5
3
330
0
100
AcDbSymbolTable
 70
     1
  0
STYLE
  5
11
330
3
100
AcDbSymbolTableRecord
100
AcDbTextStyleTableRecord
  2
Standard
 70
     0
 40
0.0
 41
1.0
 50
0.0
 71
     0
 42
0.2
  3
txt
  4

  0
ENDTAB
  0
TABLE
  2
VIEW
  5
6
330
0
100
AcDbSymbolTable
 70
     0
  0
ENDTAB
  0
TABLE
  2
UCS
  5
7
330
0
100
AcDbSymbolTable
 70
     0
  0
ENDTAB
  0
TABLE
  2
APPID
  5
9
330
0
100
AcDbSymbolTable
 70
     1
  0
APPID
  5
12
330
9
100
AcDbSymbolTableRecord
100
AcDbRegAppTableRecord
  2
ACAD
 70
     0
  0
ENDTAB
  0
TABLE
  2
DIMSTYLE
  5
A
330
0
100
AcDbSymbolTable
 70
     1
100
AcDbDimStyleTable
  0
DIMSTYLE
105
27
330
A
100
AcDbSymbolTableRecord
100
AcDbDimStyleTableRecord
  2
Standard
 70
     0
178
     0
340
11
  0
ENDTAB
  0
TABLE
  2
BLOCK_RECORD
  5
1
330
0
100
AcDbSymbolTable
 70
     7
  0
BLOCK_RECORD
  5
1F
330
1
100
AcDbSymbolTableRecord
100
AcDbBlockTableRecord
  2
*Model_Space
340
22
 70
     0
280
     1
281
     0
  0
BLOCK_RECORD
  5
1B
330
1
100
AcDbSymbolTableRecord
100
AcDbBlockTableRecord
  2
*Paper_Space
340
1E
 70
     0
280
     1
281
     0
  0
BLOCK_RECORD
  5
23
330
1
100
AcDbSymbolTableRecord
100
AcDbBlockTableRecord
  2
*Paper_Space0
340
26
 70
     0
280
     1
281
     0
  0
BLOCK_RECORD
  5
93
330
1
100
AcDbSymbolTableRecord
100
AcDbBlockTableRecord
  2
block 2
340
0
102
{BLKREFS
331
94
102
}
 70
     0
280
     1
281
     0
  0
BLOCK_RECORD
  5
A9
330
1
100
AcDbSymbolTableRecord
100
AcDbBlockTableRecord
  2
block 3
340
0
102
{BLKREFS
331
AA
102
}
 70
     0
280
     1
281
     0
  0
BLOCK_RECORD
  5
C6
330
1
100
AcDbSymbolTableRecord
100
AcDbBlockTableRecord
  2
block 4
340
0
102
{BLKREFS
331
C7
102
}
 70
     0
280
     1
281
     0
  0
BLOCK_RECORD
  5
DB
330
1
100
AcDbSymbolTableRecord
100
AcDbBlockTableRecord
  2
block 5
340
0
102
{BLKREFS
331
DC
102
}
 70
     0
280
     1
281
     0
  0
BLOCK_RECORD
  5
EB
330
1
100
AcDbSymbolTableRecord
100
AcDbBlockTableRecord
  2
block 6
340
0
102
{BLKREFS
331
EC
102
}
 70
     0
280
     1
281
     0
  0
BLOCK_RECORD
  5
FC
330
1
100
AcDbSymbolTableRecord
100
AcDbBlockTableRecord
  2
block 7
340
0
102
{BLKREFS
331
FD
102
}
 70
     0
280
     1
281
     0
  0
ENDTAB
  0
ENDSEC
  0
SECTION
  2
BLOCKS
  0
BLOCK
  5
20
330
1F
100
AcDbEntity
  8
0
100
AcDbBlockBegin
  2
*Model_Space
 70
     0
 10
0.0
 20
0.0
 30
0.0
  3
*Model_Space
  1

  0
ENDBLK
  5
21
330
1F
100
AcDbEntity
  8
0
100
AcDbBlockEnd
  0
BLOCK
  5
1C
330
1B
100
AcDbEntity
 67
     1
  8
0
100
AcDbBlockBegin
  2
*Paper_Space
 70
     0
 10
0.0
 20
0.0
 30
0.0
  3
*Paper_Space
  1

  0
ENDBLK
  5
1D
330
1B
100
AcDbEntity
 67
     1
  8
0
100
AcDbBlockEnd
  0
BLOCK
  5
24
330
23
100
AcDbEntity
  8
0
100
AcDbBlockBegin
  2
*Paper_Space0
 70
     0
 10
0.0
 20
0.0
 30
0.0
  3
*Paper_Space0
  1

  0
ENDBLK
  5
25
330
23
100
AcDbEntity
  8
0
100
AcDbBlockEnd
  0
BLOCK
  5
95
330
93
100
AcDbEntity
  8
0
100
AcDbBlockBegin
  2
block 2
 70
     0
 10
0.0
 20
0.0
 30
0.0
  3
block 2
  1

  0
SPLINE
  5
97
330
93
100
AcDbEntity
  8
_U+30EC_U+30A4_U+30E4_U+30FC 1
370
     0
100
AcDbSpline
210
0.0
220
0.0
230
1.0
 70
    11
 71
     3
 72
    26
 73
    22
 74
     0
 42
0.0000000001
 43
0.0000000001
 12
1.0
 22
0.0
 32
0.0
 13
1.0
 23
0.0
 33
0.0
 40
0.0
 40
0.0
 40
0.0
 40
0.0
 40
1.0
 40
1.0
 40
1.0
 40
2.0
 40
2.0
 40
2.0
 40
3.0
 40
3.0
 40
3.0
 40
4.0
 40
4.0
 40
4.0
 40
5.0
 40
5.0
 40
5.0
 40
6.0
 40
6.0
 40
6.0
 40
7.0
 40
7.0
 40
7.0
 40
7.0
 10
121.3021565451953
 20
-141.9455132023608
 30
0.0
 10
121.3021565451953
 20
-141.9455132023608
 30
0.0
 10
120.1980034421727
 20
-141.9455132023608
 30
0.0
 10
120.1980034421727
 20
-141.9455132023608
 30
0.0
 10
120.1980034421727
 20
-141.9455132023608
 30
0.0
 10
120.1980034421727
 20
-142.2979464705019
 30
0.0
 10
120.1980034421727
 20
-142.2979464705019
 30
0.0
 10
120.1980034421727
 20
-142.2979464705019
 30
0.0
 10
120.049864336307
 20
-142.2979464705019
 30
0.0
 10
120.049864336307
 20
-142.2979464705019
 30
0.0
 10
120.0350504257204
 20
-141.9431016355212
 30
0.0
 10
119.8720974092681
 20
-141.8934922605336
 30
0.0
 10
119.7580647487063
 20
-141.8617973820693
 30
0.0
 10
119.7580647487063
 20
-141.8617973820693
 30
0.0
 10
119.7580647487063
 20
-141.7057345565875
 30
0.0
 10
119.7580647487063
 20
-141.7057345565875
 30
0.0
 10
119.7580647487063
 20
-141.7057345565875
 30
0.0
 10
121.3021565451953
 20
-141.7057345565875
 30
0.0
 10
121.3021565451953
 20
-141.7057345565875
 30
0.0
 10
121.3021565451953
 20
-141.7057345565875
 30
0.0
 10
121.3021565451953
 20
-141.9455132023608
 30
0.0
 10
121.3021565451953
 20
-141.9455132023608
 30
0.0
  0
HATCH
  5
98
330
93
100
AcDbEntity
  8
_U+30EC_U+30A4_U+30E4_U+30FC 1
 62
   179
420
  2234388
100
AcDbHatch
 10
0.0
 20
0.0
 30
0.0
210
0.0
220
0.0
230
1.0
  2
SOLID
 70
     1
 71
     0
 91
        1
 92
        1
 93
        1
 72
     4
 94
        3
 73
     0
 74
     1
 95
       26
 96
       22
 40
0.0
 40
0.0
 40
0.0
 40
0.0
 40
1.0
 40
1.0
 40
1.0
 40
2.0
 40
2.0
 40
2.0
 40
3.0
 40
3.0
 40
3.0
 40
4.0
 40
4.0
 40
4.0
 40
5.0
 40
5.0
 40
5.0
 40
6.0
 40
6.0
 40
6.0
 40
7.0
 40
7.0
 40
7.0
 40
7.0
 10
121.3021565451953
 20
-141.9455132023608
 10
121.3021565451953
 20
-141.9455132023608
 10
120.1980034421727
 20
-141.9455132023608
 10
120.1980034421727
 20
-141.9455132023608
 10
120.1980034421727
 20
-141.9455132023608
 10
120.1980034421727
 20
-142.2979464705019
 10
120.1980034421727
 20
-142.2979464705019
 10
120.1980034421727
 20
-142.2979464705019
 10
120.049864336307
 20
-142.2979464705019
 10
120.049864336307
 20
-142.2979464705019
 10
120.0350504257204
 20
-141.9431016355212
 10
119.8720974092681
 20
-141.8934922605336
 10
119.7580647487063
 20
-141.8617973820693
 10
119.7580647487063
 20
-141.8617973820693
 10
119.7580647487063
 20
-141.7057345565875
 10
119.7580647487063
 20
-141.7057345565875
 10
119.7580647487063
 20
-141.7057345565875
 10
121.3021565451953
 20
-141.7057345565875
 10
121.3021565451953
 20
-141.7057345565875
 10
121.3021565451953
 20
-141.7057345565875
 10
121.3021565451953
 20
-141.9455132023608
 10
121.3021565451953
 20
-141.9455132023608
 97
        0
 97
        0
 75
     2
 76
     1
 98
        0
  0
ENDBLK
  5
96
330
93
100
AcDbEntity
  8
0
100
AcDbBlockEnd
  0
BLOCK
  5
AB
330
A9
100
AcDbEntity
  8
0
100
AcDbBlockBegin
  2
block 3
 70
     0
 10
0.0
 20
0.0
 30
0.0
  3
block 3
  1

  0
SPLINE
  5
AD
330
A9
100
AcDbEntity
  8
_U+30EC_U+30A4_U+30E4_U+30FC 1
370
     0
100
AcDbSpline
210
0.0
220
0.0
230
1.0
 70
    11
 71
     3
 72
    29
 73
    25
 74
     0
 42
0.0000000001
 43
0.0000000001
 12
1.0
 22
0.0
 32
0.0
 13
1.0
 23
0.0
 33
0.0
 40
0.0
 40
0.0
 40
0.0
 40
0.0
 40
1.0
 40
1.0
 40
1.0
 40
2.0
 40
2.0
 40
2.0
 40
3.0
 40
3.0
 40
3.0
 40
4.0
 40
4.0
 40
4.0
 40
5.0
 40
5.0
 40
5.0
 40
6.0
 40
6.0
 40
6.0
 40
7.0
 40
7.0
 40
7.0
 40
8.0
 40
8.0
 40
8.0
 40
8.0
 10
109.1240885143856
 20
-151.7867729655255
 30
0.0
 10
109.3335503198888
 20
-151.9021836642814
 30
0.0
 10
109.3528428546062
 20
-152.0875298013879
 30
0.0
 10
109.3528428546062
 20
-152.2118977484054
 30
0.0
 10
109.3528428546062
 20
-152.3834635035708
 30
0.0
 10
109.3063340655554
 20
-152.5350477049218
 30
0.0
 10
109.1240885143856
 20
-152.6366780217367
 30
0.0
 10
108.9297851290176
 20
-152.7476100963617
 30
0.0
 10
108.6927625596324
 20
-152.7679361597247
 30
0.0
 10
108.5298095431801
 20
-152.7679361597247
 30
0.0
 10
108.3858045518966
 20
-152.7679361597247
 30
0.0
 10
108.1343125814734
 20
-152.7500216632014
 30
0.0
 10
107.9351860624259
 20
-152.6366780217367
 30
0.0
 10
107.7322699383447
 20
-152.5216118325293
 30
0.0
 10
107.708843289045
 20
-152.3497015678154
 30
0.0
 10
107.708843289045
 20
-152.2118977484054
 30
0.0
 10
107.708843289045
 20
-152.0420545409825
 30
0.0
 10
107.7532850208047
 20
-151.8884032823404
 30
0.0
 10
107.9351860624259
 20
-151.7867729655255
 30
0.0
 10
108.1277669000514
 20
-151.6803195150313
 30
0.0
 10
108.3561767307235
 20
-151.6555148275375
 30
0.0
 10
108.5298095431801
 20
-151.6555148275375
 30
0.0
 10
108.701030788797
 20
-151.6555148275375
 30
0.0
 10
108.9318521863087
 20
-151.6782524577402
 30
0.0
 10
109.1240885143856
 20
-151.7867729655255
 30
0.0
  0
SPLINE
  5
AE
330
A9
100
AcDbEntity
  8
_U+30EC_U+30A4_U+30E4_U+30FC 1
370
     0
100
AcDbSpline
210
0.0
220
0.0
230
1.0
 70
    11
 71
     3
 72
    17
 73
    13
 74
     0
 42
0.0000000001
 43
0.0000000001
 12
1.0
 22
0.0
 32
0.0
 13
1.0
 23
0.0
 33
0.0
 40
0.0
 40
0.0
 40
0.0
 40
0.0
 40
1.0
 40
1.0
 40
1.0
 40
2.0
 40
2.0
 40
2.0
 40
3.0
 40
3.0
 40
3.0
 40
4.0
 40
4.0
 40
4.0
 40
4.0
 10
107.9014241266705
 20
-152.2118977484054
 30
0.0
 10
107.9014241266705
 20
-152.4785481389637
 30
0.0
 10
108.1849554851065
 20
-152.5281575139513
 30
0.0
 10
108.5298095431801
 20
-152.5281575139513
 30
0.0
 10
108.8491698946627
 20
-152.5281575139513
 30
0.0
 10
109.1581949596896
 20
-152.489916954065
 30
0.0
 10
109.1581949596896
 20
-152.2118977484054
 30
0.0
 10
109.1581949596896
 20
-151.9473144151382
 30
0.0
 10
108.8767306585447
 20
-151.8952934733109
 30
0.0
 10
108.5298095431801
 20
-151.8952934733109
 30
0.0
 10
108.2104491916974
 20
-151.8952934733109
 30
0.0
 10
107.9014241266705
 20
-151.9359456000369
 30
0.0
 10
107.9014241266705
 20
-152.2118977484054
 30
0.0
  0
HATCH
  5
AF
330
A9
100
AcDbEntity
  8
_U+30EC_U+30A4_U+30E4_U+30FC 1
 62
   179
420
  2234388
100
AcDbHatch
 10
0.0
 20
0.0
 30
0.0
210
0.0
220
0.0
230
1.0
  2
SOLID
 70
     1
 71
     0
 91
        2
 92
        1
 93
        1
 72
     4
 94
        3
 73
     0
 74
     1
 95
       29
 96
       25
 40
0.0
 40
0.0
 40
0.0
 40
0.0
 40
1.0
 40
1.0
 40
1.0
 40
2.0
 40
2.0
 40
2.0
 40
3.0
 40
3.0
 40
3.0
 40
4.0
 40
4.0
 40
4.0
 40
5.0
 40
5.0
 40
5.0
 40
6.0
 40
6.0
 40
6.0
 40
7.0
 40
7.0
 40
7.0
 40
8.0
 40
8.0
 40
8.0
 40
8.0
 10
109.1240885143856
 20
-151.7867729655255
 10
109.3335503198888
 20
-151.9021836642814
 10
109.3528428546062
 20
-152.0875298013879
 10
109.3528428546062
 20
-152.2118977484054
 10
109.3528428546062
 20
-152.3834635035708
 10
109.3063340655554
 20
-152.5350477049218
 10
109.1240885143856
 20
-152.6366780217367
 10
108.9297851290176
 20
-152.7476100963617
 10
108.6927625596324
 20
-152.7679361597247
 10
108.5298095431801
 20
-152.7679361597247
 10
108.3858045518966
 20
-152.7679361597247
 10
108.1343125814734
 20
-152.7500216632014
 10
107.9351860624259
 20
-152.6366780217367
 10
107.7322699383447
 20
-152.5216118325293
 10
107.708843289045
 20
-152.3497015678154
 10
107.708843289045
 20
-152.2118977484054
 10
107.708843289045
 20
-152.0420545409825
 10
107.7532850208047
 20
-151.8884032823404
 10
107.9351860624259
 20
-151.7867729655255
 10
108.1277669000514
 20
-151.6803195150313
 10
108.3561767307235
 20
-151.6555148275375
 10
108.5298095431801
 20
-151.6555148275375
 10
108.701030788797
 20
-151.6555148275375
 10
108.9318521863087
 20
-151.6782524577402
 10
109.1240885143856
 20
-151.7867729655255
 97
        0
 97
        0
 92
        1
 93
        1
 72
     4
 94
        3
 73
     0
 74
     1
 95
       17
 96
       13
 40
0.0
 40
0.0
 40
0.0
 40
0.0
 40
1.0
 40
1.0
 40
1.0
 40
2.0
 40
2.0
 40
2.0
 40
3.0
 40
3.0
 40
3.0
 40
4.0
 40
4.0
 40
4.0
 40
4.0
 10
107.9014241266705
 20
-152.2118977484054
 10
107.9014241266705
 20
-152.4785481389637
 10
108.1849554851065
 20
-152.5281575139513
 10
108.5298095431801
 20
-152.5281575139513
 10
108.8491698946627
 20
-152.5281575139513
 10
109.1581949596896
 20
-152.489916954065
 10
109.1581949596896
 20
-152.2118977484054
 10
109.1581949596896
 20
-151.9473144151382
 10
108.8767306585447
 20
-151.8952934733109
 10
108.5298095431801
 20
-151.8952934733109
 10
108.2104491916974
 20
-151.8952934733109
 10
107.9014241266705
 20
-151.9359456000369
 10
107.9014241266705
 20
-152.2118977484054
 97
        0
 97
        0
 75
     2
 76
     1
 98
        0
  0
POLYLINE
  5
B0
330
A9
100
AcDbEntity
  8
_U+30EC_U+30A4_U+30E4_U+30FC 1
370
     0
100
AcDb2dPolyline
 66
     1
 10
0.0
 20
0.0
 30
0.0
  0
VERTEX
  5
B1
330
B0
100
AcDbEntity
  8
_U+30EC_U+30A4_U+30E4_U+30FC 1
370
     0
100
AcDbVertex
100
AcDb2dVertex
 10
109.3018554414245
 20
-151.4243489204773
 30
0.0
  0
VERTEX
  5
B2
330
B0
100
AcDbEntity
  8
_U+30EC_U+30A4_U+30E4_U+30FC 1
370
     0
100
AcDbVertex
100
AcDb2dVertex
 10
109.0503634710013
 20
-151.4243489204773
 30
0.0
  0
VERTEX
  5
B3
330
B0
100
AcDbEntity
  8
_U+30EC_U+30A4_U+30E4_U+30FC 1
370
     0
100
AcDbVertex
100
AcDb2dVertex
 10
109.0503634710013
 20
-151.1552869630792
 30
0.0
  0
VERTEX
  5
B4
330
B0
100
AcDbEntity
  8
_U+30EC_U+30A4_U+30E4_U+30FC 1
370
     0
100
AcDbVertex
100
AcDb2dVertex
 10
109.3018554414245
 20
-151.1552869630792
 30
0.0
  0
VERTEX
  5
B5
330
B0
100
AcDbEntity
  8
_U+30EC_U+30A4_U+30E4_U+30FC 1
370
     0
100
AcDbVertex
100
AcDb2dVertex
 10
109.3018554414245
 20
-151.4243489204773
 30
0.0
  0
SEQEND
  5
B6
330
B0
100
AcDbEntity
  8
_U+30EC_U+30A4_U+30E4_U+30FC 1
370
     0
  0
HATCH
  5
B7
330
A9
100
AcDbEntity
  8
_U+30EC_U+30A4_U+30E4_U+30FC 1
 62
   179
420
  2234388
100
AcDbHatch
 10
0.0
 20
0.0
 30
0.0
210
0.0
220
0.0
230
1.0
  2
SOLID
 70
     1
 71
     0
 91
        1
 92
        1
 93
        4
 72
     1
 10
109.3018554414245
 20
-151.4243489204773
 11
109.0503634710013
 21
-151.4243489204773
 72
     1
 10
109.0503634710013
 20
-151.4243489204773
 11
109.0503634710013
 21
-151.1552869630792
 72
     1
 10
109.0503634710013
 20
-151.1552869630792
 11
109.3018554414245
 21
-151.1552869630792
 72
     1
 10
109.3018554414245
 20
-151.1552869630792
 11
109.3018554414245
 21
-151.4243489204773
 97
        0
 75
     2
 76
     1
 98
        0
  0
SPLINE
  5
B8
330
A9
100
AcDbEntity
  8
_U+30EC_U+30A4_U+30E4_U+30FC 1
370
     0
100
AcDbSpline
210
0.0
220
0.0
230
1.0
 70
    11
 71
     3
 72
    62
 73
    58
 74
     0
 42
0.0000000001
 43
0.0000000001
 12
1.0
 22
0.0
 32
0.0
 13
1.0
 23
0.0
 33
0.0
 40
0.0
 40
0.0
 40
0.0
 40
0.0
 40
1.0
 40
1.0
 40
1.0
 40
2.0
 40
2.0
 40
2.0
 40
3.0
 40
3.0
 40
3.0
 40
4.0
 40
4.0
 40
4.0
 40
5.0
 40
5.0
 40
5.0
 40
6.0
 40
6.0
 40
6.0
 40
7.0
 40
7.0
 40
7.0
 40
8.0
 40
8.0
 40
8.0
 40
9.0
 40
9.0
 40
9.0
 40
10.0
 40
10.0
 40
10.0
 40
11.0
 40
11.0
 40
11.0
 40
12.0
 40
12.0
 40
12.0
 40
13.0
 40
13.0
 40
13.0
 40
14.0
 40
14.0
 40
14.0
 40
15.0
 40
15.0
 40
15.0
 40
16.0
 40
16.0
 40
16.0
 40
17.0
 40
17.0
 40
17.0
 40
18.0
 40
18.0
 40
18.0
 40
19.0
 40
19.0
 40
19.0
 40
19.0
 10
109.3528428546062
 20
-150.3770398929613
 30
0.0
 10
109.3528428546062
 20
-150.4786702097762
 30
0.0
 10
109.3314832625977
 20
-150.7115586645791
 30
0.0
 10
109.1454481063942
 20
-150.8448838598582
 30
0.0
 10
109.0331379935751
 20
-150.924121056019
 30
0.0
 10
108.9339192435999
 20
-150.9285996801498
 30
0.0
 10
108.8491698946627
 20
-150.9330783042806
 30
0.0
 10
108.8491698946627
 20
-150.9330783042806
 30
0.0
 10
108.8491698946627
 20
-150.6981227921866
 30
0.0
 10
108.8491698946627
 20
-150.6981227921866
 30
0.0
 10
108.9232394475956
 20
-150.6957112253469
 30
0.0
 10
109.1581949596896
 20
-150.6843424102456
 30
0.0
 10
109.1581949596896
 20
-150.3815185170921
 30
0.0
 10
109.1581949596896
 20
-150.234412939872
 30
0.0
 10
109.0882595213391
 20
-150.0718044329682
 30
0.0
 10
108.859849690667
 20
-150.0718044329682
 30
0.0
 10
108.7434054632655
 20
-150.0718044329682
 30
0.0
 10
108.6948296169235
 20
-150.1124565596941
 30
0.0
 10
108.6631347384592
 20
-150.1462184954496
 30
0.0
 10
108.5890651855264
 20
-150.2254556916103
 30
0.0
 10
108.5763183322309
 20
-150.3498236386278
 30
0.0
 10
108.5763183322309
 20
-150.4087347714256
 30
0.0
 10
108.5763183322309
 20
-150.4290608347886
 30
0.0
 10
108.5783853895221
 20
-150.4673013946748
 30
0.0
 10
108.5825195041044
 20
-150.496929215848
 30
0.0
 10
108.5825195041044
 20
-150.496929215848
 30
0.0
 10
108.3882161187363
 20
-150.496929215848
 30
0.0
 10
108.3882161187363
 20
-150.496929215848
 30
0.0
 10
108.3944172906097
 20
-150.456277089122
 30
0.0
 10
108.3964843479009
 20
-150.4108018287168
 30
0.0
 10
108.3964843479009
 20
-150.4042561472948
 30
0.0
 10
108.3964843479009
 20
-150.3339761993957
 30
0.0
 10
108.3754692654409
 20
-150.1214138079558
 30
0.0
 10
108.1384466960557
 20
-150.1214138079558
 30
0.0
 10
107.9606797690168
 20
-150.1214138079558
 30
0.0
 10
107.9055582412528
 20
-150.2616291942054
 30
0.0
 10
107.9055582412528
 20
-150.3791069502525
 30
0.0
 10
107.9055582412528
 20
-150.6619492895915
 30
0.0
 10
108.1384466960557
 20
-150.6709065378531
 30
0.0
 10
108.2104491916974
 20
-150.6753851619839
 30
0.0
 10
108.2104491916974
 20
-150.6753851619839
 30
0.0
 10
108.2104491916974
 20
-150.8924261775547
 30
0.0
 10
108.2104491916974
 20
-150.8924261775547
 30
0.0
 10
108.0853922255828
 20
-150.883468929293
 30
0.0
 10
107.708843289045
 20
-150.8541856176684
 30
0.0
 10
107.708843289045
 20
-150.36567107786
 30
0.0
 10
107.708843289045
 20
-150.1258924320866
 30
0.0
 10
107.8359673124507
 20
-149.8681992897899
 30
0.0
 10
108.1319010146337
 20
-149.8681992897899
 30
0.0
 10
108.3182806803857
 20
-149.8681992897899
 30
0.0
 10
108.4006184624832
 20
-149.9701741161533
 30
0.0
 10
108.4619411621206
 20
-150.076283057099
 30
0.0
 10
108.4895019260026
 20
-150.0108262428792
 30
0.0
 10
108.5701171603575
 20
-149.8161783479626
 30
0.0
 10
108.8471028373716
 20
-149.8161783479626
 30
0.0
 10
109.1857557235716
 20
-149.8161783479626
 30
0.0
 10
109.3528428546062
 20
-150.0807616812298
 30
0.0
 10
109.3528428546062
 20
-150.3770398929613
 30
0.0
  0
HATCH
  5
B9
330
A9
100
AcDbEntity
  8
_U+30EC_U+30A4_U+30E4_U+30FC 1
 62
   179
420
  2234388
100
AcDbHatch
 10
0.0
 20
0.0
 30
0.0
210
0.0
220
0.0
230
1.0
  2
SOLID
 70
     1
 71
     0
 91
        1
 92
        1
 93
        1
 72
     4
 94
        3
 73
     0
 74
     1
 95
       62
 96
       58
 40
0.0
 40
0.0
 40
0.0
 40
0.0
 40
1.0
 40
1.0
 40
1.0
 40
2.0
 40
2.0
 40
2.0
 40
3.0
 40
3.0
 40
3.0
 40
4.0
 40
4.0
 40
4.0
 40
5.0
 40
5.0
 40
5.0
 40
6.0
 40
6.0
 40
6.0
 40
7.0
 40
7.0
 40
7.0
 40
8.0
 40
8.0
 40
8.0
 40
9.0
 40
9.0
 40
9.0
 40
10.0
 40
10.0
 40
10.0
 40
11.0
 40
11.0
 40
11.0
 40
12.0
 40
12.0
 40
12.0
 40
13.0
 40
13.0
 40
13.0
 40
14.0
 40
14.0
 40
14.0
 40
15.0
 40
15.0
 40
15.0
 40
16.0
 40
16.0
 40
16.0
 40
17.0
 40
17.0
 40
17.0
 40
18.0
 40
18.0
 40
18.0
 40
19.0
 40
19.0
 40
19.0
 40
19.0
 10
109.3528428546062
 20
-150.3770398929613
 10
109.3528428546062
 20
-150.4786702097762
 10
109.3314832625977
 20
-150.7115586645791
 10
109.1454481063942
 20
-150.8448838598582
 10
109.0331379935751
 20
-150.924121056019
 10
108.9339192435999
 20
-150.9285996801498
 10
108.8491698946627
 20
-150.9330783042806
 10
108.8491698946627
 20
-150.9330783042806
 10
108.8491698946627
 20
-150.6981227921866
 10
108.8491698946627
 20
-150.6981227921866
 10
108.9232394475956
 20
-150.6957112253469
 10
109.1581949596896
 20
-150.6843424102456
 10
109.1581949596896
 20
-150.3815185170921
 10
109.1581949596896
 20
-150.234412939872
 10
109.0882595213391
 20
-150.0718044329682
 10
108.859849690667
 20
-150.0718044329682
 10
108.7434054632655
 20
-150.0718044329682
 10
108.6948296169235
 20
-150.1124565596941
 10
108.6631347384592
 20
-150.1462184954496
 10
108.5890651855264
 20
-150.2254556916103
 10
108.5763183322309
 20
-150.3498236386278
 10
108.5763183322309
 20
-150.4087347714256
 10
108.5763183322309
 20
-150.4290608347886
 10
108.5783853895221
 20
-150.4673013946748
 10
108.5825195041044
 20
-150.496929215848
 10
108.5825195041044
 20
-150.496929215848
 10
108.3882161187363
 20
-150.496929215848
 10
108.3882161187363
 20
-150.496929215848
 10
108.3944172906097
 20
-150.456277089122
 10
108.3964843479009
 20
-150.4108018287168
 10
108.3964843479009
 20
-150.4042561472948
 10
108.3964843479009
 20
-150.3339761993957
 10
108.3754692654409
 20
-150.1214138079558
 10
108.1384466960557
 20
-150.1214138079558
 10
107.9606797690168
 20
-150.1214138079558
 10
107.9055582412528
 20
-150.2616291942054
 10
107.9055582412528
 20
-150.3791069502525
 10
107.9055582412528
 20
-150.6619492895915
 10
108.1384466960557
 20
-150.6709065378531
 10
108.2104491916974
 20
-150.6753851619839
 10
108.2104491916974
 20
-150.6753851619839
 10
108.2104491916974
 20
-150.8924261775547
 10
108.2104491916974
 20
-150.8924261775547
 10
108.0853922255828
 20
-150.883468929293
 10
107.708843289045
 20
-150.8541856176684
 10
107.708843289045
 20
-150.36567107786
 10
107.708843289045
 20
-150.1258924320866
 10
107.8359673124507
 20
-149.8681992897899
 10
108.1319010146337
 20
-149.8681992897899
 10
108.3182806803857
 20
-149.8681992897899
 10
108.4006184624832
 20
-149.9701741161533
 10
108.4619411621206
 20
-150.076283057099
 10
108.4895019260026
 20
-150.0108262428792
 10
108.5701171603575
 20
-149.8161783479626
 10
108.8471028373716
 20
-149.8161783479626
 10
109.1857557235716
 20
-149.8161783479626
 10
109.3528428546062
 20
-150.0807616812298
 10
109.3528428546062
 20
-150.3770398929613
 97
        0
 97
        0
 75
     2
 76
     1
 98
        0
  0
ENDBLK
  5
AC
330
A9
100
AcDbEntity
  8
0
100
AcDbBlockEnd
  0
BLOCK
  5
C8
330
C6
100
AcDbEntity
  8
0
100
AcDbBlockBegin
  2
block 4
 70
     0
 10
0.0
 20
0.0
 30
0.0
  3
block 4
  1

  0
SPLINE
  5
CA
330
C6
100
AcDbEntity
  8
_U+30EC_U+30A4_U+30E4_U+30FC 1
370
     0
100
AcDbSpline
210
0.0
220
0.0
230
1.0
 70
    11
 71
     3
 72
    26
 73
    22
 74
     0
 42
0.0000000001
 43
0.0000000001
 12
1.0
 22
0.0
 32
0.0
 13
1.0
 23
0.0
 33
0.0
 40
0.0
 40
0.0
 40
0.0
 40
0.0
 40
1.0
 40
1.0
 40
1.0
 40
2.0
 40
2.0
 40
2.0
 40
3.0
 40
3.0
 40
3.0
 40
4.0
 40
4.0
 40
4.0
 40
5.0
 40
5.0
 40
5.0
 40
6.0
 40
6.0
 40
6.0
 40
7.0
 40
7.0
 40
7.0
 40
7.0
 10
100.9278618454278
 20
-158.1353949257439
 30
0.0
 10
100.9278618454278
 20
-158.1353949257439
 30
0.0
 10
100.9278618454278
 20
-157.0308973131728
 30
0.0
 10
100.9278618454278
 20
-157.0308973131728
 30
0.0
 10
100.9278618454278
 20
-157.0308973131728
 30
0.0
 10
100.5754285772867
 20
-157.0308973131728
 30
0.0
 10
100.5754285772867
 20
-157.0308973131728
 30
0.0
 10
100.5754285772867
 20
-157.0308973131728
 30
0.0
 10
100.5754285772867
 20
-156.8827582073071
 30
0.0
 10
100.5754285772867
 20
-156.8827582073071
 30
0.0
 10
100.9302734122674
 20
-156.868288806269
 30
0.0
 10
100.979882787255
 20
-156.7053357898167
 30
0.0
 10
101.0115776657193
 20
-156.5909586197064
 30
0.0
 10
101.0115776657193
 20
-156.5909586197064
 30
0.0
 10
101.1676404912012
 20
-156.5909586197064
 30
0.0
 10
101.1676404912012
 20
-156.5909586197064
 30
0.0
 10
101.1676404912012
 20
-156.5909586197064
 30
0.0
 10
101.1676404912012
 20
-158.1353949257439
 30
0.0
 10
101.1676404912012
 20
-158.1353949257439
 30
0.0
 10
101.1676404912012
 20
-158.1353949257439
 30
0.0
 10
100.9278618454278
 20
-158.1353949257439
 30
0.0
 10
100.9278618454278
 20
-158.1353949257439
 30
0.0
  0
HATCH
  5
CB
330
C6
100
AcDbEntity
  8
_U+30EC_U+30A4_U+30E4_U+30FC 1
 62
   179
420
  2234388
100
AcDbHatch
 10
0.0
 20
0.0
 30
0.0
210
0.0
220
0.0
230
1.0
  2
SOLID
 70
     1
 71
     0
 91
        1
 92
        1
 93
        1
 72
     4
 94
        3
 73
     0
 74
     1
 95
       26
 96
       22
 40
0.0
 40
0.0
 40
0.0
 40
0.0
 40
1.0
 40
1.0
 40
1.0
 40
2.0
 40
2.0
 40
2.0
 40
3.0
 40
3.0
 40
3.0
 40
4.0
 40
4.0
 40
4.0
 40
5.0
 40
5.0
 40
5.0
 40
6.0
 40
6.0
 40
6.0
 40
7.0
 40
7.0
 40
7.0
 40
7.0
 10
100.9278618454278
 20
-158.1353949257439
 10
100.9278618454278
 20
-158.1353949257439
 10
100.9278618454278
 20
-157.0308973131728
 10
100.9278618454278
 20
-157.0308973131728
 10
100.9278618454278
 20
-157.0308973131728
 10
100.5754285772867
 20
-157.0308973131728
 10
100.5754285772867
 20
-157.0308973131728
 10
100.5754285772867
 20
-157.0308973131728
 10
100.5754285772867
 20
-156.8827582073071
 10
100.5754285772867
 20
-156.8827582073071
 10
100.9302734122674
 20
-156.868288806269
 10
100.979882787255
 20
-156.7053357898167
 10
101.0115776657193
 20
-156.5909586197064
 10
101.0115776657193
 20
-156.5909586197064
 10
101.1676404912012
 20
-156.5909586197064
 10
101.1676404912012
 20
-156.5909586197064
 10
101.1676404912012
 20
-156.5909586197064
 10
101.1676404912012
 20
-158.1353949257439
 10
101.1676404912012
 20
-158.1353949257439
 10
101.1676404912012
 20
-158.1353949257439
 10
100.9278618454278
 20
-158.1353949257439
 10
100.9278618454278
 20
-158.1353949257439
 97
        0
 97
        0
 75
     2
 76
     1
 98
        0
  0
SPLINE
  5
CC
330
C6
100
AcDbEntity
  8
_U+30EC_U+30A4_U+30E4_U+30FC 1
370
     0
100
AcDbSpline
210
0.0
220
0.0
230
1.0
 70
    11
 71
     3
 72
    29
 73
    25
 74
     0
 42
0.0000000001
 43
0.0000000001
 12
1.0
 22
0.0
 32
0.0
 13
1.0
 23
0.0
 33
0.0
 40
0.0
 40
0.0
 40
0.0
 40
0.0
 40
1.0
 40
1.0
 40
1.0
 40
2.0
 40
2.0
 40
2.0
 40
3.0
 40
3.0
 40
3.0
 40
4.0
 40
4.0
 40
4.0
 40
5.0
 40
5.0
 40
5.0
 40
6.0
 40
6.0
 40
6.0
 40
7.0
 40
7.0
 40
7.0
 40
8.0
 40
8.0
 40
8.0
 40
8.0
 10
102.6628119317996
 20
-157.957627998705
 30
0.0
 10
102.5474012330437
 20
-158.1670898042082
 30
0.0
 10
102.3620550959373
 20
-158.1860378293771
 30
0.0
 10
102.2376871489197
 20
-158.1860378293771
 30
0.0
 10
102.0661213937543
 20
-158.1860378293771
 30
0.0
 10
101.9145371924033
 20
-158.1395290403262
 30
0.0
 10
101.8129068755884
 20
-157.957627998705
 30
0.0
 10
101.7019748009634
 20
-157.7629801037884
 30
0.0
 10
101.6816487376004
 20
-157.5259575344032
 30
0.0
 10
101.6816487376004
 20
-157.3630045179509
 30
0.0
 10
101.6816487376004
 20
-157.219344036216
 30
0.0
 10
101.6999077436723
 20
-156.9675075562442
 30
0.0
 10
101.8129068755884
 20
-156.7687255467453
 30
0.0
 10
101.9279730647958
 20
-156.5654649131156
 30
0.0
 10
102.0998833295098
 20
-156.5423827733644
 30
0.0
 10
102.2376871489197
 20
-156.5423827733644
 30
0.0
 10
102.4075303563426
 20
-156.5423827733644
 30
0.0
 10
102.5611816149847
 20
-156.5868245051241
 30
0.0
 10
102.6628119317996
 20
-156.7687255467453
 30
0.0
 10
102.7692653822938
 20
-156.9613063843708
 30
0.0
 10
102.7940700697876
 20
-157.1897162150429
 30
0.0
 10
102.7940700697876
 20
-157.3630045179509
 30
0.0
 10
102.7940700697876
 20
-157.5345702731164
 30
0.0
 10
102.771332439585
 20
-157.7650471610796
 30
0.0
 10
102.6628119317996
 20
-157.957627998705
 30
0.0
  0
SPLINE
  5
CD
330
C6
100
AcDbEntity
  8
_U+30EC_U+30A4_U+30E4_U+30FC 1
370
     0
100
AcDbSpline
210
0.0
220
0.0
230
1.0
 70
    11
 71
     3
 72
    17
 73
    13
 74
     0
 42
0.0000000001
 43
0.0000000001
 12
1.0
 22
0.0
 32
0.0
 13
1.0
 23
0.0
 33
0.0
 40
0.0
 40
0.0
 40
0.0
 40
0.0
 40
1.0
 40
1.0
 40
1.0
 40
2.0
 40
2.0
 40
2.0
 40
3.0
 40
3.0
 40
3.0
 40
4.0
 40
4.0
 40
4.0
 40
4.0
 10
102.2376871489197
 20
-156.7349636109899
 30
0.0
 10
101.9710367583614
 20
-156.7349636109899
 30
0.0
 10
101.9214273833738
 20
-157.0181504598774
 30
0.0
 10
101.9214273833738
 20
-157.3630045179509
 30
0.0
 10
101.9214273833738
 20
-157.6827093789821
 30
0.0
 10
101.9596679432601
 20
-157.9913899344605
 30
0.0
 10
102.2376871489197
 20
-157.9913899344605
 30
0.0
 10
102.5022704821869
 20
-157.9913899344605
 30
0.0
 10
102.5542914240142
 20
-157.7099256333156
 30
0.0
 10
102.5542914240142
 20
-157.3630045179509
 30
0.0
 10
102.5542914240142
 20
-157.0436441664683
 30
0.0
 10
102.5136392972883
 20
-156.7349636109899
 30
0.0
 10
102.2376871489197
 20
-156.7349636109899
 30
0.0
  0
HATCH
  5
CE
330
C6
100
AcDbEntity
  8
_U+30EC_U+30A4_U+30E4_U+30FC 1
 62
   179
420
  2234388
100
AcDbHatch
 10
0.0
 20
0.0
 30
0.0
210
0.0
220
0.0
230
1.0
  2
SOLID
 70
     1
 71
     0
 91
        2
 92
        1
 93
        1
 72
     4
 94
        3
 73
     0
 74
     1
 95
       29
 96
       25
 40
0.0
 40
0.0
 40
0.0
 40
0.0
 40
1.0
 40
1.0
 40
1.0
 40
2.0
 40
2.0
 40
2.0
 40
3.0
 40
3.0
 40
3.0
 40
4.0
 40
4.0
 40
4.0
 40
5.0
 40
5.0
 40
5.0
 40
6.0
 40
6.0
 40
6.0
 40
7.0
 40
7.0
 40
7.0
 40
8.0
 40
8.0
 40
8.0
 40
8.0
 10
102.6628119317996
 20
-157.957627998705
 10
102.5474012330437
 20
-158.1670898042082
 10
102.3620550959373
 20
-158.1860378293771
 10
102.2376871489197
 20
-158.1860378293771
 10
102.0661213937543
 20
-158.1860378293771
 10
101.9145371924033
 20
-158.1395290403262
 10
101.8129068755884
 20
-157.957627998705
 10
101.7019748009634
 20
-157.7629801037884
 10
101.6816487376004
 20
-157.5259575344032
 10
101.6816487376004
 20
-157.3630045179509
 10
101.6816487376004
 20
-157.219344036216
 10
101.6999077436723
 20
-156.9675075562442
 10
101.8129068755884
 20
-156.7687255467453
 10
101.9279730647958
 20
-156.5654649131156
 10
102.0998833295098
 20
-156.5423827733644
 10
102.2376871489197
 20
-156.5423827733644
 10
102.4075303563426
 20
-156.5423827733644
 10
102.5611816149847
 20
-156.5868245051241
 10
102.6628119317996
 20
-156.7687255467453
 10
102.7692653822938
 20
-156.9613063843708
 10
102.7940700697876
 20
-157.1897162150429
 10
102.7940700697876
 20
-157.3630045179509
 10
102.7940700697876
 20
-157.5345702731164
 10
102.771332439585
 20
-157.7650471610796
 10
102.6628119317996
 20
-157.957627998705
 97
        0
 97
        0
 92
        1
 93
        1
 72
     4
 94
        3
 73
     0
 74
     1
 95
       17
 96
       13
 40
0.0
 40
0.0
 40
0.0
 40
0.0
 40
1.0
 40
1.0
 40
1.0
 40
2.0
 40
2.0
 40
2.0
 40
3.0
 40
3.0
 40
3.0
 40
4.0
 40
4.0
 40
4.0
 40
4.0
 10
102.2376871489197
 20
-156.7349636109899
 10
101.9710367583614
 20
-156.7349636109899
 10
101.9214273833738
 20
-157.0181504598774
 10
101.9214273833738
 20
-157.3630045179509
 10
101.9214273833738
 20
-157.6827093789821
 10
101.9596679432601
 20
-157.9913899344605
 10
102.2376871489197
 20
-157.9913899344605
 10
102.5022704821869
 20
-157.9913899344605
 10
102.5542914240142
 20
-157.7099256333156
 10
102.5542914240142
 20
-157.3630045179509
 10
102.5542914240142
 20
-157.0436441664683
 10
102.5136392972883
 20
-156.7349636109899
 10
102.2376871489197
 20
-156.7349636109899
 97
        0
 97
        0
 75
     2
 76
     1
 98
        0
  0
ENDBLK
  5
C9
330
C6
100
AcDbEntity
  8
0
100
AcDbBlockEnd
  0
BLOCK
  5
DD
330
DB
100
AcDbEntity
  8
0
100
AcDbBlockBegin
  2
block 5
 70
     0
 10
0.0
 20
0.0
 30
0.0
  3
block 5
  1

  0
SPLINE
  5
DF
330
DB
100
AcDbEntity
  8
_U+30EC_U+30A4_U+30E4_U+30FC 1
370
     0
100
AcDbSpline
210
0.0
220
0.0
230
1.0
 70
    11
 71
     3
 72
    62
 73
    58
 74
     0
 42
0.0000000001
 43
0.0000000001
 12
1.0
 22
0.0
 32
0.0
 13
1.0
 23
0.0
 33
0.0
 40
0.0
 40
0.0
 40
0.0
 40
0.0
 40
1.0
 40
1.0
 40
1.0
 40
2.0
 40
2.0
 40
2.0
 40
3.0
 40
3.0
 40
3.0
 40
4.0
 40
4.0
 40
4.0
 40
5.0
 40
5.0
 40
5.0
 40
6.0
 40
6.0
 40
6.0
 40
7.0
 40
7.0
 40
7.0
 40
8.0
 40
8.0
 40
8.0
 40
9.0
 40
9.0
 40
9.0
 40
10.0
 40
10.0
 40
10.0
 40
11.0
 40
11.0
 40
11.0
 40
12.0
 40
12.0
 40
12.0
 40
13.0
 40
13.0
 40
13.0
 40
14.0
 40
14.0
 40
14.0
 40
15.0
 40
15.0
 40
15.0
 40
16.0
 40
16.0
 40
16.0
 40
17.0
 40
17.0
 40
17.0
 40
18.0
 40
18.0
 40
18.0
 40
19.0
 40
19.0
 40
19.0
 40
19.0
 10
101.9713812679099
 20
-139.6860473283597
 30
0.0
 10
101.8697509510951
 20
-139.6860473283597
 30
0.0
 10
101.6368624962922
 20
-139.6648599911255
 30
0.0
 10
101.503537301013
 20
-139.4786525801477
 30
0.0
 10
101.4243001048523
 20
-139.3665147221028
 30
0.0
 10
101.4198214807214
 20
-139.2671237173534
 30
0.0
 10
101.4153428565906
 20
-139.1825466231905
 30
0.0
 10
101.4153428565906
 20
-139.1825466231905
 30
0.0
 10
101.6502983686847
 20
-139.1825466231905
 30
0.0
 10
101.6502983686847
 20
-139.1825466231905
 30
0.0
 10
101.6527099355243
 20
-139.2566161761233
 30
0.0
 10
101.6640787506256
 20
-139.4913994334431
 30
0.0
 10
101.9669026437791
 20
-139.4913994334431
 30
0.0
 10
102.1140082209993
 20
-139.4913994334431
 30
0.0
 10
102.2766167279031
 20
-139.4216362498668
 30
0.0
 10
102.2766167279031
 20
-139.1930541644205
 30
0.0
 10
102.2766167279031
 20
-139.0767821917933
 30
0.0
 10
102.2359646011771
 20
-139.028034090677
 30
0.0
 10
102.2022026654217
 20
-138.9963392122127
 30
0.0
 10
102.1229654692609
 20
-138.9222696592799
 30
0.0
 10
101.9985975222434
 20
-138.9096950607587
 30
0.0
 10
101.9396863894456
 20
-138.9096950607587
 30
0.0
 10
101.9193603260827
 20
-138.9096950607587
 30
0.0
 10
101.8811197661964
 20
-138.9117621180498
 30
0.0
 10
101.8514919450232
 20
-138.9158962326322
 30
0.0
 10
101.8514919450232
 20
-138.9158962326322
 30
0.0
 10
101.8514919450232
 20
-138.7214205924898
 30
0.0
 10
101.8514919450232
 20
-138.7214205924898
 30
0.0
 10
101.8921440717492
 20
-138.7276217643632
 30
0.0
 10
101.9376193321545
 20
-138.7298610764286
 30
0.0
 10
101.9441650135765
 20
-138.7298610764286
 30
0.0
 10
102.0144449614756
 20
-138.7298610764286
 30
0.0
 10
102.2270073529155
 20
-138.7086737391944
 30
0.0
 10
102.2270073529155
 20
-138.4716511698092
 30
0.0
 10
102.2270073529155
 20
-138.2940564975445
 30
0.0
 10
102.0867919666658
 20
-138.2389349697806
 30
0.0
 10
101.9693142106188
 20
-138.2389349697806
 30
0.0
 10
101.6864718712798
 20
-138.2389349697806
 30
0.0
 10
101.6775146230181
 20
-138.4716511698092
 30
0.0
 10
101.6730359988873
 20
-138.5436536654509
 30
0.0
 10
101.6730359988873
 20
-138.5436536654509
 30
0.0
 10
101.4559949833166
 20
-138.5436536654509
 30
0.0
 10
101.4559949833166
 20
-138.5436536654509
 30
0.0
 10
101.4649522315782
 20
-138.4187689541106
 30
0.0
 10
101.4942355432028
 20
-138.0422200175728
 30
0.0
 10
101.9827500830113
 20
-138.0422200175728
 30
0.0
 10
102.2225287287847
 20
-138.0422200175728
 30
0.0
 10
102.4802218710813
 20
-138.1691717862042
 30
0.0
 10
102.4802218710813
 20
-138.4652777431615
 30
0.0
 10
102.4802218710813
 20
-138.6514851541392
 30
0.0
 10
102.3782470447179
 20
-138.733995191011
 30
0.0
 10
102.2721381037722
 20
-138.7953178906484
 30
0.0
 10
102.337594917992
 20
-138.8228786545304
 30
0.0
 10
102.5322428129086
 20
-138.903321634111
 30
0.0
 10
102.5322428129086
 20
-139.1804795658993
 30
0.0
 10
102.5322428129086
 20
-139.5189601973251
 30
0.0
 10
102.2676594796414
 20
-139.6860473283597
 30
0.0
 10
101.9713812679099
 20
-139.6860473283597
 30
0.0
  0
HATCH
  5
E0
330
DB
100
AcDbEntity
  8
_U+30EC_U+30A4_U+30E4_U+30FC 1
 62
   179
420
  2234388
100
AcDbHatch
 10
0.0
 20
0.0
 30
0.0
210
0.0
220
0.0
230
1.0
  2
SOLID
 70
     1
 71
     0
 91
        1
 92
        1
 93
        1
 72
     4
 94
        3
 73
     0
 74
     1
 95
       62
 96
       58
 40
0.0
 40
0.0
 40
0.0
 40
0.0
 40
1.0
 40
1.0
 40
1.0
 40
2.0
 40
2.0
 40
2.0
 40
3.0
 40
3.0
 40
3.0
 40
4.0
 40
4.0
 40
4.0
 40
5.0
 40
5.0
 40
5.0
 40
6.0
 40
6.0
 40
6.0
 40
7.0
 40
7.0
 40
7.0
 40
8.0
 40
8.0
 40
8.0
 40
9.0
 40
9.0
 40
9.0
 40
10.0
 40
10.0
 40
10.0
 40
11.0
 40
11.0
 40
11.0
 40
12.0
 40
12.0
 40
12.0
 40
13.0
 40
13.0
 40
13.0
 40
14.0
 40
14.0
 40
14.0
 40
15.0
 40
15.0
 40
15.0
 40
16.0
 40
16.0
 40
16.0
 40
17.0
 40
17.0
 40
17.0
 40
18.0
 40
18.0
 40
18.0
 40
19.0
 40
19.0
 40
19.0
 40
19.0
 10
101.9713812679099
 20
-139.6860473283597
 10
101.8697509510951
 20
-139.6860473283597
 10
101.6368624962922
 20
-139.6648599911255
 10
101.503537301013
 20
-139.4786525801477
 10
101.4243001048523
 20
-139.3665147221028
 10
101.4198214807214
 20
-139.2671237173534
 10
101.4153428565906
 20
-139.1825466231905
 10
101.4153428565906
 20
-139.1825466231905
 10
101.6502983686847
 20
-139.1825466231905
 10
101.6502983686847
 20
-139.1825466231905
 10
101.6527099355243
 20
-139.2566161761233
 10
101.6640787506256
 20
-139.4913994334431
 10
101.9669026437791
 20
-139.4913994334431
 10
102.1140082209993
 20
-139.4913994334431
 10
102.2766167279031
 20
-139.4216362498668
 10
102.2766167279031
 20
-139.1930541644205
 10
102.2766167279031
 20
-139.0767821917933
 10
102.2359646011771
 20
-139.028034090677
 10
102.2022026654217
 20
-138.9963392122127
 10
102.1229654692609
 20
-138.9222696592799
 10
101.9985975222434
 20
-138.9096950607587
 10
101.9396863894456
 20
-138.9096950607587
 10
101.9193603260827
 20
-138.9096950607587
 10
101.8811197661964
 20
-138.9117621180498
 10
101.8514919450232
 20
-138.9158962326322
 10
101.8514919450232
 20
-138.9158962326322
 10
101.8514919450232
 20
-138.7214205924898
 10
101.8514919450232
 20
-138.7214205924898
 10
101.8921440717492
 20
-138.7276217643632
 10
101.9376193321545
 20
-138.7298610764286
 10
101.9441650135765
 20
-138.7298610764286
 10
102.0144449614756
 20
-138.7298610764286
 10
102.2270073529155
 20
-138.7086737391944
 10
102.2270073529155
 20
-138.4716511698092
 10
102.2270073529155
 20
-138.2940564975445
 10
102.0867919666658
 20
-138.2389349697806
 10
101.9693142106188
 20
-138.2389349697806
 10
101.6864718712798
 20
-138.2389349697806
 10
101.6775146230181
 20
-138.4716511698092
 10
101.6730359988873
 20
-138.5436536654509
 10
101.6730359988873
 20
-138.5436536654509
 10
101.4559949833166
 20
-138.5436536654509
 10
101.4559949833166
 20
-138.5436536654509
 10
101.4649522315782
 20
-138.4187689541106
 10
101.4942355432028
 20
-138.0422200175728
 10
101.9827500830113
 20
-138.0422200175728
 10
102.2225287287847
 20
-138.0422200175728
 10
102.4802218710813
 20
-138.1691717862042
 10
102.4802218710813
 20
-138.4652777431615
 10
102.4802218710813
 20
-138.6514851541392
 10
102.3782470447179
 20
-138.733995191011
 10
102.2721381037722
 20
-138.7953178906484
 10
102.337594917992
 20
-138.8228786545304
 10
102.5322428129086
 20
-138.903321634111
 10
102.5322428129086
 20
-139.1804795658993
 10
102.5322428129086
 20
-139.5189601973251
 10
102.2676594796414
 20
-139.6860473283597
 10
101.9713812679099
 20
-139.6860473283597
 97
        0
 97
        0
 75
     2
 76
     1
 98
        0
  0
SPLINE
  5
E1
330
DB
100
AcDbEntity
  8
_U+30EC_U+30A4_U+30E4_U+30FC 1
370
     0
100
AcDbSpline
210
0.0
220
0.0
230
1.0
 70
    11
 71
     3
 72
    44
 73
    40
 74
     0
 42
0.0000000001
 43
0.0000000001
 12
1.0
 22
0.0
 32
0.0
 13
1.0
 23
0.0
 33
0.0
 40
0.0
 40
0.0
 40
0.0
 40
0.0
 40
1.0
 40
1.0
 40
1.0
 40
2.0
 40
2.0
 40
2.0
 40
3.0
 40
3.0
 40
3.0
 40
4.0
 40
4.0
 40
4.0
 40
5.0
 40
5.0
 40
5.0
 40
6.0
 40
6.0
 40
6.0
 40
7.0
 40
7.0
 40
7.0
 40
8.0
 40
8.0
 40
8.0
 40
9.0
 40
9.0
 40
9.0
 40
10.0
 40
10.0
 40
10.0
 40
11.0
 40
11.0
 40
11.0
 40
12.0
 40
12.0
 40
12.0
 40
13.0
 40
13.0
 40
13.0
 40
13.0
 10
103.33770613736
 20
-139.0535277972679
 30
0.0
 10
103.1048176825571
 20
-139.2121744443636
 30
0.0
 10
103.0052544230334
 20
-139.2862439972965
 30
0.0
 10
102.9532334812061
 20
-139.4300767338057
 30
0.0
 10
102.9532334812061
 20
-139.4300767338057
 30
0.0
 10
103.7855685504425
 20
-139.4300767338057
 30
0.0
 10
103.7855685504425
 20
-139.4300767338057
 30
0.0
 10
103.7855685504425
 20
-139.4300767338057
 30
0.0
 10
103.7855685504425
 20
-139.6352321699523
 30
0.0
 10
103.7855685504425
 20
-139.6352321699523
 30
0.0
 10
103.7855685504425
 20
-139.6352321699523
 30
0.0
 10
102.6865830906478
 20
-139.6352321699523
 30
0.0
 10
102.6865830906478
 20
-139.6352321699523
 30
0.0
 10
102.7206895359518
 20
-139.2776312585834
 30
0.0
 10
102.7906249743023
 20
-139.1994275910682
 30
0.0
 10
103.2019693752412
 20
-138.9010823220456
 30
0.0
 10
103.47550995677
 20
-138.7023003125466
 30
0.0
 10
103.5457899046691
 20
-138.6346041862615
 30
0.0
 10
103.5457899046691
 20
-138.4971448764
 30
0.0
 10
103.5457899046691
 20
-138.3786335917074
 30
0.0
 10
103.468964275348
 20
-138.2473754537194
 30
0.0
 10
103.2584689411993
 20
-138.2473754537194
 30
0.0
 10
102.9804497355396
 20
-138.2473754537194
 30
0.0
 10
102.971492487278
 20
-138.4780245964569
 30
0.0
 10
102.9670138631471
 20
-138.5944688238583
 30
0.0
 10
102.9670138631471
 20
-138.5944688238583
 30
0.0
 10
102.7272352173737
 20
-138.5944688238583
 30
0.0
 10
102.7272352173737
 20
-138.5944688238583
 30
0.0
 10
102.7361924656354
 20
-138.4675170552269
 30
0.0
 10
102.7475612807367
 20
-138.355379197182
 30
0.0
 10
102.833688667868
 20
-138.2368679124894
 30
0.0
 10
102.951166423915
 20
-138.0761542081025
 30
0.0
 10
103.1499484334139
 20
-138.0422200175728
 30
0.0
 10
103.2743163804314
 20
-138.0422200175728
 30
0.0
 10
103.5705945921629
 20
-138.0422200175728
 30
0.0
 10
103.7921142318645
 20
-138.2263603712594
 30
0.0
 10
103.7921142318645
 20
-138.4992119336912
 30
0.0
 10
103.7921142318645
 20
-138.7276217643632
 30
0.0
 10
103.667746284847
 20
-138.827185023887
 30
0.0
 10
103.33770613736
 20
-139.0535277972679
 30
0.0
  0
HATCH
  5
E2
330
DB
100
AcDbEntity
  8
_U+30EC_U+30A4_U+30E4_U+30FC 1
 62
   179
420
  2234388
100
AcDbHatch
 10
0.0
 20
0.0
 30
0.0
210
0.0
220
0.0
230
1.0
  2
SOLID
 70
     1
 71
     0
 91
        1
 92
        1
 93
        1
 72
     4
 94
        3
 73
     0
 74
     1
 95
       44
 96
       40
 40
0.0
 40
0.0
 40
0.0
 40
0.0
 40
1.0
 40
1.0
 40
1.0
 40
2.0
 40
2.0
 40
2.0
 40
3.0
 40
3.0
 40
3.0
 40
4.0
 40
4.0
 40
4.0
 40
5.0
 40
5.0
 40
5.0
 40
6.0
 40
6.0
 40
6.0
 40
7.0
 40
7.0
 40
7.0
 40
8.0
 40
8.0
 40
8.0
 40
9.0
 40
9.0
 40
9.0
 40
10.0
 40
10.0
 40
10.0
 40
11.0
 40
11.0
 40
11.0
 40
12.0
 40
12.0
 40
12.0
 40
13.0
 40
13.0
 40
13.0
 40
13.0
 10
103.33770613736
 20
-139.0535277972679
 10
103.1048176825571
 20
-139.2121744443636
 10
103.0052544230334
 20
-139.2862439972965
 10
102.9532334812061
 20
-139.4300767338057
 10
102.9532334812061
 20
-139.4300767338057
 10
103.7855685504425
 20
-139.4300767338057
 10
103.7855685504425
 20
-139.4300767338057
 10
103.7855685504425
 20
-139.4300767338057
 10
103.7855685504425
 20
-139.6352321699523
 10
103.7855685504425
 20
-139.6352321699523
 10
103.7855685504425
 20
-139.6352321699523
 10
102.6865830906478
 20
-139.6352321699523
 10
102.6865830906478
 20
-139.6352321699523
 10
102.7206895359518
 20
-139.2776312585834
 10
102.7906249743023
 20
-139.1994275910682
 10
103.2019693752412
 20
-138.9010823220456
 10
103.47550995677
 20
-138.7023003125466
 10
103.5457899046691
 20
-138.6346041862615
 10
103.5457899046691
 20
-138.4971448764
 10
103.5457899046691
 20
-138.3786335917074
 10
103.468964275348
 20
-138.2473754537194
 10
103.2584689411993
 20
-138.2473754537194
 10
102.9804497355396
 20
-138.2473754537194
 10
102.971492487278
 20
-138.4780245964569
 10
102.9670138631471
 20
-138.5944688238583
 10
102.9670138631471
 20
-138.5944688238583
 10
102.7272352173737
 20
-138.5944688238583
 10
102.7272352173737
 20
-138.5944688238583
 10
102.7361924656354
 20
-138.4675170552269
 10
102.7475612807367
 20
-138.355379197182
 10
102.833688667868
 20
-138.2368679124894
 10
102.951166423915
 20
-138.0761542081025
 10
103.1499484334139
 20
-138.0422200175728
 10
103.2743163804314
 20
-138.0422200175728
 10
103.5705945921629
 20
-138.0422200175728
 10
103.7921142318645
 20
-138.2263603712594
 10
103.7921142318645
 20
-138.4992119336912
 10
103.7921142318645
 20
-138.7276217643632
 10
103.667746284847
 20
-138.827185023887
 10
103.33770613736
 20
-139.0535277972679
 97
        0
 97
        0
 75
     2
 76
     1
 98
        0
  0
ENDBLK
  5
DE
330
DB
100
AcDbEntity
  8
0
100
AcDbBlockEnd
  0
BLOCK
  5
ED
330
EB
100
AcDbEntity
  8
0
100
AcDbBlockBegin
  2
block 6
 70
     0
 10
0.0
 20
0.0
 30
0.0
  3
block 6
  1

  0
SPLINE
  5
EF
330
EB
100
AcDbEntity
  8
_U+30EC_U+30A4_U+30E4_U+30FC 1
370
     0
100
AcDbSpline
210
0.0
220
0.0
230
1.0
 70
    11
 71
     3
 72
    26
 73
    22
 74
     0
 42
0.0000000001
 43
0.0000000001
 12
1.0
 22
0.0
 32
0.0
 13
1.0
 23
0.0
 33
0.0
 40
0.0
 40
0.0
 40
0.0
 40
0.0
 40
1.0
 40
1.0
 40
1.0
 40
2.0
 40
2.0
 40
2.0
 40
3.0
 40
3.0
 40
3.0
 40
4.0
 40
4.0
 40
4.0
 40
5.0
 40
5.0
 40
5.0
 40
6.0
 40
6.0
 40
6.0
 40
7.0
 40
7.0
 40
7.0
 40
7.0
 10
90.92812768994159
 20
-158.1353949257439
 30
0.0
 10
90.92812768994159
 20
-158.1353949257439
 30
0.0
 10
90.92812768994159
 20
-157.0308973131728
 30
0.0
 10
90.92812768994159
 20
-157.0308973131728
 30
0.0
 10
90.92812768994159
 20
-157.0308973131728
 30
0.0
 10
90.57569442180052
 20
-157.0308973131728
 30
0.0
 10
90.57569442180052
 20
-157.0308973131728
 30
0.0
 10
90.57569442180052
 20
-157.0308973131728
 30
0.0
 10
90.57569442180052
 20
-156.8827582073071
 30
0.0
 10
90.57569442180052
 20
-156.8827582073071
 30
0.0
 10
90.93053925678126
 20
-156.868288806269
 30
0.0
 10
90.98014863176886
 20
-156.7053357898167
 30
0.0
 10
91.01184351023315
 20
-156.5909586197064
 30
0.0
 10
91.01184351023315
 20
-156.5909586197064
 30
0.0
 10
91.16790633571497
 20
-156.5909586197064
 30
0.0
 10
91.16790633571497
 20
-156.5909586197064
 30
0.0
 10
91.16790633571497
 20
-156.5909586197064
 30
0.0
 10
91.16790633571497
 20
-158.1353949257439
 30
0.0
 10
91.16790633571497
 20
-158.1353949257439
 30
0.0
 10
91.16790633571497
 20
-158.1353949257439
 30
0.0
 10
90.92812768994159
 20
-158.1353949257439
 30
0.0
 10
90.92812768994159
 20
-158.1353949257439
 30
0.0
  0
HATCH
  5
F0
330
EB
100
AcDbEntity
  8
_U+30EC_U+30A4_U+30E4_U+30FC 1
 62
   179
420
  2234388
100
AcDbHatch
 10
0.0
 20
0.0
 30
0.0
210
0.0
220
0.0
230
1.0
  2
SOLID
 70
     1
 71
     0
 91
        1
 92
        1
 93
        1
 72
     4
 94
        3
 73
     0
 74
     1
 95
       26
 96
       22
 40
0.0
 40
0.0
 40
0.0
 40
0.0
 40
1.0
 40
1.0
 40
1.0
 40
2.0
 40
2.0
 40
2.0
 40
3.0
 40
3.0
 40
3.0
 40
4.0
 40
4.0
 40
4.0
 40
5.0
 40
5.0
 40
5.0
 40
6.0
 40
6.0
 40
6.0
 40
7.0
 40
7.0
 40
7.0
 40
7.0
 10
90.92812768994159
 20
-158.1353949257439
 10
90.92812768994159
 20
-158.1353949257439
 10
90.92812768994159
 20
-157.0308973131728
 10
90.92812768994159
 20
-157.0308973131728
 10
90.92812768994159
 20
-157.0308973131728
 10
90.57569442180052
 20
-157.0308973131728
 10
90.57569442180052
 20
-157.0308973131728
 10
90.57569442180052
 20
-157.0308973131728
 10
90.57569442180052
 20
-156.8827582073071
 10
90.57569442180052
 20
-156.8827582073071
 10
90.93053925678126
 20
-156.868288806269
 10
90.98014863176886
 20
-156.7053357898167
 10
91.01184351023315
 20
-156.5909586197064
 10
91.01184351023315
 20
-156.5909586197064
 10
91.16790633571497
 20
-156.5909586197064
 10
91.16790633571497
 20
-156.5909586197064
 10
91.16790633571497
 20
-156.5909586197064
 10
91.16790633571497
 20
-158.1353949257439
 10
91.16790633571497
 20
-158.1353949257439
 10
91.16790633571497
 20
-158.1353949257439
 10
90.92812768994159
 20
-158.1353949257439
 10
90.92812768994159
 20
-158.1353949257439
 97
        0
 97
        0
 75
     2
 76
     1
 98
        0
  0
SPLINE
  5
F1
330
EB
100
AcDbEntity
  8
_U+30EC_U+30A4_U+30E4_U+30FC 1
370
     0
100
AcDbSpline
210
0.0
220
0.0
230
1.0
 70
    11
 71
     3
 72
    29
 73
    25
 74
     0
 42
0.0000000001
 43
0.0000000001
 12
1.0
 22
0.0
 32
0.0
 13
1.0
 23
0.0
 33
0.0
 40
0.0
 40
0.0
 40
0.0
 40
0.0
 40
1.0
 40
1.0
 40
1.0
 40
2.0
 40
2.0
 40
2.0
 40
3.0
 40
3.0
 40
3.0
 40
4.0
 40
4.0
 40
4.0
 40
5.0
 40
5.0
 40
5.0
 40
6.0
 40
6.0
 40
6.0
 40
7.0
 40
7.0
 40
7.0
 40
8.0
 40
8.0
 40
8.0
 40
8.0
 10
92.6630777763134
 20
-157.957627998705
 30
0.0
 10
92.54766707755753
 20
-158.1670898042082
 30
0.0
 10
92.36232094045108
 20
-158.1860378293771
 30
0.0
 10
92.23795299343357
 20
-158.1860378293771
 30
0.0
 10
92.06638723826813
 20
-158.1860378293771
 30
0.0
 10
91.91480303691714
 20
-158.1395290403262
 30
0.0
 10
91.81317272010227
 20
-157.957627998705
 30
0.0
 10
91.70224064547722
 20
-157.7629801037884
 30
0.0
 10
91.68191458211425
 20
-157.5259575344032
 30
0.0
 10
91.68191458211425
 20
-157.3630045179509
 30
0.0
 10
91.68191458211425
 20
-157.219344036216
 30
0.0
 10
91.70017358818608
 20
-156.9675075562442
 30
0.0
 10
91.81317272010227
 20
-156.7687255467453
 30
0.0
 10
91.92823890930961
 20
-156.5654649131156
 30
0.0
 10
92.10014917402358
 20
-156.5423827733644
 30
0.0
 10
92.23795299343357
 20
-156.5423827733644
 30
0.0
 10
92.40779620085638
 20
-156.5423827733644
 30
0.0
 10
92.56144745949854
 20
-156.5868245051241
 30
0.0
 10
92.6630777763134
 20
-156.7687255467453
 30
0.0
 10
92.76953122680762
 20
-156.9613063843708
 30
0.0
 10
92.79433591430141
 20
-157.1897162150429
 30
0.0
 10
92.79433591430141
 20
-157.3630045179509
 30
0.0
 10
92.79433591430141
 20
-157.5345702731164
 30
0.0
 10
92.77159828409877
 20
-157.7650471610796
 30
0.0
 10
92.6630777763134
 20
-157.957627998705
 30
0.0
  0
SPLINE
  5
F2
330
EB
100
AcDbEntity
  8
_U+30EC_U+30A4_U+30E4_U+30FC 1
370
     0
100
AcDbSpline
210
0.0
220
0.0
230
1.0
 70
    11
 71
     3
 72
    17
 73
    13
 74
     0
 42
0.0000000001
 43
0.0000000001
 12
1.0
 22
0.0
 32
0.0
 13
1.0
 23
0.0
 33
0.0
 40
0.0
 40
0.0
 40
0.0
 40
0.0
 40
1.0
 40
1.0
 40
1.0
 40
2.0
 40
2.0
 40
2.0
 40
3.0
 40
3.0
 40
3.0
 40
4.0
 40
4.0
 40
4.0
 40
4.0
 10
92.23795299343357
 20
-156.7349636109899
 30
0.0
 10
91.97130260287524
 20
-156.7349636109899
 30
0.0
 10
91.92169322788763
 20
-157.0181504598774
 30
0.0
 10
91.92169322788763
 20
-157.3630045179509
 30
0.0
 10
91.92169322788763
 20
-157.6827093789821
 30
0.0
 10
91.9599337877739
 20
-157.9913899344605
 30
0.0
 10
92.23795299343357
 20
-157.9913899344605
 30
0.0
 10
92.50253632670076
 20
-157.9913899344605
 30
0.0
 10
92.55455726852803
 20
-157.7099256333156
 30
0.0
 10
92.55455726852803
 20
-157.3630045179509
 30
0.0
 10
92.55455726852803
 20
-157.0436441664683
 30
0.0
 10
92.51390514180208
 20
-156.7349636109899
 30
0.0
 10
92.23795299343357
 20
-156.7349636109899
 30
0.0
  0
HATCH
  5
F3
330
EB
100
AcDbEntity
  8
_U+30EC_U+30A4_U+30E4_U+30FC 1
 62
   179
420
  2234388
100
AcDbHatch
 10
0.0
 20
0.0
 30
0.0
210
0.0
220
0.0
230
1.0
  2
SOLID
 70
     1
 71
     0
 91
        2
 92
        1
 93
        1
 72
     4
 94
        3
 73
     0
 74
     1
 95
       29
 96
       25
 40
0.0
 40
0.0
 40
0.0
 40
0.0
 40
1.0
 40
1.0
 40
1.0
 40
2.0
 40
2.0
 40
2.0
 40
3.0
 40
3.0
 40
3.0
 40
4.0
 40
4.0
 40
4.0
 40
5.0
 40
5.0
 40
5.0
 40
6.0
 40
6.0
 40
6.0
 40
7.0
 40
7.0
 40
7.0
 40
8.0
 40
8.0
 40
8.0
 40
8.0
 10
92.6630777763134
 20
-157.957627998705
 10
92.54766707755753
 20
-158.1670898042082
 10
92.36232094045108
 20
-158.1860378293771
 10
92.23795299343357
 20
-158.1860378293771
 10
92.06638723826813
 20
-158.1860378293771
 10
91.91480303691714
 20
-158.1395290403262
 10
91.81317272010227
 20
-157.957627998705
 10
91.70224064547722
 20
-157.7629801037884
 10
91.68191458211425
 20
-157.5259575344032
 10
91.68191458211425
 20
-157.3630045179509
 10
91.68191458211425
 20
-157.219344036216
 10
91.70017358818608
 20
-156.9675075562442
 10
91.81317272010227
 20
-156.7687255467453
 10
91.92823890930961
 20
-156.5654649131156
 10
92.10014917402358
 20
-156.5423827733644
 10
92.23795299343357
 20
-156.5423827733644
 10
92.40779620085638
 20
-156.5423827733644
 10
92.56144745949854
 20
-156.5868245051241
 10
92.6630777763134
 20
-156.7687255467453
 10
92.76953122680762
 20
-156.9613063843708
 10
92.79433591430141
 20
-157.1897162150429
 10
92.79433591430141
 20
-157.3630045179509
 10
92.79433591430141
 20
-157.5345702731164
 10
92.77159828409877
 20
-157.7650471610796
 10
92.6630777763134
 20
-157.957627998705
 97
        0
 97
        0
 92
        1
 93
        1
 72
     4
 94
        3
 73
     0
 74
     1
 95
       17
 96
       13
 40
0.0
 40
0.0
 40
0.0
 40
0.0
 40
1.0
 40
1.0
 40
1.0
 40
2.0
 40
2.0
 40
2.0
 40
3.0
 40
3.0
 40
3.0
 40
4.0
 40
4.0
 40
4.0
 40
4.0
 10
92.23795299343357
 20
-156.7349636109899
 10
91.97130260287524
 20
-156.7349636109899
 10
91.92169322788763
 20
-157.0181504598774
 10
91.92169322788763
 20
-157.3630045179509
 10
91.92169322788763
 20
-157.6827093789821
 10
91.9599337877739
 20
-157.9913899344605
 10
92.23795299343357
 20
-157.9913899344605
 10
92.50253632670076
 20
-157.9913899344605
 10
92.55455726852803
 20
-157.7099256333156
 10
92.55455726852803
 20
-157.3630045179509
 10
92.55455726852803
 20
-157.0436441664683
 10
92.51390514180208
 20
-156.7349636109899
 10
92.23795299343357
 20
-156.7349636109899
 97
        0
 97
        0
 75
     2
 76
     1
 98
        0
  0
ENDBLK
  5
EE
330
EB
100
AcDbEntity
  8
0
100
AcDbBlockEnd
  0
BLOCK
  5
FE
330
FC
100
AcDbEntity
  8
0
100
AcDbBlockBegin
  2
block 7
 70
     0
 10
0.0
 20
0.0
 30
0.0
  3
block 7
  1

  0
SPLINE
  5
100
330
FC
100
AcDbEntity
  8
_U+30EC_U+30A4_U+30E4_U+30FC 1
370
     0
100
AcDbSpline
210
0.0
220
0.0
230
1.0
 70
    11
 71
     3
 72
    29
 73
    25
 74
     0
 42
0.0000000001
 43
0.0000000001
 12
1.0
 22
0.0
 32
0.0
 13
1.0
 23
0.0
 33
0.0
 40
0.0
 40
0.0
 40
0.0
 40
0.0
 40
1.0
 40
1.0
 40
1.0
 40
2.0
 40
2.0
 40
2.0
 40
3.0
 40
3.0
 40
3.0
 40
4.0
 40
4.0
 40
4.0
 40
5.0
 40
5.0
 40
5.0
 40
6.0
 40
6.0
 40
6.0
 40
7.0
 40
7.0
 40
7.0
 40
8.0
 40
8.0
 40
8.0
 40
8.0
 10
121.353143958377
 20
-150.9620171063567
 30
0.0
 10
121.353143958377
 20
-151.2465819934384
 30
0.0
 10
121.2156846485155
 20
-151.5180555176761
 30
0.0
 10
120.8666964758597
 20
-151.5180555176761
 30
0.0
 10
120.6107258813057
 20
-151.5180555176761
 30
0.0
 10
120.5152967363642
 20
-151.3664713163251
 30
0.0
 10
120.4539740367268
 20
-151.2534721844088
 30
0.0
 10
120.3947183943805
 20
-151.386797379688
 30
0.0
 10
120.2806857338187
 20
-151.4684461426885
 30
0.0
 10
120.1197997746576
 20
-151.4684461426885
 30
0.0
 10
119.8448811549346
 20
-151.4684461426885
 30
0.0
 10
119.7094889023643
 20
-151.2558837512485
 30
0.0
 10
119.7094889023643
 20
-150.9620171063567
 30
0.0
 10
119.7094889023643
 20
-150.6588487036547
 30
0.0
 10
119.8531493840992
 20
-150.455588070025
 30
0.0
 10
120.1197997746576
 20
-150.455588070025
 30
0.0
 10
120.2806857338187
 20
-150.455588070025
 30
0.0
 10
120.3947183943805
 20
-150.538959380768
 30
0.0
 10
120.4539740367268
 20
-150.6726290855957
 30
0.0
 10
120.5049614499085
 20
-150.5775444502029
 30
0.0
 10
120.6000460853014
 20
-150.4080457523285
 30
0.0
 10
120.8622178517289
 20
-150.4080457523285
 30
0.0
 10
121.2366997309756
 20
-150.4080457523285
 30
0.0
 10
121.353143958377
 20
-150.7063910213512
 30
0.0
 10
121.353143958377
 20
-150.9620171063567
 30
0.0
  0
SPLINE
  5
101
330
FC
100
AcDbEntity
  8
_U+30EC_U+30A4_U+30E4_U+30FC 1
370
     0
100
AcDbSpline
210
0.0
220
0.0
230
1.0
 70
    11
 71
     3
 72
    17
 73
    13
 74
     0
 42
0.0000000001
 43
0.0000000001
 12
1.0
 22
0.0
 32
0.0
 13
1.0
 23
0.0
 33
0.0
 40
0.0
 40
0.0
 40
0.0
 40
0.0
 40
1.0
 40
1.0
 40
1.0
 40
2.0
 40
2.0
 40
2.0
 40
3.0
 40
3.0
 40
3.0
 40
4.0
 40
4.0
 40
4.0
 40
4.0
 10
119.9020697399898
 20
-150.9620171063567
 30
0.0
 10
119.9020697399898
 20
-151.1384059952015
 30
0.0
 10
119.9971543753827
 20
-151.2286674969151
 30
0.0
 10
120.132546627953
 20
-151.2286674969151
 30
0.0
 10
120.2551920272279
 20
-151.2286674969151
 30
0.0
 10
120.3737033119205
 20
-151.151841867594
 30
0.0
 10
120.3737033119205
 20
-150.9620171063567
 30
0.0
 10
120.3737033119205
 20
-150.7718478355709
 30
0.0
 10
120.2551920272279
 20
-150.6950222062499
 30
0.0
 10
120.132546627953
 20
-150.6950222062499
 30
0.0
 10
119.9971543753827
 20
-150.6950222062499
 30
0.0
 10
119.9020697399898
 20
-150.7876952748031
 30
0.0
 10
119.9020697399898
 20
-150.9620171063567
 30
0.0
  0
SPLINE
  5
102
330
FC
100
AcDbEntity
  8
_U+30EC_U+30A4_U+30E4_U+30FC 1
370
     0
100
AcDbSpline
210
0.0
220
0.0
230
1.0
 70
    11
 71
     3
 72
    17
 73
    13
 74
     0
 42
0.0000000001
 43
0.0000000001
 12
1.0
 22
0.0
 32
0.0
 13
1.0
 23
0.0
 33
0.0
 40
0.0
 40
0.0
 40
0.0
 40
0.0
 40
1.0
 40
1.0
 40
1.0
 40
2.0
 40
2.0
 40
2.0
 40
3.0
 40
3.0
 40
3.0
 40
4.0
 40
4.0
 40
4.0
 40
4.0
 10
120.5621500349636
 20
-150.9620171063567
 30
0.0
 10
120.5621500349636
 20
-151.1156683649989
 30
0.0
 10
120.6486219316434
 20
-151.2782768719026
 30
0.0
 10
120.8518825652731
 20
-151.2782768719026
 30
0.0
 10
121.0568657466455
 20
-151.2782768719026
 30
0.0
 10
121.1584960634604
 20
-151.1428846193323
 30
0.0
 10
121.1584960634604
 20
-150.9620171063567
 30
0.0
 10
121.1584960634604
 20
-150.7628905873093
 30
0.0
 10
121.0358506641855
 20
-150.6454128312623
 30
0.0
 10
120.8580837371466
 20
-150.6454128312623
 30
0.0
 10
120.635875078348
 20
-150.6454128312623
 30
0.0
 10
120.5621500349636
 20
-150.8193901532674
 30
0.0
 10
120.5621500349636
 20
-150.9620171063567
 30
0.0
  0
HATCH
  5
103
330
FC
100
AcDbEntity
  8
_U+30EC_U+30A4_U+30E4_U+30FC 1
 62
   179
420
  2234388
100
AcDbHatch
 10
0.0
 20
0.0
 30
0.0
210
0.0
220
0.0
230
1.0
  2
SOLID
 70
     1
 71
     0
 91
        3
 92
        1
 93
        1
 72
     4
 94
        3
 73
     0
 74
     1
 95
       29
 96
       25
 40
0.0
 40
0.0
 40
0.0
 40
0.0
 40
1.0
 40
1.0
 40
1.0
 40
2.0
 40
2.0
 40
2.0
 40
3.0
 40
3.0
 40
3.0
 40
4.0
 40
4.0
 40
4.0
 40
5.0
 40
5.0
 40
5.0
 40
6.0
 40
6.0
 40
6.0
 40
7.0
 40
7.0
 40
7.0
 40
8.0
 40
8.0
 40
8.0
 40
8.0
 10
121.353143958377
 20
-150.9620171063567
 10
121.353143958377
 20
-151.2465819934384
 10
121.2156846485155
 20
-151.5180555176761
 10
120.8666964758597
 20
-151.5180555176761
 10
120.6107258813057
 20
-151.5180555176761
 10
120.5152967363642
 20
-151.3664713163251
 10
120.4539740367268
 20
-151.2534721844088
 10
120.3947183943805
 20
-151.386797379688
 10
120.2806857338187
 20
-151.4684461426885
 10
120.1197997746576
 20
-151.4684461426885
 10
119.8448811549346
 20
-151.4684461426885
 10
119.7094889023643
 20
-151.2558837512485
 10
119.7094889023643
 20
-150.9620171063567
 10
119.7094889023643
 20
-150.6588487036547
 10
119.8531493840992
 20
-150.455588070025
 10
120.1197997746576
 20
-150.455588070025
 10
120.2806857338187
 20
-150.455588070025
 10
120.3947183943805
 20
-150.538959380768
 10
120.4539740367268
 20
-150.6726290855957
 10
120.5049614499085
 20
-150.5775444502029
 10
120.6000460853014
 20
-150.4080457523285
 10
120.8622178517289
 20
-150.4080457523285
 10
121.2366997309756
 20
-150.4080457523285
 10
121.353143958377
 20
-150.7063910213512
 10
121.353143958377
 20
-150.9620171063567
 97
        0
 97
        0
 92
        1
 93
        1
 72
     4
 94
        3
 73
     0
 74
     1
 95
       17
 96
       13
 40
0.0
 40
0.0
 40
0.0
 40
0.0
 40
1.0
 40
1.0
 40
1.0
 40
2.0
 40
2.0
 40
2.0
 40
3.0
 40
3.0
 40
3.0
 40
4.0
 40
4.0
 40
4.0
 40
4.0
 10
119.9020697399898
 20
-150.9620171063567
 10
119.9020697399898
 20
-151.1384059952015
 10
119.9971543753827
 20
-151.2286674969151
 10
120.132546627953
 20
-151.2286674969151
 10
120.2551920272279
 20
-151.2286674969151
 10
120.3737033119205
 20
-151.151841867594
 10
120.3737033119205
 20
-150.9620171063567
 10
120.3737033119205
 20
-150.7718478355709
 10
120.2551920272279
 20
-150.6950222062499
 10
120.132546627953
 20
-150.6950222062499
 10
119.9971543753827
 20
-150.6950222062499
 10
119.9020697399898
 20
-150.7876952748031
 10
119.9020697399898
 20
-150.9620171063567
 97
        0
 97
        0
 92
        1
 93
        1
 72
     4
 94
        3
 73
     0
 74
     1
 95
       17
 96
       13
 40
0.0
 40
0.0
 40
0.0
 40
0.0
 40
1.0
 40
1.0
 40
1.0
 40
2.0
 40
2.0
 40
2.0
 40
3.0
 40
3.0
 40
3.0
 40
4.0
 40
4.0
 40
4.0
 40
4.0
 10
120.5621500349636
 20
-150.9620171063567
 10
120.5621500349636
 20
-151.1156683649989
 10
120.6486219316434
 20
-151.2782768719026
 10
120.8518825652731
 20
-151.2782768719026
 10
121.0568657466455
 20
-151.2782768719026
 10
121.1584960634604
 20
-151.1428846193323
 10
121.1584960634604
 20
-150.9620171063567
 10
121.1584960634604
 20
-150.7628905873093
 10
121.0358506641855
 20
-150.6454128312623
 10
120.8580837371466
 20
-150.6454128312623
 10
120.635875078348
 20
-150.6454128312623
 10
120.5621500349636
 20
-150.8193901532674
 10
120.5621500349636
 20
-150.9620171063567
 97
        0
 97
        0
 75
     2
 76
     1
 98
        0
  0
POLYLINE
  5
104
330
FC
100
AcDbEntity
  8
_U+30EC_U+30A4_U+30E4_U+30FC 1
370
     0
100
AcDb2dPolyline
 66
     1
 10
0.0
 20
0.0
 30
0.0
  0
VERTEX
  5
105
330
104
100
AcDbEntity
  8
_U+30EC_U+30A4_U+30E4_U+30FC 1
370
     0
100
AcDbVertex
100
AcDb2dVertex
 10
121.3025010547438
 20
-150.1744682784286
 30
0.0
  0
VERTEX
  5
106
330
104
100
AcDbEntity
  8
_U+30EC_U+30A4_U+30E4_U+30FC 1
370
     0
100
AcDbVertex
100
AcDb2dVertex
 10
121.0506645747721
 20
-150.1744682784286
 30
0.0
  0
VERTEX
  5
107
330
104
100
AcDbEntity
  8
_U+30EC_U+30A4_U+30E4_U+30FC 1
370
     0
100
AcDbVertex
100
AcDb2dVertex
 10
121.0506645747721
 20
-149.9054063210306
 30
0.0
  0
VERTEX
  5
108
330
104
100
AcDbEntity
  8
_U+30EC_U+30A4_U+30E4_U+30FC 1
370
     0
100
AcDbVertex
100
AcDb2dVertex
 10
121.3025010547438
 20
-149.9054063210306
 30
0.0
  0
VERTEX
  5
109
330
104
100
AcDbEntity
  8
_U+30EC_U+30A4_U+30E4_U+30FC 1
370
     0
100
AcDbVertex
100
AcDb2dVertex
 10
121.3025010547438
 20
-150.1744682784286
 30
0.0
  0
SEQEND
  5
10A
330
104
100
AcDbEntity
  8
_U+30EC_U+30A4_U+30E4_U+30FC 1
370
     0
  0
HATCH
  5
10B
330
FC
100
AcDbEntity
  8
_U+30EC_U+30A4_U+30E4_U+30FC 1
 62
   179
420
  2234388
100
AcDbHatch
 10
0.0
 20
0.0
 30
0.0
210
0.0
220
0.0
230
1.0
  2
SOLID
 70
     1
 71
     0
 91
        1
 92
        1
 93
        4
 72
     1
 10
121.3025010547438
 20
-150.1744682784286
 11
121.0506645747721
 21
-150.1744682784286
 72
     1
 10
121.0506645747721
 20
-150.1744682784286
 11
121.0506645747721
 21
-149.9054063210306
 72
     1
 10
121.0506645747721
 20
-149.9054063210306
 11
121.3025010547438
 21
-149.9054063210306
 72
     1
 10
121.3025010547438
 20
-149.9054063210306
 11
121.3025010547438
 21
-150.1744682784286
 97
        0
 75
     2
 76
     1
 98
        0
  0
SPLINE
  5
10C
330
FC
100
AcDbEntity
  8
_U+30EC_U+30A4_U+30E4_U+30FC 1
370
     0
100
AcDbSpline
210
0.0
220
0.0
230
1.0
 70
    11
 71
     3
 72
    53
 73
    49
 74
     0
 42
0.0000000001
 43
0.0000000001
 12
1.0
 22
0.0
 32
0.0
 13
1.0
 23
0.0
 33
0.0
 40
0.0
 40
0.0
 40
0.0
 40
0.0
 40
1.0
 40
1.0
 40
1.0
 40
2.0
 40
2.0
 40
2.0
 40
3.0
 40
3.0
 40
3.0
 40
4.0
 40
4.0
 40
4.0
 40
5.0
 40
5.0
 40
5.0
 40
6.0
 40
6.0
 40
6.0
 40
7.0
 40
7.0
 40
7.0
 40
8.0
 40
8.0
 40
8.0
 40
9.0
 40
9.0
 40
9.0
 40
10.0
 40
10.0
 40
10.0
 40
11.0
 40
11.0
 40
11.0
 40
12.0
 40
12.0
 40
12.0
 40
13.0
 40
13.0
 40
13.0
 40
14.0
 40
14.0
 40
14.0
 40
15.0
 40
15.0
 40
15.0
 40
16.0
 40
16.0
 40
16.0
 40
16.0
 10
121.353143958377
 20
-149.138528066014
 30
0.0
 10
121.353143958377
 20
-149.2222438863056
 30
0.0
 10
121.3362629904993
 20
-149.3304198845424
 30
0.0
 10
121.2728732335707
 20
-149.4392849018763
 30
0.0
 10
121.1626301780427
 20
-149.6246310389827
 30
0.0
 10
121.0317165496032
 20
-149.6470241596369
 30
0.0
 10
120.9238850609149
 20
-149.6673502229998
 30
0.0
 10
120.9238850609149
 20
-149.6673502229998
 30
0.0
 10
120.9238850609149
 20
-149.4299831440661
 30
0.0
 10
120.9238850609149
 20
-149.4299831440661
 30
0.0
 10
121.1226670704138
 20
-149.3714165208169
 30
0.0
 10
121.1522948915869
 20
-149.235679758698
 30
0.0
 10
121.1522948915869
 20
-149.1361164991743
 30
0.0
 10
121.1522948915869
 20
-148.986943864663
 30
0.0
 10
121.0527316320632
 20
-148.8239908482107
 30
0.0
 10
120.8201876868089
 20
-148.8239908482107
 30
0.0
 10
120.5642170922548
 20
-148.8239908482107
 30
0.0
 10
120.4942816539042
 20
-149.0162271762876
 30
0.0
 10
120.4942816539042
 20
-149.145073747436
 30
0.0
 10
120.4942816539042
 20
-149.1791801927399
 30
0.0
 10
120.4942816539042
 20
-149.3304198845424
 30
0.0
 10
120.6234727346011
 20
-149.4255045199353
 30
0.0
 10
120.6234727346011
 20
-149.4255045199353
 30
0.0
 10
120.6041801998837
 20
-149.6132622238814
 30
0.0
 10
120.6041801998837
 20
-149.6132622238814
 30
0.0
 10
120.6041801998837
 20
-149.6132622238814
 30
0.0
 10
119.7580647487063
 20
-149.4844156527331
 30
0.0
 10
119.7580647487063
 20
-149.4844156527331
 30
0.0
 10
119.7580647487063
 20
-149.4844156527331
 30
0.0
 10
119.7580647487063
 20
-148.6524250930452
 30
0.0
 10
119.7580647487063
 20
-148.6524250930452
 30
0.0
 10
119.7580647487063
 20
-148.6524250930452
 30
0.0
 10
119.9527126436229
 20
-148.6524250930452
 30
0.0
 10
119.9527126436229
 20
-148.6524250930452
 30
0.0
 10
119.9527126436229
 20
-148.6524250930452
 30
0.0
 10
119.9527126436229
 20
-149.3100938211794
 30
0.0
 10
119.9527126436229
 20
-149.3100938211794
 30
0.0
 10
119.9527126436229
 20
-149.3100938211794
 30
0.0
 10
120.3757703692116
 20
-149.3803737690785
 30
0.0
 10
120.3757703692116
 20
-149.3803737690785
 30
0.0
 10
120.3420084334562
 20
-149.3149169548588
 30
0.0
 10
120.3017008162788
 20
-149.2267225104364
 30
0.0
 10
120.3017008162788
 20
-149.0999429965792
 30
0.0
 10
120.3017008162788
 20
-148.82881398189
 30
0.0
 10
120.4880804820308
 20
-148.5755994637242
 30
0.0
 10
120.8008951520914
 20
-148.5755994637242
 30
0.0
 10
121.1185329558315
 20
-148.5755994637242
 30
0.0
 10
121.353143958377
 20
-148.815033599949
 30
0.0
 10
121.353143958377
 20
-149.138528066014
 30
0.0
  0
HATCH
  5
10D
330
FC
100
AcDbEntity
  8
_U+30EC_U+30A4_U+30E4_U+30FC 1
 62
   179
420
  2234388
100
AcDbHatch
 10
0.0
 20
0.0
 30
0.0
210
0.0
220
0.0
230
1.0
  2
SOLID
 70
     1
 71
     0
 91
        1
 92
        1
 93
        1
 72
     4
 94
        3
 73
     0
 74
     1
 95
       53
 96
       49
 40
0.0
 40
0.0
 40
0.0
 40
0.0
 40
1.0
 40
1.0
 40
1.0
 40
2.0
 40
2.0
 40
2.0
 40
3.0
 40
3.0
 40
3.0
 40
4.0
 40
4.0
 40
4.0
 40
5.0
 40
5.0
 40
5.0
 40
6.0
 40
6.0
 40
6.0
 40
7.0
 40
7.0
 40
7.0
 40
8.0
 40
8.0
 40
8.0
 40
9.0
 40
9.0
 40
9.0
 40
10.0
 40
10.0
 40
10.0
 40
11.0
 40
11.0
 40
11.0
 40
12.0
 40
12.0
 40
12.0
 40
13.0
 40
13.0
 40
13.0
 40
14.0
 40
14.0
 40
14.0
 40
15.0
 40
15.0
 40
15.0
 40
16.0
 40
16.0
 40
16.0
 40
16.0
 10
121.353143958377
 20
-149.138528066014
 10
121.353143958377
 20
-149.2222438863056
 10
121.3362629904993
 20
-149.3304198845424
 10
121.2728732335707
 20
-149.4392849018763
 10
121.1626301780427
 20
-149.6246310389827
 10
121.0317165496032
 20
-149.6470241596369
 10
120.9238850609149
 20
-149.6673502229998
 10
120.9238850609149
 20
-149.6673502229998
 10
120.9238850609149
 20
-149.4299831440661
 10
120.9238850609149
 20
-149.4299831440661
 10
121.1226670704138
 20
-149.3714165208169
 10
121.1522948915869
 20
-149.235679758698
 10
121.1522948915869
 20
-149.1361164991743
 10
121.1522948915869
 20
-148.986943864663
 10
121.0527316320632
 20
-148.8239908482107
 10
120.8201876868089
 20
-148.8239908482107
 10
120.5642170922548
 20
-148.8239908482107
 10
120.4942816539042
 20
-149.0162271762876
 10
120.4942816539042
 20
-149.145073747436
 10
120.4942816539042
 20
-149.1791801927399
 10
120.4942816539042
 20
-149.3304198845424
 10
120.6234727346011
 20
-149.4255045199353
 10
120.6234727346011
 20
-149.4255045199353
 10
120.6041801998837
 20
-149.6132622238814
 10
120.6041801998837
 20
-149.6132622238814
 10
120.6041801998837
 20
-149.6132622238814
 10
119.7580647487063
 20
-149.4844156527331
 10
119.7580647487063
 20
-149.4844156527331
 10
119.7580647487063
 20
-149.4844156527331
 10
119.7580647487063
 20
-148.6524250930452
 10
119.7580647487063
 20
-148.6524250930452
 10
119.7580647487063
 20
-148.6524250930452
 10
119.9527126436229
 20
-148.6524250930452
 10
119.9527126436229
 20
-148.6524250930452
 10
119.9527126436229
 20
-148.6524250930452
 10
119.9527126436229
 20
-149.3100938211794
 10
119.9527126436229
 20
-149.3100938211794
 10
119.9527126436229
 20
-149.3100938211794
 10
120.3757703692116
 20
-149.3803737690785
 10
120.3757703692116
 20
-149.3803737690785
 10
120.3420084334562
 20
-149.3149169548588
 10
120.3017008162788
 20
-149.2267225104364
 10
120.3017008162788
 20
-149.0999429965792
 10
120.3017008162788
 20
-148.82881398189
 10
120.4880804820308
 20
-148.5755994637242
 10
120.8008951520914
 20
-148.5755994637242
 10
121.1185329558315
 20
-148.5755994637242
 10
121.353143958377
 20
-148.815033599949
 10
121.353143958377
 20
-149.138528066014
 97
        0
 97
        0
 75
     2
 76
     1
 98
        0
  0
ENDBLK
  5
FF
330
FC
100
AcDbEntity
  8
0
100
AcDbBlockEnd
  0
ENDSEC
  0
SECTION
  2
ENTITIES
  0
POLYLINE
  5
41
330
1F
100
AcDbEntity
  8
_U+30EC_U+30A4_U+30E4_U+30FC 1
 62
   179
420
  2234388
370
    25
100
AcDb2dPolyline
 66
     1
 10
0.0
 20
0.0
 30
0.0
  0
VERTEX
  5
42
330
41
100
AcDbEntity
  8
_U+30EC_U+30A4_U+30E4_U+30FC 1
 62
   179
420
  2234388
370
    25
100
AcDbVertex
100
AcDb2dVertex
 10
86.60394073016651
 20
-144.9370188032843
 30
0.0
  0
VERTEX
  5
43
330
41
100
AcDbEntity
  8
_U+30EC_U+30A4_U+30E4_U+30FC 1
 62
   179
420
  2234388
370
    25
100
AcDbVertex
100
AcDb2dVertex
 10
97.60424903972687
 20
-144.9370188032843
 30
0.0
  0
SEQEND
  5
44
330
41
100
AcDbEntity
  8
_U+30EC_U+30A4_U+30E4_U+30FC 1
 62
   179
420
  2234388
370
    25
  0
POLYLINE
  5
45
330
1F
100
AcDbEntity
  8
_U+30EC_U+30A4_U+30E4_U+30FC 1
 62
   179
420
  2234388
370
    25
100
AcDb2dPolyline
 66
     1
 10
0.0
 20
0.0
 30
0.0
  0
VERTEX
  5
46
330
45
100
AcDbEntity
  8
_U+30EC_U+30A4_U+30E4_U+30FC 1
 62
   179
420
  2234388
370
    25
100
AcDbVertex
100
AcDb2dVertex
 10
99.60437458515207
 20
-145.9367209175631
 30
0.0
  0
VERTEX
  5
47
330
45
100
AcDbEntity
  8
_U+30EC_U+30A4_U+30E4_U+30FC 1
 62
   179
420
  2234388
370
    25
100
AcDbVertex
100
AcDb2dVertex
 10
118.6039146974541
 20
-145.9367209175631
 30
0.0
  0
SEQEND
  5
48
330
45
100
AcDbEntity
  8
_U+30EC_U+30A4_U+30E4_U+30FC 1
 62
   179
420
  2234388
370
    25
  0
POLYLINE
  5
49
330
1F
100
AcDbEntity
  8
_U+30EC_U+30A4_U+30E4_U+30FC 1
 62
   179
420
  2234388
370
    25
100
AcDb2dPolyline
 66
     1
 10
0.0
 20
0.0
 30
0.0
  0
VERTEX
  5
4A
330
49
100
AcDbEntity
  8
_U+30EC_U+30A4_U+30E4_U+30FC 1
 62
   179
420
  2234388
370
    25
100
AcDbVertex
100
AcDb2dVertex
 10
96.60438543659652
 20
-145.9367209175631
 30
0.0
  0
VERTEX
  5
4B
330
49
100
AcDbEntity
  8
_U+30EC_U+30A4_U+30E4_U+30FC 1
 62
   179
420
  2234388
370
    25
100
AcDbVertex
100
AcDb2dVertex
 10
96.60438543659652
 20
-155.4370454187688
 30
0.0
  0
SEQEND
  5
4C
330
49
100
AcDbEntity
  8
_U+30EC_U+30A4_U+30E4_U+30FC 1
 62
   179
420
  2234388
370
    25
  0
POLYLINE
  5
4D
330
1F
100
AcDbEntity
  8
_U+30EC_U+30A4_U+30E4_U+30FC 1
 62
   179
420
  2234388
370
    25
100
AcDb2dPolyline
 66
     1
 10
0.0
 20
0.0
 30
0.0
  0
VERTEX
  5
4E
330
4D
100
AcDbEntity
  8
_U+30EC_U+30A4_U+30E4_U+30FC 1
 62
   179
420
  2234388
370
    25
100
AcDbVertex
100
AcDb2dVertex
 10
106.6041195920827
 20
-154.4371495178686
 30
0.0
  0
VERTEX
  5
4F
330
4D
100
AcDbEntity
  8
_U+30EC_U+30A4_U+30E4_U+30FC 1
 62
   179
420
  2234388
370
    25
100
AcDbVertex
100
AcDb2dVertex
 10
106.6041195920827
 20
-154.7370235480128
 30
0.0
  0
SEQEND
  5
50
330
4D
100
AcDbEntity
  8
_U+30EC_U+30A4_U+30E4_U+30FC 1
 62
   179
420
  2234388
370
    25
  0
POLYLINE
  5
51
330
1F
100
AcDbEntity
  8
_U+30EC_U+30A4_U+30E4_U+30FC 1
 62
   179
420
  2234388
370
    25
100
AcDb2dPolyline
 66
     1
 10
0.0
 20
0.0
 30
0.0
  0
VERTEX
  5
52
330
51
100
AcDbEntity
  8
_U+30EC_U+30A4_U+30E4_U+30FC 1
 62
   179
420
  2234388
370
    25
100
AcDbVertex
100
AcDb2dVertex
 10
99.60437458515207
 20
-154.4371495178686
 30
0.0
  0
VERTEX
  5
53
330
51
100
AcDbEntity
  8
_U+30EC_U+30A4_U+30E4_U+30FC 1
 62
   179
420
  2234388
370
    25
100
AcDbVertex
100
AcDb2dVertex
 10
106.604184187623
 20
-154.4371495178686
 30
0.0
  0
SEQEND
  5
54
330
51
100
AcDbEntity
  8
_U+30EC_U+30A4_U+30E4_U+30FC 1
 62
   179
420
  2234388
370
    25
  0
POLYLINE
  5
55
330
1F
100
AcDbEntity
  8
_U+30EC_U+30A4_U+30E4_U+30FC 1
 62
   179
420
  2234388
370
    25
100
AcDb2dPolyline
 66
     1
 10
0.0
 20
0.0
 30
0.0
  0
VERTEX
  5
56
330
55
100
AcDbEntity
  8
_U+30EC_U+30A4_U+30E4_U+30FC 1
 62
   179
420
  2234388
370
    25
100
AcDbVertex
100
AcDb2dVertex
 10
98.60389732438874
 20
-144.9370188032843
 30
0.0
  0
VERTEX
  5
57
330
55
100
AcDbEntity
  8
_U+30EC_U+30A4_U+30E4_U+30FC 1
 62
   179
420
  2234388
370
    25
100
AcDbVertex
100
AcDb2dVertex
 10
118.6039146974541
 20
-144.9370188032843
 30
0.0
  0
SEQEND
  5
58
330
55
100
AcDbEntity
  8
_U+30EC_U+30A4_U+30E4_U+30FC 1
 62
   179
420
  2234388
370
    25
  0
POLYLINE
  5
59
330
1F
100
AcDbEntity
  8
_U+30EC_U+30A4_U+30E4_U+30FC 1
 62
   179
420
  2234388
370
    25
100
AcDb2dPolyline
 66
     1
 10
0.0
 20
0.0
 30
0.0
  0
VERTEX
  5
5A
330
59
100
AcDbEntity
  8
_U+30EC_U+30A4_U+30E4_U+30FC 1
 62
   179
420
  2234388
370
    25
100
AcDbVertex
100
AcDb2dVertex
 10
97.60415214641603
 20
-144.9370188032843
 30
0.0
  0
VERTEX
  5
5B
330
59
100
AcDbEntity
  8
_U+30EC_U+30A4_U+30E4_U+30FC 1
 62
   179
420
  2234388
370
    25
100
AcDbVertex
100
AcDb2dVertex
 10
97.60415214641603
 20
-154.4373433044896
 30
0.0
  0
SEQEND
  5
5C
330
59
100
AcDbEntity
  8
_U+30EC_U+30A4_U+30E4_U+30FC 1
 62
   179
420
  2234388
370
    25
  0
POLYLINE
  5
5D
330
1F
100
AcDbEntity
  8
_U+30EC_U+30A4_U+30E4_U+30FC 1
 62
   179
420
  2234388
370
    25
100
AcDb2dPolyline
 66
     1
 10
0.0
 20
0.0
 30
0.0
  0
VERTEX
  5
5E
330
5D
100
AcDbEntity
  8
_U+30EC_U+30A4_U+30E4_U+30FC 1
 62
   179
420
  2234388
370
    25
100
AcDbVertex
100
AcDb2dVertex
 10
98.60389732438874
 20
-144.9370188032843
 30
0.0
  0
VERTEX
  5
5F
330
5D
100
AcDbEntity
  8
_U+30EC_U+30A4_U+30E4_U+30FC 1
 62
   179
420
  2234388
370
    25
100
AcDbVertex
100
AcDb2dVertex
 10
98.60389732438874
 20
-154.4373433044896
 30
0.0
  0
SEQEND
  5
60
330
5D
100
AcDbEntity
  8
_U+30EC_U+30A4_U+30E4_U+30FC 1
 62
   179
420
  2234388
370
    25
  0
POLYLINE
  5
61
330
1F
100
AcDbEntity
  8
_U+30EC_U+30A4_U+30E4_U+30FC 1
 62
   179
420
  2234388
370
    25
100
AcDb2dPolyline
 66
     1
 10
0.0
 20
0.0
 30
0.0
  0
VERTEX
  5
62
330
61
100
AcDbEntity
  8
_U+30EC_U+30A4_U+30E4_U+30FC 1
 62
   179
420
  2234388
370
    25
100
AcDbVertex
100
AcDb2dVertex
 10
99.60437458515207
 20
-145.9367209175631
 30
0.0
  0
VERTEX
  5
63
330
61
100
AcDbEntity
  8
_U+30EC_U+30A4_U+30E4_U+30FC 1
 62
   179
420
  2234388
370
    25
100
AcDbVertex
100
AcDb2dVertex
 10
99.60437458515207
 20
-154.4372571771025
 30
0.0
  0
SEQEND
  5
64
330
61
100
AcDbEntity
  8
_U+30EC_U+30A4_U+30E4_U+30FC 1
 62
   179
420
  2234388
370
    25
  0
POLYLINE
  5
65
330
1F
100
AcDbEntity
  8
_U+30EC_U+30A4_U+30E4_U+30FC 1
 62
   179
420
  2234388
370
    25
100
AcDb2dPolyline
 66
     1
 10
0.0
 20
0.0
 30
0.0
  0
VERTEX
  5
66
330
65
100
AcDbEntity
  8
_U+30EC_U+30A4_U+30E4_U+30FC 1
 62
   179
420
  2234388
370
    25
100
AcDbVertex
100
AcDb2dVertex
 10
97.60415214641603
 20
-154.4371495178686
 30
0.0
  0
VERTEX
  5
67
330
65
100
AcDbEntity
  8
_U+30EC_U+30A4_U+30E4_U+30FC 1
 62
   179
420
  2234388
370
    25
100
AcDbVertex
100
AcDb2dVertex
 10
98.60391885623552
 20
-154.4371495178686
 30
0.0
  0
SEQEND
  5
68
330
65
100
AcDbEntity
  8
_U+30EC_U+30A4_U+30E4_U+30FC 1
 62
   179
420
  2234388
370
    25
  0
POLYLINE
  5
69
330
1F
100
AcDbEntity
  8
_U+30EC_U+30A4_U+30E4_U+30FC 1
 62
   179
420
  2234388
370
    25
100
AcDb2dPolyline
 66
     1
 10
0.0
 20
0.0
 30
0.0
  0
VERTEX
  5
6A
330
69
100
AcDbEntity
  8
_U+30EC_U+30A4_U+30E4_U+30FC 1
 62
   179
420
  2234388
370
    25
100
AcDbVertex
100
AcDb2dVertex
 10
96.60438543659652
 20
-155.4369377595349
 30
0.0
  0
VERTEX
  5
6B
330
69
100
AcDbEntity
  8
_U+30EC_U+30A4_U+30E4_U+30FC 1
 62
   179
420
  2234388
370
    25
100
AcDbVertex
100
AcDb2dVertex
 10
106.6042164853932
 20
-154.7370450798596
 30
0.0
  0
SEQEND
  5
6C
330
69
100
AcDbEntity
  8
_U+30EC_U+30A4_U+30E4_U+30FC 1
 62
   179
420
  2234388
370
    25
  0
POLYLINE
  5
6D
330
1F
100
AcDbEntity
  8
_U+30EC_U+30A4_U+30E4_U+30FC 1
 62
   179
420
  2234388
370
    25
100
AcDb2dPolyline
 66
     1
 10
0.0
 20
0.0
 30
0.0
  0
VERTEX
  5
6E
330
6D
100
AcDbEntity
  8
_U+30EC_U+30A4_U+30E4_U+30FC 1
 62
   179
420
  2234388
370
    25
100
AcDbVertex
100
AcDb2dVertex
 10
118.604022356688
 20
-144.9370188032843
 30
0.0
  0
VERTEX
  5
6F
330
6D
100
AcDbEntity
  8
_U+30EC_U+30A4_U+30E4_U+30FC 1
 62
   179
420
  2234388
370
    25
100
AcDbVertex
100
AcDb2dVertex
 10
118.604022356688
 20
-145.9368070449503
 30
0.0
  0
SEQEND
  5
70
330
6D
100
AcDbEntity
  8
_U+30EC_U+30A4_U+30E4_U+30FC 1
 62
   179
420
  2234388
370
    25
  0
POLYLINE
  5
71
330
1F
100
AcDbEntity
  8
_U+30EC_U+30A4_U+30E4_U+30FC 1
 62
   179
420
  2234388
370
    25
100
AcDb2dPolyline
 66
     1
 10
0.0
 20
0.0
 30
0.0
  0
VERTEX
  5
72
330
71
100
AcDbEntity
  8
_U+30EC_U+30A4_U+30E4_U+30FC 1
 62
   179
420
  2234388
370
    25
100
AcDbVertex
100
AcDb2dVertex
 10
86.60394073016651
 20
-145.9367209175631
 30
0.0
  0
VERTEX
  5
73
330
71
100
AcDbEntity
  8
_U+30EC_U+30A4_U+30E4_U+30FC 1
 62
   179
420
  2234388
370
    25
100
AcDbVertex
100
AcDb2dVertex
 10
96.60448232990737
 20
-145.9367209175631
 30
0.0
  0
SEQEND
  5
74
330
71
100
AcDbEntity
  8
_U+30EC_U+30A4_U+30E4_U+30FC 1
 62
   179
420
  2234388
370
    25
  0
POLYLINE
  5
75
330
1F
100
AcDbEntity
  8
_U+30EC_U+30A4_U+30E4_U+30FC 1
 62
   179
420
  2234388
370
    25
100
AcDb2dPolyline
 66
     1
 10
0.0
 20
0.0
 30
0.0
  0
VERTEX
  5
76
330
75
100
AcDbEntity
  8
_U+30EC_U+30A4_U+30E4_U+30FC 1
 62
   179
420
  2234388
370
    25
100
AcDbVertex
100
AcDb2dVertex
 10
86.60394073016651
 20
-144.9370188032843
 30
0.0
  0
VERTEX
  5
77
330
75
100
AcDbEntity
  8
_U+30EC_U+30A4_U+30E4_U+30FC 1
 62
   179
420
  2234388
370
    25
100
AcDbVertex
100
AcDb2dVertex
 10
86.60394073016651
 20
-145.9368070449503
 30
0.0
  0
SEQEND
  5
78
330
75
100
AcDbEntity
  8
_U+30EC_U+30A4_U+30E4_U+30FC 1
 62
   179
420
  2234388
370
    25
  0
SPLINE
  5
79
330
1F
100
AcDbEntity
  8
_U+30EC_U+30A4_U+30E4_U+30FC 1
 62
   179
420
  2234388
370
     9
100
AcDbSpline
210
0.0
220
0.0
230
1.0
 70
    11
 71
     3
 72
    17
 73
    13
 74
     0
 42
0.0000000001
 43
0.0000000001
 12
1.0
 22
0.0
 32
0.0
 13
1.0
 23
0.0
 33
0.0
 40
0.0
 40
0.0
 40
0.0
 40
0.0
 40
1.0
 40
1.0
 40
1.0
 40
2.0
 40
2.0
 40
2.0
 40
3.0
 40
3.0
 40
3.0
 40
4.0
 40
4.0
 40
4.0
 40
4.0
 10
122.7043965350791
 20
-144.9370188032843
 30
0.0
 10
122.7043965350791
 20
-144.8820049347539
 30
0.0
 10
122.6595887619241
 20
-144.8371971615992
 30
0.0
 10
122.6045533615472
 20
-144.8371971615992
 30
0.0
 10
122.5495179611704
 20
-144.8371971615992
 30
0.0
 10
122.5047101880153
 20
-144.8820049347539
 30
0.0
 10
122.5047101880153
 20
-144.9370188032843
 30
0.0
 10
122.5047101880153
 20
-144.9920542036612
 30
0.0
 10
122.5495179611704
 20
-145.0368619768159
 30
0.0
 10
122.6045533615472
 20
-145.0368619768159
 30
0.0
 10
122.6595887619241
 20
-145.0368619768159
 30
0.0
 10
122.7043965350791
 20
-144.9920542036612
 30
0.0
 10
122.7043965350791
 20
-144.9370188032843
 30
0.0
  0
SPLINE
  5
7A
330
1F
100
AcDbEntity
  8
_U+30EC_U+30A4_U+30E4_U+30FC 1
 62
   179
420
  2234388
370
     9
100
AcDbSpline
210
0.0
220
0.0
230
1.0
 70
    11
 71
     3
 72
    17
 73
    13
 74
     0
 42
0.0000000001
 43
0.0000000001
 12
1.0
 22
0.0
 32
0.0
 13
1.0
 23
0.0
 33
0.0
 40
0.0
 40
0.0
 40
0.0
 40
0.0
 40
1.0
 40
1.0
 40
1.0
 40
2.0
 40
2.0
 40
2.0
 40
3.0
 40
3.0
 40
3.0
 40
4.0
 40
4.0
 40
4.0
 40
4.0
 10
122.7043965350791
 20
-145.9367209175631
 30
0.0
 10
122.7043965350791
 20
-145.8817070490331
 30
0.0
 10
122.6595887619241
 20
-145.836899275878
 30
0.0
 10
122.6045533615472
 20
-145.836899275878
 30
0.0
 10
122.5495179611704
 20
-145.836899275878
 30
0.0
 10
122.5047101880153
 20
-145.8817070490331
 30
0.0
 10
122.5047101880153
 20
-145.9367209175631
 30
0.0
 10
122.5047101880153
 20
-145.99175631794
 30
0.0
 10
122.5495179611704
 20
-146.036564091095
 30
0.0
 10
122.6045533615472
 20
-146.036564091095
 30
0.0
 10
122.6595887619241
 20
-146.036564091095
 30
0.0
 10
122.7043965350791
 20
-145.99175631794
 30
0.0
 10
122.7043965350791
 20
-145.9367209175631
 30
0.0
  0
SPLINE
  5
7B
330
1F
100
AcDbEntity
  8
_U+30EC_U+30A4_U+30E4_U+30FC 1
 62
   179
420
  2234388
370
     9
100
AcDbSpline
210
0.0
220
0.0
230
1.0
 70
    11
 71
     3
 72
    17
 73
    13
 74
     0
 42
0.0000000001
 43
0.0000000001
 12
1.0
 22
0.0
 32
0.0
 13
1.0
 23
0.0
 33
0.0
 40
0.0
 40
0.0
 40
0.0
 40
0.0
 40
1.0
 40
1.0
 40
1.0
 40
2.0
 40
2.0
 40
2.0
 40
3.0
 40
3.0
 40
3.0
 40
4.0
 40
4.0
 40
4.0
 40
4.0
 10
106.7040273611549
 20
-159.4367151497567
 30
0.0
 10
106.7040273611549
 20
-159.3817012812266
 30
0.0
 10
106.6592195879999
 20
-159.3368935080716
 30
0.0
 10
106.604184187623
 20
-159.3368935080716
 30
0.0
 10
106.5491487872462
 20
-159.3368935080716
 30
0.0
 10
106.5043517800145
 20
-159.3817012812266
 30
0.0
 10
106.5043517800145
 20
-159.4367151497567
 30
0.0
 10
106.5043517800145
 20
-159.4917505501336
 30
0.0
 10
106.5491487872462
 20
-159.5365583232886
 30
0.0
 10
106.604184187623
 20
-159.5365583232886
 30
0.0
 10
106.6592195879999
 20
-159.5365583232886
 30
0.0
 10
106.7040273611549
 20
-159.4917505501336
 30
0.0
 10
106.7040273611549
 20
-159.4367151497567
 30
0.0
  0
SPLINE
  5
7C
330
1F
100
AcDbEntity
  8
_U+30EC_U+30A4_U+30E4_U+30FC 1
 62
   179
420
  2234388
370
     9
100
AcDbSpline
210
0.0
220
0.0
230
1.0
 70
    11
 71
     3
 72
    17
 73
    13
 74
     0
 42
0.0000000001
 43
0.0000000001
 12
1.0
 22
0.0
 32
0.0
 13
1.0
 23
0.0
 33
0.0
 40
0.0
 40
0.0
 40
0.0
 40
0.0
 40
1.0
 40
1.0
 40
1.0
 40
2.0
 40
2.0
 40
2.0
 40
3.0
 40
3.0
 40
3.0
 40
4.0
 40
4.0
 40
4.0
 40
4.0
 10
96.70429320566876
 20
-159.4367151497567
 30
0.0
 10
96.70429320566876
 20
-159.3817012812266
 30
0.0
 10
96.65948543251373
 20
-159.3368935080716
 30
0.0
 10
96.60445003213687
 20
-159.3368935080716
 30
0.0
 10
96.54871484673956
 20
-159.3368935080716
 30
0.0
 10
96.50390707358453
 20
-159.3817012812266
 30
0.0
 10
96.50390707358453
 20
-159.4367151497567
 30
0.0
 10
96.50390707358453
 20
-159.4917505501336
 30
0.0
 10
96.54871484673956
 20
-159.5365583232886
 30
0.0
 10
96.60445003213687
 20
-159.5365583232886
 30
0.0
 10
96.65948543251373
 20
-159.5365583232886
 30
0.0
 10
96.70429320566876
 20
-159.4917505501336
 30
0.0
 10
96.70429320566876
 20
-159.4367151497567
 30
0.0
  0
SPLINE
  5
7D
330
1F
100
AcDbEntity
  8
_U+30EC_U+30A4_U+30E4_U+30FC 1
 62
   179
420
  2234388
370
     9
100
AcDbSpline
210
0.0
220
0.0
230
1.0
 70
    11
 71
     3
 72
    17
 73
    13
 74
     0
 42
0.0000000001
 43
0.0000000001
 12
1.0
 22
0.0
 32
0.0
 13
1.0
 23
0.0
 33
0.0
 40
0.0
 40
0.0
 40
0.0
 40
0.0
 40
1.0
 40
1.0
 40
1.0
 40
2.0
 40
2.0
 40
2.0
 40
3.0
 40
3.0
 40
3.0
 40
4.0
 40
4.0
 40
4.0
 40
4.0
 10
110.70378321953
 20
-154.4371495178686
 30
0.0
 10
110.70378321953
 20
-154.3814250983947
 30
0.0
 10
110.658975446375
 20
-154.3366173252396
 30
0.0
 10
110.6039400459981
 20
-154.3366173252396
 30
0.0
 10
110.5489046456212
 20
-154.3366173252396
 30
0.0
 10
110.5041076383896
 20
-154.3814250983947
 30
0.0
 10
110.5041076383896
 20
-154.4371495178686
 30
0.0
 10
110.5041076383896
 20
-154.4921849182454
 30
0.0
 10
110.5489046456212
 20
-154.5369926914005
 30
0.0
 10
110.6039400459981
 20
-154.5369926914005
 30
0.0
 10
110.658975446375
 20
-154.5369926914005
 30
0.0
 10
110.70378321953
 20
-154.4921849182454
 30
0.0
 10
110.70378321953
 20
-154.4371495178686
 30
0.0
  0
SPLINE
  5
7E
330
1F
100
AcDbEntity
  8
_U+30EC_U+30A4_U+30E4_U+30FC 1
 62
   179
420
  2234388
370
     9
100
AcDbSpline
210
0.0
220
0.0
230
1.0
 70
    11
 71
     3
 72
    17
 73
    13
 74
     0
 42
0.0000000001
 43
0.0000000001
 12
1.0
 22
0.0
 32
0.0
 13
1.0
 23
0.0
 33
0.0
 40
0.0
 40
0.0
 40
0.0
 40
0.0
 40
1.0
 40
1.0
 40
1.0
 40
2.0
 40
2.0
 40
2.0
 40
3.0
 40
3.0
 40
3.0
 40
4.0
 40
4.0
 40
4.0
 40
4.0
 10
110.70378321953
 20
-154.7369589524725
 30
0.0
 10
110.70378321953
 20
-154.6819450839424
 30
0.0
 10
110.658975446375
 20
-154.6371373107873
 30
0.0
 10
110.6039400459981
 20
-154.6371373107873
 30
0.0
 10
110.5489046456212
 20
-154.6371373107873
 30
0.0
 10
110.5041076383896
 20
-154.6819450839424
 30
0.0
 10
110.5041076383896
 20
-154.7369589524725
 30
0.0
 10
110.5041076383896
 20
-154.7919943528493
 30
0.0
 10
110.5489046456212
 20
-154.8368021260044
 30
0.0
 10
110.6039400459981
 20
-154.8368021260044
 30
0.0
 10
110.658975446375
 20
-154.8368021260044
 30
0.0
 10
110.70378321953
 20
-154.7919943528493
 30
0.0
 10
110.70378321953
 20
-154.7369589524725
 30
0.0
  0
SPLINE
  5
7F
330
1F
100
AcDbEntity
  8
_U+30EC_U+30A4_U+30E4_U+30FC 1
 62
   179
420
  2234388
370
     9
100
AcDbSpline
210
0.0
220
0.0
230
1.0
 70
    11
 71
     3
 72
    17
 73
    13
 74
     0
 42
0.0000000001
 43
0.0000000001
 12
1.0
 22
0.0
 32
0.0
 13
1.0
 23
0.0
 33
0.0
 40
0.0
 40
0.0
 40
0.0
 40
0.0
 40
1.0
 40
1.0
 40
1.0
 40
2.0
 40
2.0
 40
2.0
 40
3.0
 40
3.0
 40
3.0
 40
4.0
 40
4.0
 40
4.0
 40
4.0
 10
122.7043965350791
 20
-154.4371495178686
 30
0.0
 10
122.7043965350791
 20
-154.3814250983947
 30
0.0
 10
122.6595887619241
 20
-154.3366173252396
 30
0.0
 10
122.6045533615472
 20
-154.3366173252396
 30
0.0
 10
122.5495179611704
 20
-154.3366173252396
 30
0.0
 10
122.5047101880153
 20
-154.3814250983947
 30
0.0
 10
122.5047101880153
 20
-154.4371495178686
 30
0.0
 10
122.5047101880153
 20
-154.4921849182454
 30
0.0
 10
122.5495179611704
 20
-154.5369926914005
 30
0.0
 10
122.6045533615472
 20
-154.5369926914005
 30
0.0
 10
122.6595887619241
 20
-154.5369926914005
 30
0.0
 10
122.7043965350791
 20
-154.4921849182454
 30
0.0
 10
122.7043965350791
 20
-154.4371495178686
 30
0.0
  0
SPLINE
  5
80
330
1F
100
AcDbEntity
  8
_U+30EC_U+30A4_U+30E4_U+30FC 1
 62
   179
420
  2234388
370
     9
100
AcDbSpline
210
0.0
220
0.0
230
1.0
 70
    11
 71
     3
 72
    17
 73
    13
 74
     0
 42
0.0000000001
 43
0.0000000001
 12
1.0
 22
0.0
 32
0.0
 13
1.0
 23
0.0
 33
0.0
 40
0.0
 40
0.0
 40
0.0
 40
0.0
 40
1.0
 40
1.0
 40
1.0
 40
2.0
 40
2.0
 40
2.0
 40
3.0
 40
3.0
 40
3.0
 40
4.0
 40
4.0
 40
4.0
 40
4.0
 10
118.7039301257602
 20
-140.9365739258122
 30
0.0
 10
118.7039301257602
 20
-140.8815600572818
 30
0.0
 10
118.6591223526052
 20
-140.8367522841271
 30
0.0
 10
118.6040869522283
 20
-140.8367522841271
 30
0.0
 10
118.5490515518515
 20
-140.8367522841271
 30
0.0
 10
118.5042437786964
 20
-140.8815600572818
 30
0.0
 10
118.5042437786964
 20
-140.9365739258122
 30
0.0
 10
118.5042437786964
 20
-140.9916093261891
 30
0.0
 10
118.5490515518515
 20
-141.0364170993438
 30
0.0
 10
118.6040869522283
 20
-141.0364170993438
 30
0.0
 10
118.6591223526052
 20
-141.0364170993438
 30
0.0
 10
118.7039301257602
 20
-140.9916093261891
 30
0.0
 10
118.7039301257602
 20
-140.9365739258122
 30
0.0
  0
SPLINE
  5
81
330
1F
100
AcDbEntity
  8
_U+30EC_U+30A4_U+30E4_U+30FC 1
 62
   179
420
  2234388
370
     9
100
AcDbSpline
210
0.0
220
0.0
230
1.0
 70
    11
 71
     3
 72
    17
 73
    13
 74
     0
 42
0.0000000001
 43
0.0000000001
 12
1.0
 22
0.0
 32
0.0
 13
1.0
 23
0.0
 33
0.0
 40
0.0
 40
0.0
 40
0.0
 40
0.0
 40
1.0
 40
1.0
 40
1.0
 40
2.0
 40
2.0
 40
2.0
 40
3.0
 40
3.0
 40
3.0
 40
4.0
 40
4.0
 40
4.0
 40
4.0
 10
86.70455905018258
 20
-140.9365739258122
 30
0.0
 10
86.70455905018258
 20
-140.8815600572818
 30
0.0
 10
86.65975127702755
 20
-140.8367522841271
 30
0.0
 10
86.60401609163026
 20
-140.8367522841271
 30
0.0
 10
86.54898069125339
 20
-140.8367522841271
 30
0.0
 10
86.50417291809835
 20
-140.8815600572818
 30
0.0
 10
86.50417291809835
 20
-140.9365739258122
 30
0.0
 10
86.50417291809835
 20
-140.9916093261891
 30
0.0
 10
86.54898069125339
 20
-141.0364170993438
 30
0.0
 10
86.60401609163026
 20
-141.0364170993438
 30
0.0
 10
86.65975127702755
 20
-141.0364170993438
 30
0.0
 10
86.70455905018258
 20
-140.9916093261891
 30
0.0
 10
86.70455905018258
 20
-140.9365739258122
 30
0.0
  0
SPLINE
  5
82
330
1F
100
AcDbEntity
  8
_U+30EC_U+30A4_U+30E4_U+30FC 1
 62
   179
420
  2234388
370
     9
100
AcDbSpline
210
0.0
220
0.0
230
1.0
 70
    11
 71
     3
 72
    17
 73
    13
 74
     0
 42
0.0000000001
 43
0.0000000001
 12
1.0
 22
0.0
 32
0.0
 13
1.0
 23
0.0
 33
0.0
 40
0.0
 40
0.0
 40
0.0
 40
0.0
 40
1.0
 40
1.0
 40
1.0
 40
2.0
 40
2.0
 40
2.0
 40
3.0
 40
3.0
 40
3.0
 40
4.0
 40
4.0
 40
4.0
 40
4.0
 10
86.70455905018258
 20
-159.4367151497567
 30
0.0
 10
86.70455905018258
 20
-159.3817012812266
 30
0.0
 10
86.65975127702755
 20
-159.3368935080716
 30
0.0
 10
86.60401609163026
 20
-159.3368935080716
 30
0.0
 10
86.54898069125339
 20
-159.3368935080716
 30
0.0
 10
86.50417291809835
 20
-159.3817012812266
 30
0.0
 10
86.50417291809835
 20
-159.4367151497567
 30
0.0
 10
86.50417291809835
 20
-159.4917505501336
 30
0.0
 10
86.54898069125339
 20
-159.5365583232886
 30
0.0
 10
86.60401609163026
 20
-159.5365583232886
 30
0.0
 10
86.65975127702755
 20
-159.5365583232886
 30
0.0
 10
86.70455905018258
 20
-159.4917505501336
 30
0.0
 10
86.70455905018258
 20
-159.4367151497567
 30
0.0
  0
POLYLINE
  5
83
330
1F
100
AcDbEntity
  8
_U+30EC_U+30A4_U+30E4_U+30FC 1
 62
   179
420
  2234388
370
     9
100
AcDb2dPolyline
 66
     1
 10
0.0
 20
0.0
 30
0.0
  0
VERTEX
  5
84
330
83
100
AcDbEntity
  8
_U+30EC_U+30A4_U+30E4_U+30FC 1
 62
   179
420
  2234388
370
     9
100
AcDbVertex
100
AcDb2dVertex
 10
122.6044887660069
 20
-144.9370188032843
 30
0.0
  0
VERTEX
  5
85
330
83
100
AcDbEntity
  8
_U+30EC_U+30A4_U+30E4_U+30FC 1
 62
   179
420
  2234388
370
     9
100
AcDbVertex
100
AcDb2dVertex
 10
122.6044887660069
 20
-141.1661895399041
 30
0.0
  0
SEQEND
  5
86
330
83
100
AcDbEntity
  8
_U+30EC_U+30A4_U+30E4_U+30FC 1
 62
   179
420
  2234388
370
     9
  0
POLYLINE
  5
87
330
1F
100
AcDbEntity
  8
_U+30EC_U+30A4_U+30E4_U+30FC 1
 62
   179
420
  2234388
370
     9
100
AcDb2dPolyline
 66
     1
 10
0.0
 20
0.0
 30
0.0
  0
VERTEX
  5
88
330
87
100
AcDbEntity
  8
_U+30EC_U+30A4_U+30E4_U+30FC 1
 62
   179
420
  2234388
370
     9
100
AcDbVertex
100
AcDb2dVertex
 10
122.6044887660069
 20
-144.9370188032843
 30
0.0
  0
VERTEX
  5
89
330
87
100
AcDbEntity
  8
_U+30EC_U+30A4_U+30E4_U+30FC 1
 62
   179
420
  2234388
370
     9
100
AcDbVertex
100
AcDb2dVertex
 10
122.6044887660069
 20
-145.9368070449503
 30
0.0
  0
SEQEND
  5
8A
330
87
100
AcDbEntity
  8
_U+30EC_U+30A4_U+30E4_U+30FC 1
 62
   179
420
  2234388
370
     9
  0
POLYLINE
  5
8B
330
1F
100
AcDbEntity
  8
_U+30EC_U+30A4_U+30E4_U+30FC 1
 62
   179
420
  2234388
370
     9
100
AcDb2dPolyline
 66
     1
 10
0.0
 20
0.0
 30
0.0
  0
VERTEX
  5
8C
330
8B
100
AcDbEntity
  8
_U+30EC_U+30A4_U+30E4_U+30FC 1
 62
   179
420
  2234388
370
     9
100
AcDbVertex
100
AcDb2dVertex
 10
121.1437898121077
 20
-144.9370188032843
 30
0.0
  0
VERTEX
  5
8D
330
8B
100
AcDbEntity
  8
_U+30EC_U+30A4_U+30E4_U+30FC 1
 62
   179
420
  2234388
370
     9
100
AcDbVertex
100
AcDb2dVertex
 10
123.6044061987538
 20
-144.9370188032843
 30
0.0
  0
SEQEND
  5
8E
330
8B
100
AcDbEntity
  8
_U+30EC_U+30A4_U+30E4_U+30FC 1
 62
   179
420
  2234388
370
     9
  0
POLYLINE
  5
8F
330
1F
100
AcDbEntity
  8
_U+30EC_U+30A4_U+30E4_U+30FC 1
 62
   179
420
  2234388
370
     9
100
AcDb2dPolyline
 66
     1
 10
0.0
 20
0.0
 30
0.0
  0
VERTEX
  5
90
330
8F
100
AcDbEntity
  8
_U+30EC_U+30A4_U+30E4_U+30FC 1
 62
   179
420
  2234388
370
     9
100
AcDbVertex
100
AcDb2dVertex
 10
121.1437898121077
 20
-145.9367209175631
 30
0.0
  0
VERTEX
  5
91
330
8F
100
AcDbEntity
  8
_U+30EC_U+30A4_U+30E4_U+30FC 1
 62
   179
420
  2234388
370
     9
100
AcDbVertex
100
AcDb2dVertex
 10
123.6044061987538
 20
-145.9367209175631
 30
0.0
  0
SEQEND
  5
92
330
8F
100
AcDbEntity
  8
_U+30EC_U+30A4_U+30E4_U+30FC 1
 62
   179
420
  2234388
370
     9
  0
INSERT
  5
94
330
1F
100
AcDbEntity
  8
_U+30EC_U+30A4_U+30E4_U+30FC 1
100
AcDbBlockReference
  2
block 2
 10
0.0
 20
0.0
 30
0.0
  0
POLYLINE
  5
99
330
1F
100
AcDbEntity
  8
_U+30EC_U+30A4_U+30E4_U+30FC 1
 62
   179
420
  2234388
370
     9
100
AcDb2dPolyline
 66
     1
 10
0.0
 20
0.0
 30
0.0
  0
VERTEX
  5
9A
330
99
100
AcDbEntity
  8
_U+30EC_U+30A4_U+30E4_U+30FC 1
 62
   179
420
  2234388
370
     9
100
AcDbVertex
100
AcDb2dVertex
 10
110.6038754504578
 20
-154.4371495178686
 30
0.0
  0
VERTEX
  5
9B
330
99
100
AcDbEntity
  8
_U+30EC_U+30A4_U+30E4_U+30FC 1
 62
   179
420
  2234388
370
     9
100
AcDbVertex
100
AcDb2dVertex
 10
110.6038754504578
 20
-149.1793524475142
 30
0.0
  0
SEQEND
  5
9C
330
99
100
AcDbEntity
  8
_U+30EC_U+30A4_U+30E4_U+30FC 1
 62
   179
420
  2234388
370
     9
  0
POLYLINE
  5
9D
330
1F
100
AcDbEntity
  8
_U+30EC_U+30A4_U+30E4_U+30FC 1
 62
   179
420
  2234388
370
     9
100
AcDb2dPolyline
 66
     1
 10
0.0
 20
0.0
 30
0.0
  0
VERTEX
  5
9E
330
9D
100
AcDbEntity
  8
_U+30EC_U+30A4_U+30E4_U+30FC 1
 62
   179
420
  2234388
370
     9
100
AcDbVertex
100
AcDb2dVertex
 10
110.6038754504578
 20
-154.4371495178686
 30
0.0
  0
VERTEX
  5
9F
330
9D
100
AcDbEntity
  8
_U+30EC_U+30A4_U+30E4_U+30FC 1
 62
   179
420
  2234388
370
     9
100
AcDbVertex
100
AcDb2dVertex
 10
110.6038754504578
 20
-155.7367902578323
 30
0.0
  0
SEQEND
  5
A0
330
9D
100
AcDbEntity
  8
_U+30EC_U+30A4_U+30E4_U+30FC 1
 62
   179
420
  2234388
370
     9
  0
POLYLINE
  5
A1
330
1F
100
AcDbEntity
  8
_U+30EC_U+30A4_U+30E4_U+30FC 1
 62
   179
420
  2234388
370
     9
100
AcDb2dPolyline
 66
     1
 10
0.0
 20
0.0
 30
0.0
  0
VERTEX
  5
A2
330
A1
100
AcDbEntity
  8
_U+30EC_U+30A4_U+30E4_U+30FC 1
 62
   179
420
  2234388
370
     9
100
AcDbVertex
100
AcDb2dVertex
 10
109.1438332178855
 20
-154.4371495178686
 30
0.0
  0
VERTEX
  5
A3
330
A1
100
AcDbEntity
  8
_U+30EC_U+30A4_U+30E4_U+30FC 1
 62
   179
420
  2234388
370
     9
100
AcDbVertex
100
AcDb2dVertex
 10
111.6044496045316
 20
-154.4371495178686
 30
0.0
  0
SEQEND
  5
A4
330
A1
100
AcDbEntity
  8
_U+30EC_U+30A4_U+30E4_U+30FC 1
 62
   179
420
  2234388
370
     9
  0
POLYLINE
  5
A5
330
1F
100
AcDbEntity
  8
_U+30EC_U+30A4_U+30E4_U+30FC 1
 62
   179
420
  2234388
370
     9
100
AcDb2dPolyline
 66
     1
 10
0.0
 20
0.0
 30
0.0
  0
VERTEX
  5
A6
330
A5
100
AcDbEntity
  8
_U+30EC_U+30A4_U+30E4_U+30FC 1
 62
   179
420
  2234388
370
     9
100
AcDbVertex
100
AcDb2dVertex
 10
109.1438332178855
 20
-154.7369589524725
 30
0.0
  0
VERTEX
  5
A7
330
A5
100
AcDbEntity
  8
_U+30EC_U+30A4_U+30E4_U+30FC 1
 62
   179
420
  2234388
370
     9
100
AcDbVertex
100
AcDb2dVertex
 10
111.6044496045316
 20
-154.7369589524725
 30
0.0
  0
SEQEND
  5
A8
330
A5
100
AcDbEntity
  8
_U+30EC_U+30A4_U+30E4_U+30FC 1
 62
   179
420
  2234388
370
     9
  0
INSERT
  5
AA
330
1F
100
AcDbEntity
  8
_U+30EC_U+30A4_U+30E4_U+30FC 1
100
AcDbBlockReference
  2
block 3
 10
0.0
 20
0.0
 30
0.0
  0
POLYLINE
  5
BA
330
1F
100
AcDbEntity
  8
_U+30EC_U+30A4_U+30E4_U+30FC 1
 62
   179
420
  2234388
370
     9
100
AcDb2dPolyline
 66
     1
 10
0.0
 20
0.0
 30
0.0
  0
VERTEX
  5
BB
330
BA
100
AcDbEntity
  8
_U+30EC_U+30A4_U+30E4_U+30FC 1
 62
   179
420
  2234388
370
     9
100
AcDbVertex
100
AcDb2dVertex
 10
96.60438543659652
 20
-159.4367151497567
 30
0.0
  0
VERTEX
  5
BC
330
BA
100
AcDbEntity
  8
_U+30EC_U+30A4_U+30E4_U+30FC 1
 62
   179
420
  2234388
370
     9
100
AcDbVertex
100
AcDb2dVertex
 10
106.6042164853932
 20
-159.4367151497567
 30
0.0
  0
SEQEND
  5
BD
330
BA
100
AcDbEntity
  8
_U+30EC_U+30A4_U+30E4_U+30FC 1
 62
   179
420
  2234388
370
     9
  0
POLYLINE
  5
BE
330
1F
100
AcDbEntity
  8
_U+30EC_U+30A4_U+30E4_U+30FC 1
 62
   179
420
  2234388
370
     9
100
AcDb2dPolyline
 66
     1
 10
0.0
 20
0.0
 30
0.0
  0
VERTEX
  5
BF
330
BE
100
AcDbEntity
  8
_U+30EC_U+30A4_U+30E4_U+30FC 1
 62
   179
420
  2234388
370
     9
100
AcDbVertex
100
AcDb2dVertex
 10
96.60438543659652
 20
-157.9767267468014
 30
0.0
  0
VERTEX
  5
C0
330
BE
100
AcDbEntity
  8
_U+30EC_U+30A4_U+30E4_U+30FC 1
 62
   179
420
  2234388
370
     9
100
AcDbVertex
100
AcDb2dVertex
 10
96.60438543659652
 20
-160.4373646652943
 30
0.0
  0
SEQEND
  5
C1
330
BE
100
AcDbEntity
  8
_U+30EC_U+30A4_U+30E4_U+30FC 1
 62
   179
420
  2234388
370
     9
  0
POLYLINE
  5
C2
330
1F
100
AcDbEntity
  8
_U+30EC_U+30A4_U+30E4_U+30FC 1
 62
   179
420
  2234388
370
     9
100
AcDb2dPolyline
 66
     1
 10
0.0
 20
0.0
 30
0.0
  0
VERTEX
  5
C3
330
C2
100
AcDbEntity
  8
_U+30EC_U+30A4_U+30E4_U+30FC 1
 62
   179
420
  2234388
370
     9
100
AcDbVertex
100
AcDb2dVertex
 10
106.6041195920827
 20
-157.2766402805051
 30
0.0
  0
VERTEX
  5
C4
330
C2
100
AcDbEntity
  8
_U+30EC_U+30A4_U+30E4_U+30FC 1
 62
   179
420
  2234388
370
     9
100
AcDbVertex
100
AcDb2dVertex
 10
106.6041195920827
 20
-160.4371924105201
 30
0.0
  0
SEQEND
  5
C5
330
C2
100
AcDbEntity
  8
_U+30EC_U+30A4_U+30E4_U+30FC 1
 62
   179
420
  2234388
370
     9
  0
INSERT
  5
C7
330
1F
100
AcDbEntity
  8
_U+30EC_U+30A4_U+30E4_U+30FC 1
100
AcDbBlockReference
  2
block 4
 10
0.0
 20
0.0
 30
0.0
  0
POLYLINE
  5
CF
330
1F
100
AcDbEntity
  8
_U+30EC_U+30A4_U+30E4_U+30FC 1
 62
   179
420
  2234388
370
     9
100
AcDb2dPolyline
 66
     1
 10
0.0
 20
0.0
 30
0.0
  0
VERTEX
  5
D0
330
CF
100
AcDbEntity
  8
_U+30EC_U+30A4_U+30E4_U+30FC 1
 62
   179
420
  2234388
370
     9
100
AcDbVertex
100
AcDb2dVertex
 10
118.604022356688
 20
-140.9365739258122
 30
0.0
  0
VERTEX
  5
D1
330
CF
100
AcDbEntity
  8
_U+30EC_U+30A4_U+30E4_U+30FC 1
 62
   179
420
  2234388
370
     9
100
AcDbVertex
100
AcDb2dVertex
 10
86.60389766647295
 20
-140.9365739258122
 30
0.0
  0
SEQEND
  5
D2
330
CF
100
AcDbEntity
  8
_U+30EC_U+30A4_U+30E4_U+30FC 1
 62
   179
420
  2234388
370
     9
  0
POLYLINE
  5
D3
330
1F
100
AcDbEntity
  8
_U+30EC_U+30A4_U+30E4_U+30FC 1
 62
   179
420
  2234388
370
     9
100
AcDb2dPolyline
 66
     1
 10
0.0
 20
0.0
 30
0.0
  0
VERTEX
  5
D4
330
D3
100
AcDbEntity
  8
_U+30EC_U+30A4_U+30E4_U+30FC 1
 62
   179
420
  2234388
370
     9
100
AcDbVertex
100
AcDb2dVertex
 10
118.604022356688
 20
-142.3965623287672
 30
0.0
  0
VERTEX
  5
D5
330
D3
100
AcDbEntity
  8
_U+30EC_U+30A4_U+30E4_U+30FC 1
 62
   179
420
  2234388
370
     9
100
AcDbVertex
100
AcDb2dVertex
 10
118.604022356688
 20
-139.9359459421214
 30
0.0
  0
SEQEND
  5
D6
330
D3
100
AcDbEntity
  8
_U+30EC_U+30A4_U+30E4_U+30FC 1
 62
   179
420
  2234388
370
     9
  0
POLYLINE
  5
D7
330
1F
100
AcDbEntity
  8
_U+30EC_U+30A4_U+30E4_U+30FC 1
 62
   179
420
  2234388
370
     9
100
AcDb2dPolyline
 66
     1
 10
0.0
 20
0.0
 30
0.0
  0
VERTEX
  5
D8
330
D7
100
AcDbEntity
  8
_U+30EC_U+30A4_U+30E4_U+30FC 1
 62
   179
420
  2234388
370
     9
100
AcDbVertex
100
AcDb2dVertex
 10
86.60394073016651
 20
-142.3965623287672
 30
0.0
  0
VERTEX
  5
D9
330
D7
100
AcDbEntity
  8
_U+30EC_U+30A4_U+30E4_U+30FC 1
 62
   179
420
  2234388
370
     9
100
AcDbVertex
100
AcDb2dVertex
 10
86.60394073016651
 20
-139.9359459421214
 30
0.0
  0
SEQEND
  5
DA
330
D7
100
AcDbEntity
  8
_U+30EC_U+30A4_U+30E4_U+30FC 1
 62
   179
420
  2234388
370
     9
  0
INSERT
  5
DC
330
1F
100
AcDbEntity
  8
_U+30EC_U+30A4_U+30E4_U+30FC 1
100
AcDbBlockReference
  2
block 5
 10
0.0
 20
0.0
 30
0.0
  0
POLYLINE
  5
E3
330
1F
100
AcDbEntity
  8
_U+30EC_U+30A4_U+30E4_U+30FC 1
 62
   179
420
  2234388
370
     9
100
AcDb2dPolyline
 66
     1
 10
0.0
 20
0.0
 30
0.0
  0
VERTEX
  5
E4
330
E3
100
AcDbEntity
  8
_U+30EC_U+30A4_U+30E4_U+30FC 1
 62
   179
420
  2234388
370
     9
100
AcDbVertex
100
AcDb2dVertex
 10
96.60438543659652
 20
-159.4367151497567
 30
0.0
  0
VERTEX
  5
E5
330
E3
100
AcDbEntity
  8
_U+30EC_U+30A4_U+30E4_U+30FC 1
 62
   179
420
  2234388
370
     9
100
AcDbVertex
100
AcDb2dVertex
 10
86.6038330709326
 20
-159.4367151497567
 30
0.0
  0
SEQEND
  5
E6
330
E3
100
AcDbEntity
  8
_U+30EC_U+30A4_U+30E4_U+30FC 1
 62
   179
420
  2234388
370
     9
  0
POLYLINE
  5
E7
330
1F
100
AcDbEntity
  8
_U+30EC_U+30A4_U+30E4_U+30FC 1
 62
   179
420
  2234388
370
     9
100
AcDb2dPolyline
 66
     1
 10
0.0
 20
0.0
 30
0.0
  0
VERTEX
  5
E8
330
E7
100
AcDbEntity
  8
_U+30EC_U+30A4_U+30E4_U+30FC 1
 62
   179
420
  2234388
370
     9
100
AcDbVertex
100
AcDb2dVertex
 10
86.60394073016651
 20
-148.477198923927
 30
0.0
  0
VERTEX
  5
E9
330
E7
100
AcDbEntity
  8
_U+30EC_U+30A4_U+30E4_U+30FC 1
 62
   179
420
  2234388
370
     9
100
AcDbVertex
100
AcDb2dVertex
 10
86.60394073016651
 20
-160.4370847512861
 30
0.0
  0
SEQEND
  5
EA
330
E7
100
AcDbEntity
  8
_U+30EC_U+30A4_U+30E4_U+30FC 1
 62
   179
420
  2234388
370
     9
  0
INSERT
  5
EC
330
1F
100
AcDbEntity
  8
_U+30EC_U+30A4_U+30E4_U+30FC 1
100
AcDbBlockReference
  2
block 6
 10
0.0
 20
0.0
 30
0.0
  0
POLYLINE
  5
F4
330
1F
100
AcDbEntity
  8
_U+30EC_U+30A4_U+30E4_U+30FC 1
 62
   179
420
  2234388
370
     9
100
AcDb2dPolyline
 66
     1
 10
0.0
 20
0.0
 30
0.0
  0
VERTEX
  5
F5
330
F4
100
AcDbEntity
  8
_U+30EC_U+30A4_U+30E4_U+30FC 1
 62
   179
420
  2234388
370
     9
100
AcDbVertex
100
AcDb2dVertex
 10
122.6044887660069
 20
-154.4371495178686
 30
0.0
  0
VERTEX
  5
F6
330
F4
100
AcDbEntity
  8
_U+30EC_U+30A4_U+30E4_U+30FC 1
 62
   179
420
  2234388
370
     9
100
AcDbVertex
100
AcDb2dVertex
 10
122.6044887660069
 20
-145.936634790176
 30
0.0
  0
SEQEND
  5
F7
330
F4
100
AcDbEntity
  8
_U+30EC_U+30A4_U+30E4_U+30FC 1
 62
   179
420
  2234388
370
     9
  0
POLYLINE
  5
F8
330
1F
100
AcDbEntity
  8
_U+30EC_U+30A4_U+30E4_U+30FC 1
 62
   179
420
  2234388
370
     9
100
AcDb2dPolyline
 66
     1
 10
0.0
 20
0.0
 30
0.0
  0
VERTEX
  5
F9
330
F8
100
AcDbEntity
  8
_U+30EC_U+30A4_U+30E4_U+30FC 1
 62
   179
420
  2234388
370
     9
100
AcDbVertex
100
AcDb2dVertex
 10
109.1438332178855
 20
-154.4371495178686
 30
0.0
  0
VERTEX
  5
FA
330
F8
100
AcDbEntity
  8
_U+30EC_U+30A4_U+30E4_U+30FC 1
 62
   179
420
  2234388
370
     9
100
AcDbVertex
100
AcDb2dVertex
 10
123.604190880286
 20
-154.4371495178686
 30
0.0
  0
SEQEND
  5
FB
330
F8
100
AcDbEntity
  8
_U+30EC_U+30A4_U+30E4_U+30FC 1
 62
   179
420
  2234388
370
     9
  0
INSERT
  5
FD
330
1F
100
AcDbEntity
  8
_U+30EC_U+30A4_U+30E4_U+30FC 1
100
AcDbBlockReference
  2
block 7
 10
0.0
 20
0.0
 30
0.0
  0
ENDSEC
  0
SECTION
  2
OBJECTS
  0
DICTIONARY
  5
C
330
0
100
AcDbDictionary
281
     1
  3
ACAD_GROUP
350
D
  3
ACAD_LAYOUT
350
1A
  3
ACAD_MATERIAL
350
3B
  3
ACAD_MLEADERSTYLE
350
10F
  3
ACAD_MLINESTYLE
350
17
  3
ACAD_PLOTSETTINGS
350
19
  3
ACAD_PLOTSTYLENAME
350
E
  3
ACAD_TABLESTYLE
350
10E
  3
ACAD_VISUALSTYLE
350
2A
  0
SUN
  5
3F
330
29
100
AcDbSun
 90
        1
290
     0
 63
     7
421
 16777215
 40
1.0
291
     1
 91
  2455826
 92
 54000000
292
     0
 70
     2
 71
   256
280
     1
  0
DICTIONARY
  5
D
102
{ACAD_REACTORS
330
C
102
}
330
C
100
AcDbDictionary
281
     1
  0
DICTIONARY
  5
1A
102
{ACAD_REACTORS
330
C
102
}
330
C
100
AcDbDictionary
281
     1
  3
Layout1
350
1E
  3
Layout2
350
26
  3
Model
350
22
  0
DICTIONARY
  5
3B
102
{ACAD_REACTORS
330
C
102
}
330
C
100
AcDbDictionary
281
     1
  3
ByBlock
350
3D
  3
ByLayer
350
3C
  3
Global
350
3E
  0
DICTIONARY
  5
10F
102
{ACAD_REACTORS
330
C
102
}
330
C
100
AcDbDictionary
281
     1
  0
DICTIONARY
  5
17
102
{ACAD_REACTORS
330
C
102
}
330
C
100
AcDbDictionary
281
     1
  3
Standard
350
18
  0
DICTIONARY
  5
19
102
{ACAD_REACTORS
330
C
102
}
330
C
100
AcDbDictionary
281
     1
  0
ACDBDICTIONARYWDFLT
  5
E
102
{ACAD_REACTORS
330
C
102
}
330
C
100
AcDbDictionary
281
     1
  3
Normal
350
F
100
AcDbDictionaryWithDefault
340
F
  0
DICTIONARY
  5
10E
102
{ACAD_REACTORS
330
C
102
}
330
C
100
AcDbDictionary
281
     1
  0
DICTIONARY
  5
2A
102
{ACAD_REACTORS
330
C
102
}
330
C
100
AcDbDictionary
281
     1
  3
2dWireframe
350
2F
  3
3D Hidden
350
31
  3
3dWireframe
350
30
  3
Basic
350
32
  3
Brighten
350
36
  3
ColorChange
350
3A
  3
Conceptual
350
34
  3
Dim
350
35
  3
Facepattern
350
39
  3
Flat
350
2B
  3
FlatWithEdges
350
2C
  3
Gouraud
350
2D
  3
GouraudWithEdges
350
2E
  3
Linepattern
350
38
  3
Realistic
350
33
  3
Thicken
350
37
  0
LAYOUT
  5
1E
102
{ACAD_REACTORS
330
1A
102
}
330
1A
100
AcDbPlotSettings
  1

  2
none_device
  4

  6

 40
0.0
 41
0.0
 42
0.0
 43
0.0
 44
0.0
 45
0.0
 46
0.0
 47
0.0
 48
0.0
 49
0.0
140
0.0
141
0.0
142
1.0
143
1.0
 70
   688
 72
     0
 73
     0
 74
     5
  7

 75
    16
 76
     0
 77
     2
 78
   300
147
1.0
148
0.0
149
0.0
100
AcDbLayout
  1
Layout1
 70
     1
 71
     1
 10
0.0
 20
0.0
 11
12.0
 21
9.0
 12
0.0
 22
0.0
 32
0.0
 14
1.000000000000000E+20
 24
1.000000000000000E+20
 34
1.000000000000000E+20
 15
-1.000000000000000E+20
 25
-1.000000000000000E+20
 35
-1.000000000000000E+20
146
0.0
 13
0.0
 23
0.0
 33
0.0
 16
1.0
 26
0.0
 36
0.0
 17
0.0
 27
1.0
 37
0.0
 76
     0
330
1B
  0
LAYOUT
  5
26
102
{ACAD_REACTORS
330
1A
102
}
330
1A
100
AcDbPlotSettings
  1

  2
none_device
  4

  6

 40
0.0
 41
0.0
 42
0.0
 43
0.0
 44
0.0
 45
0.0
 46
0.0
 47
0.0
 48
0.0
 49
0.0
140
0.0
141
0.0
142
1.0
143
1.0
 70
   688
 72
     0
 73
     0
 74
     5
  7

 75
    16
 76
     0
 77
     2
 78
   300
147
1.0
148
0.0
149
0.0
100
AcDbLayout
  1
Layout2
 70
     1
 71
     2
 10
0.0
 20
0.0
 11
0.0
 21
0.0
 12
0.0
 22
0.0
 32
0.0
 14
0.0
 24
0.0
 34
0.0
 15
0.0
 25
0.0
 35
0.0
146
0.0
 13
0.0
 23
0.0
 33
0.0
 16
1.0
 26
0.0
 36
0.0
 17
0.0
 27
1.0
 37
0.0
 76
     0
330
23
  0
LAYOUT
  5
22
102
{ACAD_REACTORS
330
1A
102
}
330
1A
100
AcDbPlotSettings
  1

  2
none_device
  4

  6

 40
0.0
 41
0.0
 42
0.0
 43
0.0
 44
0.0
 45
0.0
 46
0.0
 47
0.0
 48
0.0
 49
0.0
140
0.0
141
0.0
142
1.0
143
1.0
 70
  1712
 72
     0
 73
     0
 74
     0
  7

 75
     0
 76
     0
 77
     2
 78
   300
147
1.0
148
0.0
149
0.0
100
AcDbLayout
  1
Model
 70
     1
 71
     0
 10
0.0
 20
0.0
 11
12.0
 21
9.0
 12
0.0
 22
0.0
 32
0.0
 14
1.000000000000000E+20
 24
1.000000000000000E+20
 34
1.000000000000000E+20
 15
-1.000000000000000E+20
 25
-1.000000000000000E+20
 35
-1.000000000000000E+20
146
0.0
 13
0.0
 23
0.0
 33
0.0
 16
1.0
 26
0.0
 36
0.0
 17
0.0
 27
1.0
 37
0.0
 76
     0
330
1F
331
29
  0
MATERIAL
  5
3D
102
{ACAD_REACTORS
330
3B
102
}
330
3B
100
AcDbMaterial
  1
ByBlock
 72
     1
 94
      127
  0
MATERIAL
  5
3C
102
{ACAD_REACTORS
330
3B
102
}
330
3B
100
AcDbMaterial
  1
ByLayer
 72
     1
 94
      127
  0
MATERIAL
  5
3E
102
{ACAD_REACTORS
330
3B
102
}
330
3B
100
AcDbMaterial
  1
Global
 72
     1
 94
      127
  0
MLINESTYLE
  5
18
102
{ACAD_REACTORS
330
17
102
}
330
17
100
AcDbMlineStyle
  2
Standard
 70
     0
  3

 62
   256
 51
90.0
 52
90.0
 71
     2
 49
0.5
 62
   256
  6
BYLAYER
 49
-0.5
 62
   256
  6
BYLAYER
  0
ACDBPLACEHOLDER
  5
F
102
{ACAD_REACTORS
330
E
102
}
330
E
  0
VISUALSTYLE
  5
2F
102
{ACAD_REACTORS
330
2A
102
}
330
2A
100
AcDbVisualStyle
  2
2dWireframe
 70
     4
177
     2
291
     0
 71
     0
176
     1
 72
     2
176
     1
 73
     0
176
     1
 90
        0
176
     1
 40
-0.6
176
     1
 41
-30.0
176
     1
 62
     5
 63
     7
421
 16777215
176
     1
 74
     1
176
     1
 91
        4
176
     1
 64
     7
176
     1
 65
   257
176
     1
 75
     1
176
     1
175
     1
176
     1
 42
1.0
176
     1
 92
        0
176
     1
 66
   257
176
     1
 43
1.0
176
     1
 76
     1
176
     1
 77
     6
176
     1
 78
     2
176
     1
 67
     7
176
     1
 79
     5
176
     1
170
     0
176
     1
171
     0
176
     1
290
     0
176
     1
 93
        1
176
     1
 44
0.0
176
     1
173
     0
176
     1
  0
VISUALSTYLE
  5
31
102
{ACAD_REACTORS
330
2A
102
}
330
2A
100
AcDbVisualStyle
  2
3D Hidden
 70
     6
177
     2
291
     0
 71
     1
176
     1
 72
     2
176
     1
 73
     2
176
     1
 90
        0
176
     1
 40
-0.6
176
     1
 41
-30.0
176
     1
 62
     5
 63
     7
421
 16777215
176
     1
 74
     2
176
     1
 91
        2
176
     1
 64
     7
176
     1
 65
   257
176
     1
 75
     2
176
     1
175
     1
176
     1
 42
40.0
176
     1
 92
        0
176
     1
 66
   257
176
     1
 43
1.0
176
     1
 76
     1
176
     1
 77
     6
176
     1
 78
     2
176
     1
 67
     7
176
     1
 79
     3
176
     1
170
     0
176
     1
171
     0
176
     1
290
     0
176
     1
 93
        1
176
     1
 44
0.0
176
     1
173
     0
176
     1
  0
VISUALSTYLE
  5
30
102
{ACAD_REACTORS
330
2A
102
}
330
2A
100
AcDbVisualStyle
  2
3dWireframe
 70
     5
177
     2
291
     0
 71
     0
176
     1
 72
     2
176
     1
 73
     0
176
     1
 90
        0
176
     1
 40
-0.6
176
     1
 41
-30.0
176
     1
 62
     5
 63
     7
421
 16777215
176
     1
 74
     1
176
     1
 91
        4
176
     1
 64
     7
176
     1
 65
   257
176
     1
 75
     1
176
     1
175
     1
176
     1
 42
1.0
176
     1
 92
        0
176
     1
 66
   257
176
     1
 43
1.0
176
     1
 76
     1
176
     1
 77
     6
176
     1
 78
     2
176
     1
 67
     7
176
     1
 79
     5
176
     1
170
     0
176
     1
171
     0
176
     1
290
     0
176
     1
 93
        1
176
     1
 44
0.0
176
     1
173
     0
176
     1
  0
VISUALSTYLE
  5
32
102
{ACAD_REACTORS
330
2A
102
}
330
2A
100
AcDbVisualStyle
  2
Basic
 70
     7
177
     2
291
     1
 71
     1
176
     1
 72
     0
176
     1
 73
     1
176
     1
 90
        0
176
     1
 40
-0.6
176
     1
 41
-30.0
176
     1
 62
     5
 63
     7
421
 16777215
176
     1
 74
     0
176
     1
 91
        4
176
     1
 64
     7
176
     1
 65
   257
176
     1
 75
     1
176
     1
175
     1
176
     1
 42
1.0
176
     1
 92
        8
176
     1
 66
     7
176
     1
 43
1.0
176
     1
 76
     1
176
     1
 77
     6
176
     1
 78
     2
176
     1
 67
     7
176
     1
 79
     5
176
     1
170
     0
176
     1
171
     0
176
     1
290
     0
176
     1
 93
        1
176
     1
 44
0.0
176
     1
173
     0
176
     1
  0
VISUALSTYLE
  5
36
102
{ACAD_REACTORS
330
2A
102
}
330
2A
100
AcDbVisualStyle
  2
Brighten
 70
    12
177
     2
291
     1
 71
     2
176
     1
 72
     2
176
     1
 73
     0
176
     1
 90
        0
176
     1
 40
-0.6
176
     1
 41
-30.0
176
     1
 62
     5
 63
     7
421
 16777215
176
     1
 74
     1
176
     1
 91
        4
176
     1
 64
     7
176
     1
 65
   257
176
     1
 75
     1
176
     1
175
     1
176
     1
 42
1.0
176
     1
 92
        8
176
     1
 66
     7
176
     1
 43
1.0
176
     1
 76
     1
176
     1
 77
     6
176
     1
 78
     2
176
     1
 67
     7
176
     1
 79
     5
176
     1
170
     0
176
     1
171
     0
176
     1
290
     0
176
     1
 93
        1
176
     1
 44
50.0
176
     1
173
     0
176
     1
  0
VISUALSTYLE
  5
3A
102
{ACAD_REACTORS
330
2A
102
}
330
2A
100
AcDbVisualStyle
  2
ColorChange
 70
    16
177
     2
291
     1
 71
     2
176
     1
 72
     2
176
     1
 73
     3
176
     1
 90
        0
176
     1
 40
-0.6
176
     1
 41
-30.0
176
     1
 62
     5
 63
     8
421
  8421504
176
     1
 74
     1
176
     1
 91
        4
176
     1
 64
     7
176
     1
 65
   257
176
     1
 75
     1
176
     1
175
     1
176
     1
 42
1.0
176
     1
 92
        8
176
     1
 66
     8
424
  8421504
176
     1
 43
1.0
176
     1
 76
     1
176
     1
 77
     6
176
     1
 78
     2
176
     1
 67
     7
176
     1
 79
     5
176
     1
170
     0
176
     1
171
     0
176
     1
290
     0
176
     1
 93
        1
176
     1
 44
0.0
176
     1
173
     0
176
     1
  0
VISUALSTYLE
  5
34
102
{ACAD_REACTORS
330
2A
102
}
330
2A
100
AcDbVisualStyle
  2
Conceptual
 70
     9
177
     2
291
     0
 71
     3
176
     1
 72
     2
176
     1
 73
     0
176
     1
 90
        0
176
     1
 40
-0.6
176
     1
 41
-30.0
176
     1
 62
     5
 63
     7
421
 16777215
176
     1
 74
     2
176
     1
 91
        2
176
     1
 64
     7
176
     1
 65
   257
176
     1
 75
     1
176
     1
175
     1
176
     1
 42
40.0
176
     1
 92
        8
176
     1
 66
     7
176
     1
 43
1.0
176
     1
 76
     1
176
     1
 77
     6
176
     1
 78
     2
176
     1
 67
     7
176
     1
 79
     3
176
     1
170
     0
176
     1
171
     0
176
     1
290
     0
176
     1
 93
        1
176
     1
 44
0.0
176
     1
173
     0
176
     1
  0
VISUALSTYLE
  5
35
102
{ACAD_REACTORS
330
2A
102
}
330
2A
100
AcDbVisualStyle
  2
Dim
 70
    11
177
     2
291
     1
 71
     2
176
     1
 72
     2
176
     1
 73
     0
176
     1
 90
        0
176
     1
 40
-0.6
176
     1
 41
-30.0
176
     1
 62
     5
 63
     7
421
 16777215
176
     1
 74
     1
176
     1
 91
        4
176
     1
 64
     7
176
     1
 65
   257
176
     1
 75
     1
176
     1
175
     1
176
     1
 42
1.0
176
     1
 92
        8
176
     1
 66
     7
176
     1
 43
1.0
176
     1
 76
     1
176
     1
 77
     6
176
     1
 78
     2
176
     1
 67
     7
176
     1
 79
     5
176
     1
170
     0
176
     1
171
     0
176
     1
290
     0
176
     1
 93
        1
176
     1
 44
-50.0
176
     1
173
     0
176
     1
  0
VISUALSTYLE
  5
39
102
{ACAD_REACTORS
330
2A
102
}
330
2A
100
AcDbVisualStyle
  2
Facepattern
 70
    15
177
     2
291
     1
 71
     2
176
     1
 72
     2
176
     1
 73
     0
176
     1
 90
        0
176
     1
 40
-0.6
176
     1
 41
-30.0
176
     1
 62
     5
 63
     7
421
 16777215
176
     1
 74
     1
176
     1
 91
        4
176
     1
 64
     7
176
     1
 65
   257
176
     1
 75
     1
176
     1
175
     1
176
     1
 42
1.0
176
     1
 92
        8
176
     1
 66
     7
176
     1
 43
1.0
176
     1
 76
     1
176
     1
 77
     6
176
     1
 78
     2
176
     1
 67
     7
176
     1
 79
     5
176
     1
170
     0
176
     1
171
     0
176
     1
290
     0
176
     1
 93
        1
176
     1
 44
0.0
176
     1
173
     0
176
     1
  0
VISUALSTYLE
  5
2B
102
{ACAD_REACTORS
330
2A
102
}
330
2A
100
AcDbVisualStyle
  2
Flat
 70
     0
177
     2
291
     1
 71
     2
176
     1
 72
     1
176
     1
 73
     1
176
     1
 90
        2
176
     1
 40
-0.6
176
     1
 41
30.0
176
     1
 62
     5
 63
     7
421
 16777215
176
     1
 74
     0
176
     1
 91
        4
176
     1
 64
     7
176
     1
 65
   257
176
     1
 75
     1
176
     1
175
     1
176
     1
 42
1.0
176
     1
 92
        8
176
     1
 66
     7
176
     1
 43
1.0
176
     1
 76
     1
176
     1
 77
     6
176
     1
 78
     2
176
     1
 67
     7
176
     1
 79
     5
176
     1
170
     0
176
     1
171
     0
176
     1
290
     0
176
     1
 93
       13
176
     1
 44
0.0
176
     1
173
     0
176
     1
  0
VISUALSTYLE
  5
2C
102
{ACAD_REACTORS
330
2A
102
}
330
2A
100
AcDbVisualStyle
  2
FlatWithEdges
 70
     1
177
     2
291
     1
 71
     2
176
     1
 72
     1
176
     1
 73
     1
176
     1
 90
        2
176
     1
 40
-0.6
176
     1
 41
30.0
176
     1
 62
     5
 63
     7
421
 16777215
176
     1
 74
     1
176
     1
 91
        4
176
     1
 64
     7
176
     1
 65
   257
176
     1
 75
     1
176
     1
175
     1
176
     1
 42
1.0
176
     1
 92
        0
176
     1
 66
   257
176
     1
 43
1.0
176
     1
 76
     1
176
     1
 77
     6
176
     1
 78
     2
176
     1
 67
     7
176
     1
 79
     5
176
     1
170
     0
176
     1
171
     0
176
     1
290
     0
176
     1
 93
       13
176
     1
 44
0.0
176
     1
173
     0
176
     1
  0
VISUALSTYLE
  5
2D
102
{ACAD_REACTORS
330
2A
102
}
330
2A
100
AcDbVisualStyle
  2
Gouraud
 70
     2
177
     2
291
     1
 71
     2
176
     1
 72
     2
176
     1
 73
     1
176
     1
 90
        2
176
     1
 40
-0.6
176
     1
 41
30.0
176
     1
 62
     5
 63
     7
421
 16777215
176
     1
 74
     0
176
     1
 91
        4
176
     1
 64
     7
176
     1
 65
   257
176
     1
 75
     1
176
     1
175
     1
176
     1
 42
1.0
176
     1
 92
        0
176
     1
 66
     7
176
     1
 43
1.0
176
     1
 76
     1
176
     1
 77
     6
176
     1
 78
     2
176
     1
 67
     7
176
     1
 79
     5
176
     1
170
     0
176
     1
171
     0
176
     1
290
     0
176
     1
 93
       13
176
     1
 44
0.0
176
     1
173
     0
176
     1
  0
VISUALSTYLE
  5
2E
102
{ACAD_REACTORS
330
2A
102
}
330
2A
100
AcDbVisualStyle
  2
GouraudWithEdges
 70
     3
177
     2
291
     1
 71
     2
176
     1
 72
     2
176
     1
 73
     1
176
     1
 90
        2
176
     1
 40
-0.6
176
     1
 41
30.0
176
     1
 62
     5
 63
     7
421
 16777215
176
     1
 74
     1
176
     1
 91
        4
176
     1
 64
     7
176
     1
 65
   257
176
     1
 75
     1
176
     1
175
     1
176
     1
 42
1.0
176
     1
 92
        0
176
     1
 66
   257
176
     1
 43
1.0
176
     1
 76
     1
176
     1
 77
     6
176
     1
 78
     2
176
     1
 67
     7
176
     1
 79
     5
176
     1
170
     0
176
     1
171
     0
176
     1
290
     0
176
     1
 93
       13
176
     1
 44
0.0
176
     1
173
     0
176
     1
  0
VISUALSTYLE
  5
38
102
{ACAD_REACTORS
330
2A
102
}
330
2A
100
AcDbVisualStyle
  2
Linepattern
 70
    14
177
     2
291
     1
 71
     2
176
     1
 72
     2
176
     1
 73
     0
176
     1
 90
        0
176
     1
 40
-0.6
176
     1
 41
-30.0
176
     1
 62
     5
 63
     7
421
 16777215
176
     1
 74
     1
176
     1
 91
        4
176
     1
 64
     7
176
     1
 65
   257
176
     1
 75
     7
176
     1
175
     7
176
     1
 42
1.0
176
     1
 92
        8
176
     1
 66
     7
176
     1
 43
1.0
176
     1
 76
     1
176
     1
 77
     6
176
     1
 78
     2
176
     1
 67
     7
176
     1
 79
     5
176
     1
170
     0
176
     1
171
     0
176
     1
290
     0
176
     1
 93
        1
176
     1
 44
0.0
176
     1
173
     0
176
     1
  0
VISUALSTYLE
  5
33
102
{ACAD_REACTORS
330
2A
102
}
330
2A
100
AcDbVisualStyle
  2
Realistic
 70
     8
177
     2
291
     0
 71
     2
176
     1
 72
     2
176
     1
 73
     0
176
     1
 90
        0
176
     1
 40
-0.6
176
     1
 41
-30.0
176
     1
 62
     5
 63
     7
421
 16777215
176
     1
 74
     1
176
     1
 91
        0
176
     1
 64
     7
176
     1
 65
   257
176
     1
 75
     1
176
     1
175
     1
176
     1
 42
1.0
176
     1
 92
        8
176
     1
 66
     8
424
  7895160
176
     1
 43
1.0
176
     1
 76
     1
176
     1
 77
     6
176
     1
 78
     2
176
     1
 67
     7
176
     1
 79
     5
176
     1
170
     0
176
     1
171
     0
176
     1
290
     0
176
     1
 93
       13
176
     1
 44
0.0
176
     1
173
     0
176
     1
  0
VISUALSTYLE
  5
37
102
{ACAD_REACTORS
330
2A
102
}
330
2A
100
AcDbVisualStyle
  2
Thicken
 70
    13
177
     2
291
     1
 71
     2
176
     1
 72
     2
176
     1
 73
     0
176
     1
 90
        0
176
     1
 40
-0.6
176
     1
 41
-30.0
176
     1
 62
     5
 63
     7
421
 16777215
176
     1
 74
     1
176
     1
 91
        4
176
     1
 64
     7
176
     1
 65
   257
176
     1
 75
     1
176
     1
175
     1
176
     1
 42
1.0
176
     1
 92
       12
176
     1
 66
     7
176
     1
 43
1.0
176
     1
 76
     1
176
     1
 77
     6
176
     1
 78
     2
176
     1
 67
     7
176
     1
 79
     5
176
     1
170
     0
176
     1
171
     0
176
     1
290
     0
176
     1
 93
        1
176
     1
 44
0.0
176
     1
173
     0
176
     1
  0
ENDSEC
  0
EOF
