  0
SECTION
  2
HEADER
  9
$ACADVER
  1
AC1024
  9
$ACADMAINTVER
 70
     6
  9
$DWGCODEPAGE
  3
UNDEFINED
  9
$INSBASE
 10
0.0
 20
0.0
 30
0.0
  9
$EXTMIN
 10
1.000000000000000E+20
 20
1.000000000000000E+20
 30
1.000000000000000E+20
  9
$EXTMAX
 10
-1.000000000000000E+20
 20
-1.000000000000000E+20
 30
-1.000000000000000E+20
  9
$LIMMIN
 10
0.0
 20
0.0
  9
$LIMMAX
 10
12.0
 20
9.0
  9
$ORTHOMODE
 70
     0
  9
$REGENMODE
 70
     1
  9
$FILLMODE
 70
     1
  9
$QTEXTMODE
 70
     0
  9
$MIRRTEXT
 70
     1
  9
$LTSCALE
 40
1.0
  9
$ATTMODE
 70
     1
  9
$TEXTSIZE
 40
0.2
  9
$TRACEWID
 40
0.05
  9
$TEXTSTYLE
  7
Standard
  9
$CLAYER
  8
0
  9
$CELTYPE
  6
ByLayer
  9
$CECOLOR
 62
   256
  9
$CELTSCALE
 40
1.0
  9
$DISPSILH
 70
     0
  9
$DIMSCALE
 40
1.0
  9
$DIMASZ
 40
0.18
  9
$DIMEXO
 40
0.0625
  9
$DIMDLI
 40
0.38
  9
$DIMRND
 40
0.0
  9
$DIMDLE
 40
0.0
  9
$DIMEXE
 40
0.18
  9
$DIMTP
 40
0.0
  9
$DIMTM
 40
0.0
  9
$DIMTXT
 40
0.18
  9
$DIMCEN
 40
0.09
  9
$DIMTSZ
 40
0.0
  9
$DIMTOL
 70
     0
  9
$DIMLIM
 70
     0
  9
$DIMTIH
 70
     1
  9
$DIMTOH
 70
     1
  9
$DIMSE1
 70
     0
  9
$DIMSE2
 70
     0
  9
$DIMTAD
 70
     0
  9
$DIMZIN
 70
     0
  9
$DIMBLK
  1

  9
$DIMASO
 70
     1
  9
$DIMSHO
 70
     1
  9
$DIMPOST
  1

  9
$DIMAPOST
  1

  9
$DIMALT
 70
     0
  9
$DIMALTD
 70
     2
  9
$DIMALTF
 40
25.4
  9
$DIMLFAC
 40
1.0
  9
$DIMTOFL
 70
     0
  9
$DIMTVP
 40
0.0
  9
$DIMTIX
 70
     0
  9
$DIMSOXD
 70
     0
  9
$DIMSAH
 70
     0
  9
$DIMBLK1
  1

  9
$DIMBLK2
  1

  9
$DIMSTYLE
  2
Standard
  9
$DIMCLRD
 70
     0
  9
$DIMCLRE
 70
     0
  9
$DIMCLRT
 70
     0
  9
$DIMTFAC
 40
1.0
  9
$DIMGAP
 40
0.09
  9
$DIMJUST
 70
     0
  9
$DIMSD1
 70
     0
  9
$DIMSD2
 70
     0
  9
$DIMTOLJ
 70
     1
  9
$DIMTZIN
 70
     0
  9
$DIMALTZ
 70
     0
  9
$DIMALTTZ
 70
     0
  9
$DIMUPT
 70
     0
  9
$DIMDEC
 70
     4
  9
$DIMTDEC
 70
     4
  9
$DIMALTU
 70
     2
  9
$DIMALTTD
 70
     2
  9
$DIMTXSTY
  7
Standard
  9
$DIMAUNIT
 70
     0
  9
$DIMADEC
 70
     0
  9
$DIMALTRND
 40
0.0
  9
$DIMAZIN
 70
     0
  9
$DIMDSEP
 70
    46
  9
$DIMATFIT
 70
     3
  9
$DIMFRAC
 70
     0
  9
$DIMLDRBLK
  1

  9
$DIMLUNIT
 70
     2
  9
$DIMLWD
 70
    -2
  9
$DIMLWE
 70
    -2
  9
$DIMTMOVE
 70
     0
  9
$DIMFXL
 40
1.0
  9
$DIMFXLON
 70
     0
  9
$DIMJOGANG
 40
0.7853981633974483
  9
$DIMTFILL
 70
     0
  9
$DIMTFILLCLR
 70
     0
  9
$DIMARCSYM
 70
     0
  9
$DIMLTYPE
  6

  9
$DIMLTEX1
  6

  9
$DIMLTEX2
  6

  9
$DIMTXTDIRECTION
 70
     0
  9
$LUNITS
 70
     2
  9
$LUPREC
 70
     4
  9
$SKETCHINC
 40
0.1
  9
$FILLETRAD
 40
0.5
  9
$AUNITS
 70
     0
  9
$AUPREC
 70
     0
  9
$MENU
  1
.
  9
$ELEVATION
 40
0.0
  9
$PELEVATION
 40
0.0
  9
$THICKNESS
 40
0.0
  9
$LIMCHECK
 70
     0
  9
$CHAMFERA
 40
0.5
  9
$CHAMFERB
 40
0.5
  9
$CHAMFERC
 40
1.0
  9
$CHAMFERD
 40
0.0
  9
$SKPOLY
 70
     0
  9
$TDCREATE
 40
2458263.574641192
  9
$TDUCREATE
 40
2458263.199641204
  9
$TDUPDATE
 40
2458263.574641192
  9
$TDUUPDATE
 40
2458263.199641204
  9
$TDINDWG
 40
0.0000000116
  9
$TDUSRTIMER
 40
0.0000000116
  9
$USRTIMER
 70
     1
  9
$ANGBASE
 50
0.0
  9
$ANGDIR
 70
     0
  9
$PDMODE
 70
     0
  9
$PDSIZE
 40
0.0
  9
$PLINEWID
 40
0.0
  9
$SPLFRAME
 70
     0
  9
$SPLINETYPE
 70
     6
  9
$SPLINESEGS
 70
     8
  9
$HANDSEED
  5
110
  9
$SURFTAB1
 70
     6
  9
$SURFTAB2
 70
     6
  9
$SURFTYPE
 70
     6
  9
$SURFU
 70
     6
  9
$SURFV
 70
     6
  9
$UCSBASE
  2

  9
$UCSNAME
  2

  9
$UCSORG
 10
0.0
 20
0.0
 30
0.0
  9
$UCSXDIR
 10
1.0
 20
0.0
 30
0.0
  9
$UCSYDIR
 10
0.0
 20
1.0
 30
0.0
  9
$UCSORTHOREF
  2

  9
$UCSORTHOVIEW
 70
     0
  9
$UCSORGTOP
 10
0.0
 20
0.0
 30
0.0
  9
$UCSORGBOTTOM
 10
0.0
 20
0.0
 30
0.0
  9
$UCSORGLEFT
 10
0.0
 20
0.0
 30
0.0
  9
$UCSORGRIGHT
 10
0.0
 20
0.0
 30
0.0
  9
$UCSORGFRONT
 10
0.0
 20
0.0
 30
0.0
  9
$UCSORGBACK
 10
0.0
 20
0.0
 30
0.0
  9
$PUCSBASE
  2

  9
$PUCSNAME
  2

  9
$PUCSORG
 10
0.0
 20
0.0
 30
0.0
  9
$PUCSXDIR
 10
1.0
 20
0.0
 30
0.0
  9
$PUCSYDIR
 10
0.0
 20
1.0
 30
0.0
  9
$PUCSORTHOREF
  2

  9
$PUCSORTHOVIEW
 70
     0
  9
$PUCSORGTOP
 10
0.0
 20
0.0
 30
0.0
  9
$PUCSORGBOTTOM
 10
0.0
 20
0.0
 30
0.0
  9
$PUCSORGLEFT
 10
0.0
 20
0.0
 30
0.0
  9
$PUCSORGRIGHT
 10
0.0
 20
0.0
 30
0.0
  9
$PUCSORGFRONT
 10
0.0
 20
0.0
 30
0.0
  9
$PUCSORGBACK
 10
0.0
 20
0.0
 30
0.0
  9
$USERI1
 70
     0
  9
$USERI2
 70
     0
  9
$USERI3
 70
     0
  9
$USERI4
 70
     0
  9
$USERI5
 70
     0
  9
$USERR1
 40
0.0
  9
$USERR2
 40
0.0
  9
$USERR3
 40
0.0
  9
$USERR4
 40
0.0
  9
$USERR5
 40
0.0
  9
$WORLDVIEW
 70
     1
  9
$SHADEDGE
 70
     3
  9
$SHADEDIF
 70
    70
  9
$TILEMODE
 70
     1
  9
$MAXACTVP
 70
    64
  9
$PINSBASE
 10
0.0
 20
0.0
 30
0.0
  9
$PLIMCHECK
 70
     0
  9
$PEXTMIN
 10
1.000000000000000E+20
 20
1.000000000000000E+20
 30
1.000000000000000E+20
  9
$PEXTMAX
 10
-1.000000000000000E+20
 20
-1.000000000000000E+20
 30
-1.000000000000000E+20
  9
$PLIMMIN
 10
0.0
 20
0.0
  9
$PLIMMAX
 10
12.0
 20
9.0
  9
$UNITMODE
 70
     0
  9
$VISRETAIN
 70
     1
  9
$PLINEGEN
 70
     0
  9
$PSLTSCALE
 70
     1
  9
$TREEDEPTH
 70
  3020
  9
$CMLSTYLE
  2
Standard
  9
$CMLJUST
 70
     0
  9
$CMLSCALE
 40
1.0
  9
$PROXYGRAPHICS
 70
     1
  9
$MEASUREMENT
 70
     0
  9
$CELWEIGHT
370
    -1
  9
$ENDCAPS
280
     0
  9
$JOINSTYLE
280
     0
  9
$LWDISPLAY
290
     1
  9
$INSUNITS
 70
     1
  9
$HYPERLINKBASE
  1

  9
$STYLESHEET
  1

  9
$XEDIT
290
     1
  9
$CEPSNTYPE
380
     0
  9
$PSTYLEMODE
290
     1
  9
$FINGERPRINTGUID
  2
{4BD4C7F2-BA2B-394F-9F2C-309C306456BB}
  9
$VERSIONGUID
  2
{FAEB1C32-E019-11D5-929B-00C0DF256EC4}
  9
$EXTNAMES
290
     1
  9
$PSVPSCALE
 40
0.0
  9
$OLESTARTUP
290
     0
  9
$SORTENTS
280
   127
  9
$INDEXCTL
280
     0
  9
$HIDETEXT
280
     1
  9
$XCLIPFRAME
280
     2
  9
$HALOGAP
280
     0
  9
$OBSCOLOR
 70
   257
  9
$OBSLTYPE
280
     0
  9
$INTERSECTIONDISPLAY
280
     0
  9
$INTERSECTIONCOLOR
 70
   257
  9
$DIMASSOC
280
     2
  9
$PROJECTNAME
  1

  9
$CAMERADISPLAY
290
     0
  9
$LENSLENGTH
 40
50.0
  9
$CAMERAHEIGHT
 40
0.0
  9
$STEPSPERSEC
 40
2.0
  9
$STEPSIZE
 40
6.0
  9
$3DDWFPREC
 40
2.0
  9
$PSOLWIDTH
 40
0.25
  9
$PSOLHEIGHT
 40
4.0
  9
$LOFTANG1
 40
1.570796326794897
  9
$LOFTANG2
 40
1.570796326794897
  9
$LOFTMAG1
 40
0.0
  9
$LOFTMAG2
 40
0.0
  9
$LOFTPARAM
 70
     7
  9
$LOFTNORMALS
280
     1
  9
$LATITUDE
 40
37.795
  9
$LONGITUDE
 40
-122.394
  9
$NORTHDIRECTION
 40
0.0
  9
$TIMEZONE
 70
 -8000
  9
$LIGHTGLYPHDISPLAY
280
     1
  9
$TILEMODELIGHTSYNCH
280
     1
  9
$CMATERIAL
347
3C
  9
$SOLIDHIST
280
     1
  9
$SHOWHIST
280
     1
  9
$DWFFRAME
280
     2
  9
$DGNFRAME
280
     2
  9
$REALWORLDSCALE
290
     1
  9
$INTERFERECOLOR
 62
   256
  9
$CSHADOW
280
     0
  9
$SHADOWPLANELOCATION
 40
0.0
  0
ENDSEC
  0
SECTION
  2
CLASSES
  0
CLASS
  1
ACDBDICTIONARYWDFLT
  2
AcDbDictionaryWithDefault
  3
ObjectDBX Classes
 90
        0
 91
        4
280
     0
281
     0
  0
CLASS
  1
VISUALSTYLE
  2
AcDbVisualStyle
  3
ObjectDBX Classes
 90
     4095
 91
        4
280
     0
281
     0
  0
CLASS
  1
MATERIAL
  2
AcDbMaterial
  3
ObjectDBX Classes
 90
     1153
 91
        4
280
     0
281
     0
  0
CLASS
  1
SUN
  2
AcDbSun
  3
SCENEOE
 90
     1024
 91
        4
280
     0
281
     0
  0
ENDSEC
  0
SECTION
  2
TABLES
  0
TABLE
  2
VPORT
  5
8
330
0
100
AcDbSymbolTable
 70
     1
  0
VPORT
  5
29
330
8
100
AcDbSymbolTableRecord
100
AcDbViewportTableRecord
  2
*Active
 70
     0
 10
0.0
 20
0.0
 11
1.0
 21
1.0
 12
0.0
 22
0.0
 13
0.0
 23
0.0
 14
0.5
 24
0.5
 15
0.5
 25
0.5
 16
0.0
 26
0.0
 36
1.0
 17
105.0007777515277
 27
-148.5000416295416
 37
0.0
 40
297.0000832590831
 41
0.7070757462376333
 42
50.0
 43
0.0
 44
0.0
 50
0.0
 51
0.0
 71
     0
 72
   100
 73
     1
 74
     3
 75
     0
 76
     0
 77
     0
 78
     0
281
     0
 65
     1
110
0.0
120
0.0
130
0.0
111
1.0
121
0.0
131
0.0
112
0.0
122
1.0
132
0.0
 79
     0
146
0.0
 60
     3
 61
     5
292
     1
282
     1
141
0.0
142
0.0
 63
   250
361
3F
  0
ENDTAB
  0
TABLE
  2
LTYPE
  5
5
330
0
100
AcDbSymbolTable
 70
     1
  0
LTYPE
  5
14
330
5
100
AcDbSymbolTableRecord
100
AcDbLinetypeTableRecord
  2
ByBlock
 70
     0
  3

 72
    65
 73
     0
 40
0.0
  0
LTYPE
  5
15
330
5
100
AcDbSymbolTableRecord
100
AcDbLinetypeTableRecord
  2
ByLayer
 70
     0
  3

 72
    65
 73
     0
 40
0.0
  0
LTYPE
  5
16
330
5
100
AcDbSymbolTableRecord
100
AcDbLinetypeTableRecord
  2
Continuous
 70
     0
  3
Solid line
 72
    65
 73
     0
 40
0.0
  0
ENDTAB
  0
TABLE
  2
LAYER
  5
2
330
0
100
AcDbSymbolTable
 70
     2
  0
LAYER
  5
10
330
2
100
AcDbSymbolTableRecord
100
AcDbLayerTableRecord
  2
0
 70
     0
 62
     7
  6
Continuous
370
    -3
390
F
347
3E
  0
LAYER
  5
40
330
2
100
AcDbSymbolTableRecord
100
AcDbLayerTableRecord
  2
_U+30EC_U+30A4_U+30E4_U+30FC 1
 70
     0
 62
     7
  6
Continuous
370
    -3
390
F
347
3E
  0
ENDTAB
  0
TABLE
  2
STYLE
  5
3
330
0
100
AcDbSymbolTable
 70
     1
  0
STYLE
  5
11
330
3
100
AcDbSymbolTableRecord
100
AcDbTextStyleTableRecord
  2
Standard
 70
     0
 40
0.0
 41
1.0
 50
0.0
 71
     0
 42
0.2
  3
txt
  4

  0
ENDTAB
  0
TABLE
  2
VIEW
  5
6
330
0
100
AcDbSymbolTable
 70
     0
  0
ENDTAB
  0
TABLE
  2
UCS
  5
7
330
0
100
AcDbSymbolTable
 70
     0
  0
ENDTAB
  0
TABLE
  2
APPID
  5
9
330
0
100
AcDbSymbolTable
 70
     1
  0
APPID
  5
12
330
9
100
AcDbSymbolTableRecord
100
AcDbRegAppTableRecord
  2
ACAD
 70
     0
  0
ENDTAB
  0
TABLE
  2
DIMSTYLE
  5
A
330
0
100
AcDbSymbolTable
 70
     1
100
AcDbDimStyleTable
  0
DIMSTYLE
105
27
330
A
100
AcDbSymbolTableRecord
100
AcDbDimStyleTableRecord
  2
Standard
 70
     0
178
     0
340
11
  0
ENDTAB
  0
TABLE
  2
BLOCK_RECORD
  5
1
330
0
100
AcDbSymbolTable
 70
     7
  0
BLOCK_RECORD
  5
1F
330
1
100
AcDbSymbolTableRecord
100
AcDbBlockTableRecord
  2
*Model_Space
340
22
 70
     0
280
     1
281
     0
  0
BLOCK_RECORD
  5
1B
330
1
100
AcDbSymbolTableRecord
100
AcDbBlockTableRecord
  2
*Paper_Space
340
1E
 70
     0
280
     1
281
     0
  0
BLOCK_RECORD
  5
23
330
1
100
AcDbSymbolTableRecord
100
AcDbBlockTableRecord
  2
*Paper_Space0
340
26
 70
     0
280
     1
281
     0
  0
BLOCK_RECORD
  5
93
330
1
100
AcDbSymbolTableRecord
100
AcDbBlockTableRecord
  2
block 2
340
0
102
{BLKREFS
331
94
102
}
 70
     0
280
     1
281
     0
  0
BLOCK_RECORD
  5
A9
330
1
100
AcDbSymbolTableRecord
100
AcDbBlockTableRecord
  2
block 3
340
0
102
{BLKREFS
331
AA
102
}
 70
     0
280
     1
281
     0
  0
BLOCK_RECORD
  5
C6
330
1
100
AcDbSymbolTableRecord
100
AcDbBlockTableRecord
  2
block 4
340
0
102
{BLKREFS
331
C7
102
}
 70
     0
280
     1
281
     0
  0
BLOCK_RECORD
  5
DB
330
1
100
AcDbSymbolTableRecord
100
AcDbBlockTableRecord
  2
block 5
340
0
102
{BLKREFS
331
DC
102
}
 70
     0
280
     1
281
     0
  0
BLOCK_RECORD
  5
EC
330
1
100
AcDbSymbolTableRecord
100
AcDbBlockTableRecord
  2
block 6
340
0
102
{BLKREFS
331
ED
102
}
 70
     0
280
     1
281
     0
  0
BLOCK_RECORD
  5
FC
330
1
100
AcDbSymbolTableRecord
100
AcDbBlockTableRecord
  2
block 7
340
0
102
{BLKREFS
331
FD
102
}
 70
     0
280
     1
281
     0
  0
ENDTAB
  0
ENDSEC
  0
SECTION
  2
BLOCKS
  0
BLOCK
  5
20
330
1F
100
AcDbEntity
  8
0
100
AcDbBlockBegin
  2
*Model_Space
 70
     0
 10
0.0
 20
0.0
 30
0.0
  3
*Model_Space
  1

  0
ENDBLK
  5
21
330
1F
100
AcDbEntity
  8
0
100
AcDbBlockEnd
  0
BLOCK
  5
1C
330
1B
100
AcDbEntity
 67
     1
  8
0
100
AcDbBlockBegin
  2
*Paper_Space
 70
     0
 10
0.0
 20
0.0
 30
0.0
  3
*Paper_Space
  1

  0
ENDBLK
  5
1D
330
1B
100
AcDbEntity
 67
     1
  8
0
100
AcDbBlockEnd
  0
BLOCK
  5
24
330
23
100
AcDbEntity
  8
0
100
AcDbBlockBegin
  2
*Paper_Space0
 70
     0
 10
0.0
 20
0.0
 30
0.0
  3
*Paper_Space0
  1

  0
ENDBLK
  5
25
330
23
100
AcDbEntity
  8
0
100
AcDbBlockEnd
  0
BLOCK
  5
95
330
93
100
AcDbEntity
  8
0
100
AcDbBlockBegin
  2
block 2
 70
     0
 10
0.0
 20
0.0
 30
0.0
  3
block 2
  1

  0
SPLINE
  5
97
330
93
100
AcDbEntity
  8
_U+30EC_U+30A4_U+30E4_U+30FC 1
370
     0
100
AcDbSpline
210
0.0
220
0.0
230
1.0
 70
    11
 71
     3
 72
    26
 73
    22
 74
     0
 42
0.0000000001
 43
0.0000000001
 12
1.0
 22
0.0
 32
0.0
 13
1.0
 23
0.0
 33
0.0
 40
0.0
 40
0.0
 40
0.0
 40
0.0
 40
1.0
 40
1.0
 40
1.0
 40
2.0
 40
2.0
 40
2.0
 40
3.0
 40
3.0
 40
3.0
 40
4.0
 40
4.0
 40
4.0
 40
5.0
 40
5.0
 40
5.0
 40
6.0
 40
6.0
 40
6.0
 40
7.0
 40
7.0
 40
7.0
 40
7.0
 10
120.367502140047
 20
-141.8190781980522
 30
0.0
 10
120.367502140047
 20
-141.8190781980522
 30
0.0
 10
119.2633490370244
 20
-141.8190781980522
 30
0.0
 10
119.2633490370244
 20
-141.8190781980522
 30
0.0
 10
119.2633490370244
 20
-141.8190781980522
 30
0.0
 10
119.2633490370244
 20
-142.1715114661932
 30
0.0
 10
119.2633490370244
 20
-142.1715114661932
 30
0.0
 10
119.2633490370244
 20
-142.1715114661932
 30
0.0
 10
119.1155544407072
 20
-142.1715114661932
 30
0.0
 10
119.1155544407072
 20
-142.1715114661932
 30
0.0
 10
119.1003960205721
 20
-141.8166666312125
 30
0.0
 10
118.9377875136683
 20
-141.7670572562249
 30
0.0
 10
118.823410343558
 20
-141.7353623777606
 30
0.0
 10
118.823410343558
 20
-141.7353623777606
 30
0.0
 10
118.823410343558
 20
-141.5792995522788
 30
0.0
 10
118.823410343558
 20
-141.5792995522788
 30
0.0
 10
118.823410343558
 20
-141.5792995522788
 30
0.0
 10
120.367502140047
 20
-141.5792995522788
 30
0.0
 10
120.367502140047
 20
-141.5792995522788
 30
0.0
 10
120.367502140047
 20
-141.5792995522788
 30
0.0
 10
120.367502140047
 20
-141.8190781980522
 30
0.0
 10
120.367502140047
 20
-141.8190781980522
 30
0.0
  0
HATCH
  5
98
330
93
100
AcDbEntity
  8
_U+30EC_U+30A4_U+30E4_U+30FC 1
 62
   179
420
  2234388
100
AcDbHatch
 10
0.0
 20
0.0
 30
0.0
210
0.0
220
0.0
230
1.0
  2
SOLID
 70
     1
 71
     0
 91
        1
 92
        1
 93
        1
 72
     4
 94
        3
 73
     0
 74
     1
 95
       26
 96
       22
 40
0.0
 40
0.0
 40
0.0
 40
0.0
 40
1.0
 40
1.0
 40
1.0
 40
2.0
 40
2.0
 40
2.0
 40
3.0
 40
3.0
 40
3.0
 40
4.0
 40
4.0
 40
4.0
 40
5.0
 40
5.0
 40
5.0
 40
6.0
 40
6.0
 40
6.0
 40
7.0
 40
7.0
 40
7.0
 40
7.0
 10
120.367502140047
 20
-141.8190781980522
 10
120.367502140047
 20
-141.8190781980522
 10
119.2633490370244
 20
-141.8190781980522
 10
119.2633490370244
 20
-141.8190781980522
 10
119.2633490370244
 20
-141.8190781980522
 10
119.2633490370244
 20
-142.1715114661932
 10
119.2633490370244
 20
-142.1715114661932
 10
119.2633490370244
 20
-142.1715114661932
 10
119.1155544407072
 20
-142.1715114661932
 10
119.1155544407072
 20
-142.1715114661932
 10
119.1003960205721
 20
-141.8166666312125
 10
118.9377875136683
 20
-141.7670572562249
 10
118.823410343558
 20
-141.7353623777606
 10
118.823410343558
 20
-141.7353623777606
 10
118.823410343558
 20
-141.5792995522788
 10
118.823410343558
 20
-141.5792995522788
 10
118.823410343558
 20
-141.5792995522788
 10
120.367502140047
 20
-141.5792995522788
 10
120.367502140047
 20
-141.5792995522788
 10
120.367502140047
 20
-141.5792995522788
 10
120.367502140047
 20
-141.8190781980522
 10
120.367502140047
 20
-141.8190781980522
 97
        0
 97
        0
 75
     2
 76
     1
 98
        0
  0
ENDBLK
  5
96
330
93
100
AcDbEntity
  8
0
100
AcDbBlockEnd
  0
BLOCK
  5
AB
330
A9
100
AcDbEntity
  8
0
100
AcDbBlockBegin
  2
block 3
 70
     0
 10
0.0
 20
0.0
 30
0.0
  3
block 3
  1

  0
SPLINE
  5
AD
330
A9
100
AcDbEntity
  8
_U+30EC_U+30A4_U+30E4_U+30FC 1
370
     0
100
AcDbSpline
210
0.0
220
0.0
230
1.0
 70
    11
 71
     3
 72
    29
 73
    25
 74
     0
 42
0.0000000001
 43
0.0000000001
 12
1.0
 22
0.0
 32
0.0
 13
1.0
 23
0.0
 33
0.0
 40
0.0
 40
0.0
 40
0.0
 40
0.0
 40
1.0
 40
1.0
 40
1.0
 40
2.0
 40
2.0
 40
2.0
 40
3.0
 40
3.0
 40
3.0
 40
4.0
 40
4.0
 40
4.0
 40
5.0
 40
5.0
 40
5.0
 40
6.0
 40
6.0
 40
6.0
 40
7.0
 40
7.0
 40
7.0
 40
8.0
 40
8.0
 40
8.0
 40
8.0
 10
108.1897786187859
 20
-151.6586154134743
 30
0.0
 10
108.3992404242891
 20
-151.7740261122301
 30
0.0
 10
108.4185329590065
 20
-151.9593722493366
 30
0.0
 10
108.4185329590065
 20
-152.0837401963541
 30
0.0
 10
108.4185329590065
 20
-152.2553059515195
 30
0.0
 10
108.3720241699556
 20
-152.4068901528705
 30
0.0
 10
108.1897786187859
 20
-152.5085204696854
 30
0.0
 10
107.9951307238693
 20
-152.6194525443104
 30
0.0
 10
107.7584526640326
 20
-152.6397786076734
 30
0.0
 10
107.5954996475803
 20
-152.6397786076734
 30
0.0
 10
107.4514946562969
 20
-152.6397786076734
 30
0.0
 10
107.2000026858736
 20
-152.6218641111501
 30
0.0
 10
107.0008761668262
 20
-152.5085204696854
 30
0.0
 10
106.797960042745
 20
-152.393454280478
 30
0.0
 10
106.7745333934453
 20
-152.2215440157641
 30
0.0
 10
106.7745333934453
 20
-152.0837401963541
 30
0.0
 10
106.7745333934453
 20
-151.9138969889312
 30
0.0
 10
106.818975125205
 20
-151.7602457302891
 30
0.0
 10
107.0008761668262
 20
-151.6586154134743
 30
0.0
 10
107.1934570044516
 20
-151.55216196298
 30
0.0
 10
107.4218668351237
 20
-151.5273572754862
 30
0.0
 10
107.5954996475803
 20
-151.5273572754862
 30
0.0
 10
107.7667208931972
 20
-151.5273572754862
 30
0.0
 10
107.9975422907089
 20
-151.5500949056889
 30
0.0
 10
108.1897786187859
 20
-151.6586154134743
 30
0.0
  0
SPLINE
  5
AE
330
A9
100
AcDbEntity
  8
_U+30EC_U+30A4_U+30E4_U+30FC 1
370
     0
100
AcDbSpline
210
0.0
220
0.0
230
1.0
 70
    11
 71
     3
 72
    17
 73
    13
 74
     0
 42
0.0000000001
 43
0.0000000001
 12
1.0
 22
0.0
 32
0.0
 13
1.0
 23
0.0
 33
0.0
 40
0.0
 40
0.0
 40
0.0
 40
0.0
 40
1.0
 40
1.0
 40
1.0
 40
2.0
 40
2.0
 40
2.0
 40
3.0
 40
3.0
 40
3.0
 40
4.0
 40
4.0
 40
4.0
 40
4.0
 10
106.9671142310707
 20
-152.0837401963541
 30
0.0
 10
106.9671142310707
 20
-152.3503905869124
 30
0.0
 10
107.2506455895068
 20
-152.3999999619
 30
0.0
 10
107.5954996475803
 20
-152.3999999619
 30
0.0
 10
107.914859999063
 20
-152.3999999619
 30
0.0
 10
108.2238850640899
 20
-152.3617594020137
 30
0.0
 10
108.2238850640899
 20
-152.0837401963541
 30
0.0
 10
108.2238850640899
 20
-151.8191568630869
 30
0.0
 10
107.9424207629449
 20
-151.7671359212596
 30
0.0
 10
107.5954996475803
 20
-151.7671359212596
 30
0.0
 10
107.2761392960976
 20
-151.7671359212596
 30
0.0
 10
106.9671142310707
 20
-151.8077880479856
 30
0.0
 10
106.9671142310707
 20
-152.0837401963541
 30
0.0
  0
HATCH
  5
AF
330
A9
100
AcDbEntity
  8
_U+30EC_U+30A4_U+30E4_U+30FC 1
 62
   179
420
  2234388
100
AcDbHatch
 10
0.0
 20
0.0
 30
0.0
210
0.0
220
0.0
230
1.0
  2
SOLID
 70
     1
 71
     0
 91
        2
 92
        1
 93
        1
 72
     4
 94
        3
 73
     0
 74
     1
 95
       29
 96
       25
 40
0.0
 40
0.0
 40
0.0
 40
0.0
 40
1.0
 40
1.0
 40
1.0
 40
2.0
 40
2.0
 40
2.0
 40
3.0
 40
3.0
 40
3.0
 40
4.0
 40
4.0
 40
4.0
 40
5.0
 40
5.0
 40
5.0
 40
6.0
 40
6.0
 40
6.0
 40
7.0
 40
7.0
 40
7.0
 40
8.0
 40
8.0
 40
8.0
 40
8.0
 10
108.1897786187859
 20
-151.6586154134743
 10
108.3992404242891
 20
-151.7740261122301
 10
108.4185329590065
 20
-151.9593722493366
 10
108.4185329590065
 20
-152.0837401963541
 10
108.4185329590065
 20
-152.2553059515195
 10
108.3720241699556
 20
-152.4068901528705
 10
108.1897786187859
 20
-152.5085204696854
 10
107.9951307238693
 20
-152.6194525443104
 10
107.7584526640326
 20
-152.6397786076734
 10
107.5954996475803
 20
-152.6397786076734
 10
107.4514946562969
 20
-152.6397786076734
 10
107.2000026858736
 20
-152.6218641111501
 10
107.0008761668262
 20
-152.5085204696854
 10
106.797960042745
 20
-152.393454280478
 10
106.7745333934453
 20
-152.2215440157641
 10
106.7745333934453
 20
-152.0837401963541
 10
106.7745333934453
 20
-151.9138969889312
 10
106.818975125205
 20
-151.7602457302891
 10
107.0008761668262
 20
-151.6586154134743
 10
107.1934570044516
 20
-151.55216196298
 10
107.4218668351237
 20
-151.5273572754862
 10
107.5954996475803
 20
-151.5273572754862
 10
107.7667208931972
 20
-151.5273572754862
 10
107.9975422907089
 20
-151.5500949056889
 10
108.1897786187859
 20
-151.6586154134743
 97
        0
 97
        0
 92
        1
 93
        1
 72
     4
 94
        3
 73
     0
 74
     1
 95
       17
 96
       13
 40
0.0
 40
0.0
 40
0.0
 40
0.0
 40
1.0
 40
1.0
 40
1.0
 40
2.0
 40
2.0
 40
2.0
 40
3.0
 40
3.0
 40
3.0
 40
4.0
 40
4.0
 40
4.0
 40
4.0
 10
106.9671142310707
 20
-152.0837401963541
 10
106.9671142310707
 20
-152.3503905869124
 10
107.2506455895068
 20
-152.3999999619
 10
107.5954996475803
 20
-152.3999999619
 10
107.914859999063
 20
-152.3999999619
 10
108.2238850640899
 20
-152.3617594020137
 10
108.2238850640899
 20
-152.0837401963541
 10
108.2238850640899
 20
-151.8191568630869
 10
107.9424207629449
 20
-151.7671359212596
 10
107.5954996475803
 20
-151.7671359212596
 10
107.2761392960976
 20
-151.7671359212596
 10
106.9671142310707
 20
-151.8077880479856
 10
106.9671142310707
 20
-152.0837401963541
 97
        0
 97
        0
 75
     2
 76
     1
 98
        0
  0
POLYLINE
  5
B0
330
A9
100
AcDbEntity
  8
_U+30EC_U+30A4_U+30E4_U+30FC 1
370
     0
100
AcDb2dPolyline
 66
     1
 10
0.0
 20
0.0
 30
0.0
  0
VERTEX
  5
B1
330
B0
100
AcDbEntity
  8
_U+30EC_U+30A4_U+30E4_U+30FC 1
370
     0
100
AcDbVertex
100
AcDb2dVertex
 10
108.3675455458248
 20
-151.296191368426
 30
0.0
  0
VERTEX
  5
B2
330
B0
100
AcDbEntity
  8
_U+30EC_U+30A4_U+30E4_U+30FC 1
370
     0
100
AcDbVertex
100
AcDb2dVertex
 10
108.1160535754016
 20
-151.296191368426
 30
0.0
  0
VERTEX
  5
B3
330
B0
100
AcDbEntity
  8
_U+30EC_U+30A4_U+30E4_U+30FC 1
370
     0
100
AcDbVertex
100
AcDb2dVertex
 10
108.1160535754016
 20
-151.0271294110279
 30
0.0
  0
VERTEX
  5
B4
330
B0
100
AcDbEntity
  8
_U+30EC_U+30A4_U+30E4_U+30FC 1
370
     0
100
AcDbVertex
100
AcDb2dVertex
 10
108.3675455458248
 20
-151.0271294110279
 30
0.0
  0
VERTEX
  5
B5
330
B0
100
AcDbEntity
  8
_U+30EC_U+30A4_U+30E4_U+30FC 1
370
     0
100
AcDbVertex
100
AcDb2dVertex
 10
108.3675455458248
 20
-151.296191368426
 30
0.0
  0
SEQEND
  5
B6
330
B0
100
AcDbEntity
  8
_U+30EC_U+30A4_U+30E4_U+30FC 1
370
     0
  0
HATCH
  5
B7
330
A9
100
AcDbEntity
  8
_U+30EC_U+30A4_U+30E4_U+30FC 1
 62
   179
420
  2234388
100
AcDbHatch
 10
0.0
 20
0.0
 30
0.0
210
0.0
220
0.0
230
1.0
  2
SOLID
 70
     1
 71
     0
 91
        1
 92
        1
 93
        4
 72
     1
 10
108.3675455458248
 20
-151.296191368426
 11
108.1160535754016
 21
-151.296191368426
 72
     1
 10
108.1160535754016
 20
-151.296191368426
 11
108.1160535754016
 21
-151.0271294110279
 72
     1
 10
108.1160535754016
 20
-151.0271294110279
 11
108.3675455458248
 21
-151.0271294110279
 72
     1
 10
108.3675455458248
 20
-151.0271294110279
 11
108.3675455458248
 21
-151.296191368426
 97
        0
 75
     2
 76
     1
 98
        0
  0
SPLINE
  5
B8
330
A9
100
AcDbEntity
  8
_U+30EC_U+30A4_U+30E4_U+30FC 1
370
     0
100
AcDbSpline
210
0.0
220
0.0
230
1.0
 70
    11
 71
     3
 72
    62
 73
    58
 74
     0
 42
0.0000000001
 43
0.0000000001
 12
1.0
 22
0.0
 32
0.0
 13
1.0
 23
0.0
 33
0.0
 40
0.0
 40
0.0
 40
0.0
 40
0.0
 40
1.0
 40
1.0
 40
1.0
 40
2.0
 40
2.0
 40
2.0
 40
3.0
 40
3.0
 40
3.0
 40
4.0
 40
4.0
 40
4.0
 40
5.0
 40
5.0
 40
5.0
 40
6.0
 40
6.0
 40
6.0
 40
7.0
 40
7.0
 40
7.0
 40
8.0
 40
8.0
 40
8.0
 40
9.0
 40
9.0
 40
9.0
 40
10.0
 40
10.0
 40
10.0
 40
11.0
 40
11.0
 40
11.0
 40
12.0
 40
12.0
 40
12.0
 40
13.0
 40
13.0
 40
13.0
 40
14.0
 40
14.0
 40
14.0
 40
15.0
 40
15.0
 40
15.0
 40
16.0
 40
16.0
 40
16.0
 40
17.0
 40
17.0
 40
17.0
 40
18.0
 40
18.0
 40
18.0
 40
19.0
 40
19.0
 40
19.0
 40
19.0
 10
108.4185329590065
 20
-150.24888234091
 30
0.0
 10
108.4185329590065
 20
-150.3505126577249
 30
0.0
 10
108.3971733669979
 20
-150.5834011125278
 30
0.0
 10
108.2111382107944
 20
-150.7167263078069
 30
0.0
 10
108.0988280979753
 20
-150.7959635039677
 30
0.0
 10
107.9996093480001
 20
-150.8004421280985
 30
0.0
 10
107.914859999063
 20
-150.8049207522293
 30
0.0
 10
107.914859999063
 20
-150.8049207522293
 30
0.0
 10
107.914859999063
 20
-150.5699652401353
 30
0.0
 10
107.914859999063
 20
-150.5699652401353
 30
0.0
 10
107.9889295519958
 20
-150.5675536732956
 30
0.0
 10
108.2238850640899
 20
-150.5561848581943
 30
0.0
 10
108.2238850640899
 20
-150.2533609650408
 30
0.0
 10
108.2238850640899
 20
-150.1062553878207
 30
0.0
 10
108.1539496257393
 20
-149.9436468809169
 30
0.0
 10
107.9255397950672
 20
-149.9436468809169
 30
0.0
 10
107.8090955676658
 20
-149.9436468809169
 30
0.0
 10
107.7605197213238
 20
-149.9842990076428
 30
0.0
 10
107.7288248428595
 20
-150.0180609433983
 30
0.0
 10
107.6547552899266
 20
-150.097298139559
 30
0.0
 10
107.6420084366312
 20
-150.2216660865765
 30
0.0
 10
107.6420084366312
 20
-150.2805772193743
 30
0.0
 10
107.6420084366312
 20
-150.3009032827373
 30
0.0
 10
107.6440754939223
 20
-150.3391438426235
 30
0.0
 10
107.6482096085046
 20
-150.3687716637967
 30
0.0
 10
107.6482096085046
 20
-150.3687716637967
 30
0.0
 10
107.453561713588
 20
-150.3687716637967
 30
0.0
 10
107.453561713588
 20
-150.3687716637967
 30
0.0
 10
107.46010739501
 20
-150.3281195370708
 30
0.0
 10
107.4621744523011
 20
-150.2826442766655
 30
0.0
 10
107.4621744523011
 20
-150.2760985952435
 30
0.0
 10
107.4621744523011
 20
-150.2058186473444
 30
0.0
 10
107.4411593698411
 20
-149.9932562559045
 30
0.0
 10
107.2041368004559
 20
-149.9932562559045
 30
0.0
 10
107.026369873417
 20
-149.9932562559045
 30
0.0
 10
106.971248345653
 20
-150.1334716421541
 30
0.0
 10
106.971248345653
 20
-150.2509493982012
 30
0.0
 10
106.971248345653
 20
-150.5337917375402
 30
0.0
 10
107.2041368004559
 20
-150.5427489858018
 30
0.0
 10
107.2761392960976
 20
-150.5472276099326
 30
0.0
 10
107.2761392960976
 20
-150.5472276099326
 30
0.0
 10
107.2761392960976
 20
-150.7642686255034
 30
0.0
 10
107.2761392960976
 20
-150.7642686255034
 30
0.0
 10
107.1510823299831
 20
-150.7553113772417
 30
0.0
 10
106.7745333934453
 20
-150.7260280656171
 30
0.0
 10
106.7745333934453
 20
-150.2375135258087
 30
0.0
 10
106.7745333934453
 20
-149.9977348800353
 30
0.0
 10
106.901657416851
 20
-149.7400417377386
 30
0.0
 10
107.1975911190339
 20
-149.7400417377386
 30
0.0
 10
107.383970784786
 20
-149.7400417377386
 30
0.0
 10
107.4663085668834
 20
-149.842016564102
 30
0.0
 10
107.5276312665209
 20
-149.9481255050477
 30
0.0
 10
107.5551920304029
 20
-149.882668690828
 30
0.0
 10
107.6358072647577
 20
-149.6880207959113
 30
0.0
 10
107.9127929417718
 20
-149.6880207959113
 30
0.0
 10
108.2514458279719
 20
-149.6880207959113
 30
0.0
 10
108.4185329590065
 20
-149.9526041291785
 30
0.0
 10
108.4185329590065
 20
-150.24888234091
 30
0.0
  0
HATCH
  5
B9
330
A9
100
AcDbEntity
  8
_U+30EC_U+30A4_U+30E4_U+30FC 1
 62
   179
420
  2234388
100
AcDbHatch
 10
0.0
 20
0.0
 30
0.0
210
0.0
220
0.0
230
1.0
  2
SOLID
 70
     1
 71
     0
 91
        1
 92
        1
 93
        1
 72
     4
 94
        3
 73
     0
 74
     1
 95
       62
 96
       58
 40
0.0
 40
0.0
 40
0.0
 40
0.0
 40
1.0
 40
1.0
 40
1.0
 40
2.0
 40
2.0
 40
2.0
 40
3.0
 40
3.0
 40
3.0
 40
4.0
 40
4.0
 40
4.0
 40
5.0
 40
5.0
 40
5.0
 40
6.0
 40
6.0
 40
6.0
 40
7.0
 40
7.0
 40
7.0
 40
8.0
 40
8.0
 40
8.0
 40
9.0
 40
9.0
 40
9.0
 40
10.0
 40
10.0
 40
10.0
 40
11.0
 40
11.0
 40
11.0
 40
12.0
 40
12.0
 40
12.0
 40
13.0
 40
13.0
 40
13.0
 40
14.0
 40
14.0
 40
14.0
 40
15.0
 40
15.0
 40
15.0
 40
16.0
 40
16.0
 40
16.0
 40
17.0
 40
17.0
 40
17.0
 40
18.0
 40
18.0
 40
18.0
 40
19.0
 40
19.0
 40
19.0
 40
19.0
 10
108.4185329590065
 20
-150.24888234091
 10
108.4185329590065
 20
-150.3505126577249
 10
108.3971733669979
 20
-150.5834011125278
 10
108.2111382107944
 20
-150.7167263078069
 10
108.0988280979753
 20
-150.7959635039677
 10
107.9996093480001
 20
-150.8004421280985
 10
107.914859999063
 20
-150.8049207522293
 10
107.914859999063
 20
-150.8049207522293
 10
107.914859999063
 20
-150.5699652401353
 10
107.914859999063
 20
-150.5699652401353
 10
107.9889295519958
 20
-150.5675536732956
 10
108.2238850640899
 20
-150.5561848581943
 10
108.2238850640899
 20
-150.2533609650408
 10
108.2238850640899
 20
-150.1062553878207
 10
108.1539496257393
 20
-149.9436468809169
 10
107.9255397950672
 20
-149.9436468809169
 10
107.8090955676658
 20
-149.9436468809169
 10
107.7605197213238
 20
-149.9842990076428
 10
107.7288248428595
 20
-150.0180609433983
 10
107.6547552899266
 20
-150.097298139559
 10
107.6420084366312
 20
-150.2216660865765
 10
107.6420084366312
 20
-150.2805772193743
 10
107.6420084366312
 20
-150.3009032827373
 10
107.6440754939223
 20
-150.3391438426235
 10
107.6482096085046
 20
-150.3687716637967
 10
107.6482096085046
 20
-150.3687716637967
 10
107.453561713588
 20
-150.3687716637967
 10
107.453561713588
 20
-150.3687716637967
 10
107.46010739501
 20
-150.3281195370708
 10
107.4621744523011
 20
-150.2826442766655
 10
107.4621744523011
 20
-150.2760985952435
 10
107.4621744523011
 20
-150.2058186473444
 10
107.4411593698411
 20
-149.9932562559045
 10
107.2041368004559
 20
-149.9932562559045
 10
107.026369873417
 20
-149.9932562559045
 10
106.971248345653
 20
-150.1334716421541
 10
106.971248345653
 20
-150.2509493982012
 10
106.971248345653
 20
-150.5337917375402
 10
107.2041368004559
 20
-150.5427489858018
 10
107.2761392960976
 20
-150.5472276099326
 10
107.2761392960976
 20
-150.5472276099326
 10
107.2761392960976
 20
-150.7642686255034
 10
107.2761392960976
 20
-150.7642686255034
 10
107.1510823299831
 20
-150.7553113772417
 10
106.7745333934453
 20
-150.7260280656171
 10
106.7745333934453
 20
-150.2375135258087
 10
106.7745333934453
 20
-149.9977348800353
 10
106.901657416851
 20
-149.7400417377386
 10
107.1975911190339
 20
-149.7400417377386
 10
107.383970784786
 20
-149.7400417377386
 10
107.4663085668834
 20
-149.842016564102
 10
107.5276312665209
 20
-149.9481255050477
 10
107.5551920304029
 20
-149.882668690828
 10
107.6358072647577
 20
-149.6880207959113
 10
107.9127929417718
 20
-149.6880207959113
 10
108.2514458279719
 20
-149.6880207959113
 10
108.4185329590065
 20
-149.9526041291785
 10
108.4185329590065
 20
-150.24888234091
 97
        0
 97
        0
 75
     2
 76
     1
 98
        0
  0
ENDBLK
  5
AC
330
A9
100
AcDbEntity
  8
0
100
AcDbBlockEnd
  0
BLOCK
  5
C8
330
C6
100
AcDbEntity
  8
0
100
AcDbBlockBegin
  2
block 4
 70
     0
 10
0.0
 20
0.0
 30
0.0
  3
block 4
  1

  0
SPLINE
  5
CA
330
C6
100
AcDbEntity
  8
_U+30EC_U+30A4_U+30E4_U+30FC 1
370
     0
100
AcDbSpline
210
0.0
220
0.0
230
1.0
 70
    11
 71
     3
 72
    26
 73
    22
 74
     0
 42
0.0000000001
 43
0.0000000001
 12
1.0
 22
0.0
 32
0.0
 13
1.0
 23
0.0
 33
0.0
 40
0.0
 40
0.0
 40
0.0
 40
0.0
 40
1.0
 40
1.0
 40
1.0
 40
2.0
 40
2.0
 40
2.0
 40
3.0
 40
3.0
 40
3.0
 40
4.0
 40
4.0
 40
4.0
 40
5.0
 40
5.0
 40
5.0
 40
6.0
 40
6.0
 40
6.0
 40
7.0
 40
7.0
 40
7.0
 40
7.0
 10
99.993551949828
 20
-158.0068928641441
 30
0.0
 10
99.993551949828
 20
-158.0068928641441
 30
0.0
 10
99.993551949828
 20
-156.9027397611216
 30
0.0
 10
99.993551949828
 20
-156.9027397611216
 30
0.0
 10
99.993551949828
 20
-156.9027397611216
 30
0.0
 10
99.64111868168695
 20
-156.9027397611216
 30
0.0
 10
99.64111868168695
 20
-156.9027397611216
 30
0.0
 10
99.64111868168695
 20
-156.9027397611216
 30
0.0
 10
99.64111868168695
 20
-156.7546006552558
 30
0.0
 10
99.64111868168695
 20
-156.7546006552558
 30
0.0
 10
99.99596351666769
 20
-156.7397867446692
 30
0.0
 10
100.0455728916553
 20
-156.5768337282169
 30
0.0
 10
100.0772677701196
 20
-156.4628010676551
 30
0.0
 10
100.0772677701196
 20
-156.4628010676551
 30
0.0
 10
100.2333305956014
 20
-156.4628010676551
 30
0.0
 10
100.2333305956014
 20
-156.4628010676551
 30
0.0
 10
100.2333305956014
 20
-156.4628010676551
 30
0.0
 10
100.2333305956014
 20
-158.0068928641441
 30
0.0
 10
100.2333305956014
 20
-158.0068928641441
 30
0.0
 10
100.2333305956014
 20
-158.0068928641441
 30
0.0
 10
99.993551949828
 20
-158.0068928641441
 30
0.0
 10
99.993551949828
 20
-158.0068928641441
 30
0.0
  0
HATCH
  5
CB
330
C6
100
AcDbEntity
  8
_U+30EC_U+30A4_U+30E4_U+30FC 1
 62
   179
420
  2234388
100
AcDbHatch
 10
0.0
 20
0.0
 30
0.0
210
0.0
220
0.0
230
1.0
  2
SOLID
 70
     1
 71
     0
 91
        1
 92
        1
 93
        1
 72
     4
 94
        3
 73
     0
 74
     1
 95
       26
 96
       22
 40
0.0
 40
0.0
 40
0.0
 40
0.0
 40
1.0
 40
1.0
 40
1.0
 40
2.0
 40
2.0
 40
2.0
 40
3.0
 40
3.0
 40
3.0
 40
4.0
 40
4.0
 40
4.0
 40
5.0
 40
5.0
 40
5.0
 40
6.0
 40
6.0
 40
6.0
 40
7.0
 40
7.0
 40
7.0
 40
7.0
 10
99.993551949828
 20
-158.0068928641441
 10
99.993551949828
 20
-158.0068928641441
 10
99.993551949828
 20
-156.9027397611216
 10
99.993551949828
 20
-156.9027397611216
 10
99.993551949828
 20
-156.9027397611216
 10
99.64111868168695
 20
-156.9027397611216
 10
99.64111868168695
 20
-156.9027397611216
 10
99.64111868168695
 20
-156.9027397611216
 10
99.64111868168695
 20
-156.7546006552558
 10
99.64111868168695
 20
-156.7546006552558
 10
99.99596351666769
 20
-156.7397867446692
 10
100.0455728916553
 20
-156.5768337282169
 10
100.0772677701196
 20
-156.4628010676551
 10
100.0772677701196
 20
-156.4628010676551
 10
100.2333305956014
 20
-156.4628010676551
 10
100.2333305956014
 20
-156.4628010676551
 10
100.2333305956014
 20
-156.4628010676551
 10
100.2333305956014
 20
-158.0068928641441
 10
100.2333305956014
 20
-158.0068928641441
 10
100.2333305956014
 20
-158.0068928641441
 10
99.993551949828
 20
-158.0068928641441
 10
99.993551949828
 20
-158.0068928641441
 97
        0
 97
        0
 75
     2
 76
     1
 98
        0
  0
SPLINE
  5
CC
330
C6
100
AcDbEntity
  8
_U+30EC_U+30A4_U+30E4_U+30FC 1
370
     0
100
AcDbSpline
210
0.0
220
0.0
230
1.0
 70
    11
 71
     3
 72
    29
 73
    25
 74
     0
 42
0.0000000001
 43
0.0000000001
 12
1.0
 22
0.0
 32
0.0
 13
1.0
 23
0.0
 33
0.0
 40
0.0
 40
0.0
 40
0.0
 40
0.0
 40
1.0
 40
1.0
 40
1.0
 40
2.0
 40
2.0
 40
2.0
 40
3.0
 40
3.0
 40
3.0
 40
4.0
 40
4.0
 40
4.0
 40
5.0
 40
5.0
 40
5.0
 40
6.0
 40
6.0
 40
6.0
 40
7.0
 40
7.0
 40
7.0
 40
8.0
 40
8.0
 40
8.0
 40
8.0
 10
101.7285020361998
 20
-157.8291259371052
 30
0.0
 10
101.6130913374439
 20
-158.0385877426084
 30
0.0
 10
101.4277452003375
 20
-158.0578802773258
 30
0.0
 10
101.30337725332
 20
-158.0578802773258
 30
0.0
 10
101.1318114981545
 20
-158.0578802773258
 30
0.0
 10
100.9802272968036
 20
-158.0113714882749
 30
0.0
 10
100.8785969799887
 20
-157.8291259371052
 30
0.0
 10
100.7676649053636
 20
-157.6344780421886
 30
0.0
 10
100.7473388420007
 20
-157.397799982352
 30
0.0
 10
100.7473388420007
 20
-157.2348469658996
 30
0.0
 10
100.7473388420007
 20
-157.0908419746162
 30
0.0
 10
100.7655978480725
 20
-156.8393500041929
 30
0.0
 10
100.8785969799887
 20
-156.6402234851455
 30
0.0
 10
100.993663169196
 20
-156.4373073610643
 30
0.0
 10
101.16557343391
 20
-156.4138807117646
 30
0.0
 10
101.30337725332
 20
-156.4138807117646
 30
0.0
 10
101.4732204607428
 20
-156.4138807117646
 30
0.0
 10
101.626871719385
 20
-156.4583224435243
 30
0.0
 10
101.7285020361998
 20
-156.6402234851455
 30
0.0
 10
101.834955486694
 20
-156.832804322771
 30
0.0
 10
101.8597601741878
 20
-157.061214153443
 30
0.0
 10
101.8597601741878
 20
-157.2348469658996
 30
0.0
 10
101.8597601741878
 20
-157.4060682115166
 30
0.0
 10
101.8370225439852
 20
-157.6368896090283
 30
0.0
 10
101.7285020361998
 20
-157.8291259371052
 30
0.0
  0
SPLINE
  5
CD
330
C6
100
AcDbEntity
  8
_U+30EC_U+30A4_U+30E4_U+30FC 1
370
     0
100
AcDbSpline
210
0.0
220
0.0
230
1.0
 70
    11
 71
     3
 72
    17
 73
    13
 74
     0
 42
0.0000000001
 43
0.0000000001
 12
1.0
 22
0.0
 32
0.0
 13
1.0
 23
0.0
 33
0.0
 40
0.0
 40
0.0
 40
0.0
 40
0.0
 40
1.0
 40
1.0
 40
1.0
 40
2.0
 40
2.0
 40
2.0
 40
3.0
 40
3.0
 40
3.0
 40
4.0
 40
4.0
 40
4.0
 40
4.0
 10
101.30337725332
 20
-156.60646154939
 30
0.0
 10
101.0367268627617
 20
-156.60646154939
 30
0.0
 10
100.9871174877741
 20
-156.8899929078261
 30
0.0
 10
100.9871174877741
 20
-157.2348469658996
 30
0.0
 10
100.9871174877741
 20
-157.5542073173823
 30
0.0
 10
101.0253580476603
 20
-157.8632323824092
 30
0.0
 10
101.30337725332
 20
-157.8632323824092
 30
0.0
 10
101.5679605865872
 20
-157.8632323824092
 30
0.0
 10
101.6199815284145
 20
-157.5817680812643
 30
0.0
 10
101.6199815284145
 20
-157.2348469658996
 30
0.0
 10
101.6199815284145
 20
-156.915486614417
 30
0.0
 10
101.5793294016885
 20
-156.60646154939
 30
0.0
 10
101.30337725332
 20
-156.60646154939
 30
0.0
  0
HATCH
  5
CE
330
C6
100
AcDbEntity
  8
_U+30EC_U+30A4_U+30E4_U+30FC 1
 62
   179
420
  2234388
100
AcDbHatch
 10
0.0
 20
0.0
 30
0.0
210
0.0
220
0.0
230
1.0
  2
SOLID
 70
     1
 71
     0
 91
        2
 92
        1
 93
        1
 72
     4
 94
        3
 73
     0
 74
     1
 95
       29
 96
       25
 40
0.0
 40
0.0
 40
0.0
 40
0.0
 40
1.0
 40
1.0
 40
1.0
 40
2.0
 40
2.0
 40
2.0
 40
3.0
 40
3.0
 40
3.0
 40
4.0
 40
4.0
 40
4.0
 40
5.0
 40
5.0
 40
5.0
 40
6.0
 40
6.0
 40
6.0
 40
7.0
 40
7.0
 40
7.0
 40
8.0
 40
8.0
 40
8.0
 40
8.0
 10
101.7285020361998
 20
-157.8291259371052
 10
101.6130913374439
 20
-158.0385877426084
 10
101.4277452003375
 20
-158.0578802773258
 10
101.30337725332
 20
-158.0578802773258
 10
101.1318114981545
 20
-158.0578802773258
 10
100.9802272968036
 20
-158.0113714882749
 10
100.8785969799887
 20
-157.8291259371052
 10
100.7676649053636
 20
-157.6344780421886
 10
100.7473388420007
 20
-157.397799982352
 10
100.7473388420007
 20
-157.2348469658996
 10
100.7473388420007
 20
-157.0908419746162
 10
100.7655978480725
 20
-156.8393500041929
 10
100.8785969799887
 20
-156.6402234851455
 10
100.993663169196
 20
-156.4373073610643
 10
101.16557343391
 20
-156.4138807117646
 10
101.30337725332
 20
-156.4138807117646
 10
101.4732204607428
 20
-156.4138807117646
 10
101.626871719385
 20
-156.4583224435243
 10
101.7285020361998
 20
-156.6402234851455
 10
101.834955486694
 20
-156.832804322771
 10
101.8597601741878
 20
-157.061214153443
 10
101.8597601741878
 20
-157.2348469658996
 10
101.8597601741878
 20
-157.4060682115166
 10
101.8370225439852
 20
-157.6368896090283
 10
101.7285020361998
 20
-157.8291259371052
 97
        0
 97
        0
 92
        1
 93
        1
 72
     4
 94
        3
 73
     0
 74
     1
 95
       17
 96
       13
 40
0.0
 40
0.0
 40
0.0
 40
0.0
 40
1.0
 40
1.0
 40
1.0
 40
2.0
 40
2.0
 40
2.0
 40
3.0
 40
3.0
 40
3.0
 40
4.0
 40
4.0
 40
4.0
 40
4.0
 10
101.30337725332
 20
-156.60646154939
 10
101.0367268627617
 20
-156.60646154939
 10
100.9871174877741
 20
-156.8899929078261
 10
100.9871174877741
 20
-157.2348469658996
 10
100.9871174877741
 20
-157.5542073173823
 10
101.0253580476603
 20
-157.8632323824092
 10
101.30337725332
 20
-157.8632323824092
 10
101.5679605865872
 20
-157.8632323824092
 10
101.6199815284145
 20
-157.5817680812643
 10
101.6199815284145
 20
-157.2348469658996
 10
101.6199815284145
 20
-156.915486614417
 10
101.5793294016885
 20
-156.60646154939
 10
101.30337725332
 20
-156.60646154939
 97
        0
 97
        0
 75
     2
 76
     1
 98
        0
  0
ENDBLK
  5
C9
330
C6
100
AcDbEntity
  8
0
100
AcDbBlockEnd
  0
BLOCK
  5
DD
330
DB
100
AcDbEntity
  8
0
100
AcDbBlockBegin
  2
block 5
 70
     0
 10
0.0
 20
0.0
 30
0.0
  3
block 5
  1

  0
SPLINE
  5
DF
330
DB
100
AcDbEntity
  8
_U+30EC_U+30A4_U+30E4_U+30FC 1
370
     0
100
AcDbSpline
210
0.0
220
0.0
230
1.0
 70
    11
 71
     3
 72
    62
 73
    58
 74
     0
 42
0.0000000001
 43
0.0000000001
 12
1.0
 22
0.0
 32
0.0
 13
1.0
 23
0.0
 33
0.0
 40
0.0
 40
0.0
 40
0.0
 40
0.0
 40
1.0
 40
1.0
 40
1.0
 40
2.0
 40
2.0
 40
2.0
 40
3.0
 40
3.0
 40
3.0
 40
4.0
 40
4.0
 40
4.0
 40
5.0
 40
5.0
 40
5.0
 40
6.0
 40
6.0
 40
6.0
 40
7.0
 40
7.0
 40
7.0
 40
8.0
 40
8.0
 40
8.0
 40
9.0
 40
9.0
 40
9.0
 40
10.0
 40
10.0
 40
10.0
 40
11.0
 40
11.0
 40
11.0
 40
12.0
 40
12.0
 40
12.0
 40
13.0
 40
13.0
 40
13.0
 40
14.0
 40
14.0
 40
14.0
 40
15.0
 40
15.0
 40
15.0
 40
16.0
 40
16.0
 40
16.0
 40
17.0
 40
17.0
 40
17.0
 40
18.0
 40
18.0
 40
18.0
 40
19.0
 40
19.0
 40
19.0
 40
19.0
 10
102.0368380821297
 20
-139.5584065406312
 30
0.0
 10
101.9352077653148
 20
-139.5584065406312
 30
0.0
 10
101.7023193105119
 20
-139.5372192033969
 30
0.0
 10
101.5689941152328
 20
-139.3510117924192
 30
0.0
 10
101.489756919072
 20
-139.2388739343743
 30
0.0
 10
101.4852782949412
 20
-139.1394829296248
 30
0.0
 10
101.4807996708104
 20
-139.054905835462
 30
0.0
 10
101.4807996708104
 20
-139.054905835462
 30
0.0
 10
101.7157551829044
 20
-139.054905835462
 30
0.0
 10
101.7157551829044
 20
-139.054905835462
 30
0.0
 10
101.7181667497441
 20
-139.1289753883948
 30
0.0
 10
101.7295355648454
 20
-139.3637586457146
 30
0.0
 10
102.0323594579989
 20
-139.3637586457146
 30
0.0
 10
102.179465035219
 20
-139.3637586457146
 30
0.0
 10
102.3420735421228
 20
-139.2939954621383
 30
0.0
 10
102.3420735421228
 20
-139.065413376692
 30
0.0
 10
102.3420735421228
 20
-138.9491414040648
 30
0.0
 10
102.3014214153969
 20
-138.9003933029485
 30
0.0
 10
102.2676594796414
 20
-138.8686984244842
 30
0.0
 10
102.1884222834807
 20
-138.7946288715513
 30
0.0
 10
102.0640543364632
 20
-138.7820542730302
 30
0.0
 10
102.0051432036654
 20
-138.7820542730302
 30
0.0
 10
101.9848171403024
 20
-138.7820542730302
 30
0.0
 10
101.9465765804161
 20
-138.7841213303213
 30
0.0
 10
101.916948759243
 20
-138.7882554449036
 30
0.0
 10
101.916948759243
 20
-138.7882554449036
 30
0.0
 10
101.916948759243
 20
-138.593607549987
 30
0.0
 10
101.916948759243
 20
-138.593607549987
 30
0.0
 10
101.9576008859689
 20
-138.5999809766347
 30
0.0
 10
102.0030761463742
 20
-138.6022202887002
 30
0.0
 10
102.0096218277962
 20
-138.6022202887002
 30
0.0
 10
102.0799017756953
 20
-138.6022202887002
 30
0.0
 10
102.2924641671352
 20
-138.5810329514659
 30
0.0
 10
102.2924641671352
 20
-138.3440103820807
 30
0.0
 10
102.2924641671352
 20
-138.1664157098161
 30
0.0
 10
102.1522487808856
 20
-138.111294182052
 30
0.0
 10
102.0347710248385
 20
-138.111294182052
 30
0.0
 10
101.7519286854995
 20
-138.111294182052
 30
0.0
 10
101.7429714372379
 20
-138.3440103820807
 30
0.0
 10
101.738492813107
 20
-138.4160128777224
 30
0.0
 10
101.738492813107
 20
-138.4160128777224
 30
0.0
 10
101.5214517975363
 20
-138.4160128777224
 30
0.0
 10
101.5214517975363
 20
-138.4160128777224
 30
0.0
 10
101.530409045798
 20
-138.2911281663821
 30
0.0
 10
101.5596923574226
 20
-137.9145792298443
 30
0.0
 10
102.048206897231
 20
-137.9145792298443
 30
0.0
 10
102.2879855430044
 20
-137.9145792298443
 30
0.0
 10
102.5456786853011
 20
-138.0415309984757
 30
0.0
 10
102.5456786853011
 20
-138.337636955433
 30
0.0
 10
102.5456786853011
 20
-138.5238443664107
 30
0.0
 10
102.4437038589377
 20
-138.6063544032824
 30
0.0
 10
102.337594917992
 20
-138.6676771029199
 30
0.0
 10
102.4030517322117
 20
-138.6952378668019
 30
0.0
 10
102.5976996271284
 20
-138.7756808463825
 30
0.0
 10
102.5976996271284
 20
-139.0528387781708
 30
0.0
 10
102.5976996271284
 20
-139.3913194095966
 30
0.0
 10
102.3331162938612
 20
-139.5584065406312
 30
0.0
 10
102.0368380821297
 20
-139.5584065406312
 30
0.0
  0
HATCH
  5
E0
330
DB
100
AcDbEntity
  8
_U+30EC_U+30A4_U+30E4_U+30FC 1
 62
   179
420
  2234388
100
AcDbHatch
 10
0.0
 20
0.0
 30
0.0
210
0.0
220
0.0
230
1.0
  2
SOLID
 70
     1
 71
     0
 91
        1
 92
        1
 93
        1
 72
     4
 94
        3
 73
     0
 74
     1
 95
       62
 96
       58
 40
0.0
 40
0.0
 40
0.0
 40
0.0
 40
1.0
 40
1.0
 40
1.0
 40
2.0
 40
2.0
 40
2.0
 40
3.0
 40
3.0
 40
3.0
 40
4.0
 40
4.0
 40
4.0
 40
5.0
 40
5.0
 40
5.0
 40
6.0
 40
6.0
 40
6.0
 40
7.0
 40
7.0
 40
7.0
 40
8.0
 40
8.0
 40
8.0
 40
9.0
 40
9.0
 40
9.0
 40
10.0
 40
10.0
 40
10.0
 40
11.0
 40
11.0
 40
11.0
 40
12.0
 40
12.0
 40
12.0
 40
13.0
 40
13.0
 40
13.0
 40
14.0
 40
14.0
 40
14.0
 40
15.0
 40
15.0
 40
15.0
 40
16.0
 40
16.0
 40
16.0
 40
17.0
 40
17.0
 40
17.0
 40
18.0
 40
18.0
 40
18.0
 40
19.0
 40
19.0
 40
19.0
 40
19.0
 10
102.0368380821297
 20
-139.5584065406312
 10
101.9352077653148
 20
-139.5584065406312
 10
101.7023193105119
 20
-139.5372192033969
 10
101.5689941152328
 20
-139.3510117924192
 10
101.489756919072
 20
-139.2388739343743
 10
101.4852782949412
 20
-139.1394829296248
 10
101.4807996708104
 20
-139.054905835462
 10
101.4807996708104
 20
-139.054905835462
 10
101.7157551829044
 20
-139.054905835462
 10
101.7157551829044
 20
-139.054905835462
 10
101.7181667497441
 20
-139.1289753883948
 10
101.7295355648454
 20
-139.3637586457146
 10
102.0323594579989
 20
-139.3637586457146
 10
102.179465035219
 20
-139.3637586457146
 10
102.3420735421228
 20
-139.2939954621383
 10
102.3420735421228
 20
-139.065413376692
 10
102.3420735421228
 20
-138.9491414040648
 10
102.3014214153969
 20
-138.9003933029485
 10
102.2676594796414
 20
-138.8686984244842
 10
102.1884222834807
 20
-138.7946288715513
 10
102.0640543364632
 20
-138.7820542730302
 10
102.0051432036654
 20
-138.7820542730302
 10
101.9848171403024
 20
-138.7820542730302
 10
101.9465765804161
 20
-138.7841213303213
 10
101.916948759243
 20
-138.7882554449036
 10
101.916948759243
 20
-138.7882554449036
 10
101.916948759243
 20
-138.593607549987
 10
101.916948759243
 20
-138.593607549987
 10
101.9576008859689
 20
-138.5999809766347
 10
102.0030761463742
 20
-138.6022202887002
 10
102.0096218277962
 20
-138.6022202887002
 10
102.0799017756953
 20
-138.6022202887002
 10
102.2924641671352
 20
-138.5810329514659
 10
102.2924641671352
 20
-138.3440103820807
 10
102.2924641671352
 20
-138.1664157098161
 10
102.1522487808856
 20
-138.111294182052
 10
102.0347710248385
 20
-138.111294182052
 10
101.7519286854995
 20
-138.111294182052
 10
101.7429714372379
 20
-138.3440103820807
 10
101.738492813107
 20
-138.4160128777224
 10
101.738492813107
 20
-138.4160128777224
 10
101.5214517975363
 20
-138.4160128777224
 10
101.5214517975363
 20
-138.4160128777224
 10
101.530409045798
 20
-138.2911281663821
 10
101.5596923574226
 20
-137.9145792298443
 10
102.048206897231
 20
-137.9145792298443
 10
102.2879855430044
 20
-137.9145792298443
 10
102.5456786853011
 20
-138.0415309984757
 10
102.5456786853011
 20
-138.337636955433
 10
102.5456786853011
 20
-138.5238443664107
 10
102.4437038589377
 20
-138.6063544032824
 10
102.337594917992
 20
-138.6676771029199
 10
102.4030517322117
 20
-138.6952378668019
 10
102.5976996271284
 20
-138.7756808463825
 10
102.5976996271284
 20
-139.0528387781708
 10
102.5976996271284
 20
-139.3913194095966
 10
102.3331162938612
 20
-139.5584065406312
 10
102.0368380821297
 20
-139.5584065406312
 97
        0
 97
        0
 75
     2
 76
     1
 98
        0
  0
SPLINE
  5
E1
330
DB
100
AcDbEntity
  8
_U+30EC_U+30A4_U+30E4_U+30FC 1
370
     0
100
AcDbSpline
210
0.0
220
0.0
230
1.0
 70
    11
 71
     3
 72
    29
 73
    25
 74
     0
 42
0.0000000001
 43
0.0000000001
 12
1.0
 22
0.0
 32
0.0
 13
1.0
 23
0.0
 33
0.0
 40
0.0
 40
0.0
 40
0.0
 40
0.0
 40
1.0
 40
1.0
 40
1.0
 40
2.0
 40
2.0
 40
2.0
 40
3.0
 40
3.0
 40
3.0
 40
4.0
 40
4.0
 40
4.0
 40
5.0
 40
5.0
 40
5.0
 40
6.0
 40
6.0
 40
6.0
 40
7.0
 40
7.0
 40
7.0
 40
8.0
 40
8.0
 40
8.0
 40
8.0
 10
103.7287244749359
 20
-139.3298244551849
 30
0.0
 10
103.61331377618
 20
-139.5392862606881
 30
0.0
 10
103.4279676390736
 20
-139.5584065406312
 30
0.0
 10
103.3035996920561
 20
-139.5584065406312
 30
0.0
 10
103.1320339368906
 20
-139.5584065406312
 30
0.0
 10
102.9804497355396
 20
-139.5118977515804
 30
0.0
 10
102.8788194187247
 20
-139.3298244551849
 30
0.0
 10
102.7678873440997
 20
-139.1351765602683
 30
0.0
 10
102.7475612807367
 20
-138.8983262456574
 30
0.0
 10
102.7475612807367
 20
-138.735373229205
 30
0.0
 10
102.7475612807367
 20
-138.5915404926959
 30
0.0
 10
102.7658202868085
 20
-138.3398762674984
 30
0.0
 10
102.8788194187247
 20
-138.1409220032252
 30
0.0
 10
102.9938856079321
 20
-137.9378336243697
 30
0.0
 10
103.1657958726461
 20
-137.9145792298443
 30
0.0
 10
103.3035996920561
 20
-137.9145792298443
 30
0.0
 10
103.4734428994789
 20
-137.9145792298443
 30
0.0
 10
103.627094158121
 20
-137.959020961604
 30
0.0
 10
103.7287244749359
 20
-138.1409220032252
 30
0.0
 10
103.8351779254301
 20
-138.3335028408507
 30
0.0
 10
103.8599826129239
 20
-138.5619126715227
 30
0.0
 10
103.8599826129239
 20
-138.735373229205
 30
0.0
 10
103.8599826129239
 20
-138.9067667295962
 30
0.0
 10
103.8372449827212
 20
-139.1374158723337
 30
0.0
 10
103.7287244749359
 20
-139.3298244551849
 30
0.0
  0
SPLINE
  5
E2
330
DB
100
AcDbEntity
  8
_U+30EC_U+30A4_U+30E4_U+30FC 1
370
     0
100
AcDbSpline
210
0.0
220
0.0
230
1.0
 70
    11
 71
     3
 72
    17
 73
    13
 74
     0
 42
0.0000000001
 43
0.0000000001
 12
1.0
 22
0.0
 32
0.0
 13
1.0
 23
0.0
 33
0.0
 40
0.0
 40
0.0
 40
0.0
 40
0.0
 40
1.0
 40
1.0
 40
1.0
 40
2.0
 40
2.0
 40
2.0
 40
3.0
 40
3.0
 40
3.0
 40
4.0
 40
4.0
 40
4.0
 40
4.0
 10
103.3035996920561
 20
-138.1071600674697
 30
0.0
 10
103.0369493014977
 20
-138.1071600674697
 30
0.0
 10
102.9873399265101
 20
-138.3906914259058
 30
0.0
 10
102.9873399265101
 20
-138.735373229205
 30
0.0
 10
102.9873399265101
 20
-139.054905835462
 30
0.0
 10
103.0255804863964
 20
-139.3637586457146
 30
0.0
 10
103.3035996920561
 20
-139.3637586457146
 30
0.0
 10
103.5681830253232
 20
-139.3637586457146
 30
0.0
 10
103.6202039671505
 20
-139.0822943445697
 30
0.0
 10
103.6202039671505
 20
-138.735373229205
 30
0.0
 10
103.6202039671505
 20
-138.4160128777224
 30
0.0
 10
103.5795518404246
 20
-138.1071600674697
 30
0.0
 10
103.3035996920561
 20
-138.1071600674697
 30
0.0
  0
HATCH
  5
E3
330
DB
100
AcDbEntity
  8
_U+30EC_U+30A4_U+30E4_U+30FC 1
 62
   179
420
  2234388
100
AcDbHatch
 10
0.0
 20
0.0
 30
0.0
210
0.0
220
0.0
230
1.0
  2
SOLID
 70
     1
 71
     0
 91
        2
 92
        1
 93
        1
 72
     4
 94
        3
 73
     0
 74
     1
 95
       29
 96
       25
 40
0.0
 40
0.0
 40
0.0
 40
0.0
 40
1.0
 40
1.0
 40
1.0
 40
2.0
 40
2.0
 40
2.0
 40
3.0
 40
3.0
 40
3.0
 40
4.0
 40
4.0
 40
4.0
 40
5.0
 40
5.0
 40
5.0
 40
6.0
 40
6.0
 40
6.0
 40
7.0
 40
7.0
 40
7.0
 40
8.0
 40
8.0
 40
8.0
 40
8.0
 10
103.7287244749359
 20
-139.3298244551849
 10
103.61331377618
 20
-139.5392862606881
 10
103.4279676390736
 20
-139.5584065406312
 10
103.3035996920561
 20
-139.5584065406312
 10
103.1320339368906
 20
-139.5584065406312
 10
102.9804497355396
 20
-139.5118977515804
 10
102.8788194187247
 20
-139.3298244551849
 10
102.7678873440997
 20
-139.1351765602683
 10
102.7475612807367
 20
-138.8983262456574
 10
102.7475612807367
 20
-138.735373229205
 10
102.7475612807367
 20
-138.5915404926959
 10
102.7658202868085
 20
-138.3398762674984
 10
102.8788194187247
 20
-138.1409220032252
 10
102.9938856079321
 20
-137.9378336243697
 10
103.1657958726461
 20
-137.9145792298443
 10
103.3035996920561
 20
-137.9145792298443
 10
103.4734428994789
 20
-137.9145792298443
 10
103.627094158121
 20
-137.959020961604
 10
103.7287244749359
 20
-138.1409220032252
 10
103.8351779254301
 20
-138.3335028408507
 10
103.8599826129239
 20
-138.5619126715227
 10
103.8599826129239
 20
-138.735373229205
 10
103.8599826129239
 20
-138.9067667295962
 10
103.8372449827212
 20
-139.1374158723337
 10
103.7287244749359
 20
-139.3298244551849
 97
        0
 97
        0
 92
        1
 93
        1
 72
     4
 94
        3
 73
     0
 74
     1
 95
       17
 96
       13
 40
0.0
 40
0.0
 40
0.0
 40
0.0
 40
1.0
 40
1.0
 40
1.0
 40
2.0
 40
2.0
 40
2.0
 40
3.0
 40
3.0
 40
3.0
 40
4.0
 40
4.0
 40
4.0
 40
4.0
 10
103.3035996920561
 20
-138.1071600674697
 10
103.0369493014977
 20
-138.1071600674697
 10
102.9873399265101
 20
-138.3906914259058
 10
102.9873399265101
 20
-138.735373229205
 10
102.9873399265101
 20
-139.054905835462
 10
103.0255804863964
 20
-139.3637586457146
 10
103.3035996920561
 20
-139.3637586457146
 10
103.5681830253232
 20
-139.3637586457146
 10
103.6202039671505
 20
-139.0822943445697
 10
103.6202039671505
 20
-138.735373229205
 10
103.6202039671505
 20
-138.4160128777224
 10
103.5795518404246
 20
-138.1071600674697
 10
103.3035996920561
 20
-138.1071600674697
 97
        0
 97
        0
 75
     2
 76
     1
 98
        0
  0
ENDBLK
  5
DE
330
DB
100
AcDbEntity
  8
0
100
AcDbBlockEnd
  0
BLOCK
  5
EE
330
EC
100
AcDbEntity
  8
0
100
AcDbBlockBegin
  2
block 6
 70
     0
 10
0.0
 20
0.0
 30
0.0
  3
block 6
  1

  0
SPLINE
  5
F0
330
EC
100
AcDbEntity
  8
_U+30EC_U+30A4_U+30E4_U+30FC 1
370
     0
100
AcDbSpline
210
0.0
220
0.0
230
1.0
 70
    11
 71
     3
 72
    29
 73
    25
 74
     0
 42
0.0000000001
 43
0.0000000001
 12
1.0
 22
0.0
 32
0.0
 13
1.0
 23
0.0
 33
0.0
 40
0.0
 40
0.0
 40
0.0
 40
0.0
 40
1.0
 40
1.0
 40
1.0
 40
2.0
 40
2.0
 40
2.0
 40
3.0
 40
3.0
 40
3.0
 40
4.0
 40
4.0
 40
4.0
 40
5.0
 40
5.0
 40
5.0
 40
6.0
 40
6.0
 40
6.0
 40
7.0
 40
7.0
 40
7.0
 40
8.0
 40
8.0
 40
8.0
 40
8.0
 10
91.71223142238445
 20
-158.0585692964229
 30
0.0
 10
91.42732202575428
 20
-158.0585692964229
 30
0.0
 10
91.15619301106513
 20
-157.9207654770129
 30
0.0
 10
91.15619301106513
 20
-157.5717773043571
 30
0.0
 10
91.15619301106513
 20
-157.315806709803
 30
0.0
 10
91.30777721241611
 20
-157.2207220744101
 30
0.0
 10
91.42077634433231
 20
-157.1593993747726
 30
0.0
 10
91.28745114905314
 20
-157.1001437324263
 30
0.0
 10
91.20580238605272
 20
-156.9857665623161
 30
0.0
 10
91.20580238605272
 20
-156.8252251127034
 30
0.0
 10
91.20580238605272
 20
-156.549961983432
 30
0.0
 10
91.41836477749264
 20
-156.4145697308616
 30
0.0
 10
91.71223142238445
 20
-156.4145697308616
 30
0.0
 10
92.01539982508643
 20
-156.4145697308616
 30
0.0
 10
92.21866045871617
 20
-156.5585747221451
 30
0.0
 10
92.21866045871617
 20
-156.8252251127034
 30
0.0
 10
92.21866045871617
 20
-156.9857665623161
 30
0.0
 10
92.13528914797313
 20
-157.1001437324263
 30
0.0
 10
92.00161944314543
 20
-157.1593993747726
 30
0.0
 10
92.09670407853832
 20
-157.2100422784058
 30
0.0
 10
92.26620277641263
 20
-157.3054714233473
 30
0.0
 10
92.26620277641263
 20
-157.5676431897748
 30
0.0
 10
92.26620277641263
 20
-157.9421250690214
 30
0.0
 10
91.96785750738998
 20
-158.0585692964229
 30
0.0
 10
91.71223142238445
 20
-158.0585692964229
 30
0.0
  0
SPLINE
  5
F1
330
EC
100
AcDbEntity
  8
_U+30EC_U+30A4_U+30E4_U+30FC 1
370
     0
100
AcDbSpline
210
0.0
220
0.0
230
1.0
 70
    11
 71
     3
 72
    17
 73
    13
 74
     0
 42
0.0000000001
 43
0.0000000001
 12
1.0
 22
0.0
 32
0.0
 13
1.0
 23
0.0
 33
0.0
 40
0.0
 40
0.0
 40
0.0
 40
0.0
 40
1.0
 40
1.0
 40
1.0
 40
2.0
 40
2.0
 40
2.0
 40
3.0
 40
3.0
 40
3.0
 40
4.0
 40
4.0
 40
4.0
 40
4.0
 10
91.71223142238445
 20
-157.267230863461
 30
0.0
 10
91.5585801637423
 20
-157.267230863461
 30
0.0
 10
91.39597165683851
 20
-157.3540472696893
 30
0.0
 10
91.39597165683851
 20
-157.5569633937705
 30
0.0
 10
91.39597165683851
 20
-157.7622910846914
 30
0.0
 10
91.53136390940882
 20
-157.8639214015062
 30
0.0
 10
91.71223142238445
 20
-157.8639214015062
 30
0.0
 10
91.91135794143189
 20
-157.8639214015062
 30
0.0
 10
92.02883569747891
 20
-157.7412760022314
 30
0.0
 10
92.02883569747891
 20
-157.5635090751925
 30
0.0
 10
92.02883569747891
 20
-157.3413004163938
 30
0.0
 10
91.8548583754738
 20
-157.267230863461
 30
0.0
 10
91.71223142238445
 20
-157.267230863461
 30
0.0
  0
SPLINE
  5
F2
330
EC
100
AcDbEntity
  8
_U+30EC_U+30A4_U+30E4_U+30FC 1
370
     0
100
AcDbSpline
210
0.0
220
0.0
230
1.0
 70
    11
 71
     3
 72
    17
 73
    13
 74
     0
 42
0.0000000001
 43
0.0000000001
 12
1.0
 22
0.0
 32
0.0
 13
1.0
 23
0.0
 33
0.0
 40
0.0
 40
0.0
 40
0.0
 40
0.0
 40
1.0
 40
1.0
 40
1.0
 40
2.0
 40
2.0
 40
2.0
 40
3.0
 40
3.0
 40
3.0
 40
4.0
 40
4.0
 40
4.0
 40
4.0
 10
91.71223142238445
 20
-156.6071505684871
 30
0.0
 10
91.53618704308818
 20
-156.6071505684871
 30
0.0
 10
91.44558103182611
 20
-156.70223520388
 30
0.0
 10
91.44558103182611
 20
-156.8376274564503
 30
0.0
 10
91.44558103182611
 20
-156.9606173652737
 30
0.0
 10
91.52240666114719
 20
-157.0791286499663
 30
0.0
 10
91.71223142238445
 20
-157.0791286499663
 30
0.0
 10
91.90240069317024
 20
-157.0791286499663
 30
0.0
 10
91.97922632249131
 20
-156.9606173652737
 30
0.0
 10
91.97922632249131
 20
-156.8376274564503
 30
0.0
 10
91.97922632249131
 20
-156.70223520388
 30
0.0
 10
91.88655325393809
 20
-156.6071505684871
 30
0.0
 10
91.71223142238445
 20
-156.6071505684871
 30
0.0
  0
HATCH
  5
F3
330
EC
100
AcDbEntity
  8
_U+30EC_U+30A4_U+30E4_U+30FC 1
 62
   179
420
  2234388
100
AcDbHatch
 10
0.0
 20
0.0
 30
0.0
210
0.0
220
0.0
230
1.0
  2
SOLID
 70
     1
 71
     0
 91
        3
 92
        1
 93
        1
 72
     4
 94
        3
 73
     0
 74
     1
 95
       29
 96
       25
 40
0.0
 40
0.0
 40
0.0
 40
0.0
 40
1.0
 40
1.0
 40
1.0
 40
2.0
 40
2.0
 40
2.0
 40
3.0
 40
3.0
 40
3.0
 40
4.0
 40
4.0
 40
4.0
 40
5.0
 40
5.0
 40
5.0
 40
6.0
 40
6.0
 40
6.0
 40
7.0
 40
7.0
 40
7.0
 40
8.0
 40
8.0
 40
8.0
 40
8.0
 10
91.71223142238445
 20
-158.0585692964229
 10
91.42732202575428
 20
-158.0585692964229
 10
91.15619301106513
 20
-157.9207654770129
 10
91.15619301106513
 20
-157.5717773043571
 10
91.15619301106513
 20
-157.315806709803
 10
91.30777721241611
 20
-157.2207220744101
 10
91.42077634433231
 20
-157.1593993747726
 10
91.28745114905314
 20
-157.1001437324263
 10
91.20580238605272
 20
-156.9857665623161
 10
91.20580238605272
 20
-156.8252251127034
 10
91.20580238605272
 20
-156.549961983432
 10
91.41836477749264
 20
-156.4145697308616
 10
91.71223142238445
 20
-156.4145697308616
 10
92.01539982508643
 20
-156.4145697308616
 10
92.21866045871617
 20
-156.5585747221451
 10
92.21866045871617
 20
-156.8252251127034
 10
92.21866045871617
 20
-156.9857665623161
 10
92.13528914797313
 20
-157.1001437324263
 10
92.00161944314543
 20
-157.1593993747726
 10
92.09670407853832
 20
-157.2100422784058
 10
92.26620277641263
 20
-157.3054714233473
 10
92.26620277641263
 20
-157.5676431897748
 10
92.26620277641263
 20
-157.9421250690214
 10
91.96785750738998
 20
-158.0585692964229
 10
91.71223142238445
 20
-158.0585692964229
 97
        0
 97
        0
 92
        1
 93
        1
 72
     4
 94
        3
 73
     0
 74
     1
 95
       17
 96
       13
 40
0.0
 40
0.0
 40
0.0
 40
0.0
 40
1.0
 40
1.0
 40
1.0
 40
2.0
 40
2.0
 40
2.0
 40
3.0
 40
3.0
 40
3.0
 40
4.0
 40
4.0
 40
4.0
 40
4.0
 10
91.71223142238445
 20
-157.267230863461
 10
91.5585801637423
 20
-157.267230863461
 10
91.39597165683851
 20
-157.3540472696893
 10
91.39597165683851
 20
-157.5569633937705
 10
91.39597165683851
 20
-157.7622910846914
 10
91.53136390940882
 20
-157.8639214015062
 10
91.71223142238445
 20
-157.8639214015062
 10
91.91135794143189
 20
-157.8639214015062
 10
92.02883569747891
 20
-157.7412760022314
 10
92.02883569747891
 20
-157.5635090751925
 10
92.02883569747891
 20
-157.3413004163938
 10
91.8548583754738
 20
-157.267230863461
 10
91.71223142238445
 20
-157.267230863461
 97
        0
 97
        0
 92
        1
 93
        1
 72
     4
 94
        3
 73
     0
 74
     1
 95
       17
 96
       13
 40
0.0
 40
0.0
 40
0.0
 40
0.0
 40
1.0
 40
1.0
 40
1.0
 40
2.0
 40
2.0
 40
2.0
 40
3.0
 40
3.0
 40
3.0
 40
4.0
 40
4.0
 40
4.0
 40
4.0
 10
91.71223142238445
 20
-156.6071505684871
 10
91.53618704308818
 20
-156.6071505684871
 10
91.44558103182611
 20
-156.70223520388
 10
91.44558103182611
 20
-156.8376274564503
 10
91.44558103182611
 20
-156.9606173652737
 10
91.52240666114719
 20
-157.0791286499663
 10
91.71223142238445
 20
-157.0791286499663
 10
91.90240069317024
 20
-157.0791286499663
 10
91.97922632249131
 20
-156.9606173652737
 10
91.97922632249131
 20
-156.8376274564503
 10
91.97922632249131
 20
-156.70223520388
 10
91.88655325393809
 20
-156.6071505684871
 10
91.71223142238445
 20
-156.6071505684871
 97
        0
 97
        0
 75
     2
 76
     1
 98
        0
  0
ENDBLK
  5
EF
330
EC
100
AcDbEntity
  8
0
100
AcDbBlockEnd
  0
BLOCK
  5
FE
330
FC
100
AcDbEntity
  8
0
100
AcDbBlockBegin
  2
block 7
 70
     0
 10
0.0
 20
0.0
 30
0.0
  3
block 7
  1

  0
SPLINE
  5
100
330
FC
100
AcDbEntity
  8
_U+30EC_U+30A4_U+30E4_U+30FC 1
370
     0
100
AcDbSpline
210
0.0
220
0.0
230
1.0
 70
    11
 71
     3
 72
    29
 73
    25
 74
     0
 42
0.0000000001
 43
0.0000000001
 12
1.0
 22
0.0
 32
0.0
 13
1.0
 23
0.0
 33
0.0
 40
0.0
 40
0.0
 40
0.0
 40
0.0
 40
1.0
 40
1.0
 40
1.0
 40
2.0
 40
2.0
 40
2.0
 40
3.0
 40
3.0
 40
3.0
 40
4.0
 40
4.0
 40
4.0
 40
5.0
 40
5.0
 40
5.0
 40
6.0
 40
6.0
 40
6.0
 40
7.0
 40
7.0
 40
7.0
 40
8.0
 40
8.0
 40
8.0
 40
8.0
 10
120.4188340627772
 20
-150.8338595543054
 30
0.0
 10
120.4188340627772
 20
-151.1184244413871
 30
0.0
 10
120.2813747529158
 20
-151.3898979656248
 30
0.0
 10
119.93238658026
 20
-151.3898979656248
 30
0.0
 10
119.6764159857059
 20
-151.3898979656248
 30
0.0
 10
119.5809868407645
 20
-151.2383137642738
 30
0.0
 10
119.519664141127
 20
-151.1253146323576
 30
0.0
 10
119.4604084987807
 20
-151.2586398276367
 30
0.0
 10
119.346375838219
 20
-151.3402885906372
 30
0.0
 10
119.1854898790578
 20
-151.3402885906372
 30
0.0
 10
118.9105712593349
 20
-151.3402885906372
 30
0.0
 10
118.7751790067645
 20
-151.1277261991972
 30
0.0
 10
118.7751790067645
 20
-150.8338595543054
 30
0.0
 10
118.7751790067645
 20
-150.5306911516034
 30
0.0
 10
118.9188394884995
 20
-150.3274305179737
 30
0.0
 10
119.1854898790578
 20
-150.3274305179737
 30
0.0
 10
119.346375838219
 20
-150.3274305179737
 30
0.0
 10
119.4604084987807
 20
-150.4108018287168
 30
0.0
 10
119.519664141127
 20
-150.5444715335445
 30
0.0
 10
119.5706515543087
 20
-150.4493868981515
 30
0.0
 10
119.6657361897016
 20
-150.2798882002773
 30
0.0
 10
119.9282524656777
 20
-150.2798882002773
 30
0.0
 10
120.3023898353758
 20
-150.2798882002773
 30
0.0
 10
120.4188340627772
 20
-150.5782334692999
 30
0.0
 10
120.4188340627772
 20
-150.8338595543054
 30
0.0
  0
SPLINE
  5
101
330
FC
100
AcDbEntity
  8
_U+30EC_U+30A4_U+30E4_U+30FC 1
370
     0
100
AcDbSpline
210
0.0
220
0.0
230
1.0
 70
    11
 71
     3
 72
    17
 73
    13
 74
     0
 42
0.0000000001
 43
0.0000000001
 12
1.0
 22
0.0
 32
0.0
 13
1.0
 23
0.0
 33
0.0
 40
0.0
 40
0.0
 40
0.0
 40
0.0
 40
1.0
 40
1.0
 40
1.0
 40
2.0
 40
2.0
 40
2.0
 40
3.0
 40
3.0
 40
3.0
 40
4.0
 40
4.0
 40
4.0
 40
4.0
 10
118.96775984439
 20
-150.8338595543054
 30
0.0
 10
118.96775984439
 20
-151.0102484431502
 30
0.0
 10
119.0628444797829
 20
-151.1005099448638
 30
0.0
 10
119.1982367323532
 20
-151.1005099448638
 30
0.0
 10
119.3208821316281
 20
-151.1005099448638
 30
0.0
 10
119.4393934163207
 20
-151.0236843155427
 30
0.0
 10
119.4393934163207
 20
-150.8338595543054
 30
0.0
 10
119.4393934163207
 20
-150.6436902835196
 30
0.0
 10
119.3208821316281
 20
-150.5668646541986
 30
0.0
 10
119.1982367323532
 20
-150.5668646541986
 30
0.0
 10
119.0628444797829
 20
-150.5668646541986
 30
0.0
 10
118.96775984439
 20
-150.6595377227518
 30
0.0
 10
118.96775984439
 20
-150.8338595543054
 30
0.0
  0
SPLINE
  5
102
330
FC
100
AcDbEntity
  8
_U+30EC_U+30A4_U+30E4_U+30FC 1
370
     0
100
AcDbSpline
210
0.0
220
0.0
230
1.0
 70
    11
 71
     3
 72
    17
 73
    13
 74
     0
 42
0.0000000001
 43
0.0000000001
 12
1.0
 22
0.0
 32
0.0
 13
1.0
 23
0.0
 33
0.0
 40
0.0
 40
0.0
 40
0.0
 40
0.0
 40
1.0
 40
1.0
 40
1.0
 40
2.0
 40
2.0
 40
2.0
 40
3.0
 40
3.0
 40
3.0
 40
4.0
 40
4.0
 40
4.0
 40
4.0
 10
119.6278401393639
 20
-150.8338595543054
 30
0.0
 10
119.6278401393639
 20
-150.9875108129476
 30
0.0
 10
119.7143120360437
 20
-151.1501193198514
 30
0.0
 10
119.9175726696734
 20
-151.1501193198514
 30
0.0
 10
120.1225558510458
 20
-151.1501193198514
 30
0.0
 10
120.2241861678606
 20
-151.0147270672811
 30
0.0
 10
120.2241861678606
 20
-150.8338595543054
 30
0.0
 10
120.2241861678606
 20
-150.634733035258
 30
0.0
 10
120.1015407685857
 20
-150.517255279211
 30
0.0
 10
119.9237738415468
 20
-150.517255279211
 30
0.0
 10
119.7015651827482
 20
-150.517255279211
 30
0.0
 10
119.6278401393639
 20
-150.6912326012161
 30
0.0
 10
119.6278401393639
 20
-150.8338595543054
 30
0.0
  0
HATCH
  5
103
330
FC
100
AcDbEntity
  8
_U+30EC_U+30A4_U+30E4_U+30FC 1
 62
   179
420
  2234388
100
AcDbHatch
 10
0.0
 20
0.0
 30
0.0
210
0.0
220
0.0
230
1.0
  2
SOLID
 70
     1
 71
     0
 91
        3
 92
        1
 93
        1
 72
     4
 94
        3
 73
     0
 74
     1
 95
       29
 96
       25
 40
0.0
 40
0.0
 40
0.0
 40
0.0
 40
1.0
 40
1.0
 40
1.0
 40
2.0
 40
2.0
 40
2.0
 40
3.0
 40
3.0
 40
3.0
 40
4.0
 40
4.0
 40
4.0
 40
5.0
 40
5.0
 40
5.0
 40
6.0
 40
6.0
 40
6.0
 40
7.0
 40
7.0
 40
7.0
 40
8.0
 40
8.0
 40
8.0
 40
8.0
 10
120.4188340627772
 20
-150.8338595543054
 10
120.4188340627772
 20
-151.1184244413871
 10
120.2813747529158
 20
-151.3898979656248
 10
119.93238658026
 20
-151.3898979656248
 10
119.6764159857059
 20
-151.3898979656248
 10
119.5809868407645
 20
-151.2383137642738
 10
119.519664141127
 20
-151.1253146323576
 10
119.4604084987807
 20
-151.2586398276367
 10
119.346375838219
 20
-151.3402885906372
 10
119.1854898790578
 20
-151.3402885906372
 10
118.9105712593349
 20
-151.3402885906372
 10
118.7751790067645
 20
-151.1277261991972
 10
118.7751790067645
 20
-150.8338595543054
 10
118.7751790067645
 20
-150.5306911516034
 10
118.9188394884995
 20
-150.3274305179737
 10
119.1854898790578
 20
-150.3274305179737
 10
119.346375838219
 20
-150.3274305179737
 10
119.4604084987807
 20
-150.4108018287168
 10
119.519664141127
 20
-150.5444715335445
 10
119.5706515543087
 20
-150.4493868981515
 10
119.6657361897016
 20
-150.2798882002773
 10
119.9282524656777
 20
-150.2798882002773
 10
120.3023898353758
 20
-150.2798882002773
 10
120.4188340627772
 20
-150.5782334692999
 10
120.4188340627772
 20
-150.8338595543054
 97
        0
 97
        0
 92
        1
 93
        1
 72
     4
 94
        3
 73
     0
 74
     1
 95
       17
 96
       13
 40
0.0
 40
0.0
 40
0.0
 40
0.0
 40
1.0
 40
1.0
 40
1.0
 40
2.0
 40
2.0
 40
2.0
 40
3.0
 40
3.0
 40
3.0
 40
4.0
 40
4.0
 40
4.0
 40
4.0
 10
118.96775984439
 20
-150.8338595543054
 10
118.96775984439
 20
-151.0102484431502
 10
119.0628444797829
 20
-151.1005099448638
 10
119.1982367323532
 20
-151.1005099448638
 10
119.3208821316281
 20
-151.1005099448638
 10
119.4393934163207
 20
-151.0236843155427
 10
119.4393934163207
 20
-150.8338595543054
 10
119.4393934163207
 20
-150.6436902835196
 10
119.3208821316281
 20
-150.5668646541986
 10
119.1982367323532
 20
-150.5668646541986
 10
119.0628444797829
 20
-150.5668646541986
 10
118.96775984439
 20
-150.6595377227518
 10
118.96775984439
 20
-150.8338595543054
 97
        0
 97
        0
 92
        1
 93
        1
 72
     4
 94
        3
 73
     0
 74
     1
 95
       17
 96
       13
 40
0.0
 40
0.0
 40
0.0
 40
0.0
 40
1.0
 40
1.0
 40
1.0
 40
2.0
 40
2.0
 40
2.0
 40
3.0
 40
3.0
 40
3.0
 40
4.0
 40
4.0
 40
4.0
 40
4.0
 10
119.6278401393639
 20
-150.8338595543054
 10
119.6278401393639
 20
-150.9875108129476
 10
119.7143120360437
 20
-151.1501193198514
 10
119.9175726696734
 20
-151.1501193198514
 10
120.1225558510458
 20
-151.1501193198514
 10
120.2241861678606
 20
-151.0147270672811
 10
120.2241861678606
 20
-150.8338595543054
 10
120.2241861678606
 20
-150.634733035258
 10
120.1015407685857
 20
-150.517255279211
 10
119.9237738415468
 20
-150.517255279211
 10
119.7015651827482
 20
-150.517255279211
 10
119.6278401393639
 20
-150.6912326012161
 10
119.6278401393639
 20
-150.8338595543054
 97
        0
 97
        0
 75
     2
 76
     1
 98
        0
  0
POLYLINE
  5
104
330
FC
100
AcDbEntity
  8
_U+30EC_U+30A4_U+30E4_U+30FC 1
370
     0
100
AcDb2dPolyline
 66
     1
 10
0.0
 20
0.0
 30
0.0
  0
VERTEX
  5
105
330
104
100
AcDbEntity
  8
_U+30EC_U+30A4_U+30E4_U+30FC 1
370
     0
100
AcDbVertex
100
AcDb2dVertex
 10
120.3681911591441
 20
-150.0463107263773
 30
0.0
  0
VERTEX
  5
106
330
104
100
AcDbEntity
  8
_U+30EC_U+30A4_U+30E4_U+30FC 1
370
     0
100
AcDbVertex
100
AcDb2dVertex
 10
120.1163546791723
 20
-150.0463107263773
 30
0.0
  0
VERTEX
  5
107
330
104
100
AcDbEntity
  8
_U+30EC_U+30A4_U+30E4_U+30FC 1
370
     0
100
AcDbVertex
100
AcDb2dVertex
 10
120.1163546791723
 20
-149.7772487689793
 30
0.0
  0
VERTEX
  5
108
330
104
100
AcDbEntity
  8
_U+30EC_U+30A4_U+30E4_U+30FC 1
370
     0
100
AcDbVertex
100
AcDb2dVertex
 10
120.3681911591441
 20
-149.7772487689793
 30
0.0
  0
VERTEX
  5
109
330
104
100
AcDbEntity
  8
_U+30EC_U+30A4_U+30E4_U+30FC 1
370
     0
100
AcDbVertex
100
AcDb2dVertex
 10
120.3681911591441
 20
-150.0463107263773
 30
0.0
  0
SEQEND
  5
10A
330
104
100
AcDbEntity
  8
_U+30EC_U+30A4_U+30E4_U+30FC 1
370
     0
  0
HATCH
  5
10B
330
FC
100
AcDbEntity
  8
_U+30EC_U+30A4_U+30E4_U+30FC 1
 62
   179
420
  2234388
100
AcDbHatch
 10
0.0
 20
0.0
 30
0.0
210
0.0
220
0.0
230
1.0
  2
SOLID
 70
     1
 71
     0
 91
        1
 92
        1
 93
        4
 72
     1
 10
120.3681911591441
 20
-150.0463107263773
 11
120.1163546791723
 21
-150.0463107263773
 72
     1
 10
120.1163546791723
 20
-150.0463107263773
 11
120.1163546791723
 21
-149.7772487689793
 72
     1
 10
120.1163546791723
 20
-149.7772487689793
 11
120.3681911591441
 21
-149.7772487689793
 72
     1
 10
120.3681911591441
 20
-149.7772487689793
 11
120.3681911591441
 21
-150.0463107263773
 97
        0
 75
     2
 76
     1
 98
        0
  0
SPLINE
  5
10C
330
FC
100
AcDbEntity
  8
_U+30EC_U+30A4_U+30E4_U+30FC 1
370
     0
100
AcDbSpline
210
0.0
220
0.0
230
1.0
 70
    11
 71
     3
 72
    53
 73
    49
 74
     0
 42
0.0000000001
 43
0.0000000001
 12
1.0
 22
0.0
 32
0.0
 13
1.0
 23
0.0
 33
0.0
 40
0.0
 40
0.0
 40
0.0
 40
0.0
 40
1.0
 40
1.0
 40
1.0
 40
2.0
 40
2.0
 40
2.0
 40
3.0
 40
3.0
 40
3.0
 40
4.0
 40
4.0
 40
4.0
 40
5.0
 40
5.0
 40
5.0
 40
6.0
 40
6.0
 40
6.0
 40
7.0
 40
7.0
 40
7.0
 40
8.0
 40
8.0
 40
8.0
 40
9.0
 40
9.0
 40
9.0
 40
10.0
 40
10.0
 40
10.0
 40
11.0
 40
11.0
 40
11.0
 40
12.0
 40
12.0
 40
12.0
 40
13.0
 40
13.0
 40
13.0
 40
14.0
 40
14.0
 40
14.0
 40
15.0
 40
15.0
 40
15.0
 40
16.0
 40
16.0
 40
16.0
 40
16.0
 10
120.4188340627772
 20
-149.0103705139627
 30
0.0
 10
120.4188340627772
 20
-149.0940863342543
 30
0.0
 10
120.4019530948995
 20
-149.2022623324911
 30
0.0
 10
120.3385633379709
 20
-149.311127349825
 30
0.0
 10
120.2283202824429
 20
-149.4964734869314
 30
0.0
 10
120.0974066540034
 20
-149.5188666075856
 30
0.0
 10
119.9895751653151
 20
-149.5391926709486
 30
0.0
 10
119.9895751653151
 20
-149.5391926709486
 30
0.0
 10
119.9895751653151
 20
-149.3018255920148
 30
0.0
 10
119.9895751653151
 20
-149.3018255920148
 30
0.0
 10
120.188357174814
 20
-149.2432589687656
 30
0.0
 10
120.2179849959872
 20
-149.1075222066467
 30
0.0
 10
120.2179849959872
 20
-149.007958947123
 30
0.0
 10
120.2179849959872
 20
-148.8587863126117
 30
0.0
 10
120.1184217364635
 20
-148.6958332961594
 30
0.0
 10
119.8858777912091
 20
-148.6958332961594
 30
0.0
 10
119.629907196655
 20
-148.6958332961594
 30
0.0
 10
119.5599717583045
 20
-148.8880696242363
 30
0.0
 10
119.5599717583045
 20
-149.0169161953847
 30
0.0
 10
119.5599717583045
 20
-149.0510226406886
 30
0.0
 10
119.5599717583045
 20
-149.2022623324911
 30
0.0
 10
119.6891628390013
 20
-149.297346967884
 30
0.0
 10
119.6891628390013
 20
-149.297346967884
 30
0.0
 10
119.6698703042839
 20
-149.4851046718301
 30
0.0
 10
119.6698703042839
 20
-149.4851046718301
 30
0.0
 10
119.6698703042839
 20
-149.4851046718301
 30
0.0
 10
118.8237548531066
 20
-149.3562581006818
 30
0.0
 10
118.8237548531066
 20
-149.3562581006818
 30
0.0
 10
118.8237548531066
 20
-149.3562581006818
 30
0.0
 10
118.8237548531066
 20
-148.5242675409939
 30
0.0
 10
118.8237548531066
 20
-148.5242675409939
 30
0.0
 10
118.8237548531066
 20
-148.5242675409939
 30
0.0
 10
119.0184027480232
 20
-148.5242675409939
 30
0.0
 10
119.0184027480232
 20
-148.5242675409939
 30
0.0
 10
119.0184027480232
 20
-148.5242675409939
 30
0.0
 10
119.0184027480232
 20
-149.1819362691281
 30
0.0
 10
119.0184027480232
 20
-149.1819362691281
 30
0.0
 10
119.0184027480232
 20
-149.1819362691281
 30
0.0
 10
119.4414604736119
 20
-149.2522162170272
 30
0.0
 10
119.4414604736119
 20
-149.2522162170272
 30
0.0
 10
119.4076985378564
 20
-149.1867594028075
 30
0.0
 10
119.367390920679
 20
-149.0985649583851
 30
0.0
 10
119.367390920679
 20
-148.9717854445279
 30
0.0
 10
119.367390920679
 20
-148.7006564298387
 30
0.0
 10
119.553770586431
 20
-148.4474419116729
 30
0.0
 10
119.8665852564917
 20
-148.4474419116729
 30
0.0
 10
120.1842230602317
 20
-148.4474419116729
 30
0.0
 10
120.4188340627772
 20
-148.6868760478977
 30
0.0
 10
120.4188340627772
 20
-149.0103705139627
 30
0.0
  0
HATCH
  5
10D
330
FC
100
AcDbEntity
  8
_U+30EC_U+30A4_U+30E4_U+30FC 1
 62
   179
420
  2234388
100
AcDbHatch
 10
0.0
 20
0.0
 30
0.0
210
0.0
220
0.0
230
1.0
  2
SOLID
 70
     1
 71
     0
 91
        1
 92
        1
 93
        1
 72
     4
 94
        3
 73
     0
 74
     1
 95
       53
 96
       49
 40
0.0
 40
0.0
 40
0.0
 40
0.0
 40
1.0
 40
1.0
 40
1.0
 40
2.0
 40
2.0
 40
2.0
 40
3.0
 40
3.0
 40
3.0
 40
4.0
 40
4.0
 40
4.0
 40
5.0
 40
5.0
 40
5.0
 40
6.0
 40
6.0
 40
6.0
 40
7.0
 40
7.0
 40
7.0
 40
8.0
 40
8.0
 40
8.0
 40
9.0
 40
9.0
 40
9.0
 40
10.0
 40
10.0
 40
10.0
 40
11.0
 40
11.0
 40
11.0
 40
12.0
 40
12.0
 40
12.0
 40
13.0
 40
13.0
 40
13.0
 40
14.0
 40
14.0
 40
14.0
 40
15.0
 40
15.0
 40
15.0
 40
16.0
 40
16.0
 40
16.0
 40
16.0
 10
120.4188340627772
 20
-149.0103705139627
 10
120.4188340627772
 20
-149.0940863342543
 10
120.4019530948995
 20
-149.2022623324911
 10
120.3385633379709
 20
-149.311127349825
 10
120.2283202824429
 20
-149.4964734869314
 10
120.0974066540034
 20
-149.5188666075856
 10
119.9895751653151
 20
-149.5391926709486
 10
119.9895751653151
 20
-149.5391926709486
 10
119.9895751653151
 20
-149.3018255920148
 10
119.9895751653151
 20
-149.3018255920148
 10
120.188357174814
 20
-149.2432589687656
 10
120.2179849959872
 20
-149.1075222066467
 10
120.2179849959872
 20
-149.007958947123
 10
120.2179849959872
 20
-148.8587863126117
 10
120.1184217364635
 20
-148.6958332961594
 10
119.8858777912091
 20
-148.6958332961594
 10
119.629907196655
 20
-148.6958332961594
 10
119.5599717583045
 20
-148.8880696242363
 10
119.5599717583045
 20
-149.0169161953847
 10
119.5599717583045
 20
-149.0510226406886
 10
119.5599717583045
 20
-149.2022623324911
 10
119.6891628390013
 20
-149.297346967884
 10
119.6891628390013
 20
-149.297346967884
 10
119.6698703042839
 20
-149.4851046718301
 10
119.6698703042839
 20
-149.4851046718301
 10
119.6698703042839
 20
-149.4851046718301
 10
118.8237548531066
 20
-149.3562581006818
 10
118.8237548531066
 20
-149.3562581006818
 10
118.8237548531066
 20
-149.3562581006818
 10
118.8237548531066
 20
-148.5242675409939
 10
118.8237548531066
 20
-148.5242675409939
 10
118.8237548531066
 20
-148.5242675409939
 10
119.0184027480232
 20
-148.5242675409939
 10
119.0184027480232
 20
-148.5242675409939
 10
119.0184027480232
 20
-148.5242675409939
 10
119.0184027480232
 20
-149.1819362691281
 10
119.0184027480232
 20
-149.1819362691281
 10
119.0184027480232
 20
-149.1819362691281
 10
119.4414604736119
 20
-149.2522162170272
 10
119.4414604736119
 20
-149.2522162170272
 10
119.4076985378564
 20
-149.1867594028075
 10
119.367390920679
 20
-149.0985649583851
 10
119.367390920679
 20
-148.9717854445279
 10
119.367390920679
 20
-148.7006564298387
 10
119.553770586431
 20
-148.4474419116729
 10
119.8665852564917
 20
-148.4474419116729
 10
120.1842230602317
 20
-148.4474419116729
 10
120.4188340627772
 20
-148.6868760478977
 10
120.4188340627772
 20
-149.0103705139627
 97
        0
 97
        0
 75
     2
 76
     1
 98
        0
  0
ENDBLK
  5
FF
330
FC
100
AcDbEntity
  8
0
100
AcDbBlockEnd
  0
ENDSEC
  0
SECTION
  2
ENTITIES
  0
POLYLINE
  5
41
330
1F
100
AcDbEntity
  8
_U+30EC_U+30A4_U+30E4_U+30FC 1
 62
   179
420
  2234388
370
    25
100
AcDb2dPolyline
 66
     1
 10
0.0
 20
0.0
 30
0.0
  0
VERTEX
  5
42
330
41
100
AcDbEntity
  8
_U+30EC_U+30A4_U+30E4_U+30FC 1
 62
   179
420
  2234388
370
    25
100
AcDbVertex
100
AcDb2dVertex
 10
87.67017625100455
 20
-144.8095072066362
 30
0.0
  0
VERTEX
  5
43
330
41
100
AcDbEntity
  8
_U+30EC_U+30A4_U+30E4_U+30FC 1
 62
   179
420
  2234388
370
    25
100
AcDbVertex
100
AcDb2dVertex
 10
96.67024058998174
 20
-144.8095072066362
 30
0.0
  0
SEQEND
  5
44
330
41
100
AcDbEntity
  8
_U+30EC_U+30A4_U+30E4_U+30FC 1
 62
   179
420
  2234388
370
    25
  0
POLYLINE
  5
45
330
1F
100
AcDbEntity
  8
_U+30EC_U+30A4_U+30E4_U+30FC 1
 62
   179
420
  2234388
370
    25
100
AcDb2dPolyline
 66
     1
 10
0.0
 20
0.0
 30
0.0
  0
VERTEX
  5
46
330
45
100
AcDbEntity
  8
_U+30EC_U+30A4_U+30E4_U+30FC 1
 62
   179
420
  2234388
370
    25
100
AcDbVertex
100
AcDb2dVertex
 10
98.67000009401197
 20
-145.8092739164557
 30
0.0
  0
VERTEX
  5
47
330
45
100
AcDbEntity
  8
_U+30EC_U+30A4_U+30E4_U+30FC 1
 62
   179
420
  2234388
370
    25
100
AcDbVertex
100
AcDb2dVertex
 10
117.6691956967654
 20
-145.8092739164557
 30
0.0
  0
SEQEND
  5
48
330
45
100
AcDbEntity
  8
_U+30EC_U+30A4_U+30E4_U+30FC 1
 62
   179
420
  2234388
370
    25
  0
POLYLINE
  5
49
330
1F
100
AcDbEntity
  8
_U+30EC_U+30A4_U+30E4_U+30FC 1
 62
   179
420
  2234388
370
    25
100
AcDb2dPolyline
 66
     1
 10
0.0
 20
0.0
 30
0.0
  0
VERTEX
  5
4A
330
49
100
AcDbEntity
  8
_U+30EC_U+30A4_U+30E4_U+30FC 1
 62
   179
420
  2234388
370
    25
100
AcDbVertex
100
AcDb2dVertex
 10
95.6700217113798
 20
-145.8092739164557
 30
0.0
  0
VERTEX
  5
4B
330
49
100
AcDbEntity
  8
_U+30EC_U+30A4_U+30E4_U+30FC 1
 62
   179
420
  2234388
370
    25
100
AcDbVertex
100
AcDb2dVertex
 10
95.6700217113798
 20
-155.3095984176613
 30
0.0
  0
SEQEND
  5
4C
330
49
100
AcDbEntity
  8
_U+30EC_U+30A4_U+30E4_U+30FC 1
 62
   179
420
  2234388
370
    25
  0
POLYLINE
  5
4D
330
1F
100
AcDbEntity
  8
_U+30EC_U+30A4_U+30E4_U+30FC 1
 62
   179
420
  2234388
370
    25
100
AcDb2dPolyline
 66
     1
 10
0.0
 20
0.0
 30
0.0
  0
VERTEX
  5
4E
330
4D
100
AcDbEntity
  8
_U+30EC_U+30A4_U+30E4_U+30FC 1
 62
   179
420
  2234388
370
    25
100
AcDbVertex
100
AcDb2dVertex
 10
105.6701434401081
 20
-154.3097025167611
 30
0.0
  0
VERTEX
  5
4F
330
4D
100
AcDbEntity
  8
_U+30EC_U+30A4_U+30E4_U+30FC 1
 62
   179
420
  2234388
370
    25
100
AcDbVertex
100
AcDb2dVertex
 10
105.6701434401081
 20
-154.6095765469053
 30
0.0
  0
SEQEND
  5
50
330
4D
100
AcDbEntity
  8
_U+30EC_U+30A4_U+30E4_U+30FC 1
 62
   179
420
  2234388
370
    25
  0
POLYLINE
  5
51
330
1F
100
AcDbEntity
  8
_U+30EC_U+30A4_U+30E4_U+30FC 1
 62
   179
420
  2234388
370
    25
100
AcDb2dPolyline
 66
     1
 10
0.0
 20
0.0
 30
0.0
  0
VERTEX
  5
52
330
51
100
AcDbEntity
  8
_U+30EC_U+30A4_U+30E4_U+30FC 1
 62
   179
420
  2234388
370
    25
100
AcDbVertex
100
AcDb2dVertex
 10
98.67000009401197
 20
-154.3097025167611
 30
0.0
  0
VERTEX
  5
53
330
51
100
AcDbEntity
  8
_U+30EC_U+30A4_U+30E4_U+30FC 1
 62
   179
420
  2234388
370
    25
100
AcDbVertex
100
AcDb2dVertex
 10
105.6701649719549
 20
-154.3097025167611
 30
0.0
  0
SEQEND
  5
54
330
51
100
AcDbEntity
  8
_U+30EC_U+30A4_U+30E4_U+30FC 1
 62
   179
420
  2234388
370
    25
  0
POLYLINE
  5
55
330
1F
100
AcDbEntity
  8
_U+30EC_U+30A4_U+30E4_U+30FC 1
 62
   179
420
  2234388
370
    25
100
AcDb2dPolyline
 66
     1
 10
0.0
 20
0.0
 30
0.0
  0
VERTEX
  5
56
330
55
100
AcDbEntity
  8
_U+30EC_U+30A4_U+30E4_U+30FC 1
 62
   179
420
  2234388
370
    25
100
AcDbVertex
100
AcDb2dVertex
 10
97.66991040649073
 20
-144.8095072066362
 30
0.0
  0
VERTEX
  5
57
330
55
100
AcDbEntity
  8
_U+30EC_U+30A4_U+30E4_U+30FC 1
 62
   179
420
  2234388
370
    25
100
AcDbVertex
100
AcDb2dVertex
 10
117.6692172286122
 20
-144.8095072066362
 30
0.0
  0
SEQEND
  5
58
330
55
100
AcDbEntity
  8
_U+30EC_U+30A4_U+30E4_U+30FC 1
 62
   179
420
  2234388
370
    25
  0
POLYLINE
  5
59
330
1F
100
AcDbEntity
  8
_U+30EC_U+30A4_U+30E4_U+30FC 1
 62
   179
420
  2234388
370
    25
100
AcDb2dPolyline
 66
     1
 10
0.0
 20
0.0
 30
0.0
  0
VERTEX
  5
5A
330
59
100
AcDbEntity
  8
_U+30EC_U+30A4_U+30E4_U+30FC 1
 62
   179
420
  2234388
370
    25
100
AcDbVertex
100
AcDb2dVertex
 10
96.67014369667123
 20
-144.8095072066362
 30
0.0
  0
VERTEX
  5
5B
330
59
100
AcDbEntity
  8
_U+30EC_U+30A4_U+30E4_U+30FC 1
 62
   179
420
  2234388
370
    25
100
AcDbVertex
100
AcDb2dVertex
 10
96.67014369667123
 20
-154.3098317078418
 30
0.0
  0
SEQEND
  5
5C
330
59
100
AcDbEntity
  8
_U+30EC_U+30A4_U+30E4_U+30FC 1
 62
   179
420
  2234388
370
    25
  0
POLYLINE
  5
5D
330
1F
100
AcDbEntity
  8
_U+30EC_U+30A4_U+30E4_U+30FC 1
 62
   179
420
  2234388
370
    25
100
AcDb2dPolyline
 66
     1
 10
0.0
 20
0.0
 30
0.0
  0
VERTEX
  5
5E
330
5D
100
AcDbEntity
  8
_U+30EC_U+30A4_U+30E4_U+30FC 1
 62
   179
420
  2234388
370
    25
100
AcDbVertex
100
AcDb2dVertex
 10
97.66991040649073
 20
-144.8095072066362
 30
0.0
  0
VERTEX
  5
5F
330
5D
100
AcDbEntity
  8
_U+30EC_U+30A4_U+30E4_U+30FC 1
 62
   179
420
  2234388
370
    25
100
AcDbVertex
100
AcDb2dVertex
 10
97.66991040649073
 20
-154.3098317078418
 30
0.0
  0
SEQEND
  5
60
330
5D
100
AcDbEntity
  8
_U+30EC_U+30A4_U+30E4_U+30FC 1
 62
   179
420
  2234388
370
    25
  0
POLYLINE
  5
61
330
1F
100
AcDbEntity
  8
_U+30EC_U+30A4_U+30E4_U+30FC 1
 62
   179
420
  2234388
370
    25
100
AcDb2dPolyline
 66
     1
 10
0.0
 20
0.0
 30
0.0
  0
VERTEX
  5
62
330
61
100
AcDbEntity
  8
_U+30EC_U+30A4_U+30E4_U+30FC 1
 62
   179
420
  2234388
370
    25
100
AcDbVertex
100
AcDb2dVertex
 10
98.67000009401197
 20
-145.8092739164557
 30
0.0
  0
VERTEX
  5
63
330
61
100
AcDbEntity
  8
_U+30EC_U+30A4_U+30E4_U+30FC 1
 62
   179
420
  2234388
370
    25
100
AcDbVertex
100
AcDb2dVertex
 10
98.67000009401197
 20
-154.309810175995
 30
0.0
  0
SEQEND
  5
64
330
61
100
AcDbEntity
  8
_U+30EC_U+30A4_U+30E4_U+30FC 1
 62
   179
420
  2234388
370
    25
  0
POLYLINE
  5
65
330
1F
100
AcDbEntity
  8
_U+30EC_U+30A4_U+30E4_U+30FC 1
 62
   179
420
  2234388
370
    25
100
AcDb2dPolyline
 66
     1
 10
0.0
 20
0.0
 30
0.0
  0
VERTEX
  5
66
330
65
100
AcDbEntity
  8
_U+30EC_U+30A4_U+30E4_U+30FC 1
 62
   179
420
  2234388
370
    25
100
AcDbVertex
100
AcDb2dVertex
 10
96.67014369667123
 20
-154.3097025167611
 30
0.0
  0
VERTEX
  5
67
330
65
100
AcDbEntity
  8
_U+30EC_U+30A4_U+30E4_U+30FC 1
 62
   179
420
  2234388
370
    25
100
AcDbVertex
100
AcDb2dVertex
 10
97.66991040649073
 20
-154.3097025167611
 30
0.0
  0
SEQEND
  5
68
330
65
100
AcDbEntity
  8
_U+30EC_U+30A4_U+30E4_U+30FC 1
 62
   179
420
  2234388
370
    25
  0
POLYLINE
  5
69
330
1F
100
AcDbEntity
  8
_U+30EC_U+30A4_U+30E4_U+30FC 1
 62
   179
420
  2234388
370
    25
100
AcDb2dPolyline
 66
     1
 10
0.0
 20
0.0
 30
0.0
  0
VERTEX
  5
6A
330
69
100
AcDbEntity
  8
_U+30EC_U+30A4_U+30E4_U+30FC 1
 62
   179
420
  2234388
370
    25
100
AcDbVertex
100
AcDb2dVertex
 10
95.6700217113798
 20
-155.3094692265806
 30
0.0
  0
VERTEX
  5
6B
330
69
100
AcDbEntity
  8
_U+30EC_U+30A4_U+30E4_U+30FC 1
 62
   179
420
  2234388
370
    25
100
AcDbVertex
100
AcDb2dVertex
 10
105.6702080356484
 20
-154.6095765469053
 30
0.0
  0
SEQEND
  5
6C
330
69
100
AcDbEntity
  8
_U+30EC_U+30A4_U+30E4_U+30FC 1
 62
   179
420
  2234388
370
    25
  0
POLYLINE
  5
6D
330
1F
100
AcDbEntity
  8
_U+30EC_U+30A4_U+30E4_U+30FC 1
 62
   179
420
  2234388
370
    25
100
AcDb2dPolyline
 66
     1
 10
0.0
 20
0.0
 30
0.0
  0
VERTEX
  5
6E
330
6D
100
AcDbEntity
  8
_U+30EC_U+30A4_U+30E4_U+30FC 1
 62
   179
420
  2234388
370
    25
100
AcDbVertex
100
AcDb2dVertex
 10
117.6693894833865
 20
-144.8095072066362
 30
0.0
  0
VERTEX
  5
6F
330
6D
100
AcDbEntity
  8
_U+30EC_U+30A4_U+30E4_U+30FC 1
 62
   179
420
  2234388
370
    25
100
AcDbVertex
100
AcDb2dVertex
 10
117.6693894833865
 20
-145.8092954483025
 30
0.0
  0
SEQEND
  5
70
330
6D
100
AcDbEntity
  8
_U+30EC_U+30A4_U+30E4_U+30FC 1
 62
   179
420
  2234388
370
    25
  0
POLYLINE
  5
71
330
1F
100
AcDbEntity
  8
_U+30EC_U+30A4_U+30E4_U+30FC 1
 62
   179
420
  2234388
370
    25
100
AcDb2dPolyline
 66
     1
 10
0.0
 20
0.0
 30
0.0
  0
VERTEX
  5
72
330
71
100
AcDbEntity
  8
_U+30EC_U+30A4_U+30E4_U+30FC 1
 62
   179
420
  2234388
370
    25
100
AcDbVertex
100
AcDb2dVertex
 10
87.67017625100455
 20
-145.8092739164557
 30
0.0
  0
VERTEX
  5
73
330
71
100
AcDbEntity
  8
_U+30EC_U+30A4_U+30E4_U+30FC 1
 62
   179
420
  2234388
370
    25
100
AcDbVertex
100
AcDb2dVertex
 10
95.67010783876694
 20
-145.8092739164557
 30
0.0
  0
SEQEND
  5
74
330
71
100
AcDbEntity
  8
_U+30EC_U+30A4_U+30E4_U+30FC 1
 62
   179
420
  2234388
370
    25
  0
POLYLINE
  5
75
330
1F
100
AcDbEntity
  8
_U+30EC_U+30A4_U+30E4_U+30FC 1
 62
   179
420
  2234388
370
    25
100
AcDb2dPolyline
 66
     1
 10
0.0
 20
0.0
 30
0.0
  0
VERTEX
  5
76
330
75
100
AcDbEntity
  8
_U+30EC_U+30A4_U+30E4_U+30FC 1
 62
   179
420
  2234388
370
    25
100
AcDbVertex
100
AcDb2dVertex
 10
87.67017625100455
 20
-144.8095072066362
 30
0.0
  0
VERTEX
  5
77
330
75
100
AcDbEntity
  8
_U+30EC_U+30A4_U+30E4_U+30FC 1
 62
   179
420
  2234388
370
    25
100
AcDbVertex
100
AcDb2dVertex
 10
87.67017625100455
 20
-145.8092954483025
 30
0.0
  0
SEQEND
  5
78
330
75
100
AcDbEntity
  8
_U+30EC_U+30A4_U+30E4_U+30FC 1
 62
   179
420
  2234388
370
    25
  0
SPLINE
  5
79
330
1F
100
AcDbEntity
  8
_U+30EC_U+30A4_U+30E4_U+30FC 1
 62
   179
420
  2234388
370
     9
100
AcDbSpline
210
0.0
220
0.0
230
1.0
 70
    11
 71
     3
 72
    17
 73
    13
 74
     0
 42
0.0000000001
 43
0.0000000001
 12
1.0
 22
0.0
 32
0.0
 13
1.0
 23
0.0
 33
0.0
 40
0.0
 40
0.0
 40
0.0
 40
0.0
 40
1.0
 40
1.0
 40
1.0
 40
2.0
 40
2.0
 40
2.0
 40
3.0
 40
3.0
 40
3.0
 40
4.0
 40
4.0
 40
4.0
 40
4.0
 10
121.7697421299308
 20
-144.8095072066362
 30
0.0
 10
121.7697421299308
 20
-144.7544933381061
 30
0.0
 10
121.7249343567758
 20
-144.7096855649511
 30
0.0
 10
121.6698989563989
 20
-144.7096855649511
 30
0.0
 10
121.6148635560221
 20
-144.7096855649511
 30
0.0
 10
121.570055782867
 20
-144.7544933381061
 30
0.0
 10
121.570055782867
 20
-144.8095072066362
 30
0.0
 10
121.570055782867
 20
-144.864542607013
 30
0.0
 10
121.6148635560221
 20
-144.9093503801681
 30
0.0
 10
121.6698989563989
 20
-144.9093503801681
 30
0.0
 10
121.7249343567758
 20
-144.9093503801681
 30
0.0
 10
121.7697421299308
 20
-144.864542607013
 30
0.0
 10
121.7697421299308
 20
-144.8095072066362
 30
0.0
  0
SPLINE
  5
7A
330
1F
100
AcDbEntity
  8
_U+30EC_U+30A4_U+30E4_U+30FC 1
 62
   179
420
  2234388
370
     9
100
AcDbSpline
210
0.0
220
0.0
230
1.0
 70
    11
 71
     3
 72
    17
 73
    13
 74
     0
 42
0.0000000001
 43
0.0000000001
 12
1.0
 22
0.0
 32
0.0
 13
1.0
 23
0.0
 33
0.0
 40
0.0
 40
0.0
 40
0.0
 40
0.0
 40
1.0
 40
1.0
 40
1.0
 40
2.0
 40
2.0
 40
2.0
 40
3.0
 40
3.0
 40
3.0
 40
4.0
 40
4.0
 40
4.0
 40
4.0
 10
121.7697421299308
 20
-145.8092739164557
 30
0.0
 10
121.7697421299308
 20
-145.7542600479256
 30
0.0
 10
121.7249343567758
 20
-145.7094522747706
 30
0.0
 10
121.6698989563989
 20
-145.7094522747706
 30
0.0
 10
121.6148635560221
 20
-145.7094522747706
 30
0.0
 10
121.570055782867
 20
-145.7542600479256
 30
0.0
 10
121.570055782867
 20
-145.8092739164557
 30
0.0
 10
121.570055782867
 20
-145.8646753582279
 30
0.0
 10
121.6148635560221
 20
-145.9094831313832
 30
0.0
 10
121.6698989563989
 20
-145.9094831313832
 30
0.0
 10
121.7249343567758
 20
-145.9094831313832
 30
0.0
 10
121.7697421299308
 20
-145.8646753582279
 30
0.0
 10
121.7697421299308
 20
-145.8092739164557
 30
0.0
  0
SPLINE
  5
7B
330
1F
100
AcDbEntity
  8
_U+30EC_U+30A4_U+30E4_U+30FC 1
 62
   179
420
  2234388
370
     9
100
AcDbSpline
210
0.0
220
0.0
230
1.0
 70
    11
 71
     3
 72
    17
 73
    13
 74
     0
 42
0.0000000001
 43
0.0000000001
 12
1.0
 22
0.0
 32
0.0
 13
1.0
 23
0.0
 33
0.0
 40
0.0
 40
0.0
 40
0.0
 40
0.0
 40
1.0
 40
1.0
 40
1.0
 40
2.0
 40
2.0
 40
2.0
 40
3.0
 40
3.0
 40
3.0
 40
4.0
 40
4.0
 40
4.0
 40
4.0
 10
105.7700404432569
 20
-159.309591126351
 30
0.0
 10
105.7700404432569
 20
-159.2545772578209
 30
0.0
 10
105.7252326701019
 20
-159.2097694846659
 30
0.0
 10
105.670197269725
 20
-159.2097694846659
 30
0.0
 10
105.6151618693482
 20
-159.2097694846659
 30
0.0
 10
105.5703648621165
 20
-159.2545772578209
 30
0.0
 10
105.5703648621165
 20
-159.309591126351
 30
0.0
 10
105.5703648621165
 20
-159.3646265267279
 30
0.0
 10
105.6151618693482
 20
-159.4094342998829
 30
0.0
 10
105.670197269725
 20
-159.4094342998829
 30
0.0
 10
105.7252326701019
 20
-159.4094342998829
 30
0.0
 10
105.7700404432569
 20
-159.3646265267279
 30
0.0
 10
105.7700404432569
 20
-159.309591126351
 30
0.0
  0
SPLINE
  5
7C
330
1F
100
AcDbEntity
  8
_U+30EC_U+30A4_U+30E4_U+30FC 1
 62
   179
420
  2234388
370
     9
100
AcDbSpline
210
0.0
220
0.0
230
1.0
 70
    11
 71
     3
 72
    17
 73
    13
 74
     0
 42
0.0000000001
 43
0.0000000001
 12
1.0
 22
0.0
 32
0.0
 13
1.0
 23
0.0
 33
0.0
 40
0.0
 40
0.0
 40
0.0
 40
0.0
 40
1.0
 40
1.0
 40
1.0
 40
2.0
 40
2.0
 40
2.0
 40
3.0
 40
3.0
 40
3.0
 40
4.0
 40
4.0
 40
4.0
 40
4.0
 10
95.76991871452866
 20
-159.309591126351
 30
0.0
 10
95.76991871452866
 20
-159.2545772578209
 30
0.0
 10
95.72511094137363
 20
-159.2097694846659
 30
0.0
 10
95.67007554099676
 20
-159.2097694846659
 30
0.0
 10
95.61469563107137
 20
-159.2097694846659
 30
0.0
 10
95.56988785791634
 20
-159.2545772578209
 30
0.0
 10
95.56988785791634
 20
-159.309591126351
 30
0.0
 10
95.56988785791634
 20
-159.3646265267279
 30
0.0
 10
95.61469563107137
 20
-159.4094342998829
 30
0.0
 10
95.67007554099676
 20
-159.4094342998829
 30
0.0
 10
95.72511094137363
 20
-159.4094342998829
 30
0.0
 10
95.76991871452866
 20
-159.3646265267279
 30
0.0
 10
95.76991871452866
 20
-159.309591126351
 30
0.0
  0
SPLINE
  5
7D
330
1F
100
AcDbEntity
  8
_U+30EC_U+30A4_U+30E4_U+30FC 1
 62
   179
420
  2234388
370
     9
100
AcDbSpline
210
0.0
220
0.0
230
1.0
 70
    11
 71
     3
 72
    17
 73
    13
 74
     0
 42
0.0000000001
 43
0.0000000001
 12
1.0
 22
0.0
 32
0.0
 13
1.0
 23
0.0
 33
0.0
 40
0.0
 40
0.0
 40
0.0
 40
0.0
 40
1.0
 40
1.0
 40
1.0
 40
2.0
 40
2.0
 40
2.0
 40
3.0
 40
3.0
 40
3.0
 40
4.0
 40
4.0
 40
4.0
 40
4.0
 10
109.7697640038618
 20
-154.3097025167611
 30
0.0
 10
109.7697640038618
 20
-154.2543226068357
 30
0.0
 10
109.7249562307068
 20
-154.2095148336807
 30
0.0
 10
109.6699208303299
 20
-154.2095148336807
 30
0.0
 10
109.614885429953
 20
-154.2095148336807
 30
0.0
 10
109.5700884227214
 20
-154.2543226068357
 30
0.0
 10
109.5700884227214
 20
-154.3097025167611
 30
0.0
 10
109.5700884227214
 20
-154.364737917138
 30
0.0
 10
109.614885429953
 20
-154.409545690293
 30
0.0
 10
109.6699208303299
 20
-154.409545690293
 30
0.0
 10
109.7249562307068
 20
-154.409545690293
 30
0.0
 10
109.7697640038618
 20
-154.364737917138
 30
0.0
 10
109.7697640038618
 20
-154.3097025167611
 30
0.0
  0
SPLINE
  5
7E
330
1F
100
AcDbEntity
  8
_U+30EC_U+30A4_U+30E4_U+30FC 1
 62
   179
420
  2234388
370
     9
100
AcDbSpline
210
0.0
220
0.0
230
1.0
 70
    11
 71
     3
 72
    17
 73
    13
 74
     0
 42
0.0000000001
 43
0.0000000001
 12
1.0
 22
0.0
 32
0.0
 13
1.0
 23
0.0
 33
0.0
 40
0.0
 40
0.0
 40
0.0
 40
0.0
 40
1.0
 40
1.0
 40
1.0
 40
2.0
 40
2.0
 40
2.0
 40
3.0
 40
3.0
 40
3.0
 40
4.0
 40
4.0
 40
4.0
 40
4.0
 10
109.7697640038618
 20
-154.6094258239779
 30
0.0
 10
109.7697640038618
 20
-154.5544119554478
 30
0.0
 10
109.7249562307068
 20
-154.5096041822927
 30
0.0
 10
109.6699208303299
 20
-154.5096041822927
 30
0.0
 10
109.614885429953
 20
-154.5096041822927
 30
0.0
 10
109.5700884227214
 20
-154.5544119554478
 30
0.0
 10
109.5700884227214
 20
-154.6094258239779
 30
0.0
 10
109.5700884227214
 20
-154.66482726575
 30
0.0
 10
109.614885429953
 20
-154.7096350389051
 30
0.0
 10
109.6699208303299
 20
-154.7096350389051
 30
0.0
 10
109.7249562307068
 20
-154.7096350389051
 30
0.0
 10
109.7697640038618
 20
-154.66482726575
 30
0.0
 10
109.7697640038618
 20
-154.6094258239779
 30
0.0
  0
SPLINE
  5
7F
330
1F
100
AcDbEntity
  8
_U+30EC_U+30A4_U+30E4_U+30FC 1
 62
   179
420
  2234388
370
     9
100
AcDbSpline
210
0.0
220
0.0
230
1.0
 70
    11
 71
     3
 72
    17
 73
    13
 74
     0
 42
0.0000000001
 43
0.0000000001
 12
1.0
 22
0.0
 32
0.0
 13
1.0
 23
0.0
 33
0.0
 40
0.0
 40
0.0
 40
0.0
 40
0.0
 40
1.0
 40
1.0
 40
1.0
 40
2.0
 40
2.0
 40
2.0
 40
3.0
 40
3.0
 40
3.0
 40
4.0
 40
4.0
 40
4.0
 40
4.0
 10
121.7697421299308
 20
-154.3097025167611
 30
0.0
 10
121.7697421299308
 20
-154.2543226068357
 30
0.0
 10
121.7249343567758
 20
-154.2095148336807
 30
0.0
 10
121.6698989563989
 20
-154.2095148336807
 30
0.0
 10
121.6148635560221
 20
-154.2095148336807
 30
0.0
 10
121.570055782867
 20
-154.2543226068357
 30
0.0
 10
121.570055782867
 20
-154.3097025167611
 30
0.0
 10
121.570055782867
 20
-154.364737917138
 30
0.0
 10
121.6148635560221
 20
-154.409545690293
 30
0.0
 10
121.6698989563989
 20
-154.409545690293
 30
0.0
 10
121.7249343567758
 20
-154.409545690293
 30
0.0
 10
121.7697421299308
 20
-154.364737917138
 30
0.0
 10
121.7697421299308
 20
-154.3097025167611
 30
0.0
  0
SPLINE
  5
80
330
1F
100
AcDbEntity
  8
_U+30EC_U+30A4_U+30E4_U+30FC 1
 62
   179
420
  2234388
370
     9
100
AcDbSpline
210
0.0
220
0.0
230
1.0
 70
    11
 71
     3
 72
    17
 73
    13
 74
     0
 42
0.0000000001
 43
0.0000000001
 12
1.0
 22
0.0
 32
0.0
 13
1.0
 23
0.0
 33
0.0
 40
0.0
 40
0.0
 40
0.0
 40
0.0
 40
1.0
 40
1.0
 40
1.0
 40
2.0
 40
2.0
 40
2.0
 40
3.0
 40
3.0
 40
3.0
 40
4.0
 40
4.0
 40
4.0
 40
4.0
 10
117.7692972524587
 20
-140.8097513482611
 30
0.0
 10
117.7692972524587
 20
-140.7543714383357
 30
0.0
 10
117.7252000302475
 20
-140.7095636651807
 30
0.0
 10
117.6694540789268
 20
-140.7095636651807
 30
0.0
 10
117.61441867855
 20
-140.7095636651807
 30
0.0
 10
117.5696109053949
 20
-140.7543714383357
 30
0.0
 10
117.5696109053949
 20
-140.8097513482611
 30
0.0
 10
117.5696109053949
 20
-140.864786748638
 30
0.0
 10
117.61441867855
 20
-140.909594521793
 30
0.0
 10
117.6694540789268
 20
-140.909594521793
 30
0.0
 10
117.7252000302475
 20
-140.909594521793
 30
0.0
 10
117.7692972524587
 20
-140.864786748638
 30
0.0
 10
117.7692972524587
 20
-140.8097513482611
 30
0.0
  0
SPLINE
  5
81
330
1F
100
AcDbEntity
  8
_U+30EC_U+30A4_U+30E4_U+30FC 1
 62
   179
420
  2234388
370
     9
100
AcDbSpline
210
0.0
220
0.0
230
1.0
 70
    11
 71
     3
 72
    17
 73
    13
 74
     0
 42
0.0000000001
 43
0.0000000001
 12
1.0
 22
0.0
 32
0.0
 13
1.0
 23
0.0
 33
0.0
 40
0.0
 40
0.0
 40
0.0
 40
0.0
 40
1.0
 40
1.0
 40
1.0
 40
2.0
 40
2.0
 40
2.0
 40
3.0
 40
3.0
 40
3.0
 40
4.0
 40
4.0
 40
4.0
 40
4.0
 10
87.7700840200768
 20
-140.8097513482611
 30
0.0
 10
87.7700840200768
 20
-140.7543714383357
 30
0.0
 10
87.72527624692177
 20
-140.7095636651807
 30
0.0
 10
87.6702408465449
 20
-140.7095636651807
 30
0.0
 10
87.61486093661951
 20
-140.7095636651807
 30
0.0
 10
87.57005316346448
 20
-140.7543714383357
 30
0.0
 10
87.57005316346448
 20
-140.8097513482611
 30
0.0
 10
87.57005316346448
 20
-140.864786748638
 30
0.0
 10
87.61486093661951
 20
-140.909594521793
 30
0.0
 10
87.6702408465449
 20
-140.909594521793
 30
0.0
 10
87.72527624692177
 20
-140.909594521793
 30
0.0
 10
87.7700840200768
 20
-140.864786748638
 30
0.0
 10
87.7700840200768
 20
-140.8097513482611
 30
0.0
  0
SPLINE
  5
82
330
1F
100
AcDbEntity
  8
_U+30EC_U+30A4_U+30E4_U+30FC 1
 62
   179
420
  2234388
370
     9
100
AcDbSpline
210
0.0
220
0.0
230
1.0
 70
    11
 71
     3
 72
    17
 73
    13
 74
     0
 42
0.0000000001
 43
0.0000000001
 12
1.0
 22
0.0
 32
0.0
 13
1.0
 23
0.0
 33
0.0
 40
0.0
 40
0.0
 40
0.0
 40
0.0
 40
1.0
 40
1.0
 40
1.0
 40
2.0
 40
2.0
 40
2.0
 40
3.0
 40
3.0
 40
3.0
 40
4.0
 40
4.0
 40
4.0
 40
4.0
 10
87.7700840200768
 20
-159.309591126351
 30
0.0
 10
87.7700840200768
 20
-159.2545772578209
 30
0.0
 10
87.72527624692177
 20
-159.2097694846659
 30
0.0
 10
87.6702408465449
 20
-159.2097694846659
 30
0.0
 10
87.61486093661951
 20
-159.2097694846659
 30
0.0
 10
87.57005316346448
 20
-159.2545772578209
 30
0.0
 10
87.57005316346448
 20
-159.309591126351
 30
0.0
 10
87.57005316346448
 20
-159.3646265267279
 30
0.0
 10
87.61486093661951
 20
-159.4094342998829
 30
0.0
 10
87.6702408465449
 20
-159.4094342998829
 30
0.0
 10
87.72527624692177
 20
-159.4094342998829
 30
0.0
 10
87.7700840200768
 20
-159.3646265267279
 30
0.0
 10
87.7700840200768
 20
-159.309591126351
 30
0.0
  0
POLYLINE
  5
83
330
1F
100
AcDbEntity
  8
_U+30EC_U+30A4_U+30E4_U+30FC 1
 62
   179
420
  2234388
370
     9
100
AcDb2dPolyline
 66
     1
 10
0.0
 20
0.0
 30
0.0
  0
VERTEX
  5
84
330
83
100
AcDbEntity
  8
_U+30EC_U+30A4_U+30E4_U+30FC 1
 62
   179
420
  2234388
370
     9
100
AcDbVertex
100
AcDb2dVertex
 10
121.6698558927054
 20
-144.8095072066362
 30
0.0
  0
VERTEX
  5
85
330
83
100
AcDbEntity
  8
_U+30EC_U+30A4_U+30E4_U+30FC 1
 62
   179
420
  2234388
370
     9
100
AcDbVertex
100
AcDb2dVertex
 10
121.6698558927054
 20
-141.0390224528045
 30
0.0
  0
SEQEND
  5
86
330
83
100
AcDbEntity
  8
_U+30EC_U+30A4_U+30E4_U+30FC 1
 62
   179
420
  2234388
370
     9
  0
POLYLINE
  5
87
330
1F
100
AcDbEntity
  8
_U+30EC_U+30A4_U+30E4_U+30FC 1
 62
   179
420
  2234388
370
     9
100
AcDb2dPolyline
 66
     1
 10
0.0
 20
0.0
 30
0.0
  0
VERTEX
  5
88
330
87
100
AcDbEntity
  8
_U+30EC_U+30A4_U+30E4_U+30FC 1
 62
   179
420
  2234388
370
     9
100
AcDbVertex
100
AcDb2dVertex
 10
121.6698558927054
 20
-144.8095072066362
 30
0.0
  0
VERTEX
  5
89
330
87
100
AcDbEntity
  8
_U+30EC_U+30A4_U+30E4_U+30FC 1
 62
   179
420
  2234388
370
     9
100
AcDbVertex
100
AcDb2dVertex
 10
121.6698558927054
 20
-145.8092954483025
 30
0.0
  0
SEQEND
  5
8A
330
87
100
AcDbEntity
  8
_U+30EC_U+30A4_U+30E4_U+30FC 1
 62
   179
420
  2234388
370
     9
  0
POLYLINE
  5
8B
330
1F
100
AcDbEntity
  8
_U+30EC_U+30A4_U+30E4_U+30FC 1
 62
   179
420
  2234388
370
     9
100
AcDb2dPolyline
 66
     1
 10
0.0
 20
0.0
 30
0.0
  0
VERTEX
  5
8C
330
8B
100
AcDbEntity
  8
_U+30EC_U+30A4_U+30E4_U+30FC 1
 62
   179
420
  2234388
370
     9
100
AcDbVertex
100
AcDb2dVertex
 10
120.2098459579033
 20
-144.8095072066362
 30
0.0
  0
VERTEX
  5
8D
330
8B
100
AcDbEntity
  8
_U+30EC_U+30A4_U+30E4_U+30FC 1
 62
   179
420
  2234388
370
     9
100
AcDbVertex
100
AcDb2dVertex
 10
122.6704623445494
 20
-144.8095072066362
 30
0.0
  0
SEQEND
  5
8E
330
8B
100
AcDbEntity
  8
_U+30EC_U+30A4_U+30E4_U+30FC 1
 62
   179
420
  2234388
370
     9
  0
POLYLINE
  5
8F
330
1F
100
AcDbEntity
  8
_U+30EC_U+30A4_U+30E4_U+30FC 1
 62
   179
420
  2234388
370
     9
100
AcDb2dPolyline
 66
     1
 10
0.0
 20
0.0
 30
0.0
  0
VERTEX
  5
90
330
8F
100
AcDbEntity
  8
_U+30EC_U+30A4_U+30E4_U+30FC 1
 62
   179
420
  2234388
370
     9
100
AcDbVertex
100
AcDb2dVertex
 10
120.2098459579033
 20
-145.8092739164557
 30
0.0
  0
VERTEX
  5
91
330
8F
100
AcDbEntity
  8
_U+30EC_U+30A4_U+30E4_U+30FC 1
 62
   179
420
  2234388
370
     9
100
AcDbVertex
100
AcDb2dVertex
 10
122.6704623445494
 20
-145.8092739164557
 30
0.0
  0
SEQEND
  5
92
330
8F
100
AcDbEntity
  8
_U+30EC_U+30A4_U+30E4_U+30FC 1
 62
   179
420
  2234388
370
     9
  0
INSERT
  5
94
330
1F
100
AcDbEntity
  8
_U+30EC_U+30A4_U+30E4_U+30FC 1
100
AcDbBlockReference
  2
block 2
 10
0.0
 20
0.0
 30
0.0
  0
POLYLINE
  5
99
330
1F
100
AcDbEntity
  8
_U+30EC_U+30A4_U+30E4_U+30FC 1
 62
   179
420
  2234388
370
     9
100
AcDb2dPolyline
 66
     1
 10
0.0
 20
0.0
 30
0.0
  0
VERTEX
  5
9A
330
99
100
AcDbEntity
  8
_U+30EC_U+30A4_U+30E4_U+30FC 1
 62
   179
420
  2234388
370
     9
100
AcDbVertex
100
AcDb2dVertex
 10
109.669867000713
 20
-154.3097025167611
 30
0.0
  0
VERTEX
  5
9B
330
99
100
AcDbEntity
  8
_U+30EC_U+30A4_U+30E4_U+30FC 1
 62
   179
420
  2234388
370
     9
100
AcDbVertex
100
AcDb2dVertex
 10
109.669867000713
 20
-149.0519054464067
 30
0.0
  0
SEQEND
  5
9C
330
99
100
AcDbEntity
  8
_U+30EC_U+30A4_U+30E4_U+30FC 1
 62
   179
420
  2234388
370
     9
  0
POLYLINE
  5
9D
330
1F
100
AcDbEntity
  8
_U+30EC_U+30A4_U+30E4_U+30FC 1
 62
   179
420
  2234388
370
     9
100
AcDb2dPolyline
 66
     1
 10
0.0
 20
0.0
 30
0.0
  0
VERTEX
  5
9E
330
9D
100
AcDbEntity
  8
_U+30EC_U+30A4_U+30E4_U+30FC 1
 62
   179
420
  2234388
370
     9
100
AcDbVertex
100
AcDb2dVertex
 10
109.669867000713
 20
-154.3097025167611
 30
0.0
  0
VERTEX
  5
9F
330
9D
100
AcDbEntity
  8
_U+30EC_U+30A4_U+30E4_U+30FC 1
 62
   179
420
  2234388
370
     9
100
AcDbVertex
100
AcDb2dVertex
 10
109.669867000713
 20
-155.6097092981202
 30
0.0
  0
SEQEND
  5
A0
330
9D
100
AcDbEntity
  8
_U+30EC_U+30A4_U+30E4_U+30FC 1
 62
   179
420
  2234388
370
     9
  0
POLYLINE
  5
A1
330
1F
100
AcDbEntity
  8
_U+30EC_U+30A4_U+30E4_U+30FC 1
 62
   179
420
  2234388
370
     9
100
AcDb2dPolyline
 66
     1
 10
0.0
 20
0.0
 30
0.0
  0
VERTEX
  5
A2
330
A1
100
AcDbEntity
  8
_U+30EC_U+30A4_U+30E4_U+30FC 1
 62
   179
420
  2234388
370
     9
100
AcDbVertex
100
AcDb2dVertex
 10
108.2098247681407
 20
-154.3097025167611
 30
0.0
  0
VERTEX
  5
A3
330
A1
100
AcDbEntity
  8
_U+30EC_U+30A4_U+30E4_U+30FC 1
 62
   179
420
  2234388
370
     9
100
AcDbVertex
100
AcDb2dVertex
 10
110.6700966452383
 20
-154.3097025167611
 30
0.0
  0
SEQEND
  5
A4
330
A1
100
AcDbEntity
  8
_U+30EC_U+30A4_U+30E4_U+30FC 1
 62
   179
420
  2234388
370
     9
  0
POLYLINE
  5
A5
330
1F
100
AcDbEntity
  8
_U+30EC_U+30A4_U+30E4_U+30FC 1
 62
   179
420
  2234388
370
     9
100
AcDb2dPolyline
 66
     1
 10
0.0
 20
0.0
 30
0.0
  0
VERTEX
  5
A6
330
A5
100
AcDbEntity
  8
_U+30EC_U+30A4_U+30E4_U+30FC 1
 62
   179
420
  2234388
370
     9
100
AcDbVertex
100
AcDb2dVertex
 10
108.2098247681407
 20
-154.6094258239779
 30
0.0
  0
VERTEX
  5
A7
330
A5
100
AcDbEntity
  8
_U+30EC_U+30A4_U+30E4_U+30FC 1
 62
   179
420
  2234388
370
     9
100
AcDbVertex
100
AcDb2dVertex
 10
110.6700966452383
 20
-154.6094258239779
 30
0.0
  0
SEQEND
  5
A8
330
A5
100
AcDbEntity
  8
_U+30EC_U+30A4_U+30E4_U+30FC 1
 62
   179
420
  2234388
370
     9
  0
INSERT
  5
AA
330
1F
100
AcDbEntity
  8
_U+30EC_U+30A4_U+30E4_U+30FC 1
100
AcDbBlockReference
  2
block 3
 10
0.0
 20
0.0
 30
0.0
  0
POLYLINE
  5
BA
330
1F
100
AcDbEntity
  8
_U+30EC_U+30A4_U+30E4_U+30FC 1
 62
   179
420
  2234388
370
     9
100
AcDb2dPolyline
 66
     1
 10
0.0
 20
0.0
 30
0.0
  0
VERTEX
  5
BB
330
BA
100
AcDbEntity
  8
_U+30EC_U+30A4_U+30E4_U+30FC 1
 62
   179
420
  2234388
370
     9
100
AcDbVertex
100
AcDb2dVertex
 10
95.6700217113798
 20
-159.309591126351
 30
0.0
  0
VERTEX
  5
BC
330
BA
100
AcDbEntity
  8
_U+30EC_U+30A4_U+30E4_U+30FC 1
 62
   179
420
  2234388
370
     9
100
AcDbVertex
100
AcDb2dVertex
 10
105.6702080356484
 20
-159.309591126351
 30
0.0
  0
SEQEND
  5
BD
330
BA
100
AcDbEntity
  8
_U+30EC_U+30A4_U+30E4_U+30FC 1
 62
   179
420
  2234388
370
     9
  0
POLYLINE
  5
BE
330
1F
100
AcDbEntity
  8
_U+30EC_U+30A4_U+30E4_U+30FC 1
 62
   179
420
  2234388
370
     9
100
AcDb2dPolyline
 66
     1
 10
0.0
 20
0.0
 30
0.0
  0
VERTEX
  5
BF
330
BE
100
AcDbEntity
  8
_U+30EC_U+30A4_U+30E4_U+30FC 1
 62
   179
420
  2234388
370
     9
100
AcDbVertex
100
AcDb2dVertex
 10
95.6700217113798
 20
-157.8495381278553
 30
0.0
  0
VERTEX
  5
C0
330
BE
100
AcDbEntity
  8
_U+30EC_U+30A4_U+30E4_U+30FC 1
 62
   179
420
  2234388
370
     9
100
AcDbVertex
100
AcDb2dVertex
 10
95.6700217113798
 20
-160.3098315367997
 30
0.0
  0
SEQEND
  5
C1
330
BE
100
AcDbEntity
  8
_U+30EC_U+30A4_U+30E4_U+30FC 1
 62
   179
420
  2234388
370
     9
  0
POLYLINE
  5
C2
330
1F
100
AcDbEntity
  8
_U+30EC_U+30A4_U+30E4_U+30FC 1
 62
   179
420
  2234388
370
     9
100
AcDb2dPolyline
 66
     1
 10
0.0
 20
0.0
 30
0.0
  0
VERTEX
  5
C3
330
C2
100
AcDbEntity
  8
_U+30EC_U+30A4_U+30E4_U+30FC 1
 62
   179
420
  2234388
370
     9
100
AcDbVertex
100
AcDb2dVertex
 10
105.6701434401081
 20
-157.1494947252526
 30
0.0
  0
VERTEX
  5
C4
330
C2
100
AcDbEntity
  8
_U+30EC_U+30A4_U+30E4_U+30FC 1
 62
   179
420
  2234388
370
     9
100
AcDbVertex
100
AcDb2dVertex
 10
105.6701434401081
 20
-160.3096808138722
 30
0.0
  0
SEQEND
  5
C5
330
C2
100
AcDbEntity
  8
_U+30EC_U+30A4_U+30E4_U+30FC 1
 62
   179
420
  2234388
370
     9
  0
INSERT
  5
C7
330
1F
100
AcDbEntity
  8
_U+30EC_U+30A4_U+30E4_U+30FC 1
100
AcDbBlockReference
  2
block 4
 10
0.0
 20
0.0
 30
0.0
  0
POLYLINE
  5
CF
330
1F
100
AcDbEntity
  8
_U+30EC_U+30A4_U+30E4_U+30FC 1
 62
   179
420
  2234388
370
     9
100
AcDb2dPolyline
 66
     1
 10
0.0
 20
0.0
 30
0.0
  0
VERTEX
  5
D0
330
CF
100
AcDbEntity
  8
_U+30EC_U+30A4_U+30E4_U+30FC 1
 62
   179
420
  2234388
370
     9
100
AcDbVertex
100
AcDb2dVertex
 10
117.669733992935
 20
-140.8097513482611
 30
0.0
  0
VERTEX
  5
D1
330
CF
100
AcDbEntity
  8
_U+30EC_U+30A4_U+30E4_U+30FC 1
 62
   179
420
  2234388
370
     9
100
AcDbVertex
100
AcDb2dVertex
 10
87.6698640392262
 20
-140.8097513482611
 30
0.0
  0
SEQEND
  5
D2
330
CF
100
AcDbEntity
  8
_U+30EC_U+30A4_U+30E4_U+30FC 1
 62
   179
420
  2234388
370
     9
  0
POLYLINE
  5
D3
330
1F
100
AcDbEntity
  8
_U+30EC_U+30A4_U+30E4_U+30FC 1
 62
   179
420
  2234388
370
     9
100
AcDb2dPolyline
 66
     1
 10
0.0
 20
0.0
 30
0.0
  0
VERTEX
  5
D4
330
D3
100
AcDbEntity
  8
_U+30EC_U+30A4_U+30E4_U+30FC 1
 62
   179
420
  2234388
370
     9
100
AcDbVertex
100
AcDb2dVertex
 10
117.6693894833865
 20
-142.2694383053615
 30
0.0
  0
VERTEX
  5
D5
330
D3
100
AcDbEntity
  8
_U+30EC_U+30A4_U+30E4_U+30FC 1
 62
   179
420
  2234388
370
     9
100
AcDbVertex
100
AcDb2dVertex
 10
117.6693894833865
 20
-139.8091664282642
 30
0.0
  0
SEQEND
  5
D6
330
D3
100
AcDbEntity
  8
_U+30EC_U+30A4_U+30E4_U+30FC 1
 62
   179
420
  2234388
370
     9
  0
POLYLINE
  5
D7
330
1F
100
AcDbEntity
  8
_U+30EC_U+30A4_U+30E4_U+30FC 1
 62
   179
420
  2234388
370
     9
100
AcDb2dPolyline
 66
     1
 10
0.0
 20
0.0
 30
0.0
  0
VERTEX
  5
D8
330
D7
100
AcDbEntity
  8
_U+30EC_U+30A4_U+30E4_U+30FC 1
 62
   179
420
  2234388
370
     9
100
AcDbVertex
100
AcDb2dVertex
 10
87.67017625100455
 20
-142.2694383053615
 30
0.0
  0
VERTEX
  5
D9
330
D7
100
AcDbEntity
  8
_U+30EC_U+30A4_U+30E4_U+30FC 1
 62
   179
420
  2234388
370
     9
100
AcDbVertex
100
AcDb2dVertex
 10
87.67017625100455
 20
-139.8091664282642
 30
0.0
  0
SEQEND
  5
DA
330
D7
100
AcDbEntity
  8
_U+30EC_U+30A4_U+30E4_U+30FC 1
 62
   179
420
  2234388
370
     9
  0
INSERT
  5
DC
330
1F
100
AcDbEntity
  8
_U+30EC_U+30A4_U+30E4_U+30FC 1
100
AcDbBlockReference
  2
block 5
 10
0.0
 20
0.0
 30
0.0
  0
POLYLINE
  5
E4
330
1F
100
AcDbEntity
  8
_U+30EC_U+30A4_U+30E4_U+30FC 1
 62
   179
420
  2234388
370
     9
100
AcDb2dPolyline
 66
     1
 10
0.0
 20
0.0
 30
0.0
  0
VERTEX
  5
E5
330
E4
100
AcDbEntity
  8
_U+30EC_U+30A4_U+30E4_U+30FC 1
 62
   179
420
  2234388
370
     9
100
AcDbVertex
100
AcDb2dVertex
 10
95.6700217113798
 20
-159.309591126351
 30
0.0
  0
VERTEX
  5
E6
330
E4
100
AcDbEntity
  8
_U+30EC_U+30A4_U+30E4_U+30FC 1
 62
   179
420
  2234388
370
     9
100
AcDbVertex
100
AcDb2dVertex
 10
87.67007935769404
 20
-159.309591126351
 30
0.0
  0
SEQEND
  5
E7
330
E4
100
AcDbEntity
  8
_U+30EC_U+30A4_U+30E4_U+30FC 1
 62
   179
420
  2234388
370
     9
  0
POLYLINE
  5
E8
330
1F
100
AcDbEntity
  8
_U+30EC_U+30A4_U+30E4_U+30FC 1
 62
   179
420
  2234388
370
     9
100
AcDb2dPolyline
 66
     1
 10
0.0
 20
0.0
 30
0.0
  0
VERTEX
  5
E9
330
E8
100
AcDbEntity
  8
_U+30EC_U+30A4_U+30E4_U+30FC 1
 62
   179
420
  2234388
370
     9
100
AcDbVertex
100
AcDb2dVertex
 10
87.67017625100455
 20
-148.3496873272789
 30
0.0
  0
VERTEX
  5
EA
330
E8
100
AcDbEntity
  8
_U+30EC_U+30A4_U+30E4_U+30FC 1
 62
   179
420
  2234388
370
     9
100
AcDbVertex
100
AcDb2dVertex
 10
87.67017625100455
 20
-160.3095731546383
 30
0.0
  0
SEQEND
  5
EB
330
E8
100
AcDbEntity
  8
_U+30EC_U+30A4_U+30E4_U+30FC 1
 62
   179
420
  2234388
370
     9
  0
INSERT
  5
ED
330
1F
100
AcDbEntity
  8
_U+30EC_U+30A4_U+30E4_U+30FC 1
100
AcDbBlockReference
  2
block 6
 10
0.0
 20
0.0
 30
0.0
  0
POLYLINE
  5
F4
330
1F
100
AcDbEntity
  8
_U+30EC_U+30A4_U+30E4_U+30FC 1
 62
   179
420
  2234388
370
     9
100
AcDb2dPolyline
 66
     1
 10
0.0
 20
0.0
 30
0.0
  0
VERTEX
  5
F5
330
F4
100
AcDbEntity
  8
_U+30EC_U+30A4_U+30E4_U+30FC 1
 62
   179
420
  2234388
370
     9
100
AcDbVertex
100
AcDb2dVertex
 10
121.6698558927054
 20
-145.8092739164557
 30
0.0
  0
VERTEX
  5
F6
330
F4
100
AcDbEntity
  8
_U+30EC_U+30A4_U+30E4_U+30FC 1
 62
   179
420
  2234388
370
     9
100
AcDbVertex
100
AcDb2dVertex
 10
121.6698558927054
 20
-154.309810175995
 30
0.0
  0
SEQEND
  5
F7
330
F4
100
AcDbEntity
  8
_U+30EC_U+30A4_U+30E4_U+30FC 1
 62
   179
420
  2234388
370
     9
  0
POLYLINE
  5
F8
330
1F
100
AcDbEntity
  8
_U+30EC_U+30A4_U+30E4_U+30FC 1
 62
   179
420
  2234388
370
     9
100
AcDb2dPolyline
 66
     1
 10
0.0
 20
0.0
 30
0.0
  0
VERTEX
  5
F9
330
F8
100
AcDbEntity
  8
_U+30EC_U+30A4_U+30E4_U+30FC 1
 62
   179
420
  2234388
370
     9
100
AcDbVertex
100
AcDb2dVertex
 10
108.2098247681407
 20
-154.3097025167611
 30
0.0
  0
VERTEX
  5
FA
330
F8
100
AcDbEntity
  8
_U+30EC_U+30A4_U+30E4_U+30FC 1
 62
   179
420
  2234388
370
     9
100
AcDbVertex
100
AcDb2dVertex
 10
122.6701824305412
 20
-154.3097025167611
 30
0.0
  0
SEQEND
  5
FB
330
F8
100
AcDbEntity
  8
_U+30EC_U+30A4_U+30E4_U+30FC 1
 62
   179
420
  2234388
370
     9
  0
INSERT
  5
FD
330
1F
100
AcDbEntity
  8
_U+30EC_U+30A4_U+30E4_U+30FC 1
100
AcDbBlockReference
  2
block 7
 10
0.0
 20
0.0
 30
0.0
  0
ENDSEC
  0
SECTION
  2
OBJECTS
  0
DICTIONARY
  5
C
330
0
100
AcDbDictionary
281
     1
  3
ACAD_GROUP
350
D
  3
ACAD_LAYOUT
350
1A
  3
ACAD_MATERIAL
350
3B
  3
ACAD_MLEADERSTYLE
350
10F
  3
ACAD_MLINESTYLE
350
17
  3
ACAD_PLOTSETTINGS
350
19
  3
ACAD_PLOTSTYLENAME
350
E
  3
ACAD_TABLESTYLE
350
10E
  3
ACAD_VISUALSTYLE
350
2A
  0
SUN
  5
3F
330
29
100
AcDbSun
 90
        1
290
     0
 63
     7
421
 16777215
 40
1.0
291
     1
 91
  2455826
 92
 54000000
292
     0
 70
     2
 71
   256
280
     1
  0
DICTIONARY
  5
D
102
{ACAD_REACTORS
330
C
102
}
330
C
100
AcDbDictionary
281
     1
  0
DICTIONARY
  5
1A
102
{ACAD_REACTORS
330
C
102
}
330
C
100
AcDbDictionary
281
     1
  3
Layout1
350
1E
  3
Layout2
350
26
  3
Model
350
22
  0
DICTIONARY
  5
3B
102
{ACAD_REACTORS
330
C
102
}
330
C
100
AcDbDictionary
281
     1
  3
ByBlock
350
3D
  3
ByLayer
350
3C
  3
Global
350
3E
  0
DICTIONARY
  5
10F
102
{ACAD_REACTORS
330
C
102
}
330
C
100
AcDbDictionary
281
     1
  0
DICTIONARY
  5
17
102
{ACAD_REACTORS
330
C
102
}
330
C
100
AcDbDictionary
281
     1
  3
Standard
350
18
  0
DICTIONARY
  5
19
102
{ACAD_REACTORS
330
C
102
}
330
C
100
AcDbDictionary
281
     1
  0
ACDBDICTIONARYWDFLT
  5
E
102
{ACAD_REACTORS
330
C
102
}
330
C
100
AcDbDictionary
281
     1
  3
Normal
350
F
100
AcDbDictionaryWithDefault
340
F
  0
DICTIONARY
  5
10E
102
{ACAD_REACTORS
330
C
102
}
330
C
100
AcDbDictionary
281
     1
  0
DICTIONARY
  5
2A
102
{ACAD_REACTORS
330
C
102
}
330
C
100
AcDbDictionary
281
     1
  3
2dWireframe
350
2F
  3
3D Hidden
350
31
  3
3dWireframe
350
30
  3
Basic
350
32
  3
Brighten
350
36
  3
ColorChange
350
3A
  3
Conceptual
350
34
  3
Dim
350
35
  3
Facepattern
350
39
  3
Flat
350
2B
  3
FlatWithEdges
350
2C
  3
Gouraud
350
2D
  3
GouraudWithEdges
350
2E
  3
Linepattern
350
38
  3
Realistic
350
33
  3
Thicken
350
37
  0
LAYOUT
  5
1E
102
{ACAD_REACTORS
330
1A
102
}
330
1A
100
AcDbPlotSettings
  1

  2
none_device
  4

  6

 40
0.0
 41
0.0
 42
0.0
 43
0.0
 44
0.0
 45
0.0
 46
0.0
 47
0.0
 48
0.0
 49
0.0
140
0.0
141
0.0
142
1.0
143
1.0
 70
   688
 72
     0
 73
     0
 74
     5
  7

 75
    16
 76
     0
 77
     2
 78
   300
147
1.0
148
0.0
149
0.0
100
AcDbLayout
  1
Layout1
 70
     1
 71
     1
 10
0.0
 20
0.0
 11
12.0
 21
9.0
 12
0.0
 22
0.0
 32
0.0
 14
1.000000000000000E+20
 24
1.000000000000000E+20
 34
1.000000000000000E+20
 15
-1.000000000000000E+20
 25
-1.000000000000000E+20
 35
-1.000000000000000E+20
146
0.0
 13
0.0
 23
0.0
 33
0.0
 16
1.0
 26
0.0
 36
0.0
 17
0.0
 27
1.0
 37
0.0
 76
     0
330
1B
  0
LAYOUT
  5
26
102
{ACAD_REACTORS
330
1A
102
}
330
1A
100
AcDbPlotSettings
  1

  2
none_device
  4

  6

 40
0.0
 41
0.0
 42
0.0
 43
0.0
 44
0.0
 45
0.0
 46
0.0
 47
0.0
 48
0.0
 49
0.0
140
0.0
141
0.0
142
1.0
143
1.0
 70
   688
 72
     0
 73
     0
 74
     5
  7

 75
    16
 76
     0
 77
     2
 78
   300
147
1.0
148
0.0
149
0.0
100
AcDbLayout
  1
Layout2
 70
     1
 71
     2
 10
0.0
 20
0.0
 11
0.0
 21
0.0
 12
0.0
 22
0.0
 32
0.0
 14
0.0
 24
0.0
 34
0.0
 15
0.0
 25
0.0
 35
0.0
146
0.0
 13
0.0
 23
0.0
 33
0.0
 16
1.0
 26
0.0
 36
0.0
 17
0.0
 27
1.0
 37
0.0
 76
     0
330
23
  0
LAYOUT
  5
22
102
{ACAD_REACTORS
330
1A
102
}
330
1A
100
AcDbPlotSettings
  1

  2
none_device
  4

  6

 40
0.0
 41
0.0
 42
0.0
 43
0.0
 44
0.0
 45
0.0
 46
0.0
 47
0.0
 48
0.0
 49
0.0
140
0.0
141
0.0
142
1.0
143
1.0
 70
  1712
 72
     0
 73
     0
 74
     0
  7

 75
     0
 76
     0
 77
     2
 78
   300
147
1.0
148
0.0
149
0.0
100
AcDbLayout
  1
Model
 70
     1
 71
     0
 10
0.0
 20
0.0
 11
12.0
 21
9.0
 12
0.0
 22
0.0
 32
0.0
 14
1.000000000000000E+20
 24
1.000000000000000E+20
 34
1.000000000000000E+20
 15
-1.000000000000000E+20
 25
-1.000000000000000E+20
 35
-1.000000000000000E+20
146
0.0
 13
0.0
 23
0.0
 33
0.0
 16
1.0
 26
0.0
 36
0.0
 17
0.0
 27
1.0
 37
0.0
 76
     0
330
1F
331
29
  0
MATERIAL
  5
3D
102
{ACAD_REACTORS
330
3B
102
}
330
3B
100
AcDbMaterial
  1
ByBlock
 72
     1
 94
      127
  0
MATERIAL
  5
3C
102
{ACAD_REACTORS
330
3B
102
}
330
3B
100
AcDbMaterial
  1
ByLayer
 72
     1
 94
      127
  0
MATERIAL
  5
3E
102
{ACAD_REACTORS
330
3B
102
}
330
3B
100
AcDbMaterial
  1
Global
 72
     1
 94
      127
  0
MLINESTYLE
  5
18
102
{ACAD_REACTORS
330
17
102
}
330
17
100
AcDbMlineStyle
  2
Standard
 70
     0
  3

 62
   256
 51
90.0
 52
90.0
 71
     2
 49
0.5
 62
   256
  6
BYLAYER
 49
-0.5
 62
   256
  6
BYLAYER
  0
ACDBPLACEHOLDER
  5
F
102
{ACAD_REACTORS
330
E
102
}
330
E
  0
VISUALSTYLE
  5
2F
102
{ACAD_REACTORS
330
2A
102
}
330
2A
100
AcDbVisualStyle
  2
2dWireframe
 70
     4
177
     2
291
     0
 71
     0
176
     1
 72
     2
176
     1
 73
     0
176
     1
 90
        0
176
     1
 40
-0.6
176
     1
 41
-30.0
176
     1
 62
     5
 63
     7
421
 16777215
176
     1
 74
     1
176
     1
 91
        4
176
     1
 64
     7
176
     1
 65
   257
176
     1
 75
     1
176
     1
175
     1
176
     1
 42
1.0
176
     1
 92
        0
176
     1
 66
   257
176
     1
 43
1.0
176
     1
 76
     1
176
     1
 77
     6
176
     1
 78
     2
176
     1
 67
     7
176
     1
 79
     5
176
     1
170
     0
176
     1
171
     0
176
     1
290
     0
176
     1
 93
        1
176
     1
 44
0.0
176
     1
173
     0
176
     1
  0
VISUALSTYLE
  5
31
102
{ACAD_REACTORS
330
2A
102
}
330
2A
100
AcDbVisualStyle
  2
3D Hidden
 70
     6
177
     2
291
     0
 71
     1
176
     1
 72
     2
176
     1
 73
     2
176
     1
 90
        0
176
     1
 40
-0.6
176
     1
 41
-30.0
176
     1
 62
     5
 63
     7
421
 16777215
176
     1
 74
     2
176
     1
 91
        2
176
     1
 64
     7
176
     1
 65
   257
176
     1
 75
     2
176
     1
175
     1
176
     1
 42
40.0
176
     1
 92
        0
176
     1
 66
   257
176
     1
 43
1.0
176
     1
 76
     1
176
     1
 77
     6
176
     1
 78
     2
176
     1
 67
     7
176
     1
 79
     3
176
     1
170
     0
176
     1
171
     0
176
     1
290
     0
176
     1
 93
        1
176
     1
 44
0.0
176
     1
173
     0
176
     1
  0
VISUALSTYLE
  5
30
102
{ACAD_REACTORS
330
2A
102
}
330
2A
100
AcDbVisualStyle
  2
3dWireframe
 70
     5
177
     2
291
     0
 71
     0
176
     1
 72
     2
176
     1
 73
     0
176
     1
 90
        0
176
     1
 40
-0.6
176
     1
 41
-30.0
176
     1
 62
     5
 63
     7
421
 16777215
176
     1
 74
     1
176
     1
 91
        4
176
     1
 64
     7
176
     1
 65
   257
176
     1
 75
     1
176
     1
175
     1
176
     1
 42
1.0
176
     1
 92
        0
176
     1
 66
   257
176
     1
 43
1.0
176
     1
 76
     1
176
     1
 77
     6
176
     1
 78
     2
176
     1
 67
     7
176
     1
 79
     5
176
     1
170
     0
176
     1
171
     0
176
     1
290
     0
176
     1
 93
        1
176
     1
 44
0.0
176
     1
173
     0
176
     1
  0
VISUALSTYLE
  5
32
102
{ACAD_REACTORS
330
2A
102
}
330
2A
100
AcDbVisualStyle
  2
Basic
 70
     7
177
     2
291
     1
 71
     1
176
     1
 72
     0
176
     1
 73
     1
176
     1
 90
        0
176
     1
 40
-0.6
176
     1
 41
-30.0
176
     1
 62
     5
 63
     7
421
 16777215
176
     1
 74
     0
176
     1
 91
        4
176
     1
 64
     7
176
     1
 65
   257
176
     1
 75
     1
176
     1
175
     1
176
     1
 42
1.0
176
     1
 92
        8
176
     1
 66
     7
176
     1
 43
1.0
176
     1
 76
     1
176
     1
 77
     6
176
     1
 78
     2
176
     1
 67
     7
176
     1
 79
     5
176
     1
170
     0
176
     1
171
     0
176
     1
290
     0
176
     1
 93
        1
176
     1
 44
0.0
176
     1
173
     0
176
     1
  0
VISUALSTYLE
  5
36
102
{ACAD_REACTORS
330
2A
102
}
330
2A
100
AcDbVisualStyle
  2
Brighten
 70
    12
177
     2
291
     1
 71
     2
176
     1
 72
     2
176
     1
 73
     0
176
     1
 90
        0
176
     1
 40
-0.6
176
     1
 41
-30.0
176
     1
 62
     5
 63
     7
421
 16777215
176
     1
 74
     1
176
     1
 91
        4
176
     1
 64
     7
176
     1
 65
   257
176
     1
 75
     1
176
     1
175
     1
176
     1
 42
1.0
176
     1
 92
        8
176
     1
 66
     7
176
     1
 43
1.0
176
     1
 76
     1
176
     1
 77
     6
176
     1
 78
     2
176
     1
 67
     7
176
     1
 79
     5
176
     1
170
     0
176
     1
171
     0
176
     1
290
     0
176
     1
 93
        1
176
     1
 44
50.0
176
     1
173
     0
176
     1
  0
VISUALSTYLE
  5
3A
102
{ACAD_REACTORS
330
2A
102
}
330
2A
100
AcDbVisualStyle
  2
ColorChange
 70
    16
177
     2
291
     1
 71
     2
176
     1
 72
     2
176
     1
 73
     3
176
     1
 90
        0
176
     1
 40
-0.6
176
     1
 41
-30.0
176
     1
 62
     5
 63
     8
421
  8421504
176
     1
 74
     1
176
     1
 91
        4
176
     1
 64
     7
176
     1
 65
   257
176
     1
 75
     1
176
     1
175
     1
176
     1
 42
1.0
176
     1
 92
        8
176
     1
 66
     8
424
  8421504
176
     1
 43
1.0
176
     1
 76
     1
176
     1
 77
     6
176
     1
 78
     2
176
     1
 67
     7
176
     1
 79
     5
176
     1
170
     0
176
     1
171
     0
176
     1
290
     0
176
     1
 93
        1
176
     1
 44
0.0
176
     1
173
     0
176
     1
  0
VISUALSTYLE
  5
34
102
{ACAD_REACTORS
330
2A
102
}
330
2A
100
AcDbVisualStyle
  2
Conceptual
 70
     9
177
     2
291
     0
 71
     3
176
     1
 72
     2
176
     1
 73
     0
176
     1
 90
        0
176
     1
 40
-0.6
176
     1
 41
-30.0
176
     1
 62
     5
 63
     7
421
 16777215
176
     1
 74
     2
176
     1
 91
        2
176
     1
 64
     7
176
     1
 65
   257
176
     1
 75
     1
176
     1
175
     1
176
     1
 42
40.0
176
     1
 92
        8
176
     1
 66
     7
176
     1
 43
1.0
176
     1
 76
     1
176
     1
 77
     6
176
     1
 78
     2
176
     1
 67
     7
176
     1
 79
     3
176
     1
170
     0
176
     1
171
     0
176
     1
290
     0
176
     1
 93
        1
176
     1
 44
0.0
176
     1
173
     0
176
     1
  0
VISUALSTYLE
  5
35
102
{ACAD_REACTORS
330
2A
102
}
330
2A
100
AcDbVisualStyle
  2
Dim
 70
    11
177
     2
291
     1
 71
     2
176
     1
 72
     2
176
     1
 73
     0
176
     1
 90
        0
176
     1
 40
-0.6
176
     1
 41
-30.0
176
     1
 62
     5
 63
     7
421
 16777215
176
     1
 74
     1
176
     1
 91
        4
176
     1
 64
     7
176
     1
 65
   257
176
     1
 75
     1
176
     1
175
     1
176
     1
 42
1.0
176
     1
 92
        8
176
     1
 66
     7
176
     1
 43
1.0
176
     1
 76
     1
176
     1
 77
     6
176
     1
 78
     2
176
     1
 67
     7
176
     1
 79
     5
176
     1
170
     0
176
     1
171
     0
176
     1
290
     0
176
     1
 93
        1
176
     1
 44
-50.0
176
     1
173
     0
176
     1
  0
VISUALSTYLE
  5
39
102
{ACAD_REACTORS
330
2A
102
}
330
2A
100
AcDbVisualStyle
  2
Facepattern
 70
    15
177
     2
291
     1
 71
     2
176
     1
 72
     2
176
     1
 73
     0
176
     1
 90
        0
176
     1
 40
-0.6
176
     1
 41
-30.0
176
     1
 62
     5
 63
     7
421
 16777215
176
     1
 74
     1
176
     1
 91
        4
176
     1
 64
     7
176
     1
 65
   257
176
     1
 75
     1
176
     1
175
     1
176
     1
 42
1.0
176
     1
 92
        8
176
     1
 66
     7
176
     1
 43
1.0
176
     1
 76
     1
176
     1
 77
     6
176
     1
 78
     2
176
     1
 67
     7
176
     1
 79
     5
176
     1
170
     0
176
     1
171
     0
176
     1
290
     0
176
     1
 93
        1
176
     1
 44
0.0
176
     1
173
     0
176
     1
  0
VISUALSTYLE
  5
2B
102
{ACAD_REACTORS
330
2A
102
}
330
2A
100
AcDbVisualStyle
  2
Flat
 70
     0
177
     2
291
     1
 71
     2
176
     1
 72
     1
176
     1
 73
     1
176
     1
 90
        2
176
     1
 40
-0.6
176
     1
 41
30.0
176
     1
 62
     5
 63
     7
421
 16777215
176
     1
 74
     0
176
     1
 91
        4
176
     1
 64
     7
176
     1
 65
   257
176
     1
 75
     1
176
     1
175
     1
176
     1
 42
1.0
176
     1
 92
        8
176
     1
 66
     7
176
     1
 43
1.0
176
     1
 76
     1
176
     1
 77
     6
176
     1
 78
     2
176
     1
 67
     7
176
     1
 79
     5
176
     1
170
     0
176
     1
171
     0
176
     1
290
     0
176
     1
 93
       13
176
     1
 44
0.0
176
     1
173
     0
176
     1
  0
VISUALSTYLE
  5
2C
102
{ACAD_REACTORS
330
2A
102
}
330
2A
100
AcDbVisualStyle
  2
FlatWithEdges
 70
     1
177
     2
291
     1
 71
     2
176
     1
 72
     1
176
     1
 73
     1
176
     1
 90
        2
176
     1
 40
-0.6
176
     1
 41
30.0
176
     1
 62
     5
 63
     7
421
 16777215
176
     1
 74
     1
176
     1
 91
        4
176
     1
 64
     7
176
     1
 65
   257
176
     1
 75
     1
176
     1
175
     1
176
     1
 42
1.0
176
     1
 92
        0
176
     1
 66
   257
176
     1
 43
1.0
176
     1
 76
     1
176
     1
 77
     6
176
     1
 78
     2
176
     1
 67
     7
176
     1
 79
     5
176
     1
170
     0
176
     1
171
     0
176
     1
290
     0
176
     1
 93
       13
176
     1
 44
0.0
176
     1
173
     0
176
     1
  0
VISUALSTYLE
  5
2D
102
{ACAD_REACTORS
330
2A
102
}
330
2A
100
AcDbVisualStyle
  2
Gouraud
 70
     2
177
     2
291
     1
 71
     2
176
     1
 72
     2
176
     1
 73
     1
176
     1
 90
        2
176
     1
 40
-0.6
176
     1
 41
30.0
176
     1
 62
     5
 63
     7
421
 16777215
176
     1
 74
     0
176
     1
 91
        4
176
     1
 64
     7
176
     1
 65
   257
176
     1
 75
     1
176
     1
175
     1
176
     1
 42
1.0
176
     1
 92
        0
176
     1
 66
     7
176
     1
 43
1.0
176
     1
 76
     1
176
     1
 77
     6
176
     1
 78
     2
176
     1
 67
     7
176
     1
 79
     5
176
     1
170
     0
176
     1
171
     0
176
     1
290
     0
176
     1
 93
       13
176
     1
 44
0.0
176
     1
173
     0
176
     1
  0
VISUALSTYLE
  5
2E
102
{ACAD_REACTORS
330
2A
102
}
330
2A
100
AcDbVisualStyle
  2
GouraudWithEdges
 70
     3
177
     2
291
     1
 71
     2
176
     1
 72
     2
176
     1
 73
     1
176
     1
 90
        2
176
     1
 40
-0.6
176
     1
 41
30.0
176
     1
 62
     5
 63
     7
421
 16777215
176
     1
 74
     1
176
     1
 91
        4
176
     1
 64
     7
176
     1
 65
   257
176
     1
 75
     1
176
     1
175
     1
176
     1
 42
1.0
176
     1
 92
        0
176
     1
 66
   257
176
     1
 43
1.0
176
     1
 76
     1
176
     1
 77
     6
176
     1
 78
     2
176
     1
 67
     7
176
     1
 79
     5
176
     1
170
     0
176
     1
171
     0
176
     1
290
     0
176
     1
 93
       13
176
     1
 44
0.0
176
     1
173
     0
176
     1
  0
VISUALSTYLE
  5
38
102
{ACAD_REACTORS
330
2A
102
}
330
2A
100
AcDbVisualStyle
  2
Linepattern
 70
    14
177
     2
291
     1
 71
     2
176
     1
 72
     2
176
     1
 73
     0
176
     1
 90
        0
176
     1
 40
-0.6
176
     1
 41
-30.0
176
     1
 62
     5
 63
     7
421
 16777215
176
     1
 74
     1
176
     1
 91
        4
176
     1
 64
     7
176
     1
 65
   257
176
     1
 75
     7
176
     1
175
     7
176
     1
 42
1.0
176
     1
 92
        8
176
     1
 66
     7
176
     1
 43
1.0
176
     1
 76
     1
176
     1
 77
     6
176
     1
 78
     2
176
     1
 67
     7
176
     1
 79
     5
176
     1
170
     0
176
     1
171
     0
176
     1
290
     0
176
     1
 93
        1
176
     1
 44
0.0
176
     1
173
     0
176
     1
  0
VISUALSTYLE
  5
33
102
{ACAD_REACTORS
330
2A
102
}
330
2A
100
AcDbVisualStyle
  2
Realistic
 70
     8
177
     2
291
     0
 71
     2
176
     1
 72
     2
176
     1
 73
     0
176
     1
 90
        0
176
     1
 40
-0.6
176
     1
 41
-30.0
176
     1
 62
     5
 63
     7
421
 16777215
176
     1
 74
     1
176
     1
 91
        0
176
     1
 64
     7
176
     1
 65
   257
176
     1
 75
     1
176
     1
175
     1
176
     1
 42
1.0
176
     1
 92
        8
176
     1
 66
     8
424
  7895160
176
     1
 43
1.0
176
     1
 76
     1
176
     1
 77
     6
176
     1
 78
     2
176
     1
 67
     7
176
     1
 79
     5
176
     1
170
     0
176
     1
171
     0
176
     1
290
     0
176
     1
 93
       13
176
     1
 44
0.0
176
     1
173
     0
176
     1
  0
VISUALSTYLE
  5
37
102
{ACAD_REACTORS
330
2A
102
}
330
2A
100
AcDbVisualStyle
  2
Thicken
 70
    13
177
     2
291
     1
 71
     2
176
     1
 72
     2
176
     1
 73
     0
176
     1
 90
        0
176
     1
 40
-0.6
176
     1
 41
-30.0
176
     1
 62
     5
 63
     7
421
 16777215
176
     1
 74
     1
176
     1
 91
        4
176
     1
 64
     7
176
     1
 65
   257
176
     1
 75
     1
176
     1
175
     1
176
     1
 42
1.0
176
     1
 92
       12
176
     1
 66
     7
176
     1
 43
1.0
176
     1
 76
     1
176
     1
 77
     6
176
     1
 78
     2
176
     1
 67
     7
176
     1
 79
     5
176
     1
170
     0
176
     1
171
     0
176
     1
290
     0
176
     1
 93
        1
176
     1
 44
0.0
176
     1
173
     0
176
     1
  0
ENDSEC
  0
EOF
