  0
SECTION
  2
HEADER
  9
$ACADVER
  1
AC1024
  9
$ACADMAINTVER
 70
     6
  9
$DWGCODEPAGE
  3
UNDEFINED
  9
$INSBASE
 10
0.0
 20
0.0
 30
0.0
  9
$EXTMIN
 10
1.000000000000000E+20
 20
1.000000000000000E+20
 30
1.000000000000000E+20
  9
$EXTMAX
 10
-1.000000000000000E+20
 20
-1.000000000000000E+20
 30
-1.000000000000000E+20
  9
$LIMMIN
 10
0.0
 20
0.0
  9
$LIMMAX
 10
12.0
 20
9.0
  9
$ORTHOMODE
 70
     0
  9
$REGENMODE
 70
     1
  9
$FILLMODE
 70
     1
  9
$QTEXTMODE
 70
     0
  9
$MIRRTEXT
 70
     1
  9
$LTSCALE
 40
1.0
  9
$ATTMODE
 70
     1
  9
$TEXTSIZE
 40
0.2
  9
$TRACEWID
 40
0.05
  9
$TEXTSTYLE
  7
Standard
  9
$CLAYER
  8
0
  9
$CELTYPE
  6
ByLayer
  9
$CECOLOR
 62
   256
  9
$CELTSCALE
 40
1.0
  9
$DISPSILH
 70
     0
  9
$DIMSCALE
 40
1.0
  9
$DIMASZ
 40
0.18
  9
$DIMEXO
 40
0.0625
  9
$DIMDLI
 40
0.38
  9
$DIMRND
 40
0.0
  9
$DIMDLE
 40
0.0
  9
$DIMEXE
 40
0.18
  9
$DIMTP
 40
0.0
  9
$DIMTM
 40
0.0
  9
$DIMTXT
 40
0.18
  9
$DIMCEN
 40
0.09
  9
$DIMTSZ
 40
0.0
  9
$DIMTOL
 70
     0
  9
$DIMLIM
 70
     0
  9
$DIMTIH
 70
     1
  9
$DIMTOH
 70
     1
  9
$DIMSE1
 70
     0
  9
$DIMSE2
 70
     0
  9
$DIMTAD
 70
     0
  9
$DIMZIN
 70
     0
  9
$DIMBLK
  1

  9
$DIMASO
 70
     1
  9
$DIMSHO
 70
     1
  9
$DIMPOST
  1

  9
$DIMAPOST
  1

  9
$DIMALT
 70
     0
  9
$DIMALTD
 70
     2
  9
$DIMALTF
 40
25.4
  9
$DIMLFAC
 40
1.0
  9
$DIMTOFL
 70
     0
  9
$DIMTVP
 40
0.0
  9
$DIMTIX
 70
     0
  9
$DIMSOXD
 70
     0
  9
$DIMSAH
 70
     0
  9
$DIMBLK1
  1

  9
$DIMBLK2
  1

  9
$DIMSTYLE
  2
Standard
  9
$DIMCLRD
 70
     0
  9
$DIMCLRE
 70
     0
  9
$DIMCLRT
 70
     0
  9
$DIMTFAC
 40
1.0
  9
$DIMGAP
 40
0.09
  9
$DIMJUST
 70
     0
  9
$DIMSD1
 70
     0
  9
$DIMSD2
 70
     0
  9
$DIMTOLJ
 70
     1
  9
$DIMTZIN
 70
     0
  9
$DIMALTZ
 70
     0
  9
$DIMALTTZ
 70
     0
  9
$DIMUPT
 70
     0
  9
$DIMDEC
 70
     4
  9
$DIMTDEC
 70
     4
  9
$DIMALTU
 70
     2
  9
$DIMALTTD
 70
     2
  9
$DIMTXSTY
  7
Standard
  9
$DIMAUNIT
 70
     0
  9
$DIMADEC
 70
     0
  9
$DIMALTRND
 40
0.0
  9
$DIMAZIN
 70
     0
  9
$DIMDSEP
 70
    46
  9
$DIMATFIT
 70
     3
  9
$DIMFRAC
 70
     0
  9
$DIMLDRBLK
  1

  9
$DIMLUNIT
 70
     2
  9
$DIMLWD
 70
    -2
  9
$DIMLWE
 70
    -2
  9
$DIMTMOVE
 70
     0
  9
$DIMFXL
 40
1.0
  9
$DIMFXLON
 70
     0
  9
$DIMJOGANG
 40
0.7853981633974483
  9
$DIMTFILL
 70
     0
  9
$DIMTFILLCLR
 70
     0
  9
$DIMARCSYM
 70
     0
  9
$DIMLTYPE
  6

  9
$DIMLTEX1
  6

  9
$DIMLTEX2
  6

  9
$DIMTXTDIRECTION
 70
     0
  9
$LUNITS
 70
     2
  9
$LUPREC
 70
     4
  9
$SKETCHINC
 40
0.1
  9
$FILLETRAD
 40
0.5
  9
$AUNITS
 70
     0
  9
$AUPREC
 70
     0
  9
$MENU
  1
.
  9
$ELEVATION
 40
0.0
  9
$PELEVATION
 40
0.0
  9
$THICKNESS
 40
0.0
  9
$LIMCHECK
 70
     0
  9
$CHAMFERA
 40
0.5
  9
$CHAMFERB
 40
0.5
  9
$CHAMFERC
 40
1.0
  9
$CHAMFERD
 40
0.0
  9
$SKPOLY
 70
     0
  9
$TDCREATE
 40
2458263.574594907
  9
$TDUCREATE
 40
2458263.199594907
  9
$TDUPDATE
 40
2458263.574594907
  9
$TDUUPDATE
 40
2458263.199594907
  9
$TDINDWG
 40
0.0000000116
  9
$TDUSRTIMER
 40
0.0000000116
  9
$USRTIMER
 70
     1
  9
$ANGBASE
 50
0.0
  9
$ANGDIR
 70
     0
  9
$PDMODE
 70
     0
  9
$PDSIZE
 40
0.0
  9
$PLINEWID
 40
0.0
  9
$SPLFRAME
 70
     0
  9
$SPLINETYPE
 70
     6
  9
$SPLINESEGS
 70
     8
  9
$HANDSEED
  5
10F
  9
$SURFTAB1
 70
     6
  9
$SURFTAB2
 70
     6
  9
$SURFTYPE
 70
     6
  9
$SURFU
 70
     6
  9
$SURFV
 70
     6
  9
$UCSBASE
  2

  9
$UCSNAME
  2

  9
$UCSORG
 10
0.0
 20
0.0
 30
0.0
  9
$UCSXDIR
 10
1.0
 20
0.0
 30
0.0
  9
$UCSYDIR
 10
0.0
 20
1.0
 30
0.0
  9
$UCSORTHOREF
  2

  9
$UCSORTHOVIEW
 70
     0
  9
$UCSORGTOP
 10
0.0
 20
0.0
 30
0.0
  9
$UCSORGBOTTOM
 10
0.0
 20
0.0
 30
0.0
  9
$UCSORGLEFT
 10
0.0
 20
0.0
 30
0.0
  9
$UCSORGRIGHT
 10
0.0
 20
0.0
 30
0.0
  9
$UCSORGFRONT
 10
0.0
 20
0.0
 30
0.0
  9
$UCSORGBACK
 10
0.0
 20
0.0
 30
0.0
  9
$PUCSBASE
  2

  9
$PUCSNAME
  2

  9
$PUCSORG
 10
0.0
 20
0.0
 30
0.0
  9
$PUCSXDIR
 10
1.0
 20
0.0
 30
0.0
  9
$PUCSYDIR
 10
0.0
 20
1.0
 30
0.0
  9
$PUCSORTHOREF
  2

  9
$PUCSORTHOVIEW
 70
     0
  9
$PUCSORGTOP
 10
0.0
 20
0.0
 30
0.0
  9
$PUCSORGBOTTOM
 10
0.0
 20
0.0
 30
0.0
  9
$PUCSORGLEFT
 10
0.0
 20
0.0
 30
0.0
  9
$PUCSORGRIGHT
 10
0.0
 20
0.0
 30
0.0
  9
$PUCSORGFRONT
 10
0.0
 20
0.0
 30
0.0
  9
$PUCSORGBACK
 10
0.0
 20
0.0
 30
0.0
  9
$USERI1
 70
     0
  9
$USERI2
 70
     0
  9
$USERI3
 70
     0
  9
$USERI4
 70
     0
  9
$USERI5
 70
     0
  9
$USERR1
 40
0.0
  9
$USERR2
 40
0.0
  9
$USERR3
 40
0.0
  9
$USERR4
 40
0.0
  9
$USERR5
 40
0.0
  9
$WORLDVIEW
 70
     1
  9
$SHADEDGE
 70
     3
  9
$SHADEDIF
 70
    70
  9
$TILEMODE
 70
     1
  9
$MAXACTVP
 70
    64
  9
$PINSBASE
 10
0.0
 20
0.0
 30
0.0
  9
$PLIMCHECK
 70
     0
  9
$PEXTMIN
 10
1.000000000000000E+20
 20
1.000000000000000E+20
 30
1.000000000000000E+20
  9
$PEXTMAX
 10
-1.000000000000000E+20
 20
-1.000000000000000E+20
 30
-1.000000000000000E+20
  9
$PLIMMIN
 10
0.0
 20
0.0
  9
$PLIMMAX
 10
12.0
 20
9.0
  9
$UNITMODE
 70
     0
  9
$VISRETAIN
 70
     1
  9
$PLINEGEN
 70
     0
  9
$PSLTSCALE
 70
     1
  9
$TREEDEPTH
 70
  3020
  9
$CMLSTYLE
  2
Standard
  9
$CMLJUST
 70
     0
  9
$CMLSCALE
 40
1.0
  9
$PROXYGRAPHICS
 70
     1
  9
$MEASUREMENT
 70
     0
  9
$CELWEIGHT
370
    -1
  9
$ENDCAPS
280
     0
  9
$JOINSTYLE
280
     0
  9
$LWDISPLAY
290
     1
  9
$INSUNITS
 70
     1
  9
$HYPERLINKBASE
  1

  9
$STYLESHEET
  1

  9
$XEDIT
290
     1
  9
$CEPSNTYPE
380
     0
  9
$PSTYLEMODE
290
     1
  9
$FINGERPRINTGUID
  2
{0870AC2D-B299-AB84-11C9-6A0EE4A957D6}
  9
$VERSIONGUID
  2
{FAEB1C32-E019-11D5-929B-00C0DF256EC4}
  9
$EXTNAMES
290
     1
  9
$PSVPSCALE
 40
0.0
  9
$OLESTARTUP
290
     0
  9
$SORTENTS
280
   127
  9
$INDEXCTL
280
     0
  9
$HIDETEXT
280
     1
  9
$XCLIPFRAME
280
     2
  9
$HALOGAP
280
     0
  9
$OBSCOLOR
 70
   257
  9
$OBSLTYPE
280
     0
  9
$INTERSECTIONDISPLAY
280
     0
  9
$INTERSECTIONCOLOR
 70
   257
  9
$DIMASSOC
280
     2
  9
$PROJECTNAME
  1

  9
$CAMERADISPLAY
290
     0
  9
$LENSLENGTH
 40
50.0
  9
$CAMERAHEIGHT
 40
0.0
  9
$STEPSPERSEC
 40
2.0
  9
$STEPSIZE
 40
6.0
  9
$3DDWFPREC
 40
2.0
  9
$PSOLWIDTH
 40
0.25
  9
$PSOLHEIGHT
 40
4.0
  9
$LOFTANG1
 40
1.570796326794897
  9
$LOFTANG2
 40
1.570796326794897
  9
$LOFTMAG1
 40
0.0
  9
$LOFTMAG2
 40
0.0
  9
$LOFTPARAM
 70
     7
  9
$LOFTNORMALS
280
     1
  9
$LATITUDE
 40
37.795
  9
$LONGITUDE
 40
-122.394
  9
$NORTHDIRECTION
 40
0.0
  9
$TIMEZONE
 70
 -8000
  9
$LIGHTGLYPHDISPLAY
280
     1
  9
$TILEMODELIGHTSYNCH
280
     1
  9
$CMATERIAL
347
3C
  9
$SOLIDHIST
280
     1
  9
$SHOWHIST
280
     1
  9
$DWFFRAME
280
     2
  9
$DGNFRAME
280
     2
  9
$REALWORLDSCALE
290
     1
  9
$INTERFERECOLOR
 62
   256
  9
$CSHADOW
280
     0
  9
$SHADOWPLANELOCATION
 40
0.0
  0
ENDSEC
  0
SECTION
  2
CLASSES
  0
CLASS
  1
ACDBDICTIONARYWDFLT
  2
AcDbDictionaryWithDefault
  3
ObjectDBX Classes
 90
        0
 91
        4
280
     0
281
     0
  0
CLASS
  1
VISUALSTYLE
  2
AcDbVisualStyle
  3
ObjectDBX Classes
 90
     4095
 91
        4
280
     0
281
     0
  0
CLASS
  1
MATERIAL
  2
AcDbMaterial
  3
ObjectDBX Classes
 90
     1153
 91
        4
280
     0
281
     0
  0
CLASS
  1
SUN
  2
AcDbSun
  3
SCENEOE
 90
     1024
 91
        4
280
     0
281
     0
  0
ENDSEC
  0
SECTION
  2
TABLES
  0
TABLE
  2
VPORT
  5
8
330
0
100
AcDbSymbolTable
 70
     1
  0
VPORT
  5
29
330
8
100
AcDbSymbolTableRecord
100
AcDbViewportTableRecord
  2
*Active
 70
     0
 10
0.0
 20
0.0
 11
1.0
 21
1.0
 12
0.0
 22
0.0
 13
0.0
 23
0.0
 14
0.5
 24
0.5
 15
0.5
 25
0.5
 16
0.0
 26
0.0
 36
1.0
 17
105.0007777515277
 27
-148.5000416295416
 37
0.0
 40
297.0000832590831
 41
0.7070757462376333
 42
50.0
 43
0.0
 44
0.0
 50
0.0
 51
0.0
 71
     0
 72
   100
 73
     1
 74
     3
 75
     0
 76
     0
 77
     0
 78
     0
281
     0
 65
     1
110
0.0
120
0.0
130
0.0
111
1.0
121
0.0
131
0.0
112
0.0
122
1.0
132
0.0
 79
     0
146
0.0
 60
     3
 61
     5
292
     1
282
     1
141
0.0
142
0.0
 63
   250
361
3F
  0
ENDTAB
  0
TABLE
  2
LTYPE
  5
5
330
0
100
AcDbSymbolTable
 70
     1
  0
LTYPE
  5
14
330
5
100
AcDbSymbolTableRecord
100
AcDbLinetypeTableRecord
  2
ByBlock
 70
     0
  3

 72
    65
 73
     0
 40
0.0
  0
LTYPE
  5
15
330
5
100
AcDbSymbolTableRecord
100
AcDbLinetypeTableRecord
  2
ByLayer
 70
     0
  3

 72
    65
 73
     0
 40
0.0
  0
LTYPE
  5
16
330
5
100
AcDbSymbolTableRecord
100
AcDbLinetypeTableRecord
  2
Continuous
 70
     0
  3
Solid line
 72
    65
 73
     0
 40
0.0
  0
ENDTAB
  0
TABLE
  2
LAYER
  5
2
330
0
100
AcDbSymbolTable
 70
     2
  0
LAYER
  5
10
330
2
100
AcDbSymbolTableRecord
100
AcDbLayerTableRecord
  2
0
 70
     0
 62
     7
  6
Continuous
370
    -3
390
F
347
3E
  0
LAYER
  5
40
330
2
100
AcDbSymbolTableRecord
100
AcDbLayerTableRecord
  2
_U+30EC_U+30A4_U+30E4_U+30FC 1
 70
     0
 62
     7
  6
Continuous
370
    -3
390
F
347
3E
  0
ENDTAB
  0
TABLE
  2
STYLE
  5
3
330
0
100
AcDbSymbolTable
 70
     1
  0
STYLE
  5
11
330
3
100
AcDbSymbolTableRecord
100
AcDbTextStyleTableRecord
  2
Standard
 70
     0
 40
0.0
 41
1.0
 50
0.0
 71
     0
 42
0.2
  3
txt
  4

  0
ENDTAB
  0
TABLE
  2
VIEW
  5
6
330
0
100
AcDbSymbolTable
 70
     0
  0
ENDTAB
  0
TABLE
  2
UCS
  5
7
330
0
100
AcDbSymbolTable
 70
     0
  0
ENDTAB
  0
TABLE
  2
APPID
  5
9
330
0
100
AcDbSymbolTable
 70
     1
  0
APPID
  5
12
330
9
100
AcDbSymbolTableRecord
100
AcDbRegAppTableRecord
  2
ACAD
 70
     0
  0
ENDTAB
  0
TABLE
  2
DIMSTYLE
  5
A
330
0
100
AcDbSymbolTable
 70
     1
100
AcDbDimStyleTable
  0
DIMSTYLE
105
27
330
A
100
AcDbSymbolTableRecord
100
AcDbDimStyleTableRecord
  2
Standard
 70
     0
178
     0
340
11
  0
ENDTAB
  0
TABLE
  2
BLOCK_RECORD
  5
1
330
0
100
AcDbSymbolTable
 70
     7
  0
BLOCK_RECORD
  5
1F
330
1
100
AcDbSymbolTableRecord
100
AcDbBlockTableRecord
  2
*Model_Space
340
22
 70
     0
280
     1
281
     0
  0
BLOCK_RECORD
  5
1B
330
1
100
AcDbSymbolTableRecord
100
AcDbBlockTableRecord
  2
*Paper_Space
340
1E
 70
     0
280
     1
281
     0
  0
BLOCK_RECORD
  5
23
330
1
100
AcDbSymbolTableRecord
100
AcDbBlockTableRecord
  2
*Paper_Space0
340
26
 70
     0
280
     1
281
     0
  0
BLOCK_RECORD
  5
92
330
1
100
AcDbSymbolTableRecord
100
AcDbBlockTableRecord
  2
block 2
340
0
102
{BLKREFS
331
93
102
}
 70
     0
280
     1
281
     0
  0
BLOCK_RECORD
  5
A4
330
1
100
AcDbSymbolTableRecord
100
AcDbBlockTableRecord
  2
block 3
340
0
102
{BLKREFS
331
A5
102
}
 70
     0
280
     1
281
     0
  0
BLOCK_RECORD
  5
B5
330
1
100
AcDbSymbolTableRecord
100
AcDbBlockTableRecord
  2
block 4
340
0
102
{BLKREFS
331
B6
102
}
 70
     0
280
     1
281
     0
  0
BLOCK_RECORD
  5
CC
330
1
100
AcDbSymbolTableRecord
100
AcDbBlockTableRecord
  2
block 5
340
0
102
{BLKREFS
331
CD
102
}
 70
     0
280
     1
281
     0
  0
BLOCK_RECORD
  5
E9
330
1
100
AcDbSymbolTableRecord
100
AcDbBlockTableRecord
  2
block 6
340
0
102
{BLKREFS
331
EA
102
}
 70
     0
280
     1
281
     0
  0
BLOCK_RECORD
  5
FB
330
1
100
AcDbSymbolTableRecord
100
AcDbBlockTableRecord
  2
block 7
340
0
102
{BLKREFS
331
FC
102
}
 70
     0
280
     1
281
     0
  0
ENDTAB
  0
ENDSEC
  0
SECTION
  2
BLOCKS
  0
BLOCK
  5
20
330
1F
100
AcDbEntity
  8
0
100
AcDbBlockBegin
  2
*Model_Space
 70
     0
 10
0.0
 20
0.0
 30
0.0
  3
*Model_Space
  1

  0
ENDBLK
  5
21
330
1F
100
AcDbEntity
  8
0
100
AcDbBlockEnd
  0
BLOCK
  5
1C
330
1B
100
AcDbEntity
 67
     1
  8
0
100
AcDbBlockBegin
  2
*Paper_Space
 70
     0
 10
0.0
 20
0.0
 30
0.0
  3
*Paper_Space
  1

  0
ENDBLK
  5
1D
330
1B
100
AcDbEntity
 67
     1
  8
0
100
AcDbBlockEnd
  0
BLOCK
  5
24
330
23
100
AcDbEntity
  8
0
100
AcDbBlockBegin
  2
*Paper_Space0
 70
     0
 10
0.0
 20
0.0
 30
0.0
  3
*Paper_Space0
  1

  0
ENDBLK
  5
25
330
23
100
AcDbEntity
  8
0
100
AcDbBlockEnd
  0
BLOCK
  5
94
330
92
100
AcDbEntity
  8
0
100
AcDbBlockBegin
  2
block 2
 70
     0
 10
0.0
 20
0.0
 30
0.0
  3
block 2
  1

  0
SPLINE
  5
96
330
92
100
AcDbEntity
  8
_U+30EC_U+30A4_U+30E4_U+30FC 1
370
     0
100
AcDbSpline
210
0.0
220
0.0
230
1.0
 70
    11
 71
     3
 72
    26
 73
    22
 74
     0
 42
0.0000000001
 43
0.0000000001
 12
1.0
 22
0.0
 32
0.0
 13
1.0
 23
0.0
 33
0.0
 40
0.0
 40
0.0
 40
0.0
 40
0.0
 40
1.0
 40
1.0
 40
1.0
 40
2.0
 40
2.0
 40
2.0
 40
3.0
 40
3.0
 40
3.0
 40
4.0
 40
4.0
 40
4.0
 40
5.0
 40
5.0
 40
5.0
 40
6.0
 40
6.0
 40
6.0
 40
7.0
 40
7.0
 40
7.0
 40
7.0
 10
119.2313096490116
 20
-141.6571587102454
 30
0.0
 10
119.2313096490116
 20
-141.6571587102454
 30
0.0
 10
118.1271565459891
 20
-141.6571587102454
 30
0.0
 10
118.1271565459891
 20
-141.6571587102454
 30
0.0
 10
118.1271565459891
 20
-141.6571587102454
 30
0.0
 10
118.1271565459891
 20
-142.0095919783865
 30
0.0
 10
118.1271565459891
 20
-142.0095919783865
 30
0.0
 10
118.1271565459891
 20
-142.0095919783865
 30
0.0
 10
117.9793619496718
 20
-142.0095919783865
 30
0.0
 10
117.9793619496718
 20
-142.0095919783865
 30
0.0
 10
117.9642035295367
 20
-141.6547471434058
 30
0.0
 10
117.8015950226329
 20
-141.6051377684182
 30
0.0
 10
117.6872178525227
 20
-141.5734428899539
 30
0.0
 10
117.6872178525227
 20
-141.5734428899539
 30
0.0
 10
117.6872178525227
 20
-141.417380064472
 30
0.0
 10
117.6872178525227
 20
-141.417380064472
 30
0.0
 10
117.6872178525227
 20
-141.417380064472
 30
0.0
 10
119.2313096490116
 20
-141.417380064472
 30
0.0
 10
119.2313096490116
 20
-141.417380064472
 30
0.0
 10
119.2313096490116
 20
-141.417380064472
 30
0.0
 10
119.2313096490116
 20
-141.6571587102454
 30
0.0
 10
119.2313096490116
 20
-141.6571587102454
 30
0.0
  0
HATCH
  5
97
330
92
100
AcDbEntity
  8
_U+30EC_U+30A4_U+30E4_U+30FC 1
 62
   179
420
  2234388
100
AcDbHatch
 10
0.0
 20
0.0
 30
0.0
210
0.0
220
0.0
230
1.0
  2
SOLID
 70
     1
 71
     0
 91
        1
 92
        1
 93
        1
 72
     4
 94
        3
 73
     0
 74
     1
 95
       26
 96
       22
 40
0.0
 40
0.0
 40
0.0
 40
0.0
 40
1.0
 40
1.0
 40
1.0
 40
2.0
 40
2.0
 40
2.0
 40
3.0
 40
3.0
 40
3.0
 40
4.0
 40
4.0
 40
4.0
 40
5.0
 40
5.0
 40
5.0
 40
6.0
 40
6.0
 40
6.0
 40
7.0
 40
7.0
 40
7.0
 40
7.0
 10
119.2313096490116
 20
-141.6571587102454
 10
119.2313096490116
 20
-141.6571587102454
 10
118.1271565459891
 20
-141.6571587102454
 10
118.1271565459891
 20
-141.6571587102454
 10
118.1271565459891
 20
-141.6571587102454
 10
118.1271565459891
 20
-142.0095919783865
 10
118.1271565459891
 20
-142.0095919783865
 10
118.1271565459891
 20
-142.0095919783865
 10
117.9793619496718
 20
-142.0095919783865
 10
117.9793619496718
 20
-142.0095919783865
 10
117.9642035295367
 20
-141.6547471434058
 10
117.8015950226329
 20
-141.6051377684182
 10
117.6872178525227
 20
-141.5734428899539
 10
117.6872178525227
 20
-141.5734428899539
 10
117.6872178525227
 20
-141.417380064472
 10
117.6872178525227
 20
-141.417380064472
 10
117.6872178525227
 20
-141.417380064472
 10
119.2313096490116
 20
-141.417380064472
 10
119.2313096490116
 20
-141.417380064472
 10
119.2313096490116
 20
-141.417380064472
 10
119.2313096490116
 20
-141.6571587102454
 10
119.2313096490116
 20
-141.6571587102454
 97
        0
 97
        0
 75
     2
 76
     1
 98
        0
  0
ENDBLK
  5
95
330
92
100
AcDbEntity
  8
0
100
AcDbBlockEnd
  0
BLOCK
  5
A6
330
A4
100
AcDbEntity
  8
0
100
AcDbBlockBegin
  2
block 3
 70
     0
 10
0.0
 20
0.0
 30
0.0
  3
block 3
  1

  0
SPLINE
  5
A8
330
A4
100
AcDbEntity
  8
_U+30EC_U+30A4_U+30E4_U+30FC 1
370
     0
100
AcDbSpline
210
0.0
220
0.0
230
1.0
 70
    11
 71
     3
 72
    26
 73
    22
 74
     0
 42
0.0000000001
 43
0.0000000001
 12
1.0
 22
0.0
 32
0.0
 13
1.0
 23
0.0
 33
0.0
 40
0.0
 40
0.0
 40
0.0
 40
0.0
 40
1.0
 40
1.0
 40
1.0
 40
2.0
 40
2.0
 40
2.0
 40
3.0
 40
3.0
 40
3.0
 40
4.0
 40
4.0
 40
4.0
 40
5.0
 40
5.0
 40
5.0
 40
6.0
 40
6.0
 40
6.0
 40
7.0
 40
7.0
 40
7.0
 40
7.0
 10
98.85701494924409
 20
-157.8456623954344
 30
0.0
 10
98.85701494924409
 20
-157.8456623954344
 30
0.0
 10
98.85701494924409
 20
-156.7415092924118
 30
0.0
 10
98.85701494924409
 20
-156.7415092924118
 30
0.0
 10
98.85701494924409
 20
-156.7415092924118
 30
0.0
 10
98.50458168110302
 20
-156.7415092924118
 30
0.0
 10
98.50458168110302
 20
-156.7415092924118
 30
0.0
 10
98.50458168110302
 20
-156.7415092924118
 30
0.0
 10
98.50458168110302
 20
-156.5933701865461
 30
0.0
 10
98.50458168110302
 20
-156.5933701865461
 30
0.0
 10
98.85942651608376
 20
-156.5785562759595
 30
0.0
 10
98.90903589107135
 20
-156.4156032595072
 30
0.0
 10
98.94073076953566
 20
-156.3015705989455
 30
0.0
 10
98.94073076953566
 20
-156.3015705989455
 30
0.0
 10
99.09679359501747
 20
-156.3015705989455
 30
0.0
 10
99.09679359501747
 20
-156.3015705989455
 30
0.0
 10
99.09679359501747
 20
-156.3015705989455
 30
0.0
 10
99.09679359501747
 20
-157.8456623954344
 30
0.0
 10
99.09679359501747
 20
-157.8456623954344
 30
0.0
 10
99.09679359501747
 20
-157.8456623954344
 30
0.0
 10
98.85701494924409
 20
-157.8456623954344
 30
0.0
 10
98.85701494924409
 20
-157.8456623954344
 30
0.0
  0
HATCH
  5
A9
330
A4
100
AcDbEntity
  8
_U+30EC_U+30A4_U+30E4_U+30FC 1
 62
   179
420
  2234388
100
AcDbHatch
 10
0.0
 20
0.0
 30
0.0
210
0.0
220
0.0
230
1.0
  2
SOLID
 70
     1
 71
     0
 91
        1
 92
        1
 93
        1
 72
     4
 94
        3
 73
     0
 74
     1
 95
       26
 96
       22
 40
0.0
 40
0.0
 40
0.0
 40
0.0
 40
1.0
 40
1.0
 40
1.0
 40
2.0
 40
2.0
 40
2.0
 40
3.0
 40
3.0
 40
3.0
 40
4.0
 40
4.0
 40
4.0
 40
5.0
 40
5.0
 40
5.0
 40
6.0
 40
6.0
 40
6.0
 40
7.0
 40
7.0
 40
7.0
 40
7.0
 10
98.85701494924409
 20
-157.8456623954344
 10
98.85701494924409
 20
-157.8456623954344
 10
98.85701494924409
 20
-156.7415092924118
 10
98.85701494924409
 20
-156.7415092924118
 10
98.85701494924409
 20
-156.7415092924118
 10
98.50458168110302
 20
-156.7415092924118
 10
98.50458168110302
 20
-156.7415092924118
 10
98.50458168110302
 20
-156.7415092924118
 10
98.50458168110302
 20
-156.5933701865461
 10
98.50458168110302
 20
-156.5933701865461
 10
98.85942651608376
 20
-156.5785562759595
 10
98.90903589107135
 20
-156.4156032595072
 10
98.94073076953566
 20
-156.3015705989455
 10
98.94073076953566
 20
-156.3015705989455
 10
99.09679359501747
 20
-156.3015705989455
 10
99.09679359501747
 20
-156.3015705989455
 10
99.09679359501747
 20
-156.3015705989455
 10
99.09679359501747
 20
-157.8456623954344
 10
99.09679359501747
 20
-157.8456623954344
 10
99.09679359501747
 20
-157.8456623954344
 10
98.85701494924409
 20
-157.8456623954344
 10
98.85701494924409
 20
-157.8456623954344
 97
        0
 97
        0
 75
     2
 76
     1
 98
        0
  0
SPLINE
  5
AA
330
A4
100
AcDbEntity
  8
_U+30EC_U+30A4_U+30E4_U+30FC 1
370
     0
100
AcDbSpline
210
0.0
220
0.0
230
1.0
 70
    11
 71
     3
 72
    29
 73
    25
 74
     0
 42
0.0000000001
 43
0.0000000001
 12
1.0
 22
0.0
 32
0.0
 13
1.0
 23
0.0
 33
0.0
 40
0.0
 40
0.0
 40
0.0
 40
0.0
 40
1.0
 40
1.0
 40
1.0
 40
2.0
 40
2.0
 40
2.0
 40
3.0
 40
3.0
 40
3.0
 40
4.0
 40
4.0
 40
4.0
 40
5.0
 40
5.0
 40
5.0
 40
6.0
 40
6.0
 40
6.0
 40
7.0
 40
7.0
 40
7.0
 40
8.0
 40
8.0
 40
8.0
 40
8.0
 10
100.5919650356159
 20
-157.6678954683955
 30
0.0
 10
100.47655433686
 20
-157.8773572738987
 30
0.0
 10
100.2912081997536
 20
-157.8966498086161
 30
0.0
 10
100.1668402527361
 20
-157.8966498086161
 30
0.0
 10
99.99527449757063
 20
-157.8966498086161
 30
0.0
 10
99.84369029621963
 20
-157.8501410195653
 30
0.0
 10
99.74205997940477
 20
-157.6678954683955
 30
0.0
 10
99.63112790477972
 20
-157.4732475734789
 30
0.0
 10
99.61080184141674
 20
-157.2365695136423
 30
0.0
 10
99.61080184141674
 20
-157.0736164971899
 30
0.0
 10
99.61080184141674
 20
-156.9296115059065
 30
0.0
 10
99.62871633794005
 20
-156.6781195354833
 30
0.0
 10
99.74205997940477
 20
-156.4789930164358
 30
0.0
 10
99.85712616861211
 20
-156.2760768923546
 30
0.0
 10
100.0290364333261
 20
-156.2526502430549
 30
0.0
 10
100.1668402527361
 20
-156.2526502430549
 30
0.0
 10
100.3366834601589
 20
-156.2526502430549
 30
0.0
 10
100.490334718801
 20
-156.2970919748146
 30
0.0
 10
100.5919650356159
 20
-156.4789930164358
 30
0.0
 10
100.6984184861101
 20
-156.6715738540613
 30
0.0
 10
100.7232231736039
 20
-156.8999836847333
 30
0.0
 10
100.7232231736039
 20
-157.0736164971899
 30
0.0
 10
100.7232231736039
 20
-157.2448377428069
 30
0.0
 10
100.7004855434013
 20
-157.4756591403186
 30
0.0
 10
100.5919650356159
 20
-157.6678954683955
 30
0.0
  0
SPLINE
  5
AB
330
A4
100
AcDbEntity
  8
_U+30EC_U+30A4_U+30E4_U+30FC 1
370
     0
100
AcDbSpline
210
0.0
220
0.0
230
1.0
 70
    11
 71
     3
 72
    17
 73
    13
 74
     0
 42
0.0000000001
 43
0.0000000001
 12
1.0
 22
0.0
 32
0.0
 13
1.0
 23
0.0
 33
0.0
 40
0.0
 40
0.0
 40
0.0
 40
0.0
 40
1.0
 40
1.0
 40
1.0
 40
2.0
 40
2.0
 40
2.0
 40
3.0
 40
3.0
 40
3.0
 40
4.0
 40
4.0
 40
4.0
 40
4.0
 10
100.1668402527361
 20
-156.4452310806804
 30
0.0
 10
99.90018986217774
 20
-156.4452310806804
 30
0.0
 10
99.85058048719014
 20
-156.7287624391164
 30
0.0
 10
99.85058048719014
 20
-157.0736164971899
 30
0.0
 10
99.85058048719014
 20
-157.3929768486726
 30
0.0
 10
99.8888210470764
 20
-157.7020019136995
 30
0.0
 10
100.1668402527361
 20
-157.7020019136995
 30
0.0
 10
100.4314235860033
 20
-157.7020019136995
 30
0.0
 10
100.4834445278305
 20
-157.4205376125546
 30
0.0
 10
100.4834445278305
 20
-157.0736164971899
 30
0.0
 10
100.4834445278305
 20
-156.7542561457073
 30
0.0
 10
100.4427924011046
 20
-156.4452310806804
 30
0.0
 10
100.1668402527361
 20
-156.4452310806804
 30
0.0
  0
HATCH
  5
AC
330
A4
100
AcDbEntity
  8
_U+30EC_U+30A4_U+30E4_U+30FC 1
 62
   179
420
  2234388
100
AcDbHatch
 10
0.0
 20
0.0
 30
0.0
210
0.0
220
0.0
230
1.0
  2
SOLID
 70
     1
 71
     0
 91
        2
 92
        1
 93
        1
 72
     4
 94
        3
 73
     0
 74
     1
 95
       29
 96
       25
 40
0.0
 40
0.0
 40
0.0
 40
0.0
 40
1.0
 40
1.0
 40
1.0
 40
2.0
 40
2.0
 40
2.0
 40
3.0
 40
3.0
 40
3.0
 40
4.0
 40
4.0
 40
4.0
 40
5.0
 40
5.0
 40
5.0
 40
6.0
 40
6.0
 40
6.0
 40
7.0
 40
7.0
 40
7.0
 40
8.0
 40
8.0
 40
8.0
 40
8.0
 10
100.5919650356159
 20
-157.6678954683955
 10
100.47655433686
 20
-157.8773572738987
 10
100.2912081997536
 20
-157.8966498086161
 10
100.1668402527361
 20
-157.8966498086161
 10
99.99527449757063
 20
-157.8966498086161
 10
99.84369029621963
 20
-157.8501410195653
 10
99.74205997940477
 20
-157.6678954683955
 10
99.63112790477972
 20
-157.4732475734789
 10
99.61080184141674
 20
-157.2365695136423
 10
99.61080184141674
 20
-157.0736164971899
 10
99.61080184141674
 20
-156.9296115059065
 10
99.62871633794005
 20
-156.6781195354833
 10
99.74205997940477
 20
-156.4789930164358
 10
99.85712616861211
 20
-156.2760768923546
 10
100.0290364333261
 20
-156.2526502430549
 10
100.1668402527361
 20
-156.2526502430549
 10
100.3366834601589
 20
-156.2526502430549
 10
100.490334718801
 20
-156.2970919748146
 10
100.5919650356159
 20
-156.4789930164358
 10
100.6984184861101
 20
-156.6715738540613
 10
100.7232231736039
 20
-156.8999836847333
 10
100.7232231736039
 20
-157.0736164971899
 10
100.7232231736039
 20
-157.2448377428069
 10
100.7004855434013
 20
-157.4756591403186
 10
100.5919650356159
 20
-157.6678954683955
 97
        0
 97
        0
 92
        1
 93
        1
 72
     4
 94
        3
 73
     0
 74
     1
 95
       17
 96
       13
 40
0.0
 40
0.0
 40
0.0
 40
0.0
 40
1.0
 40
1.0
 40
1.0
 40
2.0
 40
2.0
 40
2.0
 40
3.0
 40
3.0
 40
3.0
 40
4.0
 40
4.0
 40
4.0
 40
4.0
 10
100.1668402527361
 20
-156.4452310806804
 10
99.90018986217774
 20
-156.4452310806804
 10
99.85058048719014
 20
-156.7287624391164
 10
99.85058048719014
 20
-157.0736164971899
 10
99.85058048719014
 20
-157.3929768486726
 10
99.8888210470764
 20
-157.7020019136995
 10
100.1668402527361
 20
-157.7020019136995
 10
100.4314235860033
 20
-157.7020019136995
 10
100.4834445278305
 20
-157.4205376125546
 10
100.4834445278305
 20
-157.0736164971899
 10
100.4834445278305
 20
-156.7542561457073
 10
100.4427924011046
 20
-156.4452310806804
 10
100.1668402527361
 20
-156.4452310806804
 97
        0
 97
        0
 75
     2
 76
     1
 98
        0
  0
ENDBLK
  5
A7
330
A4
100
AcDbEntity
  8
0
100
AcDbBlockEnd
  0
BLOCK
  5
B7
330
B5
100
AcDbEntity
  8
0
100
AcDbBlockBegin
  2
block 4
 70
     0
 10
0.0
 20
0.0
 30
0.0
  3
block 4
  1

  0
SPLINE
  5
B9
330
B5
100
AcDbEntity
  8
_U+30EC_U+30A4_U+30E4_U+30FC 1
370
     0
100
AcDbSpline
210
0.0
220
0.0
230
1.0
 70
    11
 71
     3
 72
    32
 73
    28
 74
     0
 42
0.0000000001
 43
0.0000000001
 12
1.0
 22
0.0
 32
0.0
 13
1.0
 23
0.0
 33
0.0
 40
0.0
 40
0.0
 40
0.0
 40
0.0
 40
1.0
 40
1.0
 40
1.0
 40
2.0
 40
2.0
 40
2.0
 40
3.0
 40
3.0
 40
3.0
 40
4.0
 40
4.0
 40
4.0
 40
5.0
 40
5.0
 40
5.0
 40
6.0
 40
6.0
 40
6.0
 40
7.0
 40
7.0
 40
7.0
 40
8.0
 40
8.0
 40
8.0
 40
9.0
 40
9.0
 40
9.0
 40
9.0
 10
91.58028426529938
 20
-157.8969943181646
 30
0.0
 10
91.02837996856235
 20
-157.8969943181646
 30
0.0
 10
91.01942272030071
 20
-157.3426784545879
 30
0.0
 10
91.01942272030071
 20
-157.1290825345025
 30
0.0
 10
91.01942272030071
 20
-156.8982611369907
 30
0.0
 10
91.03974878366368
 20
-156.2509276953123
 30
0.0
 10
91.62093639202533
 20
-156.2509276953123
 30
0.0
 10
91.80628252913176
 20
-156.2509276953123
 30
0.0
 10
92.06845429555928
 20
-156.3208631336628
 30
0.0
 10
92.10910642228522
 20
-156.6529703384409
 30
0.0
 10
92.10910642228522
 20
-156.6529703384409
 30
0.0
 10
91.88069659161316
 20
-156.6529703384409
 30
0.0
 10
91.88069659161316
 20
-156.6529703384409
 30
0.0
 10
91.86967228606036
 20
-156.5957817533858
 30
0.0
 10
91.83556584075639
 20
-156.44764264752
 30
0.0
 10
91.61852482518564
 20
-156.44764264752
 30
0.0
 10
91.30639917422202
 20
-156.44764264752
 30
0.0
 10
91.26367999020492
 20
-156.7756157377158
 30
0.0
 10
91.24989960826392
 20
-156.9809434286367
 30
0.0
 10
91.34946286778764
 20
-156.9027397611216
 30
0.0
 10
91.42180987297789
 20
-156.8434841187753
 30
0.0
 10
91.61611325834598
 20
-156.8434841187753
 30
0.0
 10
91.80834958642292
 20
-156.8434841187753
 30
0.0
 10
92.13184405248788
 20
-156.9513156074636
 30
0.0
 10
92.13184405248788
 20
-157.3574923651745
 30
0.0
 10
92.13184405248788
 20
-157.6768527166572
 30
0.0
 10
91.91928166104796
 20
-157.8969943181646
 30
0.0
 10
91.58028426529938
 20
-157.8969943181646
 30
0.0
  0
SPLINE
  5
BA
330
B5
100
AcDbEntity
  8
_U+30EC_U+30A4_U+30E4_U+30FC 1
370
     0
100
AcDbSpline
210
0.0
220
0.0
230
1.0
 70
    11
 71
     3
 72
    17
 73
    13
 74
     0
 42
0.0000000001
 43
0.0000000001
 12
1.0
 22
0.0
 32
0.0
 13
1.0
 23
0.0
 33
0.0
 40
0.0
 40
0.0
 40
0.0
 40
0.0
 40
1.0
 40
1.0
 40
1.0
 40
2.0
 40
2.0
 40
2.0
 40
3.0
 40
3.0
 40
3.0
 40
4.0
 40
4.0
 40
4.0
 40
4.0
 10
91.59819876182267
 20
-157.0381320136919
 30
0.0
 10
91.31776798932334
 20
-157.0381320136919
 30
0.0
 10
91.2771158625974
 20
-157.2496608764862
 30
0.0
 10
91.2771158625974
 20
-157.3657605943391
 30
0.0
 10
91.2771158625974
 20
-157.5414604640869
 30
0.0
 10
91.37874617941226
 20
-157.7044134805392
 30
0.0
 10
91.57546113162003
 20
-157.7044134805392
 30
0.0
 10
91.70430770276838
 20
-157.7044134805392
 30
0.0
 10
91.8920654067145
 20
-157.6451578381929
 30
0.0
 10
91.8920654067145
 20
-157.3595594224657
 30
0.0
 10
91.8920654067145
 20
-157.1352837063759
 30
0.0
 10
91.74289277220316
 20
-157.0381320136919
 30
0.0
 10
91.59819876182267
 20
-157.0381320136919
 30
0.0
  0
HATCH
  5
BB
330
B5
100
AcDbEntity
  8
_U+30EC_U+30A4_U+30E4_U+30FC 1
 62
   179
420
  2234388
100
AcDbHatch
 10
0.0
 20
0.0
 30
0.0
210
0.0
220
0.0
230
1.0
  2
SOLID
 70
     1
 71
     0
 91
        2
 92
        1
 93
        1
 72
     4
 94
        3
 73
     0
 74
     1
 95
       32
 96
       28
 40
0.0
 40
0.0
 40
0.0
 40
0.0
 40
1.0
 40
1.0
 40
1.0
 40
2.0
 40
2.0
 40
2.0
 40
3.0
 40
3.0
 40
3.0
 40
4.0
 40
4.0
 40
4.0
 40
5.0
 40
5.0
 40
5.0
 40
6.0
 40
6.0
 40
6.0
 40
7.0
 40
7.0
 40
7.0
 40
8.0
 40
8.0
 40
8.0
 40
9.0
 40
9.0
 40
9.0
 40
9.0
 10
91.58028426529938
 20
-157.8969943181646
 10
91.02837996856235
 20
-157.8969943181646
 10
91.01942272030071
 20
-157.3426784545879
 10
91.01942272030071
 20
-157.1290825345025
 10
91.01942272030071
 20
-156.8982611369907
 10
91.03974878366368
 20
-156.2509276953123
 10
91.62093639202533
 20
-156.2509276953123
 10
91.80628252913176
 20
-156.2509276953123
 10
92.06845429555928
 20
-156.3208631336628
 10
92.10910642228522
 20
-156.6529703384409
 10
92.10910642228522
 20
-156.6529703384409
 10
91.88069659161316
 20
-156.6529703384409
 10
91.88069659161316
 20
-156.6529703384409
 10
91.86967228606036
 20
-156.5957817533858
 10
91.83556584075639
 20
-156.44764264752
 10
91.61852482518564
 20
-156.44764264752
 10
91.30639917422202
 20
-156.44764264752
 10
91.26367999020492
 20
-156.7756157377158
 10
91.24989960826392
 20
-156.9809434286367
 10
91.34946286778764
 20
-156.9027397611216
 10
91.42180987297789
 20
-156.8434841187753
 10
91.61611325834598
 20
-156.8434841187753
 10
91.80834958642292
 20
-156.8434841187753
 10
92.13184405248788
 20
-156.9513156074636
 10
92.13184405248788
 20
-157.3574923651745
 10
92.13184405248788
 20
-157.6768527166572
 10
91.91928166104796
 20
-157.8969943181646
 10
91.58028426529938
 20
-157.8969943181646
 97
        0
 97
        0
 92
        1
 93
        1
 72
     4
 94
        3
 73
     0
 74
     1
 95
       17
 96
       13
 40
0.0
 40
0.0
 40
0.0
 40
0.0
 40
1.0
 40
1.0
 40
1.0
 40
2.0
 40
2.0
 40
2.0
 40
3.0
 40
3.0
 40
3.0
 40
4.0
 40
4.0
 40
4.0
 40
4.0
 10
91.59819876182267
 20
-157.0381320136919
 10
91.31776798932334
 20
-157.0381320136919
 10
91.2771158625974
 20
-157.2496608764862
 10
91.2771158625974
 20
-157.3657605943391
 10
91.2771158625974
 20
-157.5414604640869
 10
91.37874617941226
 20
-157.7044134805392
 10
91.57546113162003
 20
-157.7044134805392
 10
91.70430770276838
 20
-157.7044134805392
 10
91.8920654067145
 20
-157.6451578381929
 10
91.8920654067145
 20
-157.3595594224657
 10
91.8920654067145
 20
-157.1352837063759
 10
91.74289277220316
 20
-157.0381320136919
 10
91.59819876182267
 20
-157.0381320136919
 97
        0
 97
        0
 75
     2
 76
     1
 98
        0
  0
ENDBLK
  5
B8
330
B5
100
AcDbEntity
  8
0
100
AcDbBlockEnd
  0
BLOCK
  5
CE
330
CC
100
AcDbEntity
  8
0
100
AcDbBlockBegin
  2
block 5
 70
     0
 10
0.0
 20
0.0
 30
0.0
  3
block 5
  1

  0
SPLINE
  5
D0
330
CC
100
AcDbEntity
  8
_U+30EC_U+30A4_U+30E4_U+30FC 1
370
     0
100
AcDbSpline
210
0.0
220
0.0
230
1.0
 70
    11
 71
     3
 72
    29
 73
    25
 74
     0
 42
0.0000000001
 43
0.0000000001
 12
1.0
 22
0.0
 32
0.0
 13
1.0
 23
0.0
 33
0.0
 40
0.0
 40
0.0
 40
0.0
 40
0.0
 40
1.0
 40
1.0
 40
1.0
 40
2.0
 40
2.0
 40
2.0
 40
3.0
 40
3.0
 40
3.0
 40
4.0
 40
4.0
 40
4.0
 40
5.0
 40
5.0
 40
5.0
 40
6.0
 40
6.0
 40
6.0
 40
7.0
 40
7.0
 40
7.0
 40
8.0
 40
8.0
 40
8.0
 40
8.0
 10
107.053241618202
 20
-151.497040435216
 30
0.0
 10
107.2627034237052
 20
-151.6124511339719
 30
0.0
 10
107.281651448874
 20
-151.7977972710783
 30
0.0
 10
107.281651448874
 20
-151.9221652180958
 30
0.0
 10
107.281651448874
 20
-152.0937309732613
 30
0.0
 10
107.2354871693717
 20
-152.2453151746123
 30
0.0
 10
107.053241618202
 20
-152.3469454914272
 30
0.0
 10
106.8585937232854
 20
-152.4578775660522
 30
0.0
 10
106.6215711539002
 20
-152.4782036294152
 30
0.0
 10
106.4589626469964
 20
-152.4782036294152
 30
0.0
 10
106.3149576557129
 20
-152.4782036294152
 30
0.0
 10
106.0634656852897
 20
-152.4599446233433
 30
0.0
 10
105.8643391662423
 20
-152.3469454914272
 30
0.0
 10
105.6610785326125
 20
-152.2318793022198
 30
0.0
 10
105.6379963928613
 20
-152.0599690375059
 30
0.0
 10
105.6379963928613
 20
-151.9221652180958
 30
0.0
 10
105.6379963928613
 20
-151.752322010673
 30
0.0
 10
105.6824381246211
 20
-151.5986707520309
 30
0.0
 10
105.8643391662423
 20
-151.497040435216
 30
0.0
 10
106.0569200038677
 20
-151.3905869847218
 30
0.0
 10
106.2853298345398
 20
-151.365782297228
 30
0.0
 10
106.4589626469964
 20
-151.365782297228
 30
0.0
 10
106.6301838926133
 20
-151.365782297228
 30
0.0
 10
106.8606607805765
 20
-151.3885199274307
 30
0.0
 10
107.053241618202
 20
-151.497040435216
 30
0.0
  0
SPLINE
  5
D1
330
CC
100
AcDbEntity
  8
_U+30EC_U+30A4_U+30E4_U+30FC 1
370
     0
100
AcDbSpline
210
0.0
220
0.0
230
1.0
 70
    11
 71
     3
 72
    17
 73
    13
 74
     0
 42
0.0000000001
 43
0.0000000001
 12
1.0
 22
0.0
 32
0.0
 13
1.0
 23
0.0
 33
0.0
 40
0.0
 40
0.0
 40
0.0
 40
0.0
 40
1.0
 40
1.0
 40
1.0
 40
2.0
 40
2.0
 40
2.0
 40
3.0
 40
3.0
 40
3.0
 40
4.0
 40
4.0
 40
4.0
 40
4.0
 10
105.8305772304868
 20
-151.9221652180958
 30
0.0
 10
105.8305772304868
 20
-152.1888156086542
 30
0.0
 10
106.1141085889229
 20
-152.2384249836418
 30
0.0
 10
106.4589626469964
 20
-152.2384249836418
 30
0.0
 10
106.778322998479
 20
-152.2384249836418
 30
0.0
 10
107.0873480635059
 20
-152.2001844237555
 30
0.0
 10
107.0873480635059
 20
-151.9221652180958
 30
0.0
 10
107.0873480635059
 20
-151.6575818848287
 30
0.0
 10
106.8055392528125
 20
-151.6055609430014
 30
0.0
 10
106.4589626469964
 20
-151.6055609430014
 30
0.0
 10
106.1392577859652
 20
-151.6055609430014
 30
0.0
 10
105.8305772304868
 20
-151.6462130697273
 30
0.0
 10
105.8305772304868
 20
-151.9221652180958
 30
0.0
  0
HATCH
  5
D2
330
CC
100
AcDbEntity
  8
_U+30EC_U+30A4_U+30E4_U+30FC 1
 62
   179
420
  2234388
100
AcDbHatch
 10
0.0
 20
0.0
 30
0.0
210
0.0
220
0.0
230
1.0
  2
SOLID
 70
     1
 71
     0
 91
        2
 92
        1
 93
        1
 72
     4
 94
        3
 73
     0
 74
     1
 95
       29
 96
       25
 40
0.0
 40
0.0
 40
0.0
 40
0.0
 40
1.0
 40
1.0
 40
1.0
 40
2.0
 40
2.0
 40
2.0
 40
3.0
 40
3.0
 40
3.0
 40
4.0
 40
4.0
 40
4.0
 40
5.0
 40
5.0
 40
5.0
 40
6.0
 40
6.0
 40
6.0
 40
7.0
 40
7.0
 40
7.0
 40
8.0
 40
8.0
 40
8.0
 40
8.0
 10
107.053241618202
 20
-151.497040435216
 10
107.2627034237052
 20
-151.6124511339719
 10
107.281651448874
 20
-151.7977972710783
 10
107.281651448874
 20
-151.9221652180958
 10
107.281651448874
 20
-152.0937309732613
 10
107.2354871693717
 20
-152.2453151746123
 10
107.053241618202
 20
-152.3469454914272
 10
106.8585937232854
 20
-152.4578775660522
 10
106.6215711539002
 20
-152.4782036294152
 10
106.4589626469964
 20
-152.4782036294152
 10
106.3149576557129
 20
-152.4782036294152
 10
106.0634656852897
 20
-152.4599446233433
 10
105.8643391662423
 20
-152.3469454914272
 10
105.6610785326125
 20
-152.2318793022198
 10
105.6379963928613
 20
-152.0599690375059
 10
105.6379963928613
 20
-151.9221652180958
 10
105.6379963928613
 20
-151.752322010673
 10
105.6824381246211
 20
-151.5986707520309
 10
105.8643391662423
 20
-151.497040435216
 10
106.0569200038677
 20
-151.3905869847218
 10
106.2853298345398
 20
-151.365782297228
 10
106.4589626469964
 20
-151.365782297228
 10
106.6301838926133
 20
-151.365782297228
 10
106.8606607805765
 20
-151.3885199274307
 10
107.053241618202
 20
-151.497040435216
 97
        0
 97
        0
 92
        1
 93
        1
 72
     4
 94
        3
 73
     0
 74
     1
 95
       17
 96
       13
 40
0.0
 40
0.0
 40
0.0
 40
0.0
 40
1.0
 40
1.0
 40
1.0
 40
2.0
 40
2.0
 40
2.0
 40
3.0
 40
3.0
 40
3.0
 40
4.0
 40
4.0
 40
4.0
 40
4.0
 10
105.8305772304868
 20
-151.9221652180958
 10
105.8305772304868
 20
-152.1888156086542
 10
106.1141085889229
 20
-152.2384249836418
 10
106.4589626469964
 20
-152.2384249836418
 10
106.778322998479
 20
-152.2384249836418
 10
107.0873480635059
 20
-152.2001844237555
 10
107.0873480635059
 20
-151.9221652180958
 10
107.0873480635059
 20
-151.6575818848287
 10
106.8055392528125
 20
-151.6055609430014
 10
106.4589626469964
 20
-151.6055609430014
 10
106.1392577859652
 20
-151.6055609430014
 10
105.8305772304868
 20
-151.6462130697273
 10
105.8305772304868
 20
-151.9221652180958
 97
        0
 97
        0
 75
     2
 76
     1
 98
        0
  0
POLYLINE
  5
D3
330
CC
100
AcDbEntity
  8
_U+30EC_U+30A4_U+30E4_U+30FC 1
370
     0
100
AcDb2dPolyline
 66
     1
 10
0.0
 20
0.0
 30
0.0
  0
VERTEX
  5
D4
330
D3
100
AcDbEntity
  8
_U+30EC_U+30A4_U+30E4_U+30FC 1
370
     0
100
AcDbVertex
100
AcDb2dVertex
 10
107.2310085452409
 20
-151.1346163901677
 30
0.0
  0
VERTEX
  5
D5
330
D3
100
AcDbEntity
  8
_U+30EC_U+30A4_U+30E4_U+30FC 1
370
     0
100
AcDbVertex
100
AcDb2dVertex
 10
106.9791720652691
 20
-151.1346163901677
 30
0.0
  0
VERTEX
  5
D6
330
D3
100
AcDbEntity
  8
_U+30EC_U+30A4_U+30E4_U+30FC 1
370
     0
100
AcDbVertex
100
AcDb2dVertex
 10
106.9791720652691
 20
-150.8655544327697
 30
0.0
  0
VERTEX
  5
D7
330
D3
100
AcDbEntity
  8
_U+30EC_U+30A4_U+30E4_U+30FC 1
370
     0
100
AcDbVertex
100
AcDb2dVertex
 10
107.2310085452409
 20
-150.8655544327697
 30
0.0
  0
VERTEX
  5
D8
330
D3
100
AcDbEntity
  8
_U+30EC_U+30A4_U+30E4_U+30FC 1
370
     0
100
AcDbVertex
100
AcDb2dVertex
 10
107.2310085452409
 20
-151.1346163901677
 30
0.0
  0
SEQEND
  5
D9
330
D3
100
AcDbEntity
  8
_U+30EC_U+30A4_U+30E4_U+30FC 1
370
     0
  0
HATCH
  5
DA
330
CC
100
AcDbEntity
  8
_U+30EC_U+30A4_U+30E4_U+30FC 1
 62
   179
420
  2234388
100
AcDbHatch
 10
0.0
 20
0.0
 30
0.0
210
0.0
220
0.0
230
1.0
  2
SOLID
 70
     1
 71
     0
 91
        1
 92
        1
 93
        4
 72
     1
 10
107.2310085452409
 20
-151.1346163901677
 11
106.9791720652691
 21
-151.1346163901677
 72
     1
 10
106.9791720652691
 20
-151.1346163901677
 11
106.9791720652691
 21
-150.8655544327697
 72
     1
 10
106.9791720652691
 20
-150.8655544327697
 11
107.2310085452409
 21
-150.8655544327697
 72
     1
 10
107.2310085452409
 20
-150.8655544327697
 11
107.2310085452409
 21
-151.1346163901677
 97
        0
 75
     2
 76
     1
 98
        0
  0
SPLINE
  5
DB
330
CC
100
AcDbEntity
  8
_U+30EC_U+30A4_U+30E4_U+30FC 1
370
     0
100
AcDbSpline
210
0.0
220
0.0
230
1.0
 70
    11
 71
     3
 72
    62
 73
    58
 74
     0
 42
0.0000000001
 43
0.0000000001
 12
1.0
 22
0.0
 32
0.0
 13
1.0
 23
0.0
 33
0.0
 40
0.0
 40
0.0
 40
0.0
 40
0.0
 40
1.0
 40
1.0
 40
1.0
 40
2.0
 40
2.0
 40
2.0
 40
3.0
 40
3.0
 40
3.0
 40
4.0
 40
4.0
 40
4.0
 40
5.0
 40
5.0
 40
5.0
 40
6.0
 40
6.0
 40
6.0
 40
7.0
 40
7.0
 40
7.0
 40
8.0
 40
8.0
 40
8.0
 40
9.0
 40
9.0
 40
9.0
 40
10.0
 40
10.0
 40
10.0
 40
11.0
 40
11.0
 40
11.0
 40
12.0
 40
12.0
 40
12.0
 40
13.0
 40
13.0
 40
13.0
 40
14.0
 40
14.0
 40
14.0
 40
15.0
 40
15.0
 40
15.0
 40
16.0
 40
16.0
 40
16.0
 40
17.0
 40
17.0
 40
17.0
 40
18.0
 40
18.0
 40
18.0
 40
19.0
 40
19.0
 40
19.0
 40
19.0
 10
107.281651448874
 20
-150.0873073626518
 30
0.0
 10
107.281651448874
 20
-150.1889376794666
 30
0.0
 10
107.260636366414
 20
-150.4218261342695
 30
0.0
 10
107.074256700662
 20
-150.5551513295487
 30
0.0
 10
106.9622910973914
 20
-150.6343885257095
 30
0.0
 10
106.8627278378677
 20
-150.6388671498403
 30
0.0
 10
106.778322998479
 20
-150.6433457739711
 30
0.0
 10
106.778322998479
 20
-150.6433457739711
 30
0.0
 10
106.778322998479
 20
-150.4083902618771
 30
0.0
 10
106.778322998479
 20
-150.4083902618771
 30
0.0
 10
106.8523925514119
 20
-150.4059786950374
 30
0.0
 10
107.0873480635059
 20
-150.3946098799361
 30
0.0
 10
107.0873480635059
 20
-150.0917859867826
 30
0.0
 10
107.0873480635059
 20
-149.9446804095624
 30
0.0
 10
107.0174126251554
 20
-149.7820719026587
 30
0.0
 10
106.7890027944833
 20
-149.7820719026587
 30
0.0
 10
106.6725585670819
 20
-149.7820719026587
 30
0.0
 10
106.6236382111913
 20
-149.8227240293846
 30
0.0
 10
106.591943332727
 20
-149.8568304746886
 30
0.0
 10
106.5182182893427
 20
-149.9357231613008
 30
0.0
 10
106.5054714360472
 20
-150.0600911083183
 30
0.0
 10
106.5054714360472
 20
-150.1190022411161
 30
0.0
 10
106.5054714360472
 20
-150.1393283044791
 30
0.0
 10
106.5075384933384
 20
-150.1775688643653
 30
0.0
 10
106.5116726079207
 20
-150.2071966855385
 30
0.0
 10
106.5116726079207
 20
-150.2071966855385
 30
0.0
 10
106.3170247130041
 20
-150.2071966855385
 30
0.0
 10
106.3170247130041
 20
-150.2071966855385
 30
0.0
 10
106.3232258848775
 20
-150.1665445588125
 30
0.0
 10
106.3256374517172
 20
-150.1210692984072
 30
0.0
 10
106.3256374517172
 20
-150.1145236169853
 30
0.0
 10
106.3256374517172
 20
-150.0442436690862
 30
0.0
 10
106.3046223692572
 20
-149.8316812776463
 30
0.0
 10
106.067599799872
 20
-149.8316812776463
 30
0.0
 10
105.8898328728331
 20
-149.8316812776463
 30
0.0
 10
105.8347113450691
 20
-149.9718966638959
 30
0.0
 10
105.8347113450691
 20
-150.0893744199429
 30
0.0
 10
105.8347113450691
 20
-150.3722167592819
 30
0.0
 10
106.067599799872
 20
-150.3811740075436
 30
0.0
 10
106.1392577859652
 20
-150.3856526316744
 30
0.0
 10
106.1392577859652
 20
-150.3856526316744
 30
0.0
 10
106.1392577859652
 20
-150.6026936472452
 30
0.0
 10
106.1392577859652
 20
-150.6026936472452
 30
0.0
 10
106.0145453293991
 20
-150.5937363989835
 30
0.0
 10
105.6379963928613
 20
-150.5644530873589
 30
0.0
 10
105.6379963928613
 20
-150.0759385475505
 30
0.0
 10
105.6379963928613
 20
-149.8361599017771
 30
0.0
 10
105.7651204162671
 20
-149.5784667594804
 30
0.0
 10
106.06105411845
 20
-149.5784667594804
 30
0.0
 10
106.247433784202
 20
-149.5784667594804
 30
0.0
 10
106.3297715662995
 20
-149.6804415858438
 30
0.0
 10
106.391094265937
 20
-149.7865505267895
 30
0.0
 10
106.418655029819
 20
-149.7210937125697
 30
0.0
 10
106.4989257546253
 20
-149.5264458176531
 30
0.0
 10
106.7762559411879
 20
-149.5264458176531
 30
0.0
 10
107.1149088273879
 20
-149.5264458176531
 30
0.0
 10
107.281651448874
 20
-149.7910291509203
 30
0.0
 10
107.281651448874
 20
-150.0873073626518
 30
0.0
  0
HATCH
  5
DC
330
CC
100
AcDbEntity
  8
_U+30EC_U+30A4_U+30E4_U+30FC 1
 62
   179
420
  2234388
100
AcDbHatch
 10
0.0
 20
0.0
 30
0.0
210
0.0
220
0.0
230
1.0
  2
SOLID
 70
     1
 71
     0
 91
        1
 92
        1
 93
        1
 72
     4
 94
        3
 73
     0
 74
     1
 95
       62
 96
       58
 40
0.0
 40
0.0
 40
0.0
 40
0.0
 40
1.0
 40
1.0
 40
1.0
 40
2.0
 40
2.0
 40
2.0
 40
3.0
 40
3.0
 40
3.0
 40
4.0
 40
4.0
 40
4.0
 40
5.0
 40
5.0
 40
5.0
 40
6.0
 40
6.0
 40
6.0
 40
7.0
 40
7.0
 40
7.0
 40
8.0
 40
8.0
 40
8.0
 40
9.0
 40
9.0
 40
9.0
 40
10.0
 40
10.0
 40
10.0
 40
11.0
 40
11.0
 40
11.0
 40
12.0
 40
12.0
 40
12.0
 40
13.0
 40
13.0
 40
13.0
 40
14.0
 40
14.0
 40
14.0
 40
15.0
 40
15.0
 40
15.0
 40
16.0
 40
16.0
 40
16.0
 40
17.0
 40
17.0
 40
17.0
 40
18.0
 40
18.0
 40
18.0
 40
19.0
 40
19.0
 40
19.0
 40
19.0
 10
107.281651448874
 20
-150.0873073626518
 10
107.281651448874
 20
-150.1889376794666
 10
107.260636366414
 20
-150.4218261342695
 10
107.074256700662
 20
-150.5551513295487
 10
106.9622910973914
 20
-150.6343885257095
 10
106.8627278378677
 20
-150.6388671498403
 10
106.778322998479
 20
-150.6433457739711
 10
106.778322998479
 20
-150.6433457739711
 10
106.778322998479
 20
-150.4083902618771
 10
106.778322998479
 20
-150.4083902618771
 10
106.8523925514119
 20
-150.4059786950374
 10
107.0873480635059
 20
-150.3946098799361
 10
107.0873480635059
 20
-150.0917859867826
 10
107.0873480635059
 20
-149.9446804095624
 10
107.0174126251554
 20
-149.7820719026587
 10
106.7890027944833
 20
-149.7820719026587
 10
106.6725585670819
 20
-149.7820719026587
 10
106.6236382111913
 20
-149.8227240293846
 10
106.591943332727
 20
-149.8568304746886
 10
106.5182182893427
 20
-149.9357231613008
 10
106.5054714360472
 20
-150.0600911083183
 10
106.5054714360472
 20
-150.1190022411161
 10
106.5054714360472
 20
-150.1393283044791
 10
106.5075384933384
 20
-150.1775688643653
 10
106.5116726079207
 20
-150.2071966855385
 10
106.5116726079207
 20
-150.2071966855385
 10
106.3170247130041
 20
-150.2071966855385
 10
106.3170247130041
 20
-150.2071966855385
 10
106.3232258848775
 20
-150.1665445588125
 10
106.3256374517172
 20
-150.1210692984072
 10
106.3256374517172
 20
-150.1145236169853
 10
106.3256374517172
 20
-150.0442436690862
 10
106.3046223692572
 20
-149.8316812776463
 10
106.067599799872
 20
-149.8316812776463
 10
105.8898328728331
 20
-149.8316812776463
 10
105.8347113450691
 20
-149.9718966638959
 10
105.8347113450691
 20
-150.0893744199429
 10
105.8347113450691
 20
-150.3722167592819
 10
106.067599799872
 20
-150.3811740075436
 10
106.1392577859652
 20
-150.3856526316744
 10
106.1392577859652
 20
-150.3856526316744
 10
106.1392577859652
 20
-150.6026936472452
 10
106.1392577859652
 20
-150.6026936472452
 10
106.0145453293991
 20
-150.5937363989835
 10
105.6379963928613
 20
-150.5644530873589
 10
105.6379963928613
 20
-150.0759385475505
 10
105.6379963928613
 20
-149.8361599017771
 10
105.7651204162671
 20
-149.5784667594804
 10
106.06105411845
 20
-149.5784667594804
 10
106.247433784202
 20
-149.5784667594804
 10
106.3297715662995
 20
-149.6804415858438
 10
106.391094265937
 20
-149.7865505267895
 10
106.418655029819
 20
-149.7210937125697
 10
106.4989257546253
 20
-149.5264458176531
 10
106.7762559411879
 20
-149.5264458176531
 10
107.1149088273879
 20
-149.5264458176531
 10
107.281651448874
 20
-149.7910291509203
 10
107.281651448874
 20
-150.0873073626518
 97
        0
 97
        0
 75
     2
 76
     1
 98
        0
  0
ENDBLK
  5
CF
330
CC
100
AcDbEntity
  8
0
100
AcDbBlockEnd
  0
BLOCK
  5
EB
330
E9
100
AcDbEntity
  8
0
100
AcDbBlockBegin
  2
block 6
 70
     0
 10
0.0
 20
0.0
 30
0.0
  3
block 6
  1

  0
SPLINE
  5
ED
330
E9
100
AcDbEntity
  8
_U+30EC_U+30A4_U+30E4_U+30FC 1
370
     0
100
AcDbSpline
210
0.0
220
0.0
230
1.0
 70
    11
 71
     3
 72
    44
 73
    40
 74
     0
 42
0.0000000001
 43
0.0000000001
 12
1.0
 22
0.0
 32
0.0
 13
1.0
 23
0.0
 33
0.0
 40
0.0
 40
0.0
 40
0.0
 40
0.0
 40
1.0
 40
1.0
 40
1.0
 40
2.0
 40
2.0
 40
2.0
 40
3.0
 40
3.0
 40
3.0
 40
4.0
 40
4.0
 40
4.0
 40
5.0
 40
5.0
 40
5.0
 40
6.0
 40
6.0
 40
6.0
 40
7.0
 40
7.0
 40
7.0
 40
8.0
 40
8.0
 40
8.0
 40
9.0
 40
9.0
 40
9.0
 40
10.0
 40
10.0
 40
10.0
 40
11.0
 40
11.0
 40
11.0
 40
12.0
 40
12.0
 40
12.0
 40
13.0
 40
13.0
 40
13.0
 40
13.0
 10
102.0085882991506
 20
-138.7639675217326
 30
0.0
 10
101.7756998443477
 20
-138.9226141688284
 30
0.0
 10
101.676136584824
 20
-138.9966837217613
 30
0.0
 10
101.6241156429968
 20
-139.1405164582704
 30
0.0
 10
101.6241156429968
 20
-139.1405164582704
 30
0.0
 10
102.4564507122331
 20
-139.1405164582704
 30
0.0
 10
102.4564507122331
 20
-139.1405164582704
 30
0.0
 10
102.4564507122331
 20
-139.1405164582704
 30
0.0
 10
102.4564507122331
 20
-139.3456718944171
 30
0.0
 10
102.4564507122331
 20
-139.3456718944171
 30
0.0
 10
102.4564507122331
 20
-139.3456718944171
 30
0.0
 10
101.3574652524384
 20
-139.3456718944171
 30
0.0
 10
101.3574652524384
 20
-139.3456718944171
 30
0.0
 10
101.3915716977424
 20
-138.9880709830481
 30
0.0
 10
101.461507136093
 20
-138.9098673155329
 30
0.0
 10
101.8728515370318
 20
-138.6115220465103
 30
0.0
 10
102.1463921185606
 20
-138.4127400370114
 30
0.0
 10
102.2166720664597
 20
-138.3450439107262
 30
0.0
 10
102.2166720664597
 20
-138.2075846008648
 30
0.0
 10
102.2166720664597
 20
-138.0890733161722
 30
0.0
 10
102.1398464371387
 20
-137.9579874329584
 30
0.0
 10
101.9293511029899
 20
-137.9579874329584
 30
0.0
 10
101.6513318973302
 20
-137.9579874329584
 30
0.0
 10
101.6423746490686
 20
-138.1884643209216
 30
0.0
 10
101.6378960249378
 20
-138.3049085483231
 30
0.0
 10
101.6378960249378
 20
-138.3049085483231
 30
0.0
 10
101.3981173791644
 20
-138.3049085483231
 30
0.0
 10
101.3981173791644
 20
-138.3049085483231
 30
0.0
 10
101.407074627426
 20
-138.1779567796916
 30
0.0
 10
101.4184434425273
 20
-138.0658189216468
 30
0.0
 10
101.5045708296586
 20
-137.9473076369542
 30
0.0
 10
101.6220485857056
 20
-137.7865939325673
 30
0.0
 10
101.8208305952045
 20
-137.7526597420375
 30
0.0
 10
101.945198542222
 20
-137.7526597420375
 30
0.0
 10
102.2414767539535
 20
-137.7526597420375
 30
0.0
 10
102.4629963936551
 20
-137.9368000957242
 30
0.0
 10
102.4629963936551
 20
-138.2096516581559
 30
0.0
 10
102.4629963936551
 20
-138.438061488828
 30
0.0
 10
102.3386284466376
 20
-138.5376247483517
 30
0.0
 10
102.0085882991506
 20
-138.7639675217326
 30
0.0
  0
HATCH
  5
EE
330
E9
100
AcDbEntity
  8
_U+30EC_U+30A4_U+30E4_U+30FC 1
 62
   179
420
  2234388
100
AcDbHatch
 10
0.0
 20
0.0
 30
0.0
210
0.0
220
0.0
230
1.0
  2
SOLID
 70
     1
 71
     0
 91
        1
 92
        1
 93
        1
 72
     4
 94
        3
 73
     0
 74
     1
 95
       44
 96
       40
 40
0.0
 40
0.0
 40
0.0
 40
0.0
 40
1.0
 40
1.0
 40
1.0
 40
2.0
 40
2.0
 40
2.0
 40
3.0
 40
3.0
 40
3.0
 40
4.0
 40
4.0
 40
4.0
 40
5.0
 40
5.0
 40
5.0
 40
6.0
 40
6.0
 40
6.0
 40
7.0
 40
7.0
 40
7.0
 40
8.0
 40
8.0
 40
8.0
 40
9.0
 40
9.0
 40
9.0
 40
10.0
 40
10.0
 40
10.0
 40
11.0
 40
11.0
 40
11.0
 40
12.0
 40
12.0
 40
12.0
 40
13.0
 40
13.0
 40
13.0
 40
13.0
 10
102.0085882991506
 20
-138.7639675217326
 10
101.7756998443477
 20
-138.9226141688284
 10
101.676136584824
 20
-138.9966837217613
 10
101.6241156429968
 20
-139.1405164582704
 10
101.6241156429968
 20
-139.1405164582704
 10
102.4564507122331
 20
-139.1405164582704
 10
102.4564507122331
 20
-139.1405164582704
 10
102.4564507122331
 20
-139.1405164582704
 10
102.4564507122331
 20
-139.3456718944171
 10
102.4564507122331
 20
-139.3456718944171
 10
102.4564507122331
 20
-139.3456718944171
 10
101.3574652524384
 20
-139.3456718944171
 10
101.3574652524384
 20
-139.3456718944171
 10
101.3915716977424
 20
-138.9880709830481
 10
101.461507136093
 20
-138.9098673155329
 10
101.8728515370318
 20
-138.6115220465103
 10
102.1463921185606
 20
-138.4127400370114
 10
102.2166720664597
 20
-138.3450439107262
 10
102.2166720664597
 20
-138.2075846008648
 10
102.2166720664597
 20
-138.0890733161722
 10
102.1398464371387
 20
-137.9579874329584
 10
101.9293511029899
 20
-137.9579874329584
 10
101.6513318973302
 20
-137.9579874329584
 10
101.6423746490686
 20
-138.1884643209216
 10
101.6378960249378
 20
-138.3049085483231
 10
101.6378960249378
 20
-138.3049085483231
 10
101.3981173791644
 20
-138.3049085483231
 10
101.3981173791644
 20
-138.3049085483231
 10
101.407074627426
 20
-138.1779567796916
 10
101.4184434425273
 20
-138.0658189216468
 10
101.5045708296586
 20
-137.9473076369542
 10
101.6220485857056
 20
-137.7865939325673
 10
101.8208305952045
 20
-137.7526597420375
 10
101.945198542222
 20
-137.7526597420375
 10
102.2414767539535
 20
-137.7526597420375
 10
102.4629963936551
 20
-137.9368000957242
 10
102.4629963936551
 20
-138.2096516581559
 10
102.4629963936551
 20
-138.438061488828
 10
102.3386284466376
 20
-138.5376247483517
 10
102.0085882991506
 20
-138.7639675217326
 97
        0
 97
        0
 75
     2
 76
     1
 98
        0
  0
SPLINE
  5
EF
330
E9
100
AcDbEntity
  8
_U+30EC_U+30A4_U+30E4_U+30FC 1
370
     0
100
AcDbSpline
210
0.0
220
0.0
230
1.0
 70
    11
 71
     3
 72
    29
 73
    25
 74
     0
 42
0.0000000001
 43
0.0000000001
 12
1.0
 22
0.0
 32
0.0
 13
1.0
 23
0.0
 33
0.0
 40
0.0
 40
0.0
 40
0.0
 40
0.0
 40
1.0
 40
1.0
 40
1.0
 40
2.0
 40
2.0
 40
2.0
 40
3.0
 40
3.0
 40
3.0
 40
4.0
 40
4.0
 40
4.0
 40
5.0
 40
5.0
 40
5.0
 40
6.0
 40
6.0
 40
6.0
 40
7.0
 40
7.0
 40
7.0
 40
8.0
 40
8.0
 40
8.0
 40
8.0
 10
103.1668294012916
 20
-139.3964870528245
 30
0.0
 10
102.88226451421
 20
-139.3964870528245
 30
0.0
 10
102.6107909899723
 20
-139.2588554881888
 30
0.0
 10
102.6107909899723
 20
-138.9098673155329
 30
0.0
 10
102.6107909899723
 20
-138.6538967209789
 30
0.0
 10
102.7623751913233
 20
-138.5586398308117
 30
0.0
 10
102.8753743232395
 20
-138.4973171311743
 30
0.0
 10
102.7420491279603
 20
-138.438061488828
 30
0.0
 10
102.6604003649599
 20
-138.323856573492
 30
0.0
 10
102.6604003649599
 20
-138.1631428691051
 30
0.0
 10
102.6604003649599
 20
-137.8880519946078
 30
0.0
 10
102.8729627563998
 20
-137.7526597420375
 30
0.0
 10
103.1668294012916
 20
-137.7526597420375
 30
0.0
 10
103.4699978039936
 20
-137.7526597420375
 30
0.0
 10
103.6732584376234
 20
-137.8964924785467
 30
0.0
 10
103.6732584376234
 20
-138.1631428691051
 30
0.0
 10
103.6732584376234
 20
-138.323856573492
 30
0.0
 10
103.5898871268803
 20
-138.438061488828
 30
0.0
 10
103.4562174220526
 20
-138.4973171311743
 30
0.0
 10
103.5513020574455
 20
-138.5481322895817
 30
0.0
 10
103.7208007553198
 20
-138.6433891797489
 30
0.0
 10
103.7208007553198
 20
-138.9057332009507
 30
0.0
 10
103.7208007553198
 20
-139.280042825423
 30
0.0
 10
103.4224554862972
 20
-139.3964870528245
 30
0.0
 10
103.1668294012916
 20
-139.3964870528245
 30
0.0
  0
SPLINE
  5
F0
330
E9
100
AcDbEntity
  8
_U+30EC_U+30A4_U+30E4_U+30FC 1
370
     0
100
AcDbSpline
210
0.0
220
0.0
230
1.0
 70
    11
 71
     3
 72
    17
 73
    13
 74
     0
 42
0.0000000001
 43
0.0000000001
 12
1.0
 22
0.0
 32
0.0
 13
1.0
 23
0.0
 33
0.0
 40
0.0
 40
0.0
 40
0.0
 40
0.0
 40
1.0
 40
1.0
 40
1.0
 40
2.0
 40
2.0
 40
2.0
 40
3.0
 40
3.0
 40
3.0
 40
4.0
 40
4.0
 40
4.0
 40
4.0
 10
103.1668294012916
 20
-138.6053208746369
 30
0.0
 10
103.0131781426495
 20
-138.6053208746369
 30
0.0
 10
102.8505696357457
 20
-138.6919650260909
 30
0.0
 10
102.8505696357457
 20
-138.8950534049464
 30
0.0
 10
102.8505696357457
 20
-139.100208841093
 30
0.0
 10
102.985961888316
 20
-139.2018391579079
 30
0.0
 10
103.1668294012916
 20
-139.2018391579079
 30
0.0
 10
103.3659559203391
 20
-139.2018391579079
 30
0.0
 10
103.4834336763861
 20
-139.079193758633
 30
0.0
 10
103.4834336763861
 20
-138.9014268315941
 30
0.0
 10
103.4834336763861
 20
-138.6792181727955
 30
0.0
 10
103.309456354381
 20
-138.6053208746369
 30
0.0
 10
103.1668294012916
 20
-138.6053208746369
 30
0.0
  0
SPLINE
  5
F1
330
E9
100
AcDbEntity
  8
_U+30EC_U+30A4_U+30E4_U+30FC 1
370
     0
100
AcDbSpline
210
0.0
220
0.0
230
1.0
 70
    11
 71
     3
 72
    17
 73
    13
 74
     0
 42
0.0000000001
 43
0.0000000001
 12
1.0
 22
0.0
 32
0.0
 13
1.0
 23
0.0
 33
0.0
 40
0.0
 40
0.0
 40
0.0
 40
0.0
 40
1.0
 40
1.0
 40
1.0
 40
2.0
 40
2.0
 40
2.0
 40
3.0
 40
3.0
 40
3.0
 40
4.0
 40
4.0
 40
4.0
 40
4.0
 10
103.1668294012916
 20
-137.945240579663
 30
0.0
 10
102.9904405124468
 20
-137.945240579663
 30
0.0
 10
102.9001790107333
 20
-138.0403252150559
 30
0.0
 10
102.9001790107333
 20
-138.1757174676262
 30
0.0
 10
102.9001790107333
 20
-138.2985351216754
 30
0.0
 10
102.9770046400544
 20
-138.417046406368
 30
0.0
 10
103.1668294012916
 20
-138.417046406368
 30
0.0
 10
103.3569986720774
 20
-138.417046406368
 30
0.0
 10
103.4338243013985
 20
-138.2985351216754
 30
0.0
 10
103.4338243013985
 20
-138.1757174676262
 30
0.0
 10
103.4338243013985
 20
-138.0403252150559
 30
0.0
 10
103.3411512328453
 20
-137.945240579663
 30
0.0
 10
103.1668294012916
 20
-137.945240579663
 30
0.0
  0
HATCH
  5
F2
330
E9
100
AcDbEntity
  8
_U+30EC_U+30A4_U+30E4_U+30FC 1
 62
   179
420
  2234388
100
AcDbHatch
 10
0.0
 20
0.0
 30
0.0
210
0.0
220
0.0
230
1.0
  2
SOLID
 70
     1
 71
     0
 91
        3
 92
        1
 93
        1
 72
     4
 94
        3
 73
     0
 74
     1
 95
       29
 96
       25
 40
0.0
 40
0.0
 40
0.0
 40
0.0
 40
1.0
 40
1.0
 40
1.0
 40
2.0
 40
2.0
 40
2.0
 40
3.0
 40
3.0
 40
3.0
 40
4.0
 40
4.0
 40
4.0
 40
5.0
 40
5.0
 40
5.0
 40
6.0
 40
6.0
 40
6.0
 40
7.0
 40
7.0
 40
7.0
 40
8.0
 40
8.0
 40
8.0
 40
8.0
 10
103.1668294012916
 20
-139.3964870528245
 10
102.88226451421
 20
-139.3964870528245
 10
102.6107909899723
 20
-139.2588554881888
 10
102.6107909899723
 20
-138.9098673155329
 10
102.6107909899723
 20
-138.6538967209789
 10
102.7623751913233
 20
-138.5586398308117
 10
102.8753743232395
 20
-138.4973171311743
 10
102.7420491279603
 20
-138.438061488828
 10
102.6604003649599
 20
-138.323856573492
 10
102.6604003649599
 20
-138.1631428691051
 10
102.6604003649599
 20
-137.8880519946078
 10
102.8729627563998
 20
-137.7526597420375
 10
103.1668294012916
 20
-137.7526597420375
 10
103.4699978039936
 20
-137.7526597420375
 10
103.6732584376234
 20
-137.8964924785467
 10
103.6732584376234
 20
-138.1631428691051
 10
103.6732584376234
 20
-138.323856573492
 10
103.5898871268803
 20
-138.438061488828
 10
103.4562174220526
 20
-138.4973171311743
 10
103.5513020574455
 20
-138.5481322895817
 10
103.7208007553198
 20
-138.6433891797489
 10
103.7208007553198
 20
-138.9057332009507
 10
103.7208007553198
 20
-139.280042825423
 10
103.4224554862972
 20
-139.3964870528245
 10
103.1668294012916
 20
-139.3964870528245
 97
        0
 97
        0
 92
        1
 93
        1
 72
     4
 94
        3
 73
     0
 74
     1
 95
       17
 96
       13
 40
0.0
 40
0.0
 40
0.0
 40
0.0
 40
1.0
 40
1.0
 40
1.0
 40
2.0
 40
2.0
 40
2.0
 40
3.0
 40
3.0
 40
3.0
 40
4.0
 40
4.0
 40
4.0
 40
4.0
 10
103.1668294012916
 20
-138.6053208746369
 10
103.0131781426495
 20
-138.6053208746369
 10
102.8505696357457
 20
-138.6919650260909
 10
102.8505696357457
 20
-138.8950534049464
 10
102.8505696357457
 20
-139.100208841093
 10
102.985961888316
 20
-139.2018391579079
 10
103.1668294012916
 20
-139.2018391579079
 10
103.3659559203391
 20
-139.2018391579079
 10
103.4834336763861
 20
-139.079193758633
 10
103.4834336763861
 20
-138.9014268315941
 10
103.4834336763861
 20
-138.6792181727955
 10
103.309456354381
 20
-138.6053208746369
 10
103.1668294012916
 20
-138.6053208746369
 97
        0
 97
        0
 92
        1
 93
        1
 72
     4
 94
        3
 73
     0
 74
     1
 95
       17
 96
       13
 40
0.0
 40
0.0
 40
0.0
 40
0.0
 40
1.0
 40
1.0
 40
1.0
 40
2.0
 40
2.0
 40
2.0
 40
3.0
 40
3.0
 40
3.0
 40
4.0
 40
4.0
 40
4.0
 40
4.0
 10
103.1668294012916
 20
-137.945240579663
 10
102.9904405124468
 20
-137.945240579663
 10
102.9001790107333
 20
-138.0403252150559
 10
102.9001790107333
 20
-138.1757174676262
 10
102.9001790107333
 20
-138.2985351216754
 10
102.9770046400544
 20
-138.417046406368
 10
103.1668294012916
 20
-138.417046406368
 10
103.3569986720774
 20
-138.417046406368
 10
103.4338243013985
 20
-138.2985351216754
 10
103.4338243013985
 20
-138.1757174676262
 10
103.4338243013985
 20
-138.0403252150559
 10
103.3411512328453
 20
-137.945240579663
 10
103.1668294012916
 20
-137.945240579663
 97
        0
 97
        0
 75
     2
 76
     1
 98
        0
  0
ENDBLK
  5
EC
330
E9
100
AcDbEntity
  8
0
100
AcDbBlockEnd
  0
BLOCK
  5
FD
330
FB
100
AcDbEntity
  8
0
100
AcDbBlockBegin
  2
block 7
 70
     0
 10
0.0
 20
0.0
 30
0.0
  3
block 7
  1

  0
SPLINE
  5
FF
330
FB
100
AcDbEntity
  8
_U+30EC_U+30A4_U+30E4_U+30FC 1
370
     0
100
AcDbSpline
210
0.0
220
0.0
230
1.0
 70
    11
 71
     3
 72
    29
 73
    25
 74
     0
 42
0.0000000001
 43
0.0000000001
 12
1.0
 22
0.0
 32
0.0
 13
1.0
 23
0.0
 33
0.0
 40
0.0
 40
0.0
 40
0.0
 40
0.0
 40
1.0
 40
1.0
 40
1.0
 40
2.0
 40
2.0
 40
2.0
 40
3.0
 40
3.0
 40
3.0
 40
4.0
 40
4.0
 40
4.0
 40
5.0
 40
5.0
 40
5.0
 40
6.0
 40
6.0
 40
6.0
 40
7.0
 40
7.0
 40
7.0
 40
8.0
 40
8.0
 40
8.0
 40
8.0
 10
119.2822970621933
 20
-150.6726290855957
 30
0.0
 10
119.2822970621933
 20
-150.9571939726774
 30
0.0
 10
119.1448377523319
 20
-151.2286674969151
 30
0.0
 10
118.795849579676
 20
-151.2286674969151
 30
0.0
 10
118.539878985122
 20
-151.2286674969151
 30
0.0
 10
118.4444498401806
 20
-151.0770832955641
 30
0.0
 10
118.3831271405431
 20
-150.9640841636479
 30
0.0
 10
118.3238714981968
 20
-151.0974093589271
 30
0.0
 10
118.209838837635
 20
-151.1790581219275
 30
0.0
 10
118.0489528784739
 20
-151.1790581219275
 30
0.0
 10
117.7740342587509
 20
-151.1790581219275
 30
0.0
 10
117.6386420061806
 20
-150.9664957304875
 30
0.0
 10
117.6386420061806
 20
-150.6726290855957
 30
0.0
 10
117.6386420061806
 20
-150.3694606828938
 30
0.0
 10
117.7823024879155
 20
-150.166200049264
 30
0.0
 10
118.0489528784739
 20
-150.166200049264
 30
0.0
 10
118.209838837635
 20
-150.166200049264
 30
0.0
 10
118.3238714981968
 20
-150.2495713600071
 30
0.0
 10
118.3831271405431
 20
-150.3832410648347
 30
0.0
 10
118.4341145537248
 20
-150.2881564294419
 30
0.0
 10
118.5291991891177
 20
-150.1186577315676
 30
0.0
 10
118.7917154650937
 20
-150.1186577315676
 30
0.0
 10
119.1658528347919
 20
-150.1186577315676
 30
0.0
 10
119.2822970621933
 20
-150.4170030005902
 30
0.0
 10
119.2822970621933
 20
-150.6726290855957
 30
0.0
  0
SPLINE
  5
100
330
FB
100
AcDbEntity
  8
_U+30EC_U+30A4_U+30E4_U+30FC 1
370
     0
100
AcDbSpline
210
0.0
220
0.0
230
1.0
 70
    11
 71
     3
 72
    17
 73
    13
 74
     0
 42
0.0000000001
 43
0.0000000001
 12
1.0
 22
0.0
 32
0.0
 13
1.0
 23
0.0
 33
0.0
 40
0.0
 40
0.0
 40
0.0
 40
0.0
 40
1.0
 40
1.0
 40
1.0
 40
2.0
 40
2.0
 40
2.0
 40
3.0
 40
3.0
 40
3.0
 40
4.0
 40
4.0
 40
4.0
 40
4.0
 10
117.8312228438061
 20
-150.6726290855957
 30
0.0
 10
117.8312228438061
 20
-150.8490179744405
 30
0.0
 10
117.926307479199
 20
-150.9392794761541
 30
0.0
 10
118.0616997317693
 20
-150.9392794761541
 30
0.0
 10
118.1843451310442
 20
-150.9392794761541
 30
0.0
 10
118.3028564157368
 20
-150.862453846833
 30
0.0
 10
118.3028564157368
 20
-150.6726290855957
 30
0.0
 10
118.3028564157368
 20
-150.4824598148099
 30
0.0
 10
118.1843451310442
 20
-150.4056341854889
 30
0.0
 10
118.0616997317693
 20
-150.4056341854889
 30
0.0
 10
117.926307479199
 20
-150.4056341854889
 30
0.0
 10
117.8312228438061
 20
-150.4983072540421
 30
0.0
 10
117.8312228438061
 20
-150.6726290855957
 30
0.0
  0
SPLINE
  5
101
330
FB
100
AcDbEntity
  8
_U+30EC_U+30A4_U+30E4_U+30FC 1
370
     0
100
AcDbSpline
210
0.0
220
0.0
230
1.0
 70
    11
 71
     3
 72
    17
 73
    13
 74
     0
 42
0.0000000001
 43
0.0000000001
 12
1.0
 22
0.0
 32
0.0
 13
1.0
 23
0.0
 33
0.0
 40
0.0
 40
0.0
 40
0.0
 40
0.0
 40
1.0
 40
1.0
 40
1.0
 40
2.0
 40
2.0
 40
2.0
 40
3.0
 40
3.0
 40
3.0
 40
4.0
 40
4.0
 40
4.0
 40
4.0
 10
118.49130313878
 20
-150.6726290855957
 30
0.0
 10
118.49130313878
 20
-150.8262803442379
 30
0.0
 10
118.5777750354597
 20
-150.9888888511417
 30
0.0
 10
118.7810356690895
 20
-150.9888888511417
 30
0.0
 10
118.9860188504618
 20
-150.9888888511417
 30
0.0
 10
119.0876491672767
 20
-150.8534965985714
 30
0.0
 10
119.0876491672767
 20
-150.6726290855957
 30
0.0
 10
119.0876491672767
 20
-150.4735025665483
 30
0.0
 10
118.9650037680018
 20
-150.3560248105013
 30
0.0
 10
118.7872368409629
 20
-150.3560248105013
 30
0.0
 10
118.5650281821643
 20
-150.3560248105013
 30
0.0
 10
118.49130313878
 20
-150.5300021325064
 30
0.0
 10
118.49130313878
 20
-150.6726290855957
 30
0.0
  0
HATCH
  5
102
330
FB
100
AcDbEntity
  8
_U+30EC_U+30A4_U+30E4_U+30FC 1
 62
   179
420
  2234388
100
AcDbHatch
 10
0.0
 20
0.0
 30
0.0
210
0.0
220
0.0
230
1.0
  2
SOLID
 70
     1
 71
     0
 91
        3
 92
        1
 93
        1
 72
     4
 94
        3
 73
     0
 74
     1
 95
       29
 96
       25
 40
0.0
 40
0.0
 40
0.0
 40
0.0
 40
1.0
 40
1.0
 40
1.0
 40
2.0
 40
2.0
 40
2.0
 40
3.0
 40
3.0
 40
3.0
 40
4.0
 40
4.0
 40
4.0
 40
5.0
 40
5.0
 40
5.0
 40
6.0
 40
6.0
 40
6.0
 40
7.0
 40
7.0
 40
7.0
 40
8.0
 40
8.0
 40
8.0
 40
8.0
 10
119.2822970621933
 20
-150.6726290855957
 10
119.2822970621933
 20
-150.9571939726774
 10
119.1448377523319
 20
-151.2286674969151
 10
118.795849579676
 20
-151.2286674969151
 10
118.539878985122
 20
-151.2286674969151
 10
118.4444498401806
 20
-151.0770832955641
 10
118.3831271405431
 20
-150.9640841636479
 10
118.3238714981968
 20
-151.0974093589271
 10
118.209838837635
 20
-151.1790581219275
 10
118.0489528784739
 20
-151.1790581219275
 10
117.7740342587509
 20
-151.1790581219275
 10
117.6386420061806
 20
-150.9664957304875
 10
117.6386420061806
 20
-150.6726290855957
 10
117.6386420061806
 20
-150.3694606828938
 10
117.7823024879155
 20
-150.166200049264
 10
118.0489528784739
 20
-150.166200049264
 10
118.209838837635
 20
-150.166200049264
 10
118.3238714981968
 20
-150.2495713600071
 10
118.3831271405431
 20
-150.3832410648347
 10
118.4341145537248
 20
-150.2881564294419
 10
118.5291991891177
 20
-150.1186577315676
 10
118.7917154650937
 20
-150.1186577315676
 10
119.1658528347919
 20
-150.1186577315676
 10
119.2822970621933
 20
-150.4170030005902
 10
119.2822970621933
 20
-150.6726290855957
 97
        0
 97
        0
 92
        1
 93
        1
 72
     4
 94
        3
 73
     0
 74
     1
 95
       17
 96
       13
 40
0.0
 40
0.0
 40
0.0
 40
0.0
 40
1.0
 40
1.0
 40
1.0
 40
2.0
 40
2.0
 40
2.0
 40
3.0
 40
3.0
 40
3.0
 40
4.0
 40
4.0
 40
4.0
 40
4.0
 10
117.8312228438061
 20
-150.6726290855957
 10
117.8312228438061
 20
-150.8490179744405
 10
117.926307479199
 20
-150.9392794761541
 10
118.0616997317693
 20
-150.9392794761541
 10
118.1843451310442
 20
-150.9392794761541
 10
118.3028564157368
 20
-150.862453846833
 10
118.3028564157368
 20
-150.6726290855957
 10
118.3028564157368
 20
-150.4824598148099
 10
118.1843451310442
 20
-150.4056341854889
 10
118.0616997317693
 20
-150.4056341854889
 10
117.926307479199
 20
-150.4056341854889
 10
117.8312228438061
 20
-150.4983072540421
 10
117.8312228438061
 20
-150.6726290855957
 97
        0
 97
        0
 92
        1
 93
        1
 72
     4
 94
        3
 73
     0
 74
     1
 95
       17
 96
       13
 40
0.0
 40
0.0
 40
0.0
 40
0.0
 40
1.0
 40
1.0
 40
1.0
 40
2.0
 40
2.0
 40
2.0
 40
3.0
 40
3.0
 40
3.0
 40
4.0
 40
4.0
 40
4.0
 40
4.0
 10
118.49130313878
 20
-150.6726290855957
 10
118.49130313878
 20
-150.8262803442379
 10
118.5777750354597
 20
-150.9888888511417
 10
118.7810356690895
 20
-150.9888888511417
 10
118.9860188504618
 20
-150.9888888511417
 10
119.0876491672767
 20
-150.8534965985714
 10
119.0876491672767
 20
-150.6726290855957
 10
119.0876491672767
 20
-150.4735025665483
 10
118.9650037680018
 20
-150.3560248105013
 10
118.7872368409629
 20
-150.3560248105013
 10
118.5650281821643
 20
-150.3560248105013
 10
118.49130313878
 20
-150.5300021325064
 10
118.49130313878
 20
-150.6726290855957
 97
        0
 97
        0
 75
     2
 76
     1
 98
        0
  0
POLYLINE
  5
103
330
FB
100
AcDbEntity
  8
_U+30EC_U+30A4_U+30E4_U+30FC 1
370
     0
100
AcDb2dPolyline
 66
     1
 10
0.0
 20
0.0
 30
0.0
  0
VERTEX
  5
104
330
103
100
AcDbEntity
  8
_U+30EC_U+30A4_U+30E4_U+30FC 1
370
     0
100
AcDbVertex
100
AcDb2dVertex
 10
119.2316541585601
 20
-149.8850802576676
 30
0.0
  0
VERTEX
  5
105
330
103
100
AcDbEntity
  8
_U+30EC_U+30A4_U+30E4_U+30FC 1
370
     0
100
AcDbVertex
100
AcDb2dVertex
 10
118.9798176785884
 20
-149.8850802576676
 30
0.0
  0
VERTEX
  5
106
330
103
100
AcDbEntity
  8
_U+30EC_U+30A4_U+30E4_U+30FC 1
370
     0
100
AcDbVertex
100
AcDb2dVertex
 10
118.9798176785884
 20
-149.6160183002696
 30
0.0
  0
VERTEX
  5
107
330
103
100
AcDbEntity
  8
_U+30EC_U+30A4_U+30E4_U+30FC 1
370
     0
100
AcDbVertex
100
AcDb2dVertex
 10
119.2316541585601
 20
-149.6160183002696
 30
0.0
  0
VERTEX
  5
108
330
103
100
AcDbEntity
  8
_U+30EC_U+30A4_U+30E4_U+30FC 1
370
     0
100
AcDbVertex
100
AcDb2dVertex
 10
119.2316541585601
 20
-149.8850802576676
 30
0.0
  0
SEQEND
  5
109
330
103
100
AcDbEntity
  8
_U+30EC_U+30A4_U+30E4_U+30FC 1
370
     0
  0
HATCH
  5
10A
330
FB
100
AcDbEntity
  8
_U+30EC_U+30A4_U+30E4_U+30FC 1
 62
   179
420
  2234388
100
AcDbHatch
 10
0.0
 20
0.0
 30
0.0
210
0.0
220
0.0
230
1.0
  2
SOLID
 70
     1
 71
     0
 91
        1
 92
        1
 93
        4
 72
     1
 10
119.2316541585601
 20
-149.8850802576676
 11
118.9798176785884
 21
-149.8850802576676
 72
     1
 10
118.9798176785884
 20
-149.8850802576676
 11
118.9798176785884
 21
-149.6160183002696
 72
     1
 10
118.9798176785884
 20
-149.6160183002696
 11
119.2316541585601
 21
-149.6160183002696
 72
     1
 10
119.2316541585601
 20
-149.6160183002696
 11
119.2316541585601
 21
-149.8850802576676
 97
        0
 75
     2
 76
     1
 98
        0
  0
SPLINE
  5
10B
330
FB
100
AcDbEntity
  8
_U+30EC_U+30A4_U+30E4_U+30FC 1
370
     0
100
AcDbSpline
210
0.0
220
0.0
230
1.0
 70
    11
 71
     3
 72
    53
 73
    49
 74
     0
 42
0.0000000001
 43
0.0000000001
 12
1.0
 22
0.0
 32
0.0
 13
1.0
 23
0.0
 33
0.0
 40
0.0
 40
0.0
 40
0.0
 40
0.0
 40
1.0
 40
1.0
 40
1.0
 40
2.0
 40
2.0
 40
2.0
 40
3.0
 40
3.0
 40
3.0
 40
4.0
 40
4.0
 40
4.0
 40
5.0
 40
5.0
 40
5.0
 40
6.0
 40
6.0
 40
6.0
 40
7.0
 40
7.0
 40
7.0
 40
8.0
 40
8.0
 40
8.0
 40
9.0
 40
9.0
 40
9.0
 40
10.0
 40
10.0
 40
10.0
 40
11.0
 40
11.0
 40
11.0
 40
12.0
 40
12.0
 40
12.0
 40
13.0
 40
13.0
 40
13.0
 40
14.0
 40
14.0
 40
14.0
 40
15.0
 40
15.0
 40
15.0
 40
16.0
 40
16.0
 40
16.0
 40
16.0
 10
119.2822970621933
 20
-148.849140045253
 30
0.0
 10
119.2822970621933
 20
-148.9328558655446
 30
0.0
 10
119.2654160943156
 20
-149.0410318637814
 30
0.0
 10
119.202026337387
 20
-149.1498968811153
 30
0.0
 10
119.091783281859
 20
-149.3352430182217
 30
0.0
 10
118.9608696534195
 20
-149.3576361388759
 30
0.0
 10
118.8530381647312
 20
-149.3779622022388
 30
0.0
 10
118.8530381647312
 20
-149.3779622022388
 30
0.0
 10
118.8530381647312
 20
-149.1405951233051
 30
0.0
 10
118.8530381647312
 20
-149.1405951233051
 30
0.0
 10
119.0518201742301
 20
-149.0820285000559
 30
0.0
 10
119.0814479954033
 20
-148.946291737937
 30
0.0
 10
119.0814479954033
 20
-148.8467284784133
 30
0.0
 10
119.0814479954033
 20
-148.697555843902
 30
0.0
 10
118.9818847358795
 20
-148.5346028274497
 30
0.0
 10
118.7493407906252
 20
-148.5346028274497
 30
0.0
 10
118.4933701960711
 20
-148.5346028274497
 30
0.0
 10
118.4234347577205
 20
-148.7268391555266
 30
0.0
 10
118.4234347577205
 20
-148.855685726675
 30
0.0
 10
118.4234347577205
 20
-148.8897921719789
 30
0.0
 10
118.4234347577205
 20
-149.0410318637814
 30
0.0
 10
118.5526258384174
 20
-149.1361164991743
 30
0.0
 10
118.5526258384174
 20
-149.1361164991743
 30
0.0
 10
118.5333333037
 20
-149.3238742031204
 30
0.0
 10
118.5333333037
 20
-149.3238742031204
 30
0.0
 10
118.5333333037
 20
-149.3238742031204
 30
0.0
 10
117.6872178525227
 20
-149.1950276319721
 30
0.0
 10
117.6872178525227
 20
-149.1950276319721
 30
0.0
 10
117.6872178525227
 20
-149.1950276319721
 30
0.0
 10
117.6872178525227
 20
-148.3630370722842
 30
0.0
 10
117.6872178525227
 20
-148.3630370722842
 30
0.0
 10
117.6872178525227
 20
-148.3630370722842
 30
0.0
 10
117.8818657474393
 20
-148.3630370722842
 30
0.0
 10
117.8818657474393
 20
-148.3630370722842
 30
0.0
 10
117.8818657474393
 20
-148.3630370722842
 30
0.0
 10
117.8818657474393
 20
-149.0207058004185
 30
0.0
 10
117.8818657474393
 20
-149.0207058004185
 30
0.0
 10
117.8818657474393
 20
-149.0207058004185
 30
0.0
 10
118.3049234730279
 20
-149.0909857483175
 30
0.0
 10
118.3049234730279
 20
-149.0909857483175
 30
0.0
 10
118.2711615372725
 20
-149.0255289340978
 30
0.0
 10
118.2308539200951
 20
-148.9373344896754
 30
0.0
 10
118.2308539200951
 20
-148.8105549758182
 30
0.0
 10
118.2308539200951
 20
-148.539425961129
 30
0.0
 10
118.4172335858471
 20
-148.2862114429632
 30
0.0
 10
118.7300482559078
 20
-148.2862114429632
 30
0.0
 10
119.0476860596478
 20
-148.2862114429632
 30
0.0
 10
119.2822970621933
 20
-148.5256455791881
 30
0.0
 10
119.2822970621933
 20
-148.849140045253
 30
0.0
  0
HATCH
  5
10C
330
FB
100
AcDbEntity
  8
_U+30EC_U+30A4_U+30E4_U+30FC 1
 62
   179
420
  2234388
100
AcDbHatch
 10
0.0
 20
0.0
 30
0.0
210
0.0
220
0.0
230
1.0
  2
SOLID
 70
     1
 71
     0
 91
        1
 92
        1
 93
        1
 72
     4
 94
        3
 73
     0
 74
     1
 95
       53
 96
       49
 40
0.0
 40
0.0
 40
0.0
 40
0.0
 40
1.0
 40
1.0
 40
1.0
 40
2.0
 40
2.0
 40
2.0
 40
3.0
 40
3.0
 40
3.0
 40
4.0
 40
4.0
 40
4.0
 40
5.0
 40
5.0
 40
5.0
 40
6.0
 40
6.0
 40
6.0
 40
7.0
 40
7.0
 40
7.0
 40
8.0
 40
8.0
 40
8.0
 40
9.0
 40
9.0
 40
9.0
 40
10.0
 40
10.0
 40
10.0
 40
11.0
 40
11.0
 40
11.0
 40
12.0
 40
12.0
 40
12.0
 40
13.0
 40
13.0
 40
13.0
 40
14.0
 40
14.0
 40
14.0
 40
15.0
 40
15.0
 40
15.0
 40
16.0
 40
16.0
 40
16.0
 40
16.0
 10
119.2822970621933
 20
-148.849140045253
 10
119.2822970621933
 20
-148.9328558655446
 10
119.2654160943156
 20
-149.0410318637814
 10
119.202026337387
 20
-149.1498968811153
 10
119.091783281859
 20
-149.3352430182217
 10
118.9608696534195
 20
-149.3576361388759
 10
118.8530381647312
 20
-149.3779622022388
 10
118.8530381647312
 20
-149.3779622022388
 10
118.8530381647312
 20
-149.1405951233051
 10
118.8530381647312
 20
-149.1405951233051
 10
119.0518201742301
 20
-149.0820285000559
 10
119.0814479954033
 20
-148.946291737937
 10
119.0814479954033
 20
-148.8467284784133
 10
119.0814479954033
 20
-148.697555843902
 10
118.9818847358795
 20
-148.5346028274497
 10
118.7493407906252
 20
-148.5346028274497
 10
118.4933701960711
 20
-148.5346028274497
 10
118.4234347577205
 20
-148.7268391555266
 10
118.4234347577205
 20
-148.855685726675
 10
118.4234347577205
 20
-148.8897921719789
 10
118.4234347577205
 20
-149.0410318637814
 10
118.5526258384174
 20
-149.1361164991743
 10
118.5526258384174
 20
-149.1361164991743
 10
118.5333333037
 20
-149.3238742031204
 10
118.5333333037
 20
-149.3238742031204
 10
118.5333333037
 20
-149.3238742031204
 10
117.6872178525227
 20
-149.1950276319721
 10
117.6872178525227
 20
-149.1950276319721
 10
117.6872178525227
 20
-149.1950276319721
 10
117.6872178525227
 20
-148.3630370722842
 10
117.6872178525227
 20
-148.3630370722842
 10
117.6872178525227
 20
-148.3630370722842
 10
117.8818657474393
 20
-148.3630370722842
 10
117.8818657474393
 20
-148.3630370722842
 10
117.8818657474393
 20
-148.3630370722842
 10
117.8818657474393
 20
-149.0207058004185
 10
117.8818657474393
 20
-149.0207058004185
 10
117.8818657474393
 20
-149.0207058004185
 10
118.3049234730279
 20
-149.0909857483175
 10
118.3049234730279
 20
-149.0909857483175
 10
118.2711615372725
 20
-149.0255289340978
 10
118.2308539200951
 20
-148.9373344896754
 10
118.2308539200951
 20
-148.8105549758182
 10
118.2308539200951
 20
-148.539425961129
 10
118.4172335858471
 20
-148.2862114429632
 10
118.7300482559078
 20
-148.2862114429632
 10
119.0476860596478
 20
-148.2862114429632
 10
119.2822970621933
 20
-148.5256455791881
 10
119.2822970621933
 20
-148.849140045253
 97
        0
 97
        0
 75
     2
 76
     1
 98
        0
  0
ENDBLK
  5
FE
330
FB
100
AcDbEntity
  8
0
100
AcDbBlockEnd
  0
ENDSEC
  0
SECTION
  2
ENTITIES
  0
POLYLINE
  5
41
330
1F
100
AcDbEntity
  8
_U+30EC_U+30A4_U+30E4_U+30FC 1
 62
   179
420
  2234388
370
    25
100
AcDb2dPolyline
 66
     1
 10
0.0
 20
0.0
 30
0.0
  0
VERTEX
  5
42
330
41
100
AcDbEntity
  8
_U+30EC_U+30A4_U+30E4_U+30FC 1
 62
   179
420
  2234388
370
    25
100
AcDbVertex
100
AcDb2dVertex
 10
88.53357100922544
 20
-144.647932228378
 30
0.0
  0
VERTEX
  5
43
330
41
100
AcDbEntity
  8
_U+30EC_U+30A4_U+30E4_U+30FC 1
 62
   179
420
  2234388
370
    25
100
AcDbVertex
100
AcDb2dVertex
 10
95.53338061169609
 20
-144.647932228378
 30
0.0
  0
SEQEND
  5
44
330
41
100
AcDbEntity
  8
_U+30EC_U+30A4_U+30E4_U+30FC 1
 62
   179
420
  2234388
370
    25
  0
POLYLINE
  5
45
330
1F
100
AcDbEntity
  8
_U+30EC_U+30A4_U+30E4_U+30FC 1
 62
   179
420
  2234388
370
    25
100
AcDb2dPolyline
 66
     1
 10
0.0
 20
0.0
 30
0.0
  0
VERTEX
  5
46
330
45
100
AcDbEntity
  8
_U+30EC_U+30A4_U+30E4_U+30FC 1
 62
   179
420
  2234388
370
    25
100
AcDbVertex
100
AcDb2dVertex
 10
97.5335276889684
 20
-145.6476558745042
 30
0.0
  0
VERTEX
  5
47
330
45
100
AcDbEntity
  8
_U+30EC_U+30A4_U+30E4_U+30FC 1
 62
   179
420
  2234388
370
    25
100
AcDbVertex
100
AcDb2dVertex
 10
116.5330678012704
 20
-145.6476558745042
 30
0.0
  0
SEQEND
  5
48
330
45
100
AcDbEntity
  8
_U+30EC_U+30A4_U+30E4_U+30FC 1
 62
   179
420
  2234388
370
    25
  0
POLYLINE
  5
49
330
1F
100
AcDbEntity
  8
_U+30EC_U+30A4_U+30E4_U+30FC 1
 62
   179
420
  2234388
370
    25
100
AcDb2dPolyline
 66
     1
 10
0.0
 20
0.0
 30
0.0
  0
VERTEX
  5
4A
330
49
100
AcDbEntity
  8
_U+30EC_U+30A4_U+30E4_U+30FC 1
 62
   179
420
  2234388
370
    25
100
AcDbVertex
100
AcDb2dVertex
 10
94.53353854041285
 20
-145.6476558745042
 30
0.0
  0
VERTEX
  5
4B
330
49
100
AcDbEntity
  8
_U+30EC_U+30A4_U+30E4_U+30FC 1
 62
   179
420
  2234388
370
    25
100
AcDbVertex
100
AcDb2dVertex
 10
94.53353854041285
 20
-155.1479803757096
 30
0.0
  0
SEQEND
  5
4C
330
49
100
AcDbEntity
  8
_U+30EC_U+30A4_U+30E4_U+30FC 1
 62
   179
420
  2234388
370
    25
  0
POLYLINE
  5
4D
330
1F
100
AcDbEntity
  8
_U+30EC_U+30A4_U+30E4_U+30FC 1
 62
   179
420
  2234388
370
    25
100
AcDb2dPolyline
 66
     1
 10
0.0
 20
0.0
 30
0.0
  0
VERTEX
  5
4E
330
4D
100
AcDbEntity
  8
_U+30EC_U+30A4_U+30E4_U+30FC 1
 62
   179
420
  2234388
370
    25
100
AcDbVertex
100
AcDb2dVertex
 10
104.533272695899
 20
-154.1480844748093
 30
0.0
  0
VERTEX
  5
4F
330
4D
100
AcDbEntity
  8
_U+30EC_U+30A4_U+30E4_U+30FC 1
 62
   179
420
  2234388
370
    25
100
AcDbVertex
100
AcDb2dVertex
 10
104.533272695899
 20
-154.4352547153517
 30
0.0
  0
SEQEND
  5
50
330
4D
100
AcDbEntity
  8
_U+30EC_U+30A4_U+30E4_U+30FC 1
 62
   179
420
  2234388
370
    25
  0
POLYLINE
  5
51
330
1F
100
AcDbEntity
  8
_U+30EC_U+30A4_U+30E4_U+30FC 1
 62
   179
420
  2234388
370
    25
100
AcDb2dPolyline
 66
     1
 10
0.0
 20
0.0
 30
0.0
  0
VERTEX
  5
52
330
51
100
AcDbEntity
  8
_U+30EC_U+30A4_U+30E4_U+30FC 1
 62
   179
420
  2234388
370
    25
100
AcDbVertex
100
AcDb2dVertex
 10
97.5335276889684
 20
-154.1480844748093
 30
0.0
  0
VERTEX
  5
53
330
51
100
AcDbEntity
  8
_U+30EC_U+30A4_U+30E4_U+30FC 1
 62
   179
420
  2234388
370
    25
100
AcDbVertex
100
AcDb2dVertex
 10
104.5333372914394
 20
-154.1480844748093
 30
0.0
  0
SEQEND
  5
54
330
51
100
AcDbEntity
  8
_U+30EC_U+30A4_U+30E4_U+30FC 1
 62
   179
420
  2234388
370
    25
  0
POLYLINE
  5
55
330
1F
100
AcDbEntity
  8
_U+30EC_U+30A4_U+30E4_U+30FC 1
 62
   179
420
  2234388
370
    25
100
AcDb2dPolyline
 66
     1
 10
0.0
 20
0.0
 30
0.0
  0
VERTEX
  5
56
330
55
100
AcDbEntity
  8
_U+30EC_U+30A4_U+30E4_U+30FC 1
 62
   179
420
  2234388
370
    25
100
AcDbVertex
100
AcDb2dVertex
 10
96.53308272597556
 20
-144.647932228378
 30
0.0
  0
VERTEX
  5
57
330
55
100
AcDbEntity
  8
_U+30EC_U+30A4_U+30E4_U+30FC 1
 62
   179
420
  2234388
370
    25
100
AcDbVertex
100
AcDb2dVertex
 10
116.5331108649639
 20
-144.647932228378
 30
0.0
  0
SEQEND
  5
58
330
55
100
AcDbEntity
  8
_U+30EC_U+30A4_U+30E4_U+30FC 1
 62
   179
420
  2234388
370
    25
  0
POLYLINE
  5
59
330
1F
100
AcDbEntity
  8
_U+30EC_U+30A4_U+30E4_U+30FC 1
 62
   179
420
  2234388
370
    25
100
AcDb2dPolyline
 66
     1
 10
0.0
 20
0.0
 30
0.0
  0
VERTEX
  5
5A
330
59
100
AcDbEntity
  8
_U+30EC_U+30A4_U+30E4_U+30FC 1
 62
   179
420
  2234388
370
    25
100
AcDbVertex
100
AcDb2dVertex
 10
95.53331601615606
 20
-144.647932228378
 30
0.0
  0
VERTEX
  5
5B
330
59
100
AcDbEntity
  8
_U+30EC_U+30A4_U+30E4_U+30FC 1
 62
   179
420
  2234388
370
    25
100
AcDbVertex
100
AcDb2dVertex
 10
95.53331601615606
 20
-154.1482567295836
 30
0.0
  0
SEQEND
  5
5C
330
59
100
AcDbEntity
  8
_U+30EC_U+30A4_U+30E4_U+30FC 1
 62
   179
420
  2234388
370
    25
  0
POLYLINE
  5
5D
330
1F
100
AcDbEntity
  8
_U+30EC_U+30A4_U+30E4_U+30FC 1
 62
   179
420
  2234388
370
    25
100
AcDb2dPolyline
 66
     1
 10
0.0
 20
0.0
 30
0.0
  0
VERTEX
  5
5E
330
5D
100
AcDbEntity
  8
_U+30EC_U+30A4_U+30E4_U+30FC 1
 62
   179
420
  2234388
370
    25
100
AcDbVertex
100
AcDb2dVertex
 10
96.53308272597556
 20
-144.647932228378
 30
0.0
  0
VERTEX
  5
5F
330
5D
100
AcDbEntity
  8
_U+30EC_U+30A4_U+30E4_U+30FC 1
 62
   179
420
  2234388
370
    25
100
AcDbVertex
100
AcDb2dVertex
 10
96.53308272597556
 20
-154.1482567295836
 30
0.0
  0
SEQEND
  5
60
330
5D
100
AcDbEntity
  8
_U+30EC_U+30A4_U+30E4_U+30FC 1
 62
   179
420
  2234388
370
    25
  0
POLYLINE
  5
61
330
1F
100
AcDbEntity
  8
_U+30EC_U+30A4_U+30E4_U+30FC 1
 62
   179
420
  2234388
370
    25
100
AcDb2dPolyline
 66
     1
 10
0.0
 20
0.0
 30
0.0
  0
VERTEX
  5
62
330
61
100
AcDbEntity
  8
_U+30EC_U+30A4_U+30E4_U+30FC 1
 62
   179
420
  2234388
370
    25
100
AcDbVertex
100
AcDb2dVertex
 10
97.5335276889684
 20
-145.6476558745042
 30
0.0
  0
VERTEX
  5
63
330
61
100
AcDbEntity
  8
_U+30EC_U+30A4_U+30E4_U+30FC 1
 62
   179
420
  2234388
370
    25
100
AcDbVertex
100
AcDb2dVertex
 10
97.5335276889684
 20
-154.1481921340433
 30
0.0
  0
SEQEND
  5
64
330
61
100
AcDbEntity
  8
_U+30EC_U+30A4_U+30E4_U+30FC 1
 62
   179
420
  2234388
370
    25
  0
POLYLINE
  5
65
330
1F
100
AcDbEntity
  8
_U+30EC_U+30A4_U+30E4_U+30FC 1
 62
   179
420
  2234388
370
    25
100
AcDb2dPolyline
 66
     1
 10
0.0
 20
0.0
 30
0.0
  0
VERTEX
  5
66
330
65
100
AcDbEntity
  8
_U+30EC_U+30A4_U+30E4_U+30FC 1
 62
   179
420
  2234388
370
    25
100
AcDbVertex
100
AcDb2dVertex
 10
95.53331601615606
 20
-154.1480844748093
 30
0.0
  0
VERTEX
  5
67
330
65
100
AcDbEntity
  8
_U+30EC_U+30A4_U+30E4_U+30FC 1
 62
   179
420
  2234388
370
    25
100
AcDbVertex
100
AcDb2dVertex
 10
96.53308272597556
 20
-154.1480844748093
 30
0.0
  0
SEQEND
  5
68
330
65
100
AcDbEntity
  8
_U+30EC_U+30A4_U+30E4_U+30FC 1
 62
   179
420
  2234388
370
    25
  0
POLYLINE
  5
69
330
1F
100
AcDbEntity
  8
_U+30EC_U+30A4_U+30E4_U+30FC 1
 62
   179
420
  2234388
370
    25
100
AcDb2dPolyline
 66
     1
 10
0.0
 20
0.0
 30
0.0
  0
VERTEX
  5
6A
330
69
100
AcDbEntity
  8
_U+30EC_U+30A4_U+30E4_U+30FC 1
 62
   179
420
  2234388
370
    25
100
AcDbVertex
100
AcDb2dVertex
 10
88.53357100922544
 20
-144.647932228378
 30
0.0
  0
VERTEX
  5
6B
330
69
100
AcDbEntity
  8
_U+30EC_U+30A4_U+30E4_U+30FC 1
 62
   179
420
  2234388
370
    25
100
AcDbVertex
100
AcDb2dVertex
 10
88.53357100922544
 20
-145.6477204700442
 30
0.0
  0
SEQEND
  5
6C
330
69
100
AcDbEntity
  8
_U+30EC_U+30A4_U+30E4_U+30FC 1
 62
   179
420
  2234388
370
    25
  0
POLYLINE
  5
6D
330
1F
100
AcDbEntity
  8
_U+30EC_U+30A4_U+30E4_U+30FC 1
 62
   179
420
  2234388
370
    25
100
AcDb2dPolyline
 66
     1
 10
0.0
 20
0.0
 30
0.0
  0
VERTEX
  5
6E
330
6D
100
AcDbEntity
  8
_U+30EC_U+30A4_U+30E4_U+30FC 1
 62
   179
420
  2234388
370
    25
100
AcDbVertex
100
AcDb2dVertex
 10
88.53357100922544
 20
-145.6476558745042
 30
0.0
  0
VERTEX
  5
6F
330
6D
100
AcDbEntity
  8
_U+30EC_U+30A4_U+30E4_U+30FC 1
 62
   179
420
  2234388
370
    25
100
AcDbVertex
100
AcDb2dVertex
 10
94.53361390187658
 20
-145.6476558745042
 30
0.0
  0
SEQEND
  5
70
330
6D
100
AcDbEntity
  8
_U+30EC_U+30A4_U+30E4_U+30FC 1
 62
   179
420
  2234388
370
    25
  0
POLYLINE
  5
71
330
1F
100
AcDbEntity
  8
_U+30EC_U+30A4_U+30E4_U+30FC 1
 62
   179
420
  2234388
370
    25
100
AcDb2dPolyline
 66
     1
 10
0.0
 20
0.0
 30
0.0
  0
VERTEX
  5
72
330
71
100
AcDbEntity
  8
_U+30EC_U+30A4_U+30E4_U+30FC 1
 62
   179
420
  2234388
370
    25
100
AcDbVertex
100
AcDb2dVertex
 10
94.53353854041285
 20
-155.1478942483224
 30
0.0
  0
VERTEX
  5
73
330
71
100
AcDbEntity
  8
_U+30EC_U+30A4_U+30E4_U+30FC 1
 62
   179
420
  2234388
370
    25
100
AcDbVertex
100
AcDb2dVertex
 10
104.5333695892099
 20
-154.4352977790453
 30
0.0
  0
SEQEND
  5
74
330
71
100
AcDbEntity
  8
_U+30EC_U+30A4_U+30E4_U+30FC 1
 62
   179
420
  2234388
370
    25
  0
POLYLINE
  5
75
330
1F
100
AcDbEntity
  8
_U+30EC_U+30A4_U+30E4_U+30FC 1
 62
   179
420
  2234388
370
    25
100
AcDb2dPolyline
 66
     1
 10
0.0
 20
0.0
 30
0.0
  0
VERTEX
  5
76
330
75
100
AcDbEntity
  8
_U+30EC_U+30A4_U+30E4_U+30FC 1
 62
   179
420
  2234388
370
    25
100
AcDbVertex
100
AcDb2dVertex
 10
116.5332185241979
 20
-144.647932228378
 30
0.0
  0
VERTEX
  5
77
330
75
100
AcDbEntity
  8
_U+30EC_U+30A4_U+30E4_U+30FC 1
 62
   179
420
  2234388
370
    25
100
AcDbVertex
100
AcDb2dVertex
 10
116.5332185241979
 20
-145.6477204700442
 30
0.0
  0
SEQEND
  5
78
330
75
100
AcDbEntity
  8
_U+30EC_U+30A4_U+30E4_U+30FC 1
 62
   179
420
  2234388
370
    25
  0
SPLINE
  5
79
330
1F
100
AcDbEntity
  8
_U+30EC_U+30A4_U+30E4_U+30FC 1
 62
   179
420
  2234388
370
     9
100
AcDbSpline
210
0.0
220
0.0
230
1.0
 70
    11
 71
     3
 72
    17
 73
    13
 74
     0
 42
0.0000000001
 43
0.0000000001
 12
1.0
 22
0.0
 32
0.0
 13
1.0
 23
0.0
 33
0.0
 40
0.0
 40
0.0
 40
0.0
 40
0.0
 40
1.0
 40
1.0
 40
1.0
 40
2.0
 40
2.0
 40
2.0
 40
3.0
 40
3.0
 40
3.0
 40
4.0
 40
4.0
 40
4.0
 40
4.0
 10
120.6328821516452
 20
-144.647932228378
 30
0.0
 10
120.6328821516452
 20
-144.5929183598479
 30
0.0
 10
120.5880743784901
 20
-144.5481105866928
 30
0.0
 10
120.5330389781133
 20
-144.5481105866928
 30
0.0
 10
120.4780035777364
 20
-144.5481105866928
 30
0.0
 10
120.4331958045814
 20
-144.5929183598479
 30
0.0
 10
120.4331958045814
 20
-144.647932228378
 30
0.0
 10
120.4331958045814
 20
-144.7029676287548
 30
0.0
 10
120.4780035777364
 20
-144.7477754019098
 30
0.0
 10
120.5330389781133
 20
-144.7477754019098
 30
0.0
 10
120.5880743784901
 20
-144.7477754019098
 30
0.0
 10
120.6328821516452
 20
-144.7029676287548
 30
0.0
 10
120.6328821516452
 20
-144.647932228378
 30
0.0
  0
SPLINE
  5
7A
330
1F
100
AcDbEntity
  8
_U+30EC_U+30A4_U+30E4_U+30FC 1
 62
   179
420
  2234388
370
     9
100
AcDbSpline
210
0.0
220
0.0
230
1.0
 70
    11
 71
     3
 72
    17
 73
    13
 74
     0
 42
0.0000000001
 43
0.0000000001
 12
1.0
 22
0.0
 32
0.0
 13
1.0
 23
0.0
 33
0.0
 40
0.0
 40
0.0
 40
0.0
 40
0.0
 40
1.0
 40
1.0
 40
1.0
 40
2.0
 40
2.0
 40
2.0
 40
3.0
 40
3.0
 40
3.0
 40
4.0
 40
4.0
 40
4.0
 40
4.0
 10
120.6328821516452
 20
-145.6476558745042
 30
0.0
 10
120.6328821516452
 20
-145.5926420059738
 30
0.0
 10
120.5880743784901
 20
-145.5478342328191
 30
0.0
 10
120.5330389781133
 20
-145.5478342328191
 30
0.0
 10
120.4780035777364
 20
-145.5478342328191
 30
0.0
 10
120.4331958045814
 20
-145.5926420059738
 30
0.0
 10
120.4331958045814
 20
-145.6476558745042
 30
0.0
 10
120.4331958045814
 20
-145.7026912748811
 30
0.0
 10
120.4780035777364
 20
-145.7474990480358
 30
0.0
 10
120.5330389781133
 20
-145.7474990480358
 30
0.0
 10
120.5880743784901
 20
-145.7474990480358
 30
0.0
 10
120.6328821516452
 20
-145.7026912748811
 30
0.0
 10
120.6328821516452
 20
-145.6476558745042
 30
0.0
  0
SPLINE
  5
7B
330
1F
100
AcDbEntity
  8
_U+30EC_U+30A4_U+30E4_U+30FC 1
 62
   179
420
  2234388
370
     9
100
AcDbSpline
210
0.0
220
0.0
230
1.0
 70
    11
 71
     3
 72
    17
 73
    13
 74
     0
 42
0.0000000001
 43
0.0000000001
 12
1.0
 22
0.0
 32
0.0
 13
1.0
 23
0.0
 33
0.0
 40
0.0
 40
0.0
 40
0.0
 40
0.0
 40
1.0
 40
1.0
 40
1.0
 40
2.0
 40
2.0
 40
2.0
 40
3.0
 40
3.0
 40
3.0
 40
4.0
 40
4.0
 40
4.0
 40
4.0
 10
104.6331804649713
 20
-159.1476501066975
 30
0.0
 10
104.6331804649713
 20
-159.0926362381674
 30
0.0
 10
104.5883726918162
 20
-159.0478284650123
 30
0.0
 10
104.5333372914394
 20
-159.0478284650123
 30
0.0
 10
104.4783018910625
 20
-159.0478284650123
 30
0.0
 10
104.4335048838309
 20
-159.0926362381674
 30
0.0
 10
104.4335048838309
 20
-159.1476501066975
 30
0.0
 10
104.4335048838309
 20
-159.2026855070743
 30
0.0
 10
104.4783018910625
 20
-159.2474932802294
 30
0.0
 10
104.5333372914394
 20
-159.2474932802294
 30
0.0
 10
104.5883726918162
 20
-159.2474932802294
 30
0.0
 10
104.6331804649713
 20
-159.2026855070743
 30
0.0
 10
104.6331804649713
 20
-159.1476501066975
 30
0.0
  0
SPLINE
  5
7C
330
1F
100
AcDbEntity
  8
_U+30EC_U+30A4_U+30E4_U+30FC 1
 62
   179
420
  2234388
370
     9
100
AcDbSpline
210
0.0
220
0.0
230
1.0
 70
    11
 71
     3
 72
    17
 73
    13
 74
     0
 42
0.0000000001
 43
0.0000000001
 12
1.0
 22
0.0
 32
0.0
 13
1.0
 23
0.0
 33
0.0
 40
0.0
 40
0.0
 40
0.0
 40
0.0
 40
1.0
 40
1.0
 40
1.0
 40
2.0
 40
2.0
 40
2.0
 40
3.0
 40
3.0
 40
3.0
 40
4.0
 40
4.0
 40
4.0
 40
4.0
 10
94.6334463094851
 20
-159.1476501066975
 30
0.0
 10
94.6334463094851
 20
-159.0926362381674
 30
0.0
 10
94.58863853633005
 20
-159.0478284650123
 30
0.0
 10
94.53360313595319
 20
-159.0478284650123
 30
0.0
 10
94.47856773557632
 20
-159.0478284650123
 30
0.0
 10
94.43377072834468
 20
-159.0926362381674
 30
0.0
 10
94.43377072834468
 20
-159.1476501066975
 30
0.0
 10
94.43377072834468
 20
-159.2026855070743
 30
0.0
 10
94.47856773557632
 20
-159.2474932802294
 30
0.0
 10
94.53360313595319
 20
-159.2474932802294
 30
0.0
 10
94.58863853633005
 20
-159.2474932802294
 30
0.0
 10
94.6334463094851
 20
-159.2026855070743
 30
0.0
 10
94.6334463094851
 20
-159.1476501066975
 30
0.0
  0
SPLINE
  5
7D
330
1F
100
AcDbEntity
  8
_U+30EC_U+30A4_U+30E4_U+30FC 1
 62
   179
420
  2234388
370
     9
100
AcDbSpline
210
0.0
220
0.0
230
1.0
 70
    11
 71
     3
 72
    17
 73
    13
 74
     0
 42
0.0000000001
 43
0.0000000001
 12
1.0
 22
0.0
 32
0.0
 13
1.0
 23
0.0
 33
0.0
 40
0.0
 40
0.0
 40
0.0
 40
0.0
 40
1.0
 40
1.0
 40
1.0
 40
2.0
 40
2.0
 40
2.0
 40
3.0
 40
3.0
 40
3.0
 40
4.0
 40
4.0
 40
4.0
 40
4.0
 10
108.6329470892697
 20
-154.1480844748093
 30
0.0
 10
108.6329470892697
 20
-154.0923600553354
 30
0.0
 10
108.5881393161147
 20
-154.0475522821804
 30
0.0
 10
108.5331039157378
 20
-154.0475522821804
 30
0.0
 10
108.478068515361
 20
-154.0475522821804
 30
0.0
 10
108.4332715081293
 20
-154.0923600553354
 30
0.0
 10
108.4332715081293
 20
-154.1480844748093
 30
0.0
 10
108.4332715081293
 20
-154.2031198751862
 30
0.0
 10
108.478068515361
 20
-154.2479276483412
 30
0.0
 10
108.5331039157378
 20
-154.2479276483412
 30
0.0
 10
108.5881393161147
 20
-154.2479276483412
 30
0.0
 10
108.6329470892697
 20
-154.2031198751862
 30
0.0
 10
108.6329470892697
 20
-154.1480844748093
 30
0.0
  0
SPLINE
  5
7E
330
1F
100
AcDbEntity
  8
_U+30EC_U+30A4_U+30E4_U+30FC 1
 62
   179
420
  2234388
370
     9
100
AcDbSpline
210
0.0
220
0.0
230
1.0
 70
    11
 71
     3
 72
    17
 73
    13
 74
     0
 42
0.0000000001
 43
0.0000000001
 12
1.0
 22
0.0
 32
0.0
 13
1.0
 23
0.0
 33
0.0
 40
0.0
 40
0.0
 40
0.0
 40
0.0
 40
1.0
 40
1.0
 40
1.0
 40
2.0
 40
2.0
 40
2.0
 40
3.0
 40
3.0
 40
3.0
 40
4.0
 40
4.0
 40
4.0
 40
4.0
 10
120.6328821516452
 20
-154.1480844748093
 30
0.0
 10
120.6328821516452
 20
-154.0923600553354
 30
0.0
 10
120.5880743784901
 20
-154.0475522821804
 30
0.0
 10
120.5330389781133
 20
-154.0475522821804
 30
0.0
 10
120.4780035777364
 20
-154.0475522821804
 30
0.0
 10
120.4331958045814
 20
-154.0923600553354
 30
0.0
 10
120.4331958045814
 20
-154.1480844748093
 30
0.0
 10
120.4331958045814
 20
-154.2031198751862
 30
0.0
 10
120.4780035777364
 20
-154.2479276483412
 30
0.0
 10
120.5330389781133
 20
-154.2479276483412
 30
0.0
 10
120.5880743784901
 20
-154.2479276483412
 30
0.0
 10
120.6328821516452
 20
-154.2031198751862
 30
0.0
 10
120.6328821516452
 20
-154.1480844748093
 30
0.0
  0
SPLINE
  5
7F
330
1F
100
AcDbEntity
  8
_U+30EC_U+30A4_U+30E4_U+30FC 1
 62
   179
420
  2234388
370
     9
100
AcDbSpline
210
0.0
220
0.0
230
1.0
 70
    11
 71
     3
 72
    17
 73
    13
 74
     0
 42
0.0000000001
 43
0.0000000001
 12
1.0
 22
0.0
 32
0.0
 13
1.0
 23
0.0
 33
0.0
 40
0.0
 40
0.0
 40
0.0
 40
0.0
 40
1.0
 40
1.0
 40
1.0
 40
2.0
 40
2.0
 40
2.0
 40
3.0
 40
3.0
 40
3.0
 40
4.0
 40
4.0
 40
4.0
 40
4.0
 10
108.6329470892697
 20
-154.4354700338195
 30
0.0
 10
108.6329470892697
 20
-154.3804561652894
 30
0.0
 10
108.5881393161147
 20
-154.3356483921344
 30
0.0
 10
108.5331039157378
 20
-154.3356483921344
 30
0.0
 10
108.478068515361
 20
-154.3356483921344
 30
0.0
 10
108.4332715081293
 20
-154.3804561652894
 30
0.0
 10
108.4332715081293
 20
-154.4354700338195
 30
0.0
 10
108.4332715081293
 20
-154.4905054341964
 30
0.0
 10
108.478068515361
 20
-154.5353132073514
 30
0.0
 10
108.5331039157378
 20
-154.5353132073514
 30
0.0
 10
108.5881393161147
 20
-154.5353132073514
 30
0.0
 10
108.6329470892697
 20
-154.4905054341964
 30
0.0
 10
108.6329470892697
 20
-154.4354700338195
 30
0.0
  0
SPLINE
  5
80
330
1F
100
AcDbEntity
  8
_U+30EC_U+30A4_U+30E4_U+30FC 1
 62
   179
420
  2234388
370
     9
100
AcDbSpline
210
0.0
220
0.0
230
1.0
 70
    11
 71
     3
 72
    17
 73
    13
 74
     0
 42
0.0000000001
 43
0.0000000001
 12
1.0
 22
0.0
 32
0.0
 13
1.0
 23
0.0
 33
0.0
 40
0.0
 40
0.0
 40
0.0
 40
0.0
 40
1.0
 40
1.0
 40
1.0
 40
2.0
 40
2.0
 40
2.0
 40
3.0
 40
3.0
 40
3.0
 40
4.0
 40
4.0
 40
4.0
 40
4.0
 10
88.63347877829769
 20
-140.6481979018497
 30
0.0
 10
88.63347877829769
 20
-140.5924734823758
 30
0.0
 10
88.58867100514233
 20
-140.5476657092207
 30
0.0
 10
88.53363560476546
 20
-140.5476657092207
 30
0.0
 10
88.4786002043886
 20
-140.5476657092207
 30
0.0
 10
88.43380319715696
 20
-140.5924734823758
 30
0.0
 10
88.43380319715696
 20
-140.6481979018497
 30
0.0
 10
88.43380319715696
 20
-140.7032333022266
 30
0.0
 10
88.4786002043886
 20
-140.7480410753819
 30
0.0
 10
88.53363560476546
 20
-140.7480410753819
 30
0.0
 10
88.58867100514233
 20
-140.7480410753819
 30
0.0
 10
88.63347877829769
 20
-140.7032333022266
 30
0.0
 10
88.63347877829769
 20
-140.6481979018497
 30
0.0
  0
SPLINE
  5
81
330
1F
100
AcDbEntity
  8
_U+30EC_U+30A4_U+30E4_U+30FC 1
 62
   179
420
  2234388
370
     9
100
AcDbSpline
210
0.0
220
0.0
230
1.0
 70
    11
 71
     3
 72
    17
 73
    13
 74
     0
 42
0.0000000001
 43
0.0000000001
 12
1.0
 22
0.0
 32
0.0
 13
1.0
 23
0.0
 33
0.0
 40
0.0
 40
0.0
 40
0.0
 40
0.0
 40
1.0
 40
1.0
 40
1.0
 40
2.0
 40
2.0
 40
2.0
 40
3.0
 40
3.0
 40
3.0
 40
4.0
 40
4.0
 40
4.0
 40
4.0
 10
88.63347877829769
 20
-159.1476501066975
 30
0.0
 10
88.63347877829769
 20
-159.0926362381674
 30
0.0
 10
88.58867100514233
 20
-159.0478284650123
 30
0.0
 10
88.53363560476546
 20
-159.0478284650123
 30
0.0
 10
88.4786002043886
 20
-159.0478284650123
 30
0.0
 10
88.43380319715696
 20
-159.0926362381674
 30
0.0
 10
88.43380319715696
 20
-159.1476501066975
 30
0.0
 10
88.43380319715696
 20
-159.2026855070743
 30
0.0
 10
88.4786002043886
 20
-159.2474932802294
 30
0.0
 10
88.53363560476546
 20
-159.2474932802294
 30
0.0
 10
88.58867100514233
 20
-159.2474932802294
 30
0.0
 10
88.63347877829769
 20
-159.2026855070743
 30
0.0
 10
88.63347877829769
 20
-159.1476501066975
 30
0.0
  0
POLYLINE
  5
82
330
1F
100
AcDbEntity
  8
_U+30EC_U+30A4_U+30E4_U+30FC 1
 62
   179
420
  2234388
370
     9
100
AcDb2dPolyline
 66
     1
 10
0.0
 20
0.0
 30
0.0
  0
VERTEX
  5
83
330
82
100
AcDbEntity
  8
_U+30EC_U+30A4_U+30E4_U+30FC 1
 62
   179
420
  2234388
370
     9
100
AcDbVertex
100
AcDb2dVertex
 10
120.5330174462665
 20
-144.647932228378
 30
0.0
  0
VERTEX
  5
84
330
82
100
AcDbEntity
  8
_U+30EC_U+30A4_U+30E4_U+30FC 1
 62
   179
420
  2234388
370
     9
100
AcDbVertex
100
AcDb2dVertex
 10
120.5330174462665
 20
-140.8774474745463
 30
0.0
  0
SEQEND
  5
85
330
82
100
AcDbEntity
  8
_U+30EC_U+30A4_U+30E4_U+30FC 1
 62
   179
420
  2234388
370
     9
  0
POLYLINE
  5
86
330
1F
100
AcDbEntity
  8
_U+30EC_U+30A4_U+30E4_U+30FC 1
 62
   179
420
  2234388
370
     9
100
AcDb2dPolyline
 66
     1
 10
0.0
 20
0.0
 30
0.0
  0
VERTEX
  5
87
330
86
100
AcDbEntity
  8
_U+30EC_U+30A4_U+30E4_U+30FC 1
 62
   179
420
  2234388
370
     9
100
AcDbVertex
100
AcDb2dVertex
 10
120.5330174462665
 20
-144.647932228378
 30
0.0
  0
VERTEX
  5
88
330
86
100
AcDbEntity
  8
_U+30EC_U+30A4_U+30E4_U+30FC 1
 62
   179
420
  2234388
370
     9
100
AcDbVertex
100
AcDb2dVertex
 10
120.5330174462665
 20
-145.6477204700442
 30
0.0
  0
SEQEND
  5
89
330
86
100
AcDbEntity
  8
_U+30EC_U+30A4_U+30E4_U+30FC 1
 62
   179
420
  2234388
370
     9
  0
POLYLINE
  5
8A
330
1F
100
AcDbEntity
  8
_U+30EC_U+30A4_U+30E4_U+30FC 1
 62
   179
420
  2234388
370
     9
100
AcDb2dPolyline
 66
     1
 10
0.0
 20
0.0
 30
0.0
  0
VERTEX
  5
8B
330
8A
100
AcDbEntity
  8
_U+30EC_U+30A4_U+30E4_U+30FC 1
 62
   179
420
  2234388
370
     9
100
AcDbVertex
100
AcDb2dVertex
 10
119.0729859796176
 20
-144.647932228378
 30
0.0
  0
VERTEX
  5
8C
330
8A
100
AcDbEntity
  8
_U+30EC_U+30A4_U+30E4_U+30FC 1
 62
   179
420
  2234388
370
     9
100
AcDbVertex
100
AcDb2dVertex
 10
121.5336023662637
 20
-144.647932228378
 30
0.0
  0
SEQEND
  5
8D
330
8A
100
AcDbEntity
  8
_U+30EC_U+30A4_U+30E4_U+30FC 1
 62
   179
420
  2234388
370
     9
  0
POLYLINE
  5
8E
330
1F
100
AcDbEntity
  8
_U+30EC_U+30A4_U+30E4_U+30FC 1
 62
   179
420
  2234388
370
     9
100
AcDb2dPolyline
 66
     1
 10
0.0
 20
0.0
 30
0.0
  0
VERTEX
  5
8F
330
8E
100
AcDbEntity
  8
_U+30EC_U+30A4_U+30E4_U+30FC 1
 62
   179
420
  2234388
370
     9
100
AcDbVertex
100
AcDb2dVertex
 10
119.0729859796176
 20
-145.6476558745042
 30
0.0
  0
VERTEX
  5
90
330
8E
100
AcDbEntity
  8
_U+30EC_U+30A4_U+30E4_U+30FC 1
 62
   179
420
  2234388
370
     9
100
AcDbVertex
100
AcDb2dVertex
 10
121.5336023662637
 20
-145.6476558745042
 30
0.0
  0
SEQEND
  5
91
330
8E
100
AcDbEntity
  8
_U+30EC_U+30A4_U+30E4_U+30FC 1
 62
   179
420
  2234388
370
     9
  0
INSERT
  5
93
330
1F
100
AcDbEntity
  8
_U+30EC_U+30A4_U+30E4_U+30FC 1
100
AcDbBlockReference
  2
block 2
 10
0.0
 20
0.0
 30
0.0
  0
POLYLINE
  5
98
330
1F
100
AcDbEntity
  8
_U+30EC_U+30A4_U+30E4_U+30FC 1
 62
   179
420
  2234388
370
     9
100
AcDb2dPolyline
 66
     1
 10
0.0
 20
0.0
 30
0.0
  0
VERTEX
  5
99
330
98
100
AcDbEntity
  8
_U+30EC_U+30A4_U+30E4_U+30FC 1
 62
   179
420
  2234388
370
     9
100
AcDbVertex
100
AcDb2dVertex
 10
94.53353854041285
 20
-159.1476501066975
 30
0.0
  0
VERTEX
  5
9A
330
98
100
AcDbEntity
  8
_U+30EC_U+30A4_U+30E4_U+30FC 1
 62
   179
420
  2234388
370
     9
100
AcDbVertex
100
AcDb2dVertex
 10
104.5333695892099
 20
-159.1476501066975
 30
0.0
  0
SEQEND
  5
9B
330
98
100
AcDbEntity
  8
_U+30EC_U+30A4_U+30E4_U+30FC 1
 62
   179
420
  2234388
370
     9
  0
POLYLINE
  5
9C
330
1F
100
AcDbEntity
  8
_U+30EC_U+30A4_U+30E4_U+30FC 1
 62
   179
420
  2234388
370
     9
100
AcDb2dPolyline
 66
     1
 10
0.0
 20
0.0
 30
0.0
  0
VERTEX
  5
9D
330
9C
100
AcDbEntity
  8
_U+30EC_U+30A4_U+30E4_U+30FC 1
 62
   179
420
  2234388
370
     9
100
AcDbVertex
100
AcDb2dVertex
 10
94.53353854041285
 20
-157.687575576355
 30
0.0
  0
VERTEX
  5
9E
330
9C
100
AcDbEntity
  8
_U+30EC_U+30A4_U+30E4_U+30FC 1
 62
   179
420
  2234388
370
     9
100
AcDbVertex
100
AcDb2dVertex
 10
94.53353854041285
 20
-160.1482134948479
 30
0.0
  0
SEQEND
  5
9F
330
9C
100
AcDbEntity
  8
_U+30EC_U+30A4_U+30E4_U+30FC 1
 62
   179
420
  2234388
370
     9
  0
POLYLINE
  5
A0
330
1F
100
AcDbEntity
  8
_U+30EC_U+30A4_U+30E4_U+30FC 1
 62
   179
420
  2234388
370
     9
100
AcDb2dPolyline
 66
     1
 10
0.0
 20
0.0
 30
0.0
  0
VERTEX
  5
A1
330
A0
100
AcDbEntity
  8
_U+30EC_U+30A4_U+30E4_U+30FC 1
 62
   179
420
  2234388
370
     9
100
AcDbVertex
100
AcDb2dVertex
 10
104.533272695899
 20
-156.9875967692926
 30
0.0
  0
VERTEX
  5
A2
330
A0
100
AcDbEntity
  8
_U+30EC_U+30A4_U+30E4_U+30FC 1
 62
   179
420
  2234388
370
     9
100
AcDbVertex
100
AcDb2dVertex
 10
104.533272695899
 20
-160.1481488993076
 30
0.0
  0
SEQEND
  5
A3
330
A0
100
AcDbEntity
  8
_U+30EC_U+30A4_U+30E4_U+30FC 1
 62
   179
420
  2234388
370
     9
  0
INSERT
  5
A5
330
1F
100
AcDbEntity
  8
_U+30EC_U+30A4_U+30E4_U+30FC 1
100
AcDbBlockReference
  2
block 3
 10
0.0
 20
0.0
 30
0.0
  0
POLYLINE
  5
AD
330
1F
100
AcDbEntity
  8
_U+30EC_U+30A4_U+30E4_U+30FC 1
 62
   179
420
  2234388
370
     9
100
AcDb2dPolyline
 66
     1
 10
0.0
 20
0.0
 30
0.0
  0
VERTEX
  5
AE
330
AD
100
AcDbEntity
  8
_U+30EC_U+30A4_U+30E4_U+30FC 1
 62
   179
420
  2234388
370
     9
100
AcDbVertex
100
AcDb2dVertex
 10
88.53357100922544
 20
-159.1476501066975
 30
0.0
  0
VERTEX
  5
AF
330
AD
100
AcDbEntity
  8
_U+30EC_U+30A4_U+30E4_U+30FC 1
 62
   179
420
  2234388
370
     9
100
AcDbVertex
100
AcDb2dVertex
 10
94.53361390187658
 20
-159.1476501066975
 30
0.0
  0
SEQEND
  5
B0
330
AD
100
AcDbEntity
  8
_U+30EC_U+30A4_U+30E4_U+30FC 1
 62
   179
420
  2234388
370
     9
  0
POLYLINE
  5
B1
330
1F
100
AcDbEntity
  8
_U+30EC_U+30A4_U+30E4_U+30FC 1
 62
   179
420
  2234388
370
     9
100
AcDb2dPolyline
 66
     1
 10
0.0
 20
0.0
 30
0.0
  0
VERTEX
  5
B2
330
B1
100
AcDbEntity
  8
_U+30EC_U+30A4_U+30E4_U+30FC 1
 62
   179
420
  2234388
370
     9
100
AcDbVertex
100
AcDb2dVertex
 10
88.53357100922544
 20
-148.1881338808675
 30
0.0
  0
VERTEX
  5
B3
330
B1
100
AcDbEntity
  8
_U+30EC_U+30A4_U+30E4_U+30FC 1
 62
   179
420
  2234388
370
     9
100
AcDbVertex
100
AcDb2dVertex
 10
88.53357100922544
 20
-160.1480197082269
 30
0.0
  0
SEQEND
  5
B4
330
B1
100
AcDbEntity
  8
_U+30EC_U+30A4_U+30E4_U+30FC 1
 62
   179
420
  2234388
370
     9
  0
INSERT
  5
B6
330
1F
100
AcDbEntity
  8
_U+30EC_U+30A4_U+30E4_U+30FC 1
100
AcDbBlockReference
  2
block 4
 10
0.0
 20
0.0
 30
0.0
  0
POLYLINE
  5
BC
330
1F
100
AcDbEntity
  8
_U+30EC_U+30A4_U+30E4_U+30FC 1
 62
   179
420
  2234388
370
     9
100
AcDb2dPolyline
 66
     1
 10
0.0
 20
0.0
 30
0.0
  0
VERTEX
  5
BD
330
BC
100
AcDbEntity
  8
_U+30EC_U+30A4_U+30E4_U+30FC 1
 62
   179
420
  2234388
370
     9
100
AcDbVertex
100
AcDb2dVertex
 10
108.5330393201975
 20
-154.1480844748093
 30
0.0
  0
VERTEX
  5
BE
330
BC
100
AcDbEntity
  8
_U+30EC_U+30A4_U+30E4_U+30FC 1
 62
   179
420
  2234388
370
     9
100
AcDbVertex
100
AcDb2dVertex
 10
108.5330393201975
 20
-148.890287404455
 30
0.0
  0
SEQEND
  5
BF
330
BC
100
AcDbEntity
  8
_U+30EC_U+30A4_U+30E4_U+30FC 1
 62
   179
420
  2234388
370
     9
  0
POLYLINE
  5
C0
330
1F
100
AcDbEntity
  8
_U+30EC_U+30A4_U+30E4_U+30FC 1
 62
   179
420
  2234388
370
     9
100
AcDb2dPolyline
 66
     1
 10
0.0
 20
0.0
 30
0.0
  0
VERTEX
  5
C1
330
C0
100
AcDbEntity
  8
_U+30EC_U+30A4_U+30E4_U+30FC 1
 62
   179
420
  2234388
370
     9
100
AcDbVertex
100
AcDb2dVertex
 10
108.5330393201975
 20
-154.1480844748093
 30
0.0
  0
VERTEX
  5
C2
330
C0
100
AcDbEntity
  8
_U+30EC_U+30A4_U+30E4_U+30FC 1
 62
   179
420
  2234388
370
     9
100
AcDbVertex
100
AcDb2dVertex
 10
108.5330393201975
 20
-155.3979866487048
 30
0.0
  0
SEQEND
  5
C3
330
C0
100
AcDbEntity
  8
_U+30EC_U+30A4_U+30E4_U+30FC 1
 62
   179
420
  2234388
370
     9
  0
POLYLINE
  5
C4
330
1F
100
AcDbEntity
  8
_U+30EC_U+30A4_U+30E4_U+30FC 1
 62
   179
420
  2234388
370
     9
100
AcDb2dPolyline
 66
     1
 10
0.0
 20
0.0
 30
0.0
  0
VERTEX
  5
C5
330
C4
100
AcDbEntity
  8
_U+30EC_U+30A4_U+30E4_U+30FC 1
 62
   179
420
  2234388
370
     9
100
AcDbVertex
100
AcDb2dVertex
 10
107.0730293853954
 20
-154.1480844748093
 30
0.0
  0
VERTEX
  5
C6
330
C4
100
AcDbEntity
  8
_U+30EC_U+30A4_U+30E4_U+30FC 1
 62
   179
420
  2234388
370
     9
100
AcDbVertex
100
AcDb2dVertex
 10
109.5336457720415
 20
-154.1480844748093
 30
0.0
  0
SEQEND
  5
C7
330
C4
100
AcDbEntity
  8
_U+30EC_U+30A4_U+30E4_U+30FC 1
 62
   179
420
  2234388
370
     9
  0
POLYLINE
  5
C8
330
1F
100
AcDbEntity
  8
_U+30EC_U+30A4_U+30E4_U+30FC 1
 62
   179
420
  2234388
370
     9
100
AcDb2dPolyline
 66
     1
 10
0.0
 20
0.0
 30
0.0
  0
VERTEX
  5
C9
330
C8
100
AcDbEntity
  8
_U+30EC_U+30A4_U+30E4_U+30FC 1
 62
   179
420
  2234388
370
     9
100
AcDbVertex
100
AcDb2dVertex
 10
107.0730293853954
 20
-154.4354700338195
 30
0.0
  0
VERTEX
  5
CA
330
C8
100
AcDbEntity
  8
_U+30EC_U+30A4_U+30E4_U+30FC 1
 62
   179
420
  2234388
370
     9
100
AcDbVertex
100
AcDb2dVertex
 10
109.5336457720415
 20
-154.4354700338195
 30
0.0
  0
SEQEND
  5
CB
330
C8
100
AcDbEntity
  8
_U+30EC_U+30A4_U+30E4_U+30FC 1
 62
   179
420
  2234388
370
     9
  0
INSERT
  5
CD
330
1F
100
AcDbEntity
  8
_U+30EC_U+30A4_U+30E4_U+30FC 1
100
AcDbBlockReference
  2
block 5
 10
0.0
 20
0.0
 30
0.0
  0
POLYLINE
  5
DD
330
1F
100
AcDbEntity
  8
_U+30EC_U+30A4_U+30E4_U+30FC 1
 62
   179
420
  2234388
370
     9
100
AcDb2dPolyline
 66
     1
 10
0.0
 20
0.0
 30
0.0
  0
VERTEX
  5
DE
330
DD
100
AcDbEntity
  8
_U+30EC_U+30A4_U+30E4_U+30FC 1
 62
   179
420
  2234388
370
     9
100
AcDbVertex
100
AcDb2dVertex
 10
88.53357100922544
 20
-140.6481979018497
 30
0.0
  0
VERTEX
  5
DF
330
DD
100
AcDbEntity
  8
_U+30EC_U+30A4_U+30E4_U+30FC 1
 62
   179
420
  2234388
370
     9
100
AcDbVertex
100
AcDb2dVertex
 10
116.5331754605043
 20
-140.6481979018497
 30
0.0
  0
SEQEND
  5
E0
330
DD
100
AcDbEntity
  8
_U+30EC_U+30A4_U+30E4_U+30FC 1
 62
   179
420
  2234388
370
     9
  0
POLYLINE
  5
E1
330
1F
100
AcDbEntity
  8
_U+30EC_U+30A4_U+30E4_U+30FC 1
 62
   179
420
  2234388
370
     9
100
AcDb2dPolyline
 66
     1
 10
0.0
 20
0.0
 30
0.0
  0
VERTEX
  5
E2
330
E1
100
AcDbEntity
  8
_U+30EC_U+30A4_U+30E4_U+30FC 1
 62
   179
420
  2234388
370
     9
100
AcDbVertex
100
AcDb2dVertex
 10
88.53357100922544
 20
-142.107497285708
 30
0.0
  0
VERTEX
  5
E3
330
E1
100
AcDbEntity
  8
_U+30EC_U+30A4_U+30E4_U+30FC 1
 62
   179
420
  2234388
370
     9
100
AcDbVertex
100
AcDb2dVertex
 10
88.53357100922544
 20
-139.647591450006
 30
0.0
  0
SEQEND
  5
E4
330
E1
100
AcDbEntity
  8
_U+30EC_U+30A4_U+30E4_U+30FC 1
 62
   179
420
  2234388
370
     9
  0
POLYLINE
  5
E5
330
1F
100
AcDbEntity
  8
_U+30EC_U+30A4_U+30E4_U+30FC 1
 62
   179
420
  2234388
370
     9
100
AcDb2dPolyline
 66
     1
 10
0.0
 20
0.0
 30
0.0
  0
VERTEX
  5
E6
330
E5
100
AcDbEntity
  8
_U+30EC_U+30A4_U+30E4_U+30FC 1
 62
   179
420
  2234388
370
     9
100
AcDbVertex
100
AcDb2dVertex
 10
116.5332185241979
 20
-142.107497285708
 30
0.0
  0
VERTEX
  5
E7
330
E5
100
AcDbEntity
  8
_U+30EC_U+30A4_U+30E4_U+30FC 1
 62
   179
420
  2234388
370
     9
100
AcDbVertex
100
AcDb2dVertex
 10
116.5332185241979
 20
-139.647591450006
 30
0.0
  0
SEQEND
  5
E8
330
E5
100
AcDbEntity
  8
_U+30EC_U+30A4_U+30E4_U+30FC 1
 62
   179
420
  2234388
370
     9
  0
INSERT
  5
EA
330
1F
100
AcDbEntity
  8
_U+30EC_U+30A4_U+30E4_U+30FC 1
100
AcDbBlockReference
  2
block 6
 10
0.0
 20
0.0
 30
0.0
  0
POLYLINE
  5
F3
330
1F
100
AcDbEntity
  8
_U+30EC_U+30A4_U+30E4_U+30FC 1
 62
   179
420
  2234388
370
     9
100
AcDb2dPolyline
 66
     1
 10
0.0
 20
0.0
 30
0.0
  0
VERTEX
  5
F4
330
F3
100
AcDbEntity
  8
_U+30EC_U+30A4_U+30E4_U+30FC 1
 62
   179
420
  2234388
370
     9
100
AcDbVertex
100
AcDb2dVertex
 10
120.5330174462665
 20
-145.6476558745042
 30
0.0
  0
VERTEX
  5
F5
330
F3
100
AcDbEntity
  8
_U+30EC_U+30A4_U+30E4_U+30FC 1
 62
   179
420
  2234388
370
     9
100
AcDbVertex
100
AcDb2dVertex
 10
120.5330174462665
 20
-154.1481921340433
 30
0.0
  0
SEQEND
  5
F6
330
F3
100
AcDbEntity
  8
_U+30EC_U+30A4_U+30E4_U+30FC 1
 62
   179
420
  2234388
370
     9
  0
POLYLINE
  5
F7
330
1F
100
AcDbEntity
  8
_U+30EC_U+30A4_U+30E4_U+30FC 1
 62
   179
420
  2234388
370
     9
100
AcDb2dPolyline
 66
     1
 10
0.0
 20
0.0
 30
0.0
  0
VERTEX
  5
F8
330
F7
100
AcDbEntity
  8
_U+30EC_U+30A4_U+30E4_U+30FC 1
 62
   179
420
  2234388
370
     9
100
AcDbVertex
100
AcDb2dVertex
 10
107.0730293853954
 20
-154.1480844748093
 30
0.0
  0
VERTEX
  5
F9
330
F7
100
AcDbEntity
  8
_U+30EC_U+30A4_U+30E4_U+30FC 1
 62
   179
420
  2234388
370
     9
100
AcDbVertex
100
AcDb2dVertex
 10
121.5333870477959
 20
-154.1480844748093
 30
0.0
  0
SEQEND
  5
FA
330
F7
100
AcDbEntity
  8
_U+30EC_U+30A4_U+30E4_U+30FC 1
 62
   179
420
  2234388
370
     9
  0
INSERT
  5
FC
330
1F
100
AcDbEntity
  8
_U+30EC_U+30A4_U+30E4_U+30FC 1
100
AcDbBlockReference
  2
block 7
 10
0.0
 20
0.0
 30
0.0
  0
ENDSEC
  0
SECTION
  2
OBJECTS
  0
DICTIONARY
  5
C
330
0
100
AcDbDictionary
281
     1
  3
ACAD_GROUP
350
D
  3
ACAD_LAYOUT
350
1A
  3
ACAD_MATERIAL
350
3B
  3
ACAD_MLEADERSTYLE
350
10E
  3
ACAD_MLINESTYLE
350
17
  3
ACAD_PLOTSETTINGS
350
19
  3
ACAD_PLOTSTYLENAME
350
E
  3
ACAD_TABLESTYLE
350
10D
  3
ACAD_VISUALSTYLE
350
2A
  0
SUN
  5
3F
330
29
100
AcDbSun
 90
        1
290
     0
 63
     7
421
 16777215
 40
1.0
291
     1
 91
  2455826
 92
 54000000
292
     0
 70
     2
 71
   256
280
     1
  0
DICTIONARY
  5
D
102
{ACAD_REACTORS
330
C
102
}
330
C
100
AcDbDictionary
281
     1
  0
DICTIONARY
  5
1A
102
{ACAD_REACTORS
330
C
102
}
330
C
100
AcDbDictionary
281
     1
  3
Layout1
350
1E
  3
Layout2
350
26
  3
Model
350
22
  0
DICTIONARY
  5
3B
102
{ACAD_REACTORS
330
C
102
}
330
C
100
AcDbDictionary
281
     1
  3
ByBlock
350
3D
  3
ByLayer
350
3C
  3
Global
350
3E
  0
DICTIONARY
  5
10E
102
{ACAD_REACTORS
330
C
102
}
330
C
100
AcDbDictionary
281
     1
  0
DICTIONARY
  5
17
102
{ACAD_REACTORS
330
C
102
}
330
C
100
AcDbDictionary
281
     1
  3
Standard
350
18
  0
DICTIONARY
  5
19
102
{ACAD_REACTORS
330
C
102
}
330
C
100
AcDbDictionary
281
     1
  0
ACDBDICTIONARYWDFLT
  5
E
102
{ACAD_REACTORS
330
C
102
}
330
C
100
AcDbDictionary
281
     1
  3
Normal
350
F
100
AcDbDictionaryWithDefault
340
F
  0
DICTIONARY
  5
10D
102
{ACAD_REACTORS
330
C
102
}
330
C
100
AcDbDictionary
281
     1
  0
DICTIONARY
  5
2A
102
{ACAD_REACTORS
330
C
102
}
330
C
100
AcDbDictionary
281
     1
  3
2dWireframe
350
2F
  3
3D Hidden
350
31
  3
3dWireframe
350
30
  3
Basic
350
32
  3
Brighten
350
36
  3
ColorChange
350
3A
  3
Conceptual
350
34
  3
Dim
350
35
  3
Facepattern
350
39
  3
Flat
350
2B
  3
FlatWithEdges
350
2C
  3
Gouraud
350
2D
  3
GouraudWithEdges
350
2E
  3
Linepattern
350
38
  3
Realistic
350
33
  3
Thicken
350
37
  0
LAYOUT
  5
1E
102
{ACAD_REACTORS
330
1A
102
}
330
1A
100
AcDbPlotSettings
  1

  2
none_device
  4

  6

 40
0.0
 41
0.0
 42
0.0
 43
0.0
 44
0.0
 45
0.0
 46
0.0
 47
0.0
 48
0.0
 49
0.0
140
0.0
141
0.0
142
1.0
143
1.0
 70
   688
 72
     0
 73
     0
 74
     5
  7

 75
    16
 76
     0
 77
     2
 78
   300
147
1.0
148
0.0
149
0.0
100
AcDbLayout
  1
Layout1
 70
     1
 71
     1
 10
0.0
 20
0.0
 11
12.0
 21
9.0
 12
0.0
 22
0.0
 32
0.0
 14
1.000000000000000E+20
 24
1.000000000000000E+20
 34
1.000000000000000E+20
 15
-1.000000000000000E+20
 25
-1.000000000000000E+20
 35
-1.000000000000000E+20
146
0.0
 13
0.0
 23
0.0
 33
0.0
 16
1.0
 26
0.0
 36
0.0
 17
0.0
 27
1.0
 37
0.0
 76
     0
330
1B
  0
LAYOUT
  5
26
102
{ACAD_REACTORS
330
1A
102
}
330
1A
100
AcDbPlotSettings
  1

  2
none_device
  4

  6

 40
0.0
 41
0.0
 42
0.0
 43
0.0
 44
0.0
 45
0.0
 46
0.0
 47
0.0
 48
0.0
 49
0.0
140
0.0
141
0.0
142
1.0
143
1.0
 70
   688
 72
     0
 73
     0
 74
     5
  7

 75
    16
 76
     0
 77
     2
 78
   300
147
1.0
148
0.0
149
0.0
100
AcDbLayout
  1
Layout2
 70
     1
 71
     2
 10
0.0
 20
0.0
 11
0.0
 21
0.0
 12
0.0
 22
0.0
 32
0.0
 14
0.0
 24
0.0
 34
0.0
 15
0.0
 25
0.0
 35
0.0
146
0.0
 13
0.0
 23
0.0
 33
0.0
 16
1.0
 26
0.0
 36
0.0
 17
0.0
 27
1.0
 37
0.0
 76
     0
330
23
  0
LAYOUT
  5
22
102
{ACAD_REACTORS
330
1A
102
}
330
1A
100
AcDbPlotSettings
  1

  2
none_device
  4

  6

 40
0.0
 41
0.0
 42
0.0
 43
0.0
 44
0.0
 45
0.0
 46
0.0
 47
0.0
 48
0.0
 49
0.0
140
0.0
141
0.0
142
1.0
143
1.0
 70
  1712
 72
     0
 73
     0
 74
     0
  7

 75
     0
 76
     0
 77
     2
 78
   300
147
1.0
148
0.0
149
0.0
100
AcDbLayout
  1
Model
 70
     1
 71
     0
 10
0.0
 20
0.0
 11
12.0
 21
9.0
 12
0.0
 22
0.0
 32
0.0
 14
1.000000000000000E+20
 24
1.000000000000000E+20
 34
1.000000000000000E+20
 15
-1.000000000000000E+20
 25
-1.000000000000000E+20
 35
-1.000000000000000E+20
146
0.0
 13
0.0
 23
0.0
 33
0.0
 16
1.0
 26
0.0
 36
0.0
 17
0.0
 27
1.0
 37
0.0
 76
     0
330
1F
331
29
  0
MATERIAL
  5
3D
102
{ACAD_REACTORS
330
3B
102
}
330
3B
100
AcDbMaterial
  1
ByBlock
 72
     1
 94
      127
  0
MATERIAL
  5
3C
102
{ACAD_REACTORS
330
3B
102
}
330
3B
100
AcDbMaterial
  1
ByLayer
 72
     1
 94
      127
  0
MATERIAL
  5
3E
102
{ACAD_REACTORS
330
3B
102
}
330
3B
100
AcDbMaterial
  1
Global
 72
     1
 94
      127
  0
MLINESTYLE
  5
18
102
{ACAD_REACTORS
330
17
102
}
330
17
100
AcDbMlineStyle
  2
Standard
 70
     0
  3

 62
   256
 51
90.0
 52
90.0
 71
     2
 49
0.5
 62
   256
  6
BYLAYER
 49
-0.5
 62
   256
  6
BYLAYER
  0
ACDBPLACEHOLDER
  5
F
102
{ACAD_REACTORS
330
E
102
}
330
E
  0
VISUALSTYLE
  5
2F
102
{ACAD_REACTORS
330
2A
102
}
330
2A
100
AcDbVisualStyle
  2
2dWireframe
 70
     4
177
     2
291
     0
 71
     0
176
     1
 72
     2
176
     1
 73
     0
176
     1
 90
        0
176
     1
 40
-0.6
176
     1
 41
-30.0
176
     1
 62
     5
 63
     7
421
 16777215
176
     1
 74
     1
176
     1
 91
        4
176
     1
 64
     7
176
     1
 65
   257
176
     1
 75
     1
176
     1
175
     1
176
     1
 42
1.0
176
     1
 92
        0
176
     1
 66
   257
176
     1
 43
1.0
176
     1
 76
     1
176
     1
 77
     6
176
     1
 78
     2
176
     1
 67
     7
176
     1
 79
     5
176
     1
170
     0
176
     1
171
     0
176
     1
290
     0
176
     1
 93
        1
176
     1
 44
0.0
176
     1
173
     0
176
     1
  0
VISUALSTYLE
  5
31
102
{ACAD_REACTORS
330
2A
102
}
330
2A
100
AcDbVisualStyle
  2
3D Hidden
 70
     6
177
     2
291
     0
 71
     1
176
     1
 72
     2
176
     1
 73
     2
176
     1
 90
        0
176
     1
 40
-0.6
176
     1
 41
-30.0
176
     1
 62
     5
 63
     7
421
 16777215
176
     1
 74
     2
176
     1
 91
        2
176
     1
 64
     7
176
     1
 65
   257
176
     1
 75
     2
176
     1
175
     1
176
     1
 42
40.0
176
     1
 92
        0
176
     1
 66
   257
176
     1
 43
1.0
176
     1
 76
     1
176
     1
 77
     6
176
     1
 78
     2
176
     1
 67
     7
176
     1
 79
     3
176
     1
170
     0
176
     1
171
     0
176
     1
290
     0
176
     1
 93
        1
176
     1
 44
0.0
176
     1
173
     0
176
     1
  0
VISUALSTYLE
  5
30
102
{ACAD_REACTORS
330
2A
102
}
330
2A
100
AcDbVisualStyle
  2
3dWireframe
 70
     5
177
     2
291
     0
 71
     0
176
     1
 72
     2
176
     1
 73
     0
176
     1
 90
        0
176
     1
 40
-0.6
176
     1
 41
-30.0
176
     1
 62
     5
 63
     7
421
 16777215
176
     1
 74
     1
176
     1
 91
        4
176
     1
 64
     7
176
     1
 65
   257
176
     1
 75
     1
176
     1
175
     1
176
     1
 42
1.0
176
     1
 92
        0
176
     1
 66
   257
176
     1
 43
1.0
176
     1
 76
     1
176
     1
 77
     6
176
     1
 78
     2
176
     1
 67
     7
176
     1
 79
     5
176
     1
170
     0
176
     1
171
     0
176
     1
290
     0
176
     1
 93
        1
176
     1
 44
0.0
176
     1
173
     0
176
     1
  0
VISUALSTYLE
  5
32
102
{ACAD_REACTORS
330
2A
102
}
330
2A
100
AcDbVisualStyle
  2
Basic
 70
     7
177
     2
291
     1
 71
     1
176
     1
 72
     0
176
     1
 73
     1
176
     1
 90
        0
176
     1
 40
-0.6
176
     1
 41
-30.0
176
     1
 62
     5
 63
     7
421
 16777215
176
     1
 74
     0
176
     1
 91
        4
176
     1
 64
     7
176
     1
 65
   257
176
     1
 75
     1
176
     1
175
     1
176
     1
 42
1.0
176
     1
 92
        8
176
     1
 66
     7
176
     1
 43
1.0
176
     1
 76
     1
176
     1
 77
     6
176
     1
 78
     2
176
     1
 67
     7
176
     1
 79
     5
176
     1
170
     0
176
     1
171
     0
176
     1
290
     0
176
     1
 93
        1
176
     1
 44
0.0
176
     1
173
     0
176
     1
  0
VISUALSTYLE
  5
36
102
{ACAD_REACTORS
330
2A
102
}
330
2A
100
AcDbVisualStyle
  2
Brighten
 70
    12
177
     2
291
     1
 71
     2
176
     1
 72
     2
176
     1
 73
     0
176
     1
 90
        0
176
     1
 40
-0.6
176
     1
 41
-30.0
176
     1
 62
     5
 63
     7
421
 16777215
176
     1
 74
     1
176
     1
 91
        4
176
     1
 64
     7
176
     1
 65
   257
176
     1
 75
     1
176
     1
175
     1
176
     1
 42
1.0
176
     1
 92
        8
176
     1
 66
     7
176
     1
 43
1.0
176
     1
 76
     1
176
     1
 77
     6
176
     1
 78
     2
176
     1
 67
     7
176
     1
 79
     5
176
     1
170
     0
176
     1
171
     0
176
     1
290
     0
176
     1
 93
        1
176
     1
 44
50.0
176
     1
173
     0
176
     1
  0
VISUALSTYLE
  5
3A
102
{ACAD_REACTORS
330
2A
102
}
330
2A
100
AcDbVisualStyle
  2
ColorChange
 70
    16
177
     2
291
     1
 71
     2
176
     1
 72
     2
176
     1
 73
     3
176
     1
 90
        0
176
     1
 40
-0.6
176
     1
 41
-30.0
176
     1
 62
     5
 63
     8
421
  8421504
176
     1
 74
     1
176
     1
 91
        4
176
     1
 64
     7
176
     1
 65
   257
176
     1
 75
     1
176
     1
175
     1
176
     1
 42
1.0
176
     1
 92
        8
176
     1
 66
     8
424
  8421504
176
     1
 43
1.0
176
     1
 76
     1
176
     1
 77
     6
176
     1
 78
     2
176
     1
 67
     7
176
     1
 79
     5
176
     1
170
     0
176
     1
171
     0
176
     1
290
     0
176
     1
 93
        1
176
     1
 44
0.0
176
     1
173
     0
176
     1
  0
VISUALSTYLE
  5
34
102
{ACAD_REACTORS
330
2A
102
}
330
2A
100
AcDbVisualStyle
  2
Conceptual
 70
     9
177
     2
291
     0
 71
     3
176
     1
 72
     2
176
     1
 73
     0
176
     1
 90
        0
176
     1
 40
-0.6
176
     1
 41
-30.0
176
     1
 62
     5
 63
     7
421
 16777215
176
     1
 74
     2
176
     1
 91
        2
176
     1
 64
     7
176
     1
 65
   257
176
     1
 75
     1
176
     1
175
     1
176
     1
 42
40.0
176
     1
 92
        8
176
     1
 66
     7
176
     1
 43
1.0
176
     1
 76
     1
176
     1
 77
     6
176
     1
 78
     2
176
     1
 67
     7
176
     1
 79
     3
176
     1
170
     0
176
     1
171
     0
176
     1
290
     0
176
     1
 93
        1
176
     1
 44
0.0
176
     1
173
     0
176
     1
  0
VISUALSTYLE
  5
35
102
{ACAD_REACTORS
330
2A
102
}
330
2A
100
AcDbVisualStyle
  2
Dim
 70
    11
177
     2
291
     1
 71
     2
176
     1
 72
     2
176
     1
 73
     0
176
     1
 90
        0
176
     1
 40
-0.6
176
     1
 41
-30.0
176
     1
 62
     5
 63
     7
421
 16777215
176
     1
 74
     1
176
     1
 91
        4
176
     1
 64
     7
176
     1
 65
   257
176
     1
 75
     1
176
     1
175
     1
176
     1
 42
1.0
176
     1
 92
        8
176
     1
 66
     7
176
     1
 43
1.0
176
     1
 76
     1
176
     1
 77
     6
176
     1
 78
     2
176
     1
 67
     7
176
     1
 79
     5
176
     1
170
     0
176
     1
171
     0
176
     1
290
     0
176
     1
 93
        1
176
     1
 44
-50.0
176
     1
173
     0
176
     1
  0
VISUALSTYLE
  5
39
102
{ACAD_REACTORS
330
2A
102
}
330
2A
100
AcDbVisualStyle
  2
Facepattern
 70
    15
177
     2
291
     1
 71
     2
176
     1
 72
     2
176
     1
 73
     0
176
     1
 90
        0
176
     1
 40
-0.6
176
     1
 41
-30.0
176
     1
 62
     5
 63
     7
421
 16777215
176
     1
 74
     1
176
     1
 91
        4
176
     1
 64
     7
176
     1
 65
   257
176
     1
 75
     1
176
     1
175
     1
176
     1
 42
1.0
176
     1
 92
        8
176
     1
 66
     7
176
     1
 43
1.0
176
     1
 76
     1
176
     1
 77
     6
176
     1
 78
     2
176
     1
 67
     7
176
     1
 79
     5
176
     1
170
     0
176
     1
171
     0
176
     1
290
     0
176
     1
 93
        1
176
     1
 44
0.0
176
     1
173
     0
176
     1
  0
VISUALSTYLE
  5
2B
102
{ACAD_REACTORS
330
2A
102
}
330
2A
100
AcDbVisualStyle
  2
Flat
 70
     0
177
     2
291
     1
 71
     2
176
     1
 72
     1
176
     1
 73
     1
176
     1
 90
        2
176
     1
 40
-0.6
176
     1
 41
30.0
176
     1
 62
     5
 63
     7
421
 16777215
176
     1
 74
     0
176
     1
 91
        4
176
     1
 64
     7
176
     1
 65
   257
176
     1
 75
     1
176
     1
175
     1
176
     1
 42
1.0
176
     1
 92
        8
176
     1
 66
     7
176
     1
 43
1.0
176
     1
 76
     1
176
     1
 77
     6
176
     1
 78
     2
176
     1
 67
     7
176
     1
 79
     5
176
     1
170
     0
176
     1
171
     0
176
     1
290
     0
176
     1
 93
       13
176
     1
 44
0.0
176
     1
173
     0
176
     1
  0
VISUALSTYLE
  5
2C
102
{ACAD_REACTORS
330
2A
102
}
330
2A
100
AcDbVisualStyle
  2
FlatWithEdges
 70
     1
177
     2
291
     1
 71
     2
176
     1
 72
     1
176
     1
 73
     1
176
     1
 90
        2
176
     1
 40
-0.6
176
     1
 41
30.0
176
     1
 62
     5
 63
     7
421
 16777215
176
     1
 74
     1
176
     1
 91
        4
176
     1
 64
     7
176
     1
 65
   257
176
     1
 75
     1
176
     1
175
     1
176
     1
 42
1.0
176
     1
 92
        0
176
     1
 66
   257
176
     1
 43
1.0
176
     1
 76
     1
176
     1
 77
     6
176
     1
 78
     2
176
     1
 67
     7
176
     1
 79
     5
176
     1
170
     0
176
     1
171
     0
176
     1
290
     0
176
     1
 93
       13
176
     1
 44
0.0
176
     1
173
     0
176
     1
  0
VISUALSTYLE
  5
2D
102
{ACAD_REACTORS
330
2A
102
}
330
2A
100
AcDbVisualStyle
  2
Gouraud
 70
     2
177
     2
291
     1
 71
     2
176
     1
 72
     2
176
     1
 73
     1
176
     1
 90
        2
176
     1
 40
-0.6
176
     1
 41
30.0
176
     1
 62
     5
 63
     7
421
 16777215
176
     1
 74
     0
176
     1
 91
        4
176
     1
 64
     7
176
     1
 65
   257
176
     1
 75
     1
176
     1
175
     1
176
     1
 42
1.0
176
     1
 92
        0
176
     1
 66
     7
176
     1
 43
1.0
176
     1
 76
     1
176
     1
 77
     6
176
     1
 78
     2
176
     1
 67
     7
176
     1
 79
     5
176
     1
170
     0
176
     1
171
     0
176
     1
290
     0
176
     1
 93
       13
176
     1
 44
0.0
176
     1
173
     0
176
     1
  0
VISUALSTYLE
  5
2E
102
{ACAD_REACTORS
330
2A
102
}
330
2A
100
AcDbVisualStyle
  2
GouraudWithEdges
 70
     3
177
     2
291
     1
 71
     2
176
     1
 72
     2
176
     1
 73
     1
176
     1
 90
        2
176
     1
 40
-0.6
176
     1
 41
30.0
176
     1
 62
     5
 63
     7
421
 16777215
176
     1
 74
     1
176
     1
 91
        4
176
     1
 64
     7
176
     1
 65
   257
176
     1
 75
     1
176
     1
175
     1
176
     1
 42
1.0
176
     1
 92
        0
176
     1
 66
   257
176
     1
 43
1.0
176
     1
 76
     1
176
     1
 77
     6
176
     1
 78
     2
176
     1
 67
     7
176
     1
 79
     5
176
     1
170
     0
176
     1
171
     0
176
     1
290
     0
176
     1
 93
       13
176
     1
 44
0.0
176
     1
173
     0
176
     1
  0
VISUALSTYLE
  5
38
102
{ACAD_REACTORS
330
2A
102
}
330
2A
100
AcDbVisualStyle
  2
Linepattern
 70
    14
177
     2
291
     1
 71
     2
176
     1
 72
     2
176
     1
 73
     0
176
     1
 90
        0
176
     1
 40
-0.6
176
     1
 41
-30.0
176
     1
 62
     5
 63
     7
421
 16777215
176
     1
 74
     1
176
     1
 91
        4
176
     1
 64
     7
176
     1
 65
   257
176
     1
 75
     7
176
     1
175
     7
176
     1
 42
1.0
176
     1
 92
        8
176
     1
 66
     7
176
     1
 43
1.0
176
     1
 76
     1
176
     1
 77
     6
176
     1
 78
     2
176
     1
 67
     7
176
     1
 79
     5
176
     1
170
     0
176
     1
171
     0
176
     1
290
     0
176
     1
 93
        1
176
     1
 44
0.0
176
     1
173
     0
176
     1
  0
VISUALSTYLE
  5
33
102
{ACAD_REACTORS
330
2A
102
}
330
2A
100
AcDbVisualStyle
  2
Realistic
 70
     8
177
     2
291
     0
 71
     2
176
     1
 72
     2
176
     1
 73
     0
176
     1
 90
        0
176
     1
 40
-0.6
176
     1
 41
-30.0
176
     1
 62
     5
 63
     7
421
 16777215
176
     1
 74
     1
176
     1
 91
        0
176
     1
 64
     7
176
     1
 65
   257
176
     1
 75
     1
176
     1
175
     1
176
     1
 42
1.0
176
     1
 92
        8
176
     1
 66
     8
424
  7895160
176
     1
 43
1.0
176
     1
 76
     1
176
     1
 77
     6
176
     1
 78
     2
176
     1
 67
     7
176
     1
 79
     5
176
     1
170
     0
176
     1
171
     0
176
     1
290
     0
176
     1
 93
       13
176
     1
 44
0.0
176
     1
173
     0
176
     1
  0
VISUALSTYLE
  5
37
102
{ACAD_REACTORS
330
2A
102
}
330
2A
100
AcDbVisualStyle
  2
Thicken
 70
    13
177
     2
291
     1
 71
     2
176
     1
 72
     2
176
     1
 73
     0
176
     1
 90
        0
176
     1
 40
-0.6
176
     1
 41
-30.0
176
     1
 62
     5
 63
     7
421
 16777215
176
     1
 74
     1
176
     1
 91
        4
176
     1
 64
     7
176
     1
 65
   257
176
     1
 75
     1
176
     1
175
     1
176
     1
 42
1.0
176
     1
 92
       12
176
     1
 66
     7
176
     1
 43
1.0
176
     1
 76
     1
176
     1
 77
     6
176
     1
 78
     2
176
     1
 67
     7
176
     1
 79
     5
176
     1
170
     0
176
     1
171
     0
176
     1
290
     0
176
     1
 93
        1
176
     1
 44
0.0
176
     1
173
     0
176
     1
  0
ENDSEC
  0
EOF
