  0
SECTION
  2
HEADER
  9
$ACADVER
  1
AC1024
  9
$ACADMAINTVER
 70
     6
  9
$DWGCODEPAGE
  3
UNDEFINED
  9
$INSBASE
 10
0.0
 20
0.0
 30
0.0
  9
$EXTMIN
 10
1.000000000000000E+20
 20
1.000000000000000E+20
 30
1.000000000000000E+20
  9
$EXTMAX
 10
-1.000000000000000E+20
 20
-1.000000000000000E+20
 30
-1.000000000000000E+20
  9
$LIMMIN
 10
0.0
 20
0.0
  9
$LIMMAX
 10
12.0
 20
9.0
  9
$ORTHOMODE
 70
     0
  9
$REGENMODE
 70
     1
  9
$FILLMODE
 70
     1
  9
$QTEXTMODE
 70
     0
  9
$MIRRTEXT
 70
     1
  9
$LTSCALE
 40
1.0
  9
$ATTMODE
 70
     1
  9
$TEXTSIZE
 40
0.2
  9
$TRACEWID
 40
0.05
  9
$TEXTSTYLE
  7
Standard
  9
$CLAYER
  8
0
  9
$CELTYPE
  6
ByLayer
  9
$CECOLOR
 62
   256
  9
$CELTSCALE
 40
1.0
  9
$DISPSILH
 70
     0
  9
$DIMSCALE
 40
1.0
  9
$DIMASZ
 40
0.18
  9
$DIMEXO
 40
0.0625
  9
$DIMDLI
 40
0.38
  9
$DIMRND
 40
0.0
  9
$DIMDLE
 40
0.0
  9
$DIMEXE
 40
0.18
  9
$DIMTP
 40
0.0
  9
$DIMTM
 40
0.0
  9
$DIMTXT
 40
0.18
  9
$DIMCEN
 40
0.09
  9
$DIMTSZ
 40
0.0
  9
$DIMTOL
 70
     0
  9
$DIMLIM
 70
     0
  9
$DIMTIH
 70
     1
  9
$DIMTOH
 70
     1
  9
$DIMSE1
 70
     0
  9
$DIMSE2
 70
     0
  9
$DIMTAD
 70
     0
  9
$DIMZIN
 70
     0
  9
$DIMBLK
  1

  9
$DIMASO
 70
     1
  9
$DIMSHO
 70
     1
  9
$DIMPOST
  1

  9
$DIMAPOST
  1

  9
$DIMALT
 70
     0
  9
$DIMALTD
 70
     2
  9
$DIMALTF
 40
25.4
  9
$DIMLFAC
 40
1.0
  9
$DIMTOFL
 70
     0
  9
$DIMTVP
 40
0.0
  9
$DIMTIX
 70
     0
  9
$DIMSOXD
 70
     0
  9
$DIMSAH
 70
     0
  9
$DIMBLK1
  1

  9
$DIMBLK2
  1

  9
$DIMSTYLE
  2
Standard
  9
$DIMCLRD
 70
     0
  9
$DIMCLRE
 70
     0
  9
$DIMCLRT
 70
     0
  9
$DIMTFAC
 40
1.0
  9
$DIMGAP
 40
0.09
  9
$DIMJUST
 70
     0
  9
$DIMSD1
 70
     0
  9
$DIMSD2
 70
     0
  9
$DIMTOLJ
 70
     1
  9
$DIMTZIN
 70
     0
  9
$DIMALTZ
 70
     0
  9
$DIMALTTZ
 70
     0
  9
$DIMUPT
 70
     0
  9
$DIMDEC
 70
     4
  9
$DIMTDEC
 70
     4
  9
$DIMALTU
 70
     2
  9
$DIMALTTD
 70
     2
  9
$DIMTXSTY
  7
Standard
  9
$DIMAUNIT
 70
     0
  9
$DIMADEC
 70
     0
  9
$DIMALTRND
 40
0.0
  9
$DIMAZIN
 70
     0
  9
$DIMDSEP
 70
    46
  9
$DIMATFIT
 70
     3
  9
$DIMFRAC
 70
     0
  9
$DIMLDRBLK
  1

  9
$DIMLUNIT
 70
     2
  9
$DIMLWD
 70
    -2
  9
$DIMLWE
 70
    -2
  9
$DIMTMOVE
 70
     0
  9
$DIMFXL
 40
1.0
  9
$DIMFXLON
 70
     0
  9
$DIMJOGANG
 40
0.7853981633974483
  9
$DIMTFILL
 70
     0
  9
$DIMTFILLCLR
 70
     0
  9
$DIMARCSYM
 70
     0
  9
$DIMLTYPE
  6

  9
$DIMLTEX1
  6

  9
$DIMLTEX2
  6

  9
$DIMTXTDIRECTION
 70
     0
  9
$LUNITS
 70
     2
  9
$LUPREC
 70
     4
  9
$SKETCHINC
 40
0.1
  9
$FILLETRAD
 40
0.5
  9
$AUNITS
 70
     0
  9
$AUPREC
 70
     0
  9
$MENU
  1
.
  9
$ELEVATION
 40
0.0
  9
$PELEVATION
 40
0.0
  9
$THICKNESS
 40
0.0
  9
$LIMCHECK
 70
     0
  9
$CHAMFERA
 40
0.5
  9
$CHAMFERB
 40
0.5
  9
$CHAMFERC
 40
1.0
  9
$CHAMFERD
 40
0.0
  9
$SKPOLY
 70
     0
  9
$TDCREATE
 40
2457917.587118056
  9
$TDUCREATE
 40
2457917.212118056
  9
$TDUPDATE
 40
2457917.587118056
  9
$TDUUPDATE
 40
2457917.212118056
  9
$TDINDWG
 40
0.0000000116
  9
$TDUSRTIMER
 40
0.0000000116
  9
$USRTIMER
 70
     1
  9
$ANGBASE
 50
0.0
  9
$ANGDIR
 70
     0
  9
$PDMODE
 70
     0
  9
$PDSIZE
 40
0.0
  9
$PLINEWID
 40
0.0
  9
$SPLFRAME
 70
     0
  9
$SPLINETYPE
 70
     6
  9
$SPLINESEGS
 70
     8
  9
$HANDSEED
  5
106
  9
$SURFTAB1
 70
     6
  9
$SURFTAB2
 70
     6
  9
$SURFTYPE
 70
     6
  9
$SURFU
 70
     6
  9
$SURFV
 70
     6
  9
$UCSBASE
  2

  9
$UCSNAME
  2

  9
$UCSORG
 10
0.0
 20
0.0
 30
0.0
  9
$UCSXDIR
 10
1.0
 20
0.0
 30
0.0
  9
$UCSYDIR
 10
0.0
 20
1.0
 30
0.0
  9
$UCSORTHOREF
  2

  9
$UCSORTHOVIEW
 70
     0
  9
$UCSORGTOP
 10
0.0
 20
0.0
 30
0.0
  9
$UCSORGBOTTOM
 10
0.0
 20
0.0
 30
0.0
  9
$UCSORGLEFT
 10
0.0
 20
0.0
 30
0.0
  9
$UCSORGRIGHT
 10
0.0
 20
0.0
 30
0.0
  9
$UCSORGFRONT
 10
0.0
 20
0.0
 30
0.0
  9
$UCSORGBACK
 10
0.0
 20
0.0
 30
0.0
  9
$PUCSBASE
  2

  9
$PUCSNAME
  2

  9
$PUCSORG
 10
0.0
 20
0.0
 30
0.0
  9
$PUCSXDIR
 10
1.0
 20
0.0
 30
0.0
  9
$PUCSYDIR
 10
0.0
 20
1.0
 30
0.0
  9
$PUCSORTHOREF
  2

  9
$PUCSORTHOVIEW
 70
     0
  9
$PUCSORGTOP
 10
0.0
 20
0.0
 30
0.0
  9
$PUCSORGBOTTOM
 10
0.0
 20
0.0
 30
0.0
  9
$PUCSORGLEFT
 10
0.0
 20
0.0
 30
0.0
  9
$PUCSORGRIGHT
 10
0.0
 20
0.0
 30
0.0
  9
$PUCSORGFRONT
 10
0.0
 20
0.0
 30
0.0
  9
$PUCSORGBACK
 10
0.0
 20
0.0
 30
0.0
  9
$USERI1
 70
     0
  9
$USERI2
 70
     0
  9
$USERI3
 70
     0
  9
$USERI4
 70
     0
  9
$USERI5
 70
     0
  9
$USERR1
 40
0.0
  9
$USERR2
 40
0.0
  9
$USERR3
 40
0.0
  9
$USERR4
 40
0.0
  9
$USERR5
 40
0.0
  9
$WORLDVIEW
 70
     1
  9
$SHADEDGE
 70
     3
  9
$SHADEDIF
 70
    70
  9
$TILEMODE
 70
     1
  9
$MAXACTVP
 70
    64
  9
$PINSBASE
 10
0.0
 20
0.0
 30
0.0
  9
$PLIMCHECK
 70
     0
  9
$PEXTMIN
 10
1.000000000000000E+20
 20
1.000000000000000E+20
 30
1.000000000000000E+20
  9
$PEXTMAX
 10
-1.000000000000000E+20
 20
-1.000000000000000E+20
 30
-1.000000000000000E+20
  9
$PLIMMIN
 10
0.0
 20
0.0
  9
$PLIMMAX
 10
12.0
 20
9.0
  9
$UNITMODE
 70
     0
  9
$VISRETAIN
 70
     1
  9
$PLINEGEN
 70
     0
  9
$PSLTSCALE
 70
     1
  9
$TREEDEPTH
 70
  3020
  9
$CMLSTYLE
  2
Standard
  9
$CMLJUST
 70
     0
  9
$CMLSCALE
 40
1.0
  9
$PROXYGRAPHICS
 70
     1
  9
$MEASUREMENT
 70
     0
  9
$CELWEIGHT
370
    -1
  9
$ENDCAPS
280
     0
  9
$JOINSTYLE
280
     0
  9
$LWDISPLAY
290
     1
  9
$INSUNITS
 70
     1
  9
$HYPERLINKBASE
  1

  9
$STYLESHEET
  1

  9
$XEDIT
290
     1
  9
$CEPSNTYPE
380
     0
  9
$PSTYLEMODE
290
     1
  9
$FINGERPRINTGUID
  2
{518B6DC3-F9F0-B181-F303-33DC10D13083}
  9
$VERSIONGUID
  2
{FAEB1C32-E019-11D5-929B-00C0DF256EC4}
  9
$EXTNAMES
290
     1
  9
$PSVPSCALE
 40
0.0
  9
$OLESTARTUP
290
     0
  9
$SORTENTS
280
   127
  9
$INDEXCTL
280
     0
  9
$HIDETEXT
280
     1
  9
$XCLIPFRAME
280
     2
  9
$HALOGAP
280
     0
  9
$OBSCOLOR
 70
   257
  9
$OBSLTYPE
280
     0
  9
$INTERSECTIONDISPLAY
280
     0
  9
$INTERSECTIONCOLOR
 70
   257
  9
$DIMASSOC
280
     2
  9
$PROJECTNAME
  1

  9
$CAMERADISPLAY
290
     0
  9
$LENSLENGTH
 40
50.0
  9
$CAMERAHEIGHT
 40
0.0
  9
$STEPSPERSEC
 40
2.0
  9
$STEPSIZE
 40
6.0
  9
$3DDWFPREC
 40
2.0
  9
$PSOLWIDTH
 40
0.25
  9
$PSOLHEIGHT
 40
4.0
  9
$LOFTANG1
 40
1.570796326794897
  9
$LOFTANG2
 40
1.570796326794897
  9
$LOFTMAG1
 40
0.0
  9
$LOFTMAG2
 40
0.0
  9
$LOFTPARAM
 70
     7
  9
$LOFTNORMALS
280
     1
  9
$LATITUDE
 40
37.795
  9
$LONGITUDE
 40
-122.394
  9
$NORTHDIRECTION
 40
0.0
  9
$TIMEZONE
 70
 -8000
  9
$LIGHTGLYPHDISPLAY
280
     1
  9
$TILEMODELIGHTSYNCH
280
     1
  9
$CMATERIAL
347
3C
  9
$SOLIDHIST
280
     1
  9
$SHOWHIST
280
     1
  9
$DWFFRAME
280
     2
  9
$DGNFRAME
280
     2
  9
$REALWORLDSCALE
290
     1
  9
$INTERFERECOLOR
 62
   256
  9
$CSHADOW
280
     0
  9
$SHADOWPLANELOCATION
 40
0.0
  0
ENDSEC
  0
SECTION
  2
CLASSES
  0
CLASS
  1
ACDBDICTIONARYWDFLT
  2
AcDbDictionaryWithDefault
  3
ObjectDBX Classes
 90
        0
 91
        4
280
     0
281
     0
  0
CLASS
  1
VISUALSTYLE
  2
AcDbVisualStyle
  3
ObjectDBX Classes
 90
     4095
 91
        4
280
     0
281
     0
  0
CLASS
  1
MATERIAL
  2
AcDbMaterial
  3
ObjectDBX Classes
 90
     1153
 91
        4
280
     0
281
     0
  0
CLASS
  1
SUN
  2
AcDbSun
  3
SCENEOE
 90
     1024
 91
        4
280
     0
281
     0
  0
ENDSEC
  0
SECTION
  2
TABLES
  0
TABLE
  2
VPORT
  5
8
330
0
100
AcDbSymbolTable
 70
     1
  0
VPORT
  5
29
330
8
100
AcDbSymbolTableRecord
100
AcDbViewportTableRecord
  2
*Active
 70
     0
 10
0.0
 20
0.0
 11
1.0
 21
1.0
 12
0.0
 22
0.0
 13
0.0
 23
0.0
 14
0.5
 24
0.5
 15
0.5
 25
0.5
 16
0.0
 26
0.0
 36
1.0
 17
63.499999984125
 27
-89.00059456108309
 37
0.0
 40
178.0011891221662
 41
0.7134783795241226
 42
50.0
 43
0.0
 44
0.0
 50
0.0
 51
0.0
 71
     0
 72
   100
 73
     1
 74
     3
 75
     0
 76
     0
 77
     0
 78
     0
281
     0
 65
     1
110
0.0
120
0.0
130
0.0
111
1.0
121
0.0
131
0.0
112
0.0
122
1.0
132
0.0
 79
     0
146
0.0
 60
     3
 61
     5
292
     1
282
     1
141
0.0
142
0.0
 63
   250
361
3F
  0
ENDTAB
  0
TABLE
  2
LTYPE
  5
5
330
0
100
AcDbSymbolTable
 70
     1
  0
LTYPE
  5
14
330
5
100
AcDbSymbolTableRecord
100
AcDbLinetypeTableRecord
  2
ByBlock
 70
     0
  3

 72
    65
 73
     0
 40
0.0
  0
LTYPE
  5
15
330
5
100
AcDbSymbolTableRecord
100
AcDbLinetypeTableRecord
  2
ByLayer
 70
     0
  3

 72
    65
 73
     0
 40
0.0
  0
LTYPE
  5
16
330
5
100
AcDbSymbolTableRecord
100
AcDbLinetypeTableRecord
  2
Continuous
 70
     0
  3
Solid line
 72
    65
 73
     0
 40
0.0
  0
ENDTAB
  0
TABLE
  2
LAYER
  5
2
330
0
100
AcDbSymbolTable
 70
     2
  0
LAYER
  5
10
330
2
100
AcDbSymbolTableRecord
100
AcDbLayerTableRecord
  2
0
 70
     0
 62
     7
  6
Continuous
370
    -3
390
F
347
3E
  0
LAYER
  5
40
330
2
100
AcDbSymbolTableRecord
100
AcDbLayerTableRecord
  2
_U+30EC_U+30A4_U+30E4_U+30FC 1
 70
     0
 62
     7
  6
Continuous
370
    -3
390
F
347
3E
  0
ENDTAB
  0
TABLE
  2
STYLE
  5
3
330
0
100
AcDbSymbolTable
 70
     1
  0
STYLE
  5
11
330
3
100
AcDbSymbolTableRecord
100
AcDbTextStyleTableRecord
  2
Standard
 70
     0
 40
0.0
 41
1.0
 50
0.0
 71
     0
 42
0.2
  3
txt
  4

  0
ENDTAB
  0
TABLE
  2
VIEW
  5
6
330
0
100
AcDbSymbolTable
 70
     0
  0
ENDTAB
  0
TABLE
  2
UCS
  5
7
330
0
100
AcDbSymbolTable
 70
     0
  0
ENDTAB
  0
TABLE
  2
APPID
  5
9
330
0
100
AcDbSymbolTable
 70
     1
  0
APPID
  5
12
330
9
100
AcDbSymbolTableRecord
100
AcDbRegAppTableRecord
  2
ACAD
 70
     0
  0
ENDTAB
  0
TABLE
  2
DIMSTYLE
  5
A
330
0
100
AcDbSymbolTable
 70
     1
100
AcDbDimStyleTable
  0
DIMSTYLE
105
27
330
A
100
AcDbSymbolTableRecord
100
AcDbDimStyleTableRecord
  2
Standard
 70
     0
178
     0
340
11
  0
ENDTAB
  0
TABLE
  2
BLOCK_RECORD
  5
1
330
0
100
AcDbSymbolTable
 70
     6
  0
BLOCK_RECORD
  5
1F
330
1
100
AcDbSymbolTableRecord
100
AcDbBlockTableRecord
  2
*Model_Space
340
22
 70
     0
280
     1
281
     0
  0
BLOCK_RECORD
  5
1B
330
1
100
AcDbSymbolTableRecord
100
AcDbBlockTableRecord
  2
*Paper_Space
340
1E
 70
     0
280
     1
281
     0
  0
BLOCK_RECORD
  5
23
330
1
100
AcDbSymbolTableRecord
100
AcDbBlockTableRecord
  2
*Paper_Space0
340
26
 70
     0
280
     1
281
     0
  0
BLOCK_RECORD
  5
7A
330
1
100
AcDbSymbolTableRecord
100
AcDbBlockTableRecord
  2
block 2
340
0
102
{BLKREFS
331
7B
102
}
 70
     0
280
     1
281
     0
  0
BLOCK_RECORD
  5
8C
330
1
100
AcDbSymbolTableRecord
100
AcDbBlockTableRecord
  2
block 3
340
0
102
{BLKREFS
331
8D
102
}
 70
     0
280
     1
281
     0
  0
BLOCK_RECORD
  5
B1
330
1
100
AcDbSymbolTableRecord
100
AcDbBlockTableRecord
  2
block 4
340
0
102
{BLKREFS
331
B2
102
}
 70
     0
280
     1
281
     0
  0
BLOCK_RECORD
  5
C5
330
1
100
AcDbSymbolTableRecord
100
AcDbBlockTableRecord
  2
block 5
340
0
102
{BLKREFS
331
C6
102
}
 70
     0
280
     1
281
     0
  0
BLOCK_RECORD
  5
F2
330
1
100
AcDbSymbolTableRecord
100
AcDbBlockTableRecord
  2
block 6
340
0
102
{BLKREFS
331
F3
102
}
 70
     0
280
     1
281
     0
  0
ENDTAB
  0
ENDSEC
  0
SECTION
  2
BLOCKS
  0
BLOCK
  5
20
330
1F
100
AcDbEntity
  8
0
100
AcDbBlockBegin
  2
*Model_Space
 70
     0
 10
0.0
 20
0.0
 30
0.0
  3
*Model_Space
  1

  0
ENDBLK
  5
21
330
1F
100
AcDbEntity
  8
0
100
AcDbBlockEnd
  0
BLOCK
  5
1C
330
1B
100
AcDbEntity
 67
     1
  8
0
100
AcDbBlockBegin
  2
*Paper_Space
 70
     0
 10
0.0
 20
0.0
 30
0.0
  3
*Paper_Space
  1

  0
ENDBLK
  5
1D
330
1B
100
AcDbEntity
 67
     1
  8
0
100
AcDbBlockEnd
  0
BLOCK
  5
24
330
23
100
AcDbEntity
  8
0
100
AcDbBlockBegin
  2
*Paper_Space0
 70
     0
 10
0.0
 20
0.0
 30
0.0
  3
*Paper_Space0
  1

  0
ENDBLK
  5
25
330
23
100
AcDbEntity
  8
0
100
AcDbBlockEnd
  0
BLOCK
  5
7C
330
7A
100
AcDbEntity
  8
0
100
AcDbBlockBegin
  2
block 2
 70
     0
 10
0.0
 20
0.0
 30
0.0
  3
block 2
  1

  0
SPLINE
  5
7E
330
7A
100
AcDbEntity
  8
_U+30EC_U+30A4_U+30E4_U+30FC 1
370
     0
100
AcDbSpline
210
0.0
220
0.0
230
1.0
 70
    11
 71
     3
 72
    26
 73
    22
 74
     0
 42
0.0000000001
 43
0.0000000001
 12
1.0
 22
0.0
 32
0.0
 13
1.0
 23
0.0
 33
0.0
 40
0.0
 40
0.0
 40
0.0
 40
0.0
 40
1.0
 40
1.0
 40
1.0
 40
2.0
 40
2.0
 40
2.0
 40
3.0
 40
3.0
 40
3.0
 40
4.0
 40
4.0
 40
4.0
 40
5.0
 40
5.0
 40
5.0
 40
6.0
 40
6.0
 40
6.0
 40
7.0
 40
7.0
 40
7.0
 40
7.0
 10
79.12178546199038
 20
-79.25459389294677
 30
0.0
 10
79.12178546199038
 20
-79.25459389294677
 30
0.0
 10
78.01763235896782
 20
-79.25459389294677
 30
0.0
 10
78.01763235896782
 20
-79.25459389294677
 30
0.0
 10
78.01763235896782
 20
-79.25459389294677
 30
0.0
 10
78.01763235896782
 20
-79.60737167063635
 30
0.0
 10
78.01763235896782
 20
-79.60737167063635
 30
0.0
 10
78.01763235896782
 20
-79.60737167063635
 30
0.0
 10
77.86949325310208
 20
-79.60737167063635
 30
0.0
 10
77.86949325310208
 20
-79.60737167063635
 30
0.0
 10
77.8546793425155
 20
-79.25235458088136
 30
0.0
 10
77.69172632606319
 20
-79.20257295111949
 30
0.0
 10
77.57734915595289
 20
-79.17105032742947
 30
0.0
 10
77.57734915595289
 20
-79.17105032742947
 30
0.0
 10
77.57734915595289
 20
-79.01498750194764
 30
0.0
 10
77.57734915595289
 20
-79.01498750194764
 30
0.0
 10
77.57734915595289
 20
-79.01498750194764
 30
0.0
 10
79.12178546199038
 20
-79.01498750194764
 30
0.0
 10
79.12178546199038
 20
-79.01498750194764
 30
0.0
 10
79.12178546199038
 20
-79.01498750194764
 30
0.0
 10
79.12178546199038
 20
-79.25459389294677
 30
0.0
 10
79.12178546199038
 20
-79.25459389294677
 30
0.0
  0
HATCH
  5
7F
330
7A
100
AcDbEntity
  8
_U+30EC_U+30A4_U+30E4_U+30FC 1
 62
   179
420
  2234388
100
AcDbHatch
 10
0.0
 20
0.0
 30
0.0
210
0.0
220
0.0
230
1.0
  2
SOLID
 70
     1
 71
     0
 91
        1
 92
        1
 93
        1
 72
     4
 94
        3
 73
     0
 74
     1
 95
       26
 96
       22
 40
0.0
 40
0.0
 40
0.0
 40
0.0
 40
1.0
 40
1.0
 40
1.0
 40
2.0
 40
2.0
 40
2.0
 40
3.0
 40
3.0
 40
3.0
 40
4.0
 40
4.0
 40
4.0
 40
5.0
 40
5.0
 40
5.0
 40
6.0
 40
6.0
 40
6.0
 40
7.0
 40
7.0
 40
7.0
 40
7.0
 10
79.12178546199038
 20
-79.25459389294677
 10
79.12178546199038
 20
-79.25459389294677
 10
78.01763235896782
 20
-79.25459389294677
 10
78.01763235896782
 20
-79.25459389294677
 10
78.01763235896782
 20
-79.25459389294677
 10
78.01763235896782
 20
-79.60737167063635
 10
78.01763235896782
 20
-79.60737167063635
 10
78.01763235896782
 20
-79.60737167063635
 10
77.86949325310208
 20
-79.60737167063635
 10
77.86949325310208
 20
-79.60737167063635
 10
77.8546793425155
 20
-79.25235458088136
 10
77.69172632606319
 20
-79.20257295111949
 10
77.57734915595289
 20
-79.17105032742947
 10
77.57734915595289
 20
-79.17105032742947
 10
77.57734915595289
 20
-79.01498750194764
 10
77.57734915595289
 20
-79.01498750194764
 10
77.57734915595289
 20
-79.01498750194764
 10
79.12178546199038
 20
-79.01498750194764
 10
79.12178546199038
 20
-79.01498750194764
 10
79.12178546199038
 20
-79.01498750194764
 10
79.12178546199038
 20
-79.25459389294677
 10
79.12178546199038
 20
-79.25459389294677
 97
        0
 97
        0
 75
     2
 76
     1
 98
        0
  0
ENDBLK
  5
7D
330
7A
100
AcDbEntity
  8
0
100
AcDbBlockEnd
  0
BLOCK
  5
8E
330
8C
100
AcDbEntity
  8
0
100
AcDbBlockBegin
  2
block 3
 70
     0
 10
0.0
 20
0.0
 30
0.0
  3
block 3
  1

  0
POLYLINE
  5
90
330
8C
100
AcDbEntity
  8
_U+30EC_U+30A4_U+30E4_U+30FC 1
370
     0
100
AcDb2dPolyline
 66
     1
 10
0.0
 20
0.0
 30
0.0
  0
VERTEX
  5
91
330
90
100
AcDbEntity
  8
_U+30EC_U+30A4_U+30E4_U+30FC 1
370
     0
100
AcDbVertex
100
AcDb2dVertex
 10
55.11515433734969
 20
-100.0025091980897
 30
0.0
  0
VERTEX
  5
92
330
90
100
AcDbEntity
  8
_U+30EC_U+30A4_U+30E4_U+30FC 1
370
     0
100
AcDbVertex
100
AcDb2dVertex
 10
55.11515433734969
 20
-100.3494303134543
 30
0.0
  0
VERTEX
  5
93
330
90
100
AcDbEntity
  8
_U+30EC_U+30A4_U+30E4_U+30FC 1
370
     0
100
AcDbVertex
100
AcDb2dVertex
 10
54.88243813732106
 20
-100.3494303134543
 30
0.0
  0
VERTEX
  5
94
330
90
100
AcDbEntity
  8
_U+30EC_U+30A4_U+30E4_U+30FC 1
370
     0
100
AcDbVertex
100
AcDb2dVertex
 10
54.88243813732106
 20
-100.0025091980897
 30
0.0
  0
VERTEX
  5
95
330
90
100
AcDbEntity
  8
_U+30EC_U+30A4_U+30E4_U+30FC 1
370
     0
100
AcDbVertex
100
AcDb2dVertex
 10
54.18153346084698
 20
-100.0025091980897
 30
0.0
  0
VERTEX
  5
96
330
90
100
AcDbEntity
  8
_U+30EC_U+30A4_U+30E4_U+30FC 1
370
     0
100
AcDbVertex
100
AcDb2dVertex
 10
54.18153346084698
 20
-99.77823348199989
 30
0.0
  0
VERTEX
  5
97
330
90
100
AcDbEntity
  8
_U+30EC_U+30A4_U+30E4_U+30FC 1
370
     0
100
AcDbVertex
100
AcDb2dVertex
 10
54.90724282481486
 20
-98.80499400741681
 30
0.0
  0
VERTEX
  5
98
330
90
100
AcDbEntity
  8
_U+30EC_U+30A4_U+30E4_U+30FC 1
370
     0
100
AcDbVertex
100
AcDb2dVertex
 10
55.11515433734969
 20
-98.80499400741681
 30
0.0
  0
VERTEX
  5
99
330
90
100
AcDbEntity
  8
_U+30EC_U+30A4_U+30E4_U+30FC 1
370
     0
100
AcDbVertex
100
AcDb2dVertex
 10
55.11515433734969
 20
-99.80372718859074
 30
0.0
  0
VERTEX
  5
9A
330
90
100
AcDbEntity
  8
_U+30EC_U+30A4_U+30E4_U+30FC 1
370
     0
100
AcDbVertex
100
AcDb2dVertex
 10
55.33684623182551
 20
-99.80372718859074
 30
0.0
  0
VERTEX
  5
9B
330
90
100
AcDbEntity
  8
_U+30EC_U+30A4_U+30E4_U+30FC 1
370
     0
100
AcDbVertex
100
AcDb2dVertex
 10
55.33684623182551
 20
-100.0025091980897
 30
0.0
  0
VERTEX
  5
9C
330
90
100
AcDbEntity
  8
_U+30EC_U+30A4_U+30E4_U+30FC 1
370
     0
100
AcDbVertex
100
AcDb2dVertex
 10
55.11515433734969
 20
-100.0025091980897
 30
0.0
  0
SEQEND
  5
9D
330
90
100
AcDbEntity
  8
_U+30EC_U+30A4_U+30E4_U+30FC 1
370
     0
  0
POLYLINE
  5
9E
330
8C
100
AcDbEntity
  8
_U+30EC_U+30A4_U+30E4_U+30FC 1
370
     0
100
AcDb2dPolyline
 66
     1
 10
0.0
 20
0.0
 30
0.0
  0
VERTEX
  5
9F
330
9E
100
AcDbEntity
  8
_U+30EC_U+30A4_U+30E4_U+30FC 1
370
     0
100
AcDbVertex
100
AcDb2dVertex
 10
54.88243813732106
 20
-99.14778100819917
 30
0.0
  0
VERTEX
  5
A0
330
9E
100
AcDbEntity
  8
_U+30EC_U+30A4_U+30E4_U+30FC 1
370
     0
100
AcDbVertex
100
AcDb2dVertex
 10
54.39392359751263
 20
-99.80372718859074
 30
0.0
  0
VERTEX
  5
A1
330
9E
100
AcDbEntity
  8
_U+30EC_U+30A4_U+30E4_U+30FC 1
370
     0
100
AcDbVertex
100
AcDb2dVertex
 10
54.88243813732106
 20
-99.80372718859074
 30
0.0
  0
VERTEX
  5
A2
330
9E
100
AcDbEntity
  8
_U+30EC_U+30A4_U+30E4_U+30FC 1
370
     0
100
AcDbVertex
100
AcDb2dVertex
 10
54.88243813732106
 20
-99.14778100819917
 30
0.0
  0
SEQEND
  5
A3
330
9E
100
AcDbEntity
  8
_U+30EC_U+30A4_U+30E4_U+30FC 1
370
     0
  0
HATCH
  5
A4
330
8C
100
AcDbEntity
  8
_U+30EC_U+30A4_U+30E4_U+30FC 1
 62
   179
420
  2234388
100
AcDbHatch
 10
0.0
 20
0.0
 30
0.0
210
0.0
220
0.0
230
1.0
  2
SOLID
 70
     1
 71
     0
 91
        2
 92
        1
 93
       11
 72
     1
 10
55.11515433734969
 20
-100.0025091980897
 11
55.11515433734969
 21
-100.3494303134543
 72
     1
 10
55.11515433734969
 20
-100.3494303134543
 11
54.88243813732106
 21
-100.3494303134543
 72
     1
 10
54.88243813732106
 20
-100.3494303134543
 11
54.88243813732106
 21
-100.0025091980897
 72
     1
 10
54.88243813732106
 20
-100.0025091980897
 11
54.18153346084698
 21
-100.0025091980897
 72
     1
 10
54.18153346084698
 20
-100.0025091980897
 11
54.18153346084698
 21
-99.77823348199989
 72
     1
 10
54.18153346084698
 20
-99.77823348199989
 11
54.90724282481486
 21
-98.80499400741681
 72
     1
 10
54.90724282481486
 20
-98.80499400741681
 11
55.11515433734969
 21
-98.80499400741681
 72
     1
 10
55.11515433734969
 20
-98.80499400741681
 11
55.11515433734969
 21
-99.80372718859074
 72
     1
 10
55.11515433734969
 20
-99.80372718859074
 11
55.33684623182551
 21
-99.80372718859074
 72
     1
 10
55.33684623182551
 20
-99.80372718859074
 11
55.33684623182551
 21
-100.0025091980897
 72
     1
 10
55.33684623182551
 20
-100.0025091980897
 11
55.11515433734969
 21
-100.0025091980897
 97
        0
 92
        1
 93
        3
 72
     1
 10
54.88243813732106
 20
-99.14778100819917
 11
54.39392359751263
 21
-99.80372718859074
 72
     1
 10
54.39392359751263
 20
-99.80372718859074
 11
54.88243813732106
 21
-99.80372718859074
 72
     1
 10
54.88243813732106
 20
-99.80372718859074
 11
54.88243813732106
 21
-99.14778100819917
 97
        0
 75
     2
 76
     1
 98
        0
  0
ENDBLK
  5
8F
330
8C
100
AcDbEntity
  8
0
100
AcDbBlockEnd
  0
BLOCK
  5
B3
330
B1
100
AcDbEntity
  8
0
100
AcDbBlockBegin
  2
block 4
 70
     0
 10
0.0
 20
0.0
 30
0.0
  3
block 4
  1

  0
SPLINE
  5
B5
330
B1
100
AcDbEntity
  8
_U+30EC_U+30A4_U+30E4_U+30FC 1
370
     0
100
AcDbSpline
210
0.0
220
0.0
230
1.0
 70
    11
 71
     3
 72
    44
 73
    40
 74
     0
 42
0.0000000001
 43
0.0000000001
 12
1.0
 22
0.0
 32
0.0
 13
1.0
 23
0.0
 33
0.0
 40
0.0
 40
0.0
 40
0.0
 40
0.0
 40
1.0
 40
1.0
 40
1.0
 40
2.0
 40
2.0
 40
2.0
 40
3.0
 40
3.0
 40
3.0
 40
4.0
 40
4.0
 40
4.0
 40
5.0
 40
5.0
 40
5.0
 40
6.0
 40
6.0
 40
6.0
 40
7.0
 40
7.0
 40
7.0
 40
8.0
 40
8.0
 40
8.0
 40
9.0
 40
9.0
 40
9.0
 40
10.0
 40
10.0
 40
10.0
 40
11.0
 40
11.0
 40
11.0
 40
12.0
 40
12.0
 40
12.0
 40
13.0
 40
13.0
 40
13.0
 40
13.0
 10
63.69344209562178
 20
-77.06713051458739
 30
0.0
 10
63.46055364081889
 20
-77.22594941645741
 30
0.0
 10
63.36099038129517
 20
-77.30001896939028
 30
0.0
 10
63.3089694394679
 20
-77.44367945112519
 30
0.0
 10
63.3089694394679
 20
-77.44367945112519
 30
0.0
 10
64.14147676347852
 20
-77.44367945112519
 30
0.0
 10
64.14147676347852
 20
-77.44367945112519
 30
0.0
 10
64.14147676347852
 20
-77.44367945112519
 30
0.0
 10
64.14147676347852
 20
-77.64900714204609
 30
0.0
 10
64.14147676347852
 20
-77.64900714204609
 30
0.0
 10
64.14147676347852
 20
-77.64900714204609
 30
0.0
 10
63.04231904890956
 20
-77.64900714204609
 30
0.0
 10
63.04231904890956
 20
-77.64900714204609
 30
0.0
 10
63.07642549421354
 20
-77.29140623067715
 30
0.0
 10
63.14636093256411
 20
-77.21320256316199
 30
0.0
 10
63.55770533350294
 20
-76.91485729413934
 30
0.0
 10
63.83124591503177
 20
-76.71607528464043
 30
0.0
 10
63.90169811770513
 20
-76.64820690358101
 30
0.0
 10
63.90169811770513
 20
-76.51074759371954
 30
0.0
 10
63.90169811770513
 20
-76.39223630902694
 30
0.0
 10
63.8247002336098
 20
-76.26132268058745
 30
0.0
 10
63.61420489946104
 20
-76.26132268058745
 30
0.0
 10
63.33618569380138
 20
-76.26132268058745
 30
0.0
 10
63.32722844553972
 20
-76.49179956855066
 30
0.0
 10
63.3227498214089
 20
-76.6082437959521
 30
0.0
 10
63.3227498214089
 20
-76.6082437959521
 30
0.0
 10
63.08297117563551
 20
-76.6082437959521
 30
0.0
 10
63.08297117563551
 20
-76.6082437959521
 30
0.0
 10
63.09192842389716
 20
-76.48111977254639
 30
0.0
 10
63.10329723899849
 20
-76.36915416927577
 30
0.0
 10
63.18942462612973
 20
-76.25064288458317
 30
0.0
 10
63.30690238217675
 20
-76.08975692542201
 30
0.0
 10
63.50568439167566
 20
-76.05599498966656
 30
0.0
 10
63.63005233869318
 20
-76.05599498966656
 30
0.0
 10
63.92650280519894
 20
-76.05599498966656
 30
0.0
 10
64.14802244490049
 20
-76.2399630885789
 30
0.0
 10
64.14802244490049
 20
-76.51281465101069
 30
0.0
 10
64.14802244490049
 20
-76.74156899123128
 30
0.0
 10
64.02365449788297
 20
-76.84078774120647
 30
0.0
 10
63.69344209562178
 20
-77.06713051458739
 30
0.0
  0
HATCH
  5
B6
330
B1
100
AcDbEntity
  8
_U+30EC_U+30A4_U+30E4_U+30FC 1
 62
   179
420
  2234388
100
AcDbHatch
 10
0.0
 20
0.0
 30
0.0
210
0.0
220
0.0
230
1.0
  2
SOLID
 70
     1
 71
     0
 91
        1
 92
        1
 93
        1
 72
     4
 94
        3
 73
     0
 74
     1
 95
       44
 96
       40
 40
0.0
 40
0.0
 40
0.0
 40
0.0
 40
1.0
 40
1.0
 40
1.0
 40
2.0
 40
2.0
 40
2.0
 40
3.0
 40
3.0
 40
3.0
 40
4.0
 40
4.0
 40
4.0
 40
5.0
 40
5.0
 40
5.0
 40
6.0
 40
6.0
 40
6.0
 40
7.0
 40
7.0
 40
7.0
 40
8.0
 40
8.0
 40
8.0
 40
9.0
 40
9.0
 40
9.0
 40
10.0
 40
10.0
 40
10.0
 40
11.0
 40
11.0
 40
11.0
 40
12.0
 40
12.0
 40
12.0
 40
13.0
 40
13.0
 40
13.0
 40
13.0
 10
63.69344209562178
 20
-77.06713051458739
 10
63.46055364081889
 20
-77.22594941645741
 10
63.36099038129517
 20
-77.30001896939028
 10
63.3089694394679
 20
-77.44367945112519
 10
63.3089694394679
 20
-77.44367945112519
 10
64.14147676347852
 20
-77.44367945112519
 10
64.14147676347852
 20
-77.44367945112519
 10
64.14147676347852
 20
-77.44367945112519
 10
64.14147676347852
 20
-77.64900714204609
 10
64.14147676347852
 20
-77.64900714204609
 10
64.14147676347852
 20
-77.64900714204609
 10
63.04231904890956
 20
-77.64900714204609
 10
63.04231904890956
 20
-77.64900714204609
 10
63.07642549421354
 20
-77.29140623067715
 10
63.14636093256411
 20
-77.21320256316199
 10
63.55770533350294
 20
-76.91485729413934
 10
63.83124591503177
 20
-76.71607528464043
 10
63.90169811770513
 20
-76.64820690358101
 10
63.90169811770513
 20
-76.51074759371954
 10
63.90169811770513
 20
-76.39223630902694
 10
63.8247002336098
 20
-76.26132268058745
 10
63.61420489946104
 20
-76.26132268058745
 10
63.33618569380138
 20
-76.26132268058745
 10
63.32722844553972
 20
-76.49179956855066
 10
63.3227498214089
 20
-76.6082437959521
 10
63.3227498214089
 20
-76.6082437959521
 10
63.08297117563551
 20
-76.6082437959521
 10
63.08297117563551
 20
-76.6082437959521
 10
63.09192842389716
 20
-76.48111977254639
 10
63.10329723899849
 20
-76.36915416927577
 10
63.18942462612973
 20
-76.25064288458317
 10
63.30690238217675
 20
-76.08975692542201
 10
63.50568439167566
 20
-76.05599498966656
 10
63.63005233869318
 20
-76.05599498966656
 10
63.92650280519894
 20
-76.05599498966656
 10
64.14802244490049
 20
-76.2399630885789
 10
64.14802244490049
 20
-76.51281465101069
 10
64.14802244490049
 20
-76.74156899123128
 10
64.02365449788297
 20
-76.84078774120647
 10
63.69344209562178
 20
-77.06713051458739
 97
        0
 97
        0
 75
     2
 76
     1
 98
        0
  0
SPLINE
  5
B7
330
B1
100
AcDbEntity
  8
_U+30EC_U+30A4_U+30E4_U+30FC 1
370
     0
100
AcDbSpline
210
0.0
220
0.0
230
1.0
 70
    11
 71
     3
 72
    62
 73
    58
 74
     0
 42
0.0000000001
 43
0.0000000001
 12
1.0
 22
0.0
 32
0.0
 13
1.0
 23
0.0
 33
0.0
 40
0.0
 40
0.0
 40
0.0
 40
0.0
 40
1.0
 40
1.0
 40
1.0
 40
2.0
 40
2.0
 40
2.0
 40
3.0
 40
3.0
 40
3.0
 40
4.0
 40
4.0
 40
4.0
 40
5.0
 40
5.0
 40
5.0
 40
6.0
 40
6.0
 40
6.0
 40
7.0
 40
7.0
 40
7.0
 40
8.0
 40
8.0
 40
8.0
 40
9.0
 40
9.0
 40
9.0
 40
10.0
 40
10.0
 40
10.0
 40
11.0
 40
11.0
 40
11.0
 40
12.0
 40
12.0
 40
12.0
 40
13.0
 40
13.0
 40
13.0
 40
14.0
 40
14.0
 40
14.0
 40
15.0
 40
15.0
 40
15.0
 40
16.0
 40
16.0
 40
16.0
 40
17.0
 40
17.0
 40
17.0
 40
18.0
 40
18.0
 40
18.0
 40
19.0
 40
19.0
 40
19.0
 40
19.0
 10
64.84289820427539
 20
-77.69965004567926
 30
0.0
 10
64.74126788746052
 20
-77.69965004567926
 30
0.0
 10
64.50837943265763
 20
-77.67863496321924
 30
0.0
 10
64.37505423737846
 20
-77.49259980701574
 30
0.0
 10
64.29581704121772
 20
-77.38028969419659
 30
0.0
 10
64.29133841708689
 20
-77.2810709442214
 30
0.0
 10
64.28685979295607
 20
-77.19632159528426
 30
0.0
 10
64.28685979295607
 20
-77.19632159528426
 30
0.0
 10
64.52181530505011
 20
-77.19632159528426
 30
0.0
 10
64.52181530505011
 20
-77.19632159528426
 30
0.0
 10
64.52422687188978
 20
-77.27039114821713
 30
0.0
 10
64.5355956869911
 20
-77.50500215076264
 30
0.0
 10
64.83841958014456
 20
-77.50500215076264
 30
0.0
 10
64.98552515736473
 20
-77.50500215076264
 30
0.0
 10
65.14813366426853
 20
-77.43541122196059
 30
0.0
 10
65.14813366426853
 20
-77.20700139128853
 30
0.0
 10
65.14813366426853
 20
-77.09055716388708
 30
0.0
 10
65.10748153754258
 20
-77.04198131754507
 30
0.0
 10
65.07371960178713
 20
-77.01028643908076
 30
0.0
 10
64.99448240562639
 20
-76.93621688614789
 30
0.0
 10
64.87011445860887
 20
-76.92347003285246
 30
0.0
 10
64.81120332581109
 20
-76.92347003285246
 30
0.0
 10
64.79087726244812
 20
-76.92347003285246
 30
0.0
 10
64.75263670256184
 20
-76.92553709014362
 30
0.0
 10
64.7230088813887
 20
-76.92967120472592
 30
0.0
 10
64.7230088813887
 20
-76.92967120472592
 30
0.0
 10
64.7230088813887
 20
-76.7350233098093
 30
0.0
 10
64.7230088813887
 20
-76.7350233098093
 30
0.0
 10
64.76366100811464
 20
-76.74156899123128
 30
0.0
 10
64.80913626851994
 20
-76.74363604852243
 30
0.0
 10
64.81568194994192
 20
-76.74363604852243
 30
0.0
 10
64.88596189784101
 20
-76.74363604852243
 30
0.0
 10
65.09852428928093
 20
-76.72227645651388
 30
0.0
 10
65.09852428928093
 20
-76.48559839667722
 30
0.0
 10
65.09852428928093
 20
-76.30783146963833
 30
0.0
 10
64.95830890303125
 20
-76.25270994187433
 30
0.0
 10
64.84083114698424
 20
-76.25270994187433
 30
0.0
 10
64.55798880764523
 20
-76.25270994187433
 30
0.0
 10
64.54903155938358
 20
-76.48559839667722
 30
0.0
 10
64.54455293525275
 20
-76.55725638277042
 30
0.0
 10
64.54455293525275
 20
-76.55725638277042
 30
0.0
 10
64.32751191968201
 20
-76.55725638277042
 30
0.0
 10
64.32751191968201
 20
-76.55725638277042
 30
0.0
 10
64.33646916794366
 20
-76.43254392620437
 30
0.0
 10
64.36575247956829
 20
-76.05599498966656
 30
0.0
 10
64.85426701937672
 20
-76.05599498966656
 30
0.0
 10
65.0940456651501
 20
-76.05599498966656
 30
0.0
 10
65.3517388074468
 20
-76.18311901307229
 30
0.0
 10
65.3517388074468
 20
-76.47905271525524
 30
0.0
 10
65.3517388074468
 20
-76.66543238100725
 30
0.0
 10
65.24976398108339
 20
-76.74777016310473
 30
0.0
 10
65.1436550401377
 20
-76.80909286274218
 30
0.0
 10
65.20911185435745
 20
-76.83665362662417
 30
0.0
 10
65.40375974927406
 20
-76.9169243514305
 30
0.0
 10
65.40375974927406
 20
-77.1942545379931
 30
0.0
 10
65.40375974927406
 20
-77.53256291464464
 30
0.0
 10
65.13917641600688
 20
-77.69965004567926
 30
0.0
 10
64.84289820427539
 20
-77.69965004567926
 30
0.0
  0
HATCH
  5
B8
330
B1
100
AcDbEntity
  8
_U+30EC_U+30A4_U+30E4_U+30FC 1
 62
   179
420
  2234388
100
AcDbHatch
 10
0.0
 20
0.0
 30
0.0
210
0.0
220
0.0
230
1.0
  2
SOLID
 70
     1
 71
     0
 91
        1
 92
        1
 93
        1
 72
     4
 94
        3
 73
     0
 74
     1
 95
       62
 96
       58
 40
0.0
 40
0.0
 40
0.0
 40
0.0
 40
1.0
 40
1.0
 40
1.0
 40
2.0
 40
2.0
 40
2.0
 40
3.0
 40
3.0
 40
3.0
 40
4.0
 40
4.0
 40
4.0
 40
5.0
 40
5.0
 40
5.0
 40
6.0
 40
6.0
 40
6.0
 40
7.0
 40
7.0
 40
7.0
 40
8.0
 40
8.0
 40
8.0
 40
9.0
 40
9.0
 40
9.0
 40
10.0
 40
10.0
 40
10.0
 40
11.0
 40
11.0
 40
11.0
 40
12.0
 40
12.0
 40
12.0
 40
13.0
 40
13.0
 40
13.0
 40
14.0
 40
14.0
 40
14.0
 40
15.0
 40
15.0
 40
15.0
 40
16.0
 40
16.0
 40
16.0
 40
17.0
 40
17.0
 40
17.0
 40
18.0
 40
18.0
 40
18.0
 40
19.0
 40
19.0
 40
19.0
 40
19.0
 10
64.84289820427539
 20
-77.69965004567926
 10
64.74126788746052
 20
-77.69965004567926
 10
64.50837943265763
 20
-77.67863496321924
 10
64.37505423737846
 20
-77.49259980701574
 10
64.29581704121772
 20
-77.38028969419659
 10
64.29133841708689
 20
-77.2810709442214
 10
64.28685979295607
 20
-77.19632159528426
 10
64.28685979295607
 20
-77.19632159528426
 10
64.52181530505011
 20
-77.19632159528426
 10
64.52181530505011
 20
-77.19632159528426
 10
64.52422687188978
 20
-77.27039114821713
 10
64.5355956869911
 20
-77.50500215076264
 10
64.83841958014456
 20
-77.50500215076264
 10
64.98552515736473
 20
-77.50500215076264
 10
65.14813366426853
 20
-77.43541122196059
 10
65.14813366426853
 20
-77.20700139128853
 10
65.14813366426853
 20
-77.09055716388708
 10
65.10748153754258
 20
-77.04198131754507
 10
65.07371960178713
 20
-77.01028643908076
 10
64.99448240562639
 20
-76.93621688614789
 10
64.87011445860887
 20
-76.92347003285246
 10
64.81120332581109
 20
-76.92347003285246
 10
64.79087726244812
 20
-76.92347003285246
 10
64.75263670256184
 20
-76.92553709014362
 10
64.7230088813887
 20
-76.92967120472592
 10
64.7230088813887
 20
-76.92967120472592
 10
64.7230088813887
 20
-76.7350233098093
 10
64.7230088813887
 20
-76.7350233098093
 10
64.76366100811464
 20
-76.74156899123128
 10
64.80913626851994
 20
-76.74363604852243
 10
64.81568194994192
 20
-76.74363604852243
 10
64.88596189784101
 20
-76.74363604852243
 10
65.09852428928093
 20
-76.72227645651388
 10
65.09852428928093
 20
-76.48559839667722
 10
65.09852428928093
 20
-76.30783146963833
 10
64.95830890303125
 20
-76.25270994187433
 10
64.84083114698424
 20
-76.25270994187433
 10
64.55798880764523
 20
-76.25270994187433
 10
64.54903155938358
 20
-76.48559839667722
 10
64.54455293525275
 20
-76.55725638277042
 10
64.54455293525275
 20
-76.55725638277042
 10
64.32751191968201
 20
-76.55725638277042
 10
64.32751191968201
 20
-76.55725638277042
 10
64.33646916794366
 20
-76.43254392620437
 10
64.36575247956829
 20
-76.05599498966656
 10
64.85426701937672
 20
-76.05599498966656
 10
65.0940456651501
 20
-76.05599498966656
 10
65.3517388074468
 20
-76.18311901307229
 10
65.3517388074468
 20
-76.47905271525524
 10
65.3517388074468
 20
-76.66543238100725
 10
65.24976398108339
 20
-76.74777016310473
 10
65.1436550401377
 20
-76.80909286274218
 10
65.20911185435745
 20
-76.83665362662417
 10
65.40375974927406
 20
-76.9169243514305
 10
65.40375974927406
 20
-77.1942545379931
 10
65.40375974927406
 20
-77.53256291464464
 10
65.13917641600688
 20
-77.69965004567926
 10
64.84289820427539
 20
-77.69965004567926
 97
        0
 97
        0
 75
     2
 76
     1
 98
        0
  0
ENDBLK
  5
B4
330
B1
100
AcDbEntity
  8
0
100
AcDbBlockEnd
  0
BLOCK
  5
C7
330
C5
100
AcDbEntity
  8
0
100
AcDbBlockBegin
  2
block 5
 70
     0
 10
0.0
 20
0.0
 30
0.0
  3
block 5
  1

  0
SPLINE
  5
C9
330
C5
100
AcDbEntity
  8
_U+30EC_U+30A4_U+30E4_U+30FC 1
370
     0
100
AcDbSpline
210
0.0
220
0.0
230
1.0
 70
    11
 71
     3
 72
    26
 73
    22
 74
     0
 42
0.0000000001
 43
0.0000000001
 12
1.0
 22
0.0
 32
0.0
 13
1.0
 23
0.0
 33
0.0
 40
0.0
 40
0.0
 40
0.0
 40
0.0
 40
1.0
 40
1.0
 40
1.0
 40
2.0
 40
2.0
 40
2.0
 40
3.0
 40
3.0
 40
3.0
 40
4.0
 40
4.0
 40
4.0
 40
5.0
 40
5.0
 40
5.0
 40
6.0
 40
6.0
 40
6.0
 40
7.0
 40
7.0
 40
7.0
 40
7.0
 10
48.12161050229252
 20
-90.93984101459144
 30
0.0
 10
48.12161050229252
 20
-90.93984101459144
 30
0.0
 10
47.01728514449568
 20
-90.93984101459144
 30
0.0
 10
47.01728514449568
 20
-90.93984101459144
 30
0.0
 10
47.01728514449568
 20
-90.93984101459144
 30
0.0
 10
47.01728514449568
 20
-91.29227428273249
 30
0.0
 10
47.01728514449568
 20
-91.29227428273249
 30
0.0
 10
47.01728514449568
 20
-91.29227428273249
 30
0.0
 10
46.8693182934042
 20
-91.29227428273249
 30
0.0
 10
46.8693182934042
 20
-91.29227428273249
 30
0.0
 10
46.85450438281762
 20
-90.93742944775175
 30
0.0
 10
46.69155136636531
 20
-90.88782007276416
 30
0.0
 10
46.57734645102928
 20
-90.85612519429986
 30
0.0
 10
46.57734645102928
 20
-90.85612519429986
 30
0.0
 10
46.57734645102928
 20
-90.70006236881804
 30
0.0
 10
46.57734645102928
 20
-90.70006236881804
 30
0.0
 10
46.57734645102928
 20
-90.70006236881804
 30
0.0
 10
48.12161050229252
 20
-90.70006236881804
 30
0.0
 10
48.12161050229252
 20
-90.70006236881804
 30
0.0
 10
48.12161050229252
 20
-90.70006236881804
 30
0.0
 10
48.12161050229252
 20
-90.93984101459144
 30
0.0
 10
48.12161050229252
 20
-90.93984101459144
 30
0.0
  0
HATCH
  5
CA
330
C5
100
AcDbEntity
  8
_U+30EC_U+30A4_U+30E4_U+30FC 1
 62
   179
420
  2234388
100
AcDbHatch
 10
0.0
 20
0.0
 30
0.0
210
0.0
220
0.0
230
1.0
  2
SOLID
 70
     1
 71
     0
 91
        1
 92
        1
 93
        1
 72
     4
 94
        3
 73
     0
 74
     1
 95
       26
 96
       22
 40
0.0
 40
0.0
 40
0.0
 40
0.0
 40
1.0
 40
1.0
 40
1.0
 40
2.0
 40
2.0
 40
2.0
 40
3.0
 40
3.0
 40
3.0
 40
4.0
 40
4.0
 40
4.0
 40
5.0
 40
5.0
 40
5.0
 40
6.0
 40
6.0
 40
6.0
 40
7.0
 40
7.0
 40
7.0
 40
7.0
 10
48.12161050229252
 20
-90.93984101459144
 10
48.12161050229252
 20
-90.93984101459144
 10
47.01728514449568
 20
-90.93984101459144
 10
47.01728514449568
 20
-90.93984101459144
 10
47.01728514449568
 20
-90.93984101459144
 10
47.01728514449568
 20
-91.29227428273249
 10
47.01728514449568
 20
-91.29227428273249
 10
47.01728514449568
 20
-91.29227428273249
 10
46.8693182934042
 20
-91.29227428273249
 10
46.8693182934042
 20
-91.29227428273249
 10
46.85450438281762
 20
-90.93742944775175
 10
46.69155136636531
 20
-90.88782007276416
 10
46.57734645102928
 20
-90.85612519429986
 10
46.57734645102928
 20
-90.85612519429986
 10
46.57734645102928
 20
-90.70006236881804
 10
46.57734645102928
 20
-90.70006236881804
 10
46.57734645102928
 20
-90.70006236881804
 10
48.12161050229252
 20
-90.70006236881804
 10
48.12161050229252
 20
-90.70006236881804
 10
48.12161050229252
 20
-90.70006236881804
 10
48.12161050229252
 20
-90.93984101459144
 10
48.12161050229252
 20
-90.93984101459144
 97
        0
 97
        0
 75
     2
 76
     1
 98
        0
  0
POLYLINE
  5
CB
330
C5
100
AcDbEntity
  8
_U+30EC_U+30A4_U+30E4_U+30FC 1
370
     0
100
AcDb2dPolyline
 66
     1
 10
0.0
 20
0.0
 30
0.0
  0
VERTEX
  5
CC
330
CB
100
AcDbEntity
  8
_U+30EC_U+30A4_U+30E4_U+30FC 1
370
     0
100
AcDbVertex
100
AcDb2dVertex
 10
47.77468938692786
 20
-89.27482636657018
 30
0.0
  0
VERTEX
  5
CD
330
CB
100
AcDbEntity
  8
_U+30EC_U+30A4_U+30E4_U+30FC 1
370
     0
100
AcDbVertex
100
AcDb2dVertex
 10
48.12161050229252
 20
-89.27482636657018
 30
0.0
  0
VERTEX
  5
CE
330
CB
100
AcDbEntity
  8
_U+30EC_U+30A4_U+30E4_U+30FC 1
370
     0
100
AcDbVertex
100
AcDb2dVertex
 10
48.12161050229252
 20
-89.50771482137307
 30
0.0
  0
VERTEX
  5
CF
330
CB
100
AcDbEntity
  8
_U+30EC_U+30A4_U+30E4_U+30FC 1
370
     0
100
AcDbVertex
100
AcDb2dVertex
 10
47.77468938692786
 20
-89.50771482137307
 30
0.0
  0
VERTEX
  5
D0
330
CB
100
AcDbEntity
  8
_U+30EC_U+30A4_U+30E4_U+30FC 1
370
     0
100
AcDbVertex
100
AcDb2dVertex
 10
47.77468938692786
 20
-90.20879175262142
 30
0.0
  0
VERTEX
  5
D1
330
CB
100
AcDbEntity
  8
_U+30EC_U+30A4_U+30E4_U+30FC 1
370
     0
100
AcDbVertex
100
AcDb2dVertex
 10
47.55041367083809
 20
-90.20879175262142
 30
0.0
  0
VERTEX
  5
D2
330
CB
100
AcDbEntity
  8
_U+30EC_U+30A4_U+30E4_U+30FC 1
370
     0
100
AcDbVertex
100
AcDb2dVertex
 10
46.57734645102928
 20
-89.48291013387927
 30
0.0
  0
VERTEX
  5
D3
330
CB
100
AcDbEntity
  8
_U+30EC_U+30A4_U+30E4_U+30FC 1
370
     0
100
AcDbVertex
100
AcDb2dVertex
 10
46.57734645102928
 20
-89.27482636657018
 30
0.0
  0
VERTEX
  5
D4
330
CB
100
AcDbEntity
  8
_U+30EC_U+30A4_U+30E4_U+30FC 1
370
     0
100
AcDbVertex
100
AcDb2dVertex
 10
47.57573512265468
 20
-89.27482636657018
 30
0.0
  0
VERTEX
  5
D5
330
CB
100
AcDbEntity
  8
_U+30EC_U+30A4_U+30E4_U+30FC 1
370
     0
100
AcDbVertex
100
AcDb2dVertex
 10
47.57573512265468
 20
-89.05330672686863
 30
0.0
  0
VERTEX
  5
D6
330
CB
100
AcDbEntity
  8
_U+30EC_U+30A4_U+30E4_U+30FC 1
370
     0
100
AcDbVertex
100
AcDb2dVertex
 10
47.77468938692786
 20
-89.05330672686863
 30
0.0
  0
VERTEX
  5
D7
330
CB
100
AcDbEntity
  8
_U+30EC_U+30A4_U+30E4_U+30FC 1
370
     0
100
AcDbVertex
100
AcDb2dVertex
 10
47.77468938692786
 20
-89.27482636657018
 30
0.0
  0
SEQEND
  5
D8
330
CB
100
AcDbEntity
  8
_U+30EC_U+30A4_U+30E4_U+30FC 1
370
     0
  0
POLYLINE
  5
D9
330
C5
100
AcDbEntity
  8
_U+30EC_U+30A4_U+30E4_U+30FC 1
370
     0
100
AcDb2dPolyline
 66
     1
 10
0.0
 20
0.0
 30
0.0
  0
VERTEX
  5
DA
330
D9
100
AcDbEntity
  8
_U+30EC_U+30A4_U+30E4_U+30FC 1
370
     0
100
AcDbVertex
100
AcDb2dVertex
 10
46.91996119703737
 20
-89.50771482137307
 30
0.0
  0
VERTEX
  5
DB
330
D9
100
AcDbEntity
  8
_U+30EC_U+30A4_U+30E4_U+30FC 1
370
     0
100
AcDbVertex
100
AcDb2dVertex
 10
47.57573512265468
 20
-89.9962293611815
 30
0.0
  0
VERTEX
  5
DC
330
D9
100
AcDbEntity
  8
_U+30EC_U+30A4_U+30E4_U+30FC 1
370
     0
100
AcDbVertex
100
AcDb2dVertex
 10
47.57573512265468
 20
-89.50771482137307
 30
0.0
  0
VERTEX
  5
DD
330
D9
100
AcDbEntity
  8
_U+30EC_U+30A4_U+30E4_U+30FC 1
370
     0
100
AcDbVertex
100
AcDb2dVertex
 10
46.91996119703737
 20
-89.50771482137307
 30
0.0
  0
SEQEND
  5
DE
330
D9
100
AcDbEntity
  8
_U+30EC_U+30A4_U+30E4_U+30FC 1
370
     0
  0
HATCH
  5
DF
330
C5
100
AcDbEntity
  8
_U+30EC_U+30A4_U+30E4_U+30FC 1
 62
   179
420
  2234388
100
AcDbHatch
 10
0.0
 20
0.0
 30
0.0
210
0.0
220
0.0
230
1.0
  2
SOLID
 70
     1
 71
     0
 91
        2
 92
        1
 93
       11
 72
     1
 10
47.77468938692786
 20
-89.27482636657018
 11
48.12161050229252
 21
-89.27482636657018
 72
     1
 10
48.12161050229252
 20
-89.27482636657018
 11
48.12161050229252
 21
-89.50771482137307
 72
     1
 10
48.12161050229252
 20
-89.50771482137307
 11
47.77468938692786
 21
-89.50771482137307
 72
     1
 10
47.77468938692786
 20
-89.50771482137307
 11
47.77468938692786
 21
-90.20879175262142
 72
     1
 10
47.77468938692786
 20
-90.20879175262142
 11
47.55041367083809
 21
-90.20879175262142
 72
     1
 10
47.55041367083809
 20
-90.20879175262142
 11
46.57734645102928
 21
-89.48291013387927
 72
     1
 10
46.57734645102928
 20
-89.48291013387927
 11
46.57734645102928
 21
-89.27482636657018
 72
     1
 10
46.57734645102928
 20
-89.27482636657018
 11
47.57573512265468
 21
-89.27482636657018
 72
     1
 10
47.57573512265468
 20
-89.27482636657018
 11
47.57573512265468
 21
-89.05330672686863
 72
     1
 10
47.57573512265468
 20
-89.05330672686863
 11
47.77468938692786
 21
-89.05330672686863
 72
     1
 10
47.77468938692786
 20
-89.05330672686863
 11
47.77468938692786
 21
-89.27482636657018
 97
        0
 92
        1
 93
        3
 72
     1
 10
46.91996119703737
 20
-89.50771482137307
 11
47.57573512265468
 21
-89.9962293611815
 72
     1
 10
47.57573512265468
 20
-89.9962293611815
 11
47.57573512265468
 21
-89.50771482137307
 72
     1
 10
47.57573512265468
 20
-89.50771482137307
 11
46.91996119703737
 21
-89.50771482137307
 97
        0
 75
     2
 76
     1
 98
        0
  0
POLYLINE
  5
E0
330
C5
100
AcDbEntity
  8
_U+30EC_U+30A4_U+30E4_U+30FC 1
370
     0
100
AcDb2dPolyline
 66
     1
 10
0.0
 20
0.0
 30
0.0
  0
VERTEX
  5
E1
330
E0
100
AcDbEntity
  8
_U+30EC_U+30A4_U+30E4_U+30FC 1
370
     0
100
AcDbVertex
100
AcDb2dVertex
 10
48.12161050229252
 20
-88.84246688317133
 30
0.0
  0
VERTEX
  5
E2
330
E0
100
AcDbEntity
  8
_U+30EC_U+30A4_U+30E4_U+30FC 1
370
     0
100
AcDbVertex
100
AcDb2dVertex
 10
47.86994627709502
 20
-88.84246688317133
 30
0.0
  0
VERTEX
  5
E3
330
E0
100
AcDbEntity
  8
_U+30EC_U+30A4_U+30E4_U+30FC 1
370
     0
100
AcDbVertex
100
AcDb2dVertex
 10
47.86994627709502
 20
-88.57340492577332
 30
0.0
  0
VERTEX
  5
E4
330
E0
100
AcDbEntity
  8
_U+30EC_U+30A4_U+30E4_U+30FC 1
370
     0
100
AcDbVertex
100
AcDb2dVertex
 10
48.12161050229252
 20
-88.57340492577332
 30
0.0
  0
VERTEX
  5
E5
330
E0
100
AcDbEntity
  8
_U+30EC_U+30A4_U+30E4_U+30FC 1
370
     0
100
AcDbVertex
100
AcDb2dVertex
 10
48.12161050229252
 20
-88.84246688317133
 30
0.0
  0
SEQEND
  5
E6
330
E0
100
AcDbEntity
  8
_U+30EC_U+30A4_U+30E4_U+30FC 1
370
     0
  0
HATCH
  5
E7
330
C5
100
AcDbEntity
  8
_U+30EC_U+30A4_U+30E4_U+30FC 1
 62
   179
420
  2234388
100
AcDbHatch
 10
0.0
 20
0.0
 30
0.0
210
0.0
220
0.0
230
1.0
  2
SOLID
 70
     1
 71
     0
 91
        1
 92
        1
 93
        4
 72
     1
 10
48.12161050229252
 20
-88.84246688317133
 11
47.86994627709502
 21
-88.84246688317133
 72
     1
 10
47.86994627709502
 20
-88.84246688317133
 11
47.86994627709502
 21
-88.57340492577332
 72
     1
 10
47.86994627709502
 20
-88.57340492577332
 11
48.12161050229252
 21
-88.57340492577332
 72
     1
 10
48.12161050229252
 20
-88.57340492577332
 11
48.12161050229252
 21
-88.84246688317133
 97
        0
 75
     2
 76
     1
 98
        0
  0
SPLINE
  5
E8
330
C5
100
AcDbEntity
  8
_U+30EC_U+30A4_U+30E4_U+30FC 1
370
     0
100
AcDbSpline
210
0.0
220
0.0
230
1.0
 70
    11
 71
     3
 72
    26
 73
    22
 74
     0
 42
0.0000000001
 43
0.0000000001
 12
1.0
 22
0.0
 32
0.0
 13
1.0
 23
0.0
 33
0.0
 40
0.0
 40
0.0
 40
0.0
 40
0.0
 40
1.0
 40
1.0
 40
1.0
 40
2.0
 40
2.0
 40
2.0
 40
3.0
 40
3.0
 40
3.0
 40
4.0
 40
4.0
 40
4.0
 40
5.0
 40
5.0
 40
5.0
 40
6.0
 40
6.0
 40
6.0
 40
7.0
 40
7.0
 40
7.0
 40
7.0
 10
48.12161050229252
 20
-87.8809407332381
 30
0.0
 10
48.12161050229252
 20
-87.8809407332381
 30
0.0
 10
48.12161050229252
 20
-88.13415525140397
 30
0.0
 10
48.12161050229252
 20
-88.13415525140397
 30
0.0
 10
47.81275769203987
 20
-88.10693899707049
 30
0.0
 10
47.29444307628403
 20
-87.90126679660108
 30
0.0
 10
46.78887531382362
 20
-87.46718476545959
 30
0.0
 10
46.78887531382362
 20
-87.46718476545959
 30
0.0
 10
46.78887531382362
 20
-88.36256508207603
 30
0.0
 10
46.78887531382362
 20
-88.36256508207603
 30
0.0
 10
46.78887531382362
 20
-88.36256508207603
 30
0.0
 10
46.57734645102928
 20
-88.36256508207603
 30
0.0
 10
46.57734645102928
 20
-88.36256508207603
 30
0.0
 10
46.57734645102928
 20
-88.36256508207603
 30
0.0
 10
46.57734645102928
 20
-87.21397024729373
 30
0.0
 10
46.57734645102928
 20
-87.21397024729373
 30
0.0
 10
46.57734645102928
 20
-87.21397024729373
 30
0.0
 10
46.78887531382362
 20
-87.21397024729373
 30
0.0
 10
46.78887531382362
 20
-87.21397024729373
 30
0.0
 10
47.07860784413313
 20
-87.55985783401282
 30
0.0
 10
47.67099201282183
 20
-87.84476723064297
 30
0.0
 10
48.12161050229252
 20
-87.8809407332381
 30
0.0
  0
HATCH
  5
E9
330
C5
100
AcDbEntity
  8
_U+30EC_U+30A4_U+30E4_U+30FC 1
 62
   179
420
  2234388
100
AcDbHatch
 10
0.0
 20
0.0
 30
0.0
210
0.0
220
0.0
230
1.0
  2
SOLID
 70
     1
 71
     0
 91
        1
 92
        1
 93
        1
 72
     4
 94
        3
 73
     0
 74
     1
 95
       26
 96
       22
 40
0.0
 40
0.0
 40
0.0
 40
0.0
 40
1.0
 40
1.0
 40
1.0
 40
2.0
 40
2.0
 40
2.0
 40
3.0
 40
3.0
 40
3.0
 40
4.0
 40
4.0
 40
4.0
 40
5.0
 40
5.0
 40
5.0
 40
6.0
 40
6.0
 40
6.0
 40
7.0
 40
7.0
 40
7.0
 40
7.0
 10
48.12161050229252
 20
-87.8809407332381
 10
48.12161050229252
 20
-87.8809407332381
 10
48.12161050229252
 20
-88.13415525140397
 10
48.12161050229252
 20
-88.13415525140397
 10
47.81275769203987
 20
-88.10693899707049
 10
47.29444307628403
 20
-87.90126679660108
 10
46.78887531382362
 20
-87.46718476545959
 10
46.78887531382362
 20
-87.46718476545959
 10
46.78887531382362
 20
-88.36256508207603
 10
46.78887531382362
 20
-88.36256508207603
 10
46.78887531382362
 20
-88.36256508207603
 10
46.57734645102928
 20
-88.36256508207603
 10
46.57734645102928
 20
-88.36256508207603
 10
46.57734645102928
 20
-88.36256508207603
 10
46.57734645102928
 20
-87.21397024729373
 10
46.57734645102928
 20
-87.21397024729373
 10
46.57734645102928
 20
-87.21397024729373
 10
46.78887531382362
 20
-87.21397024729373
 10
46.78887531382362
 20
-87.21397024729373
 10
47.07860784413313
 20
-87.55985783401282
 10
47.67099201282183
 20
-87.84476723064297
 10
48.12161050229252
 20
-87.8809407332381
 97
        0
 97
        0
 75
     2
 76
     1
 98
        0
  0
ENDBLK
  5
C8
330
C5
100
AcDbEntity
  8
0
100
AcDbBlockEnd
  0
BLOCK
  5
F4
330
F2
100
AcDbEntity
  8
0
100
AcDbBlockBegin
  2
block 6
 70
     0
 10
0.0
 20
0.0
 30
0.0
  3
block 6
  1

  0
SPLINE
  5
F6
330
F2
100
AcDbEntity
  8
_U+30EC_U+30A4_U+30E4_U+30FC 1
370
     0
100
AcDbSpline
210
0.0
220
0.0
230
1.0
 70
    11
 71
     3
 72
    26
 73
    22
 74
     0
 42
0.0000000001
 43
0.0000000001
 12
1.0
 22
0.0
 32
0.0
 13
1.0
 23
0.0
 33
0.0
 40
0.0
 40
0.0
 40
0.0
 40
0.0
 40
1.0
 40
1.0
 40
1.0
 40
2.0
 40
2.0
 40
2.0
 40
3.0
 40
3.0
 40
3.0
 40
4.0
 40
4.0
 40
4.0
 40
5.0
 40
5.0
 40
5.0
 40
6.0
 40
6.0
 40
6.0
 40
7.0
 40
7.0
 40
7.0
 40
7.0
 10
79.12178546199038
 20
-90.93984101459144
 30
0.0
 10
79.12178546199038
 20
-90.93984101459144
 30
0.0
 10
78.01763235896782
 20
-90.93984101459144
 30
0.0
 10
78.01763235896782
 20
-90.93984101459144
 30
0.0
 10
78.01763235896782
 20
-90.93984101459144
 30
0.0
 10
78.01763235896782
 20
-91.29227428273249
 30
0.0
 10
78.01763235896782
 20
-91.29227428273249
 30
0.0
 10
78.01763235896782
 20
-91.29227428273249
 30
0.0
 10
77.86949325310208
 20
-91.29227428273249
 30
0.0
 10
77.86949325310208
 20
-91.29227428273249
 30
0.0
 10
77.8546793425155
 20
-90.93742944775175
 30
0.0
 10
77.69172632606319
 20
-90.88782007276416
 30
0.0
 10
77.57734915595289
 20
-90.85612519429986
 30
0.0
 10
77.57734915595289
 20
-90.85612519429986
 30
0.0
 10
77.57734915595289
 20
-90.70006236881804
 30
0.0
 10
77.57734915595289
 20
-90.70006236881804
 30
0.0
 10
77.57734915595289
 20
-90.70006236881804
 30
0.0
 10
79.12178546199038
 20
-90.70006236881804
 30
0.0
 10
79.12178546199038
 20
-90.70006236881804
 30
0.0
 10
79.12178546199038
 20
-90.70006236881804
 30
0.0
 10
79.12178546199038
 20
-90.93984101459144
 30
0.0
 10
79.12178546199038
 20
-90.93984101459144
 30
0.0
  0
HATCH
  5
F7
330
F2
100
AcDbEntity
  8
_U+30EC_U+30A4_U+30E4_U+30FC 1
 62
   179
420
  2234388
100
AcDbHatch
 10
0.0
 20
0.0
 30
0.0
210
0.0
220
0.0
230
1.0
  2
SOLID
 70
     1
 71
     0
 91
        1
 92
        1
 93
        1
 72
     4
 94
        3
 73
     0
 74
     1
 95
       26
 96
       22
 40
0.0
 40
0.0
 40
0.0
 40
0.0
 40
1.0
 40
1.0
 40
1.0
 40
2.0
 40
2.0
 40
2.0
 40
3.0
 40
3.0
 40
3.0
 40
4.0
 40
4.0
 40
4.0
 40
5.0
 40
5.0
 40
5.0
 40
6.0
 40
6.0
 40
6.0
 40
7.0
 40
7.0
 40
7.0
 40
7.0
 10
79.12178546199038
 20
-90.93984101459144
 10
79.12178546199038
 20
-90.93984101459144
 10
78.01763235896782
 20
-90.93984101459144
 10
78.01763235896782
 20
-90.93984101459144
 10
78.01763235896782
 20
-90.93984101459144
 10
78.01763235896782
 20
-91.29227428273249
 10
78.01763235896782
 20
-91.29227428273249
 10
78.01763235896782
 20
-91.29227428273249
 10
77.86949325310208
 20
-91.29227428273249
 10
77.86949325310208
 20
-91.29227428273249
 10
77.8546793425155
 20
-90.93742944775175
 10
77.69172632606319
 20
-90.88782007276416
 10
77.57734915595289
 20
-90.85612519429986
 10
77.57734915595289
 20
-90.85612519429986
 10
77.57734915595289
 20
-90.70006236881804
 10
77.57734915595289
 20
-90.70006236881804
 10
77.57734915595289
 20
-90.70006236881804
 10
79.12178546199038
 20
-90.70006236881804
 10
79.12178546199038
 20
-90.70006236881804
 10
79.12178546199038
 20
-90.70006236881804
 10
79.12178546199038
 20
-90.93984101459144
 10
79.12178546199038
 20
-90.93984101459144
 97
        0
 97
        0
 75
     2
 76
     1
 98
        0
  0
SPLINE
  5
F8
330
F2
100
AcDbEntity
  8
_U+30EC_U+30A4_U+30E4_U+30FC 1
370
     0
100
AcDbSpline
210
0.0
220
0.0
230
1.0
 70
    11
 71
     3
 72
    44
 73
    40
 74
     0
 42
0.0000000001
 43
0.0000000001
 12
1.0
 22
0.0
 32
0.0
 13
1.0
 23
0.0
 33
0.0
 40
0.0
 40
0.0
 40
0.0
 40
0.0
 40
1.0
 40
1.0
 40
1.0
 40
2.0
 40
2.0
 40
2.0
 40
3.0
 40
3.0
 40
3.0
 40
4.0
 40
4.0
 40
4.0
 40
5.0
 40
5.0
 40
5.0
 40
6.0
 40
6.0
 40
6.0
 40
7.0
 40
7.0
 40
7.0
 40
8.0
 40
8.0
 40
8.0
 40
9.0
 40
9.0
 40
9.0
 40
10.0
 40
10.0
 40
10.0
 40
11.0
 40
11.0
 40
11.0
 40
12.0
 40
12.0
 40
12.0
 40
13.0
 40
13.0
 40
13.0
 40
13.0
 10
78.53990883453169
 20
-89.53045245157573
 30
0.0
 10
78.69872773640171
 20
-89.76334090637862
 30
0.0
 10
78.77279728933458
 20
-89.86290416590234
 30
0.0
 10
78.9164577710695
 20
-89.9149251077296
 30
0.0
 10
78.9164577710695
 20
-89.9149251077296
 30
0.0
 10
78.9164577710695
 20
-89.08259003849325
 30
0.0
 10
78.9164577710695
 20
-89.08259003849325
 30
0.0
 10
78.9164577710695
 20
-89.08259003849325
 30
0.0
 10
79.12178546199038
 20
-89.08259003849325
 30
0.0
 10
79.12178546199038
 20
-89.08259003849325
 30
0.0
 10
79.12178546199038
 20
-89.08259003849325
 30
0.0
 10
79.12178546199038
 20
-90.18157549828794
 30
0.0
 10
79.12178546199038
 20
-90.18157549828794
 30
0.0
 10
78.76418455062145
 20
-90.14746905298396
 30
0.0
 10
78.68598088310628
 20
-90.0775336146334
 30
0.0
 10
78.38763561408365
 20
-89.66618921369457
 30
0.0
 10
78.18885360458474
 20
-89.39264863216573
 30
0.0
 10
78.12098522352531
 20
-89.32236868426664
 30
0.0
 10
77.98352591366384
 20
-89.32236868426664
 30
0.0
 10
77.86501462897125
 20
-89.32236868426664
 30
0.0
 10
77.73410100053175
 20
-89.3991943135877
 30
0.0
 10
77.73410100053175
 20
-89.60968964773647
 30
0.0
 10
77.73410100053175
 20
-89.88770885339613
 30
0.0
 10
77.96457788849497
 20
-89.89666610165779
 30
0.0
 10
78.08102211589642
 20
-89.90114472578861
 30
0.0
 10
78.08102211589642
 20
-89.90114472578861
 30
0.0
 10
78.08102211589642
 20
-90.140923371562
 30
0.0
 10
78.08102211589642
 20
-90.140923371562
 30
0.0
 10
77.95389809249069
 20
-90.13196612330034
 30
0.0
 10
77.84193248922007
 20
-90.12059730819902
 30
0.0
 10
77.72342120452748
 20
-90.03446992106778
 30
0.0
 10
77.56253524536632
 20
-89.91699216502076
 30
0.0
 10
77.52877330961087
 20
-89.71821015552185
 30
0.0
 10
77.52877330961087
 20
-89.59384220850433
 30
0.0
 10
77.52877330961087
 20
-89.29756399677284
 30
0.0
 10
77.7127414085232
 20
-89.07604435707127
 30
0.0
 10
77.985592970955
 20
-89.07604435707127
 30
0.0
 10
78.21434731117559
 20
-89.07604435707127
 30
0.0
 10
78.31356606115078
 20
-89.20041230408879
 30
0.0
 10
78.53990883453169
 20
-89.53045245157573
 30
0.0
  0
HATCH
  5
F9
330
F2
100
AcDbEntity
  8
_U+30EC_U+30A4_U+30E4_U+30FC 1
 62
   179
420
  2234388
100
AcDbHatch
 10
0.0
 20
0.0
 30
0.0
210
0.0
220
0.0
230
1.0
  2
SOLID
 70
     1
 71
     0
 91
        1
 92
        1
 93
        1
 72
     4
 94
        3
 73
     0
 74
     1
 95
       44
 96
       40
 40
0.0
 40
0.0
 40
0.0
 40
0.0
 40
1.0
 40
1.0
 40
1.0
 40
2.0
 40
2.0
 40
2.0
 40
3.0
 40
3.0
 40
3.0
 40
4.0
 40
4.0
 40
4.0
 40
5.0
 40
5.0
 40
5.0
 40
6.0
 40
6.0
 40
6.0
 40
7.0
 40
7.0
 40
7.0
 40
8.0
 40
8.0
 40
8.0
 40
9.0
 40
9.0
 40
9.0
 40
10.0
 40
10.0
 40
10.0
 40
11.0
 40
11.0
 40
11.0
 40
12.0
 40
12.0
 40
12.0
 40
13.0
 40
13.0
 40
13.0
 40
13.0
 10
78.53990883453169
 20
-89.53045245157573
 10
78.69872773640171
 20
-89.76334090637862
 10
78.77279728933458
 20
-89.86290416590234
 10
78.9164577710695
 20
-89.9149251077296
 10
78.9164577710695
 20
-89.9149251077296
 10
78.9164577710695
 20
-89.08259003849325
 10
78.9164577710695
 20
-89.08259003849325
 10
78.9164577710695
 20
-89.08259003849325
 10
79.12178546199038
 20
-89.08259003849325
 10
79.12178546199038
 20
-89.08259003849325
 10
79.12178546199038
 20
-89.08259003849325
 10
79.12178546199038
 20
-90.18157549828794
 10
79.12178546199038
 20
-90.18157549828794
 10
78.76418455062145
 20
-90.14746905298396
 10
78.68598088310628
 20
-90.0775336146334
 10
78.38763561408365
 20
-89.66618921369457
 10
78.18885360458474
 20
-89.39264863216573
 10
78.12098522352531
 20
-89.32236868426664
 10
77.98352591366384
 20
-89.32236868426664
 10
77.86501462897125
 20
-89.32236868426664
 10
77.73410100053175
 20
-89.3991943135877
 10
77.73410100053175
 20
-89.60968964773647
 10
77.73410100053175
 20
-89.88770885339613
 10
77.96457788849497
 20
-89.89666610165779
 10
78.08102211589642
 20
-89.90114472578861
 10
78.08102211589642
 20
-89.90114472578861
 10
78.08102211589642
 20
-90.140923371562
 10
78.08102211589642
 20
-90.140923371562
 10
77.95389809249069
 20
-90.13196612330034
 10
77.84193248922007
 20
-90.12059730819902
 10
77.72342120452748
 20
-90.03446992106778
 10
77.56253524536632
 20
-89.91699216502076
 10
77.52877330961087
 20
-89.71821015552185
 10
77.52877330961087
 20
-89.59384220850433
 10
77.52877330961087
 20
-89.29756399677284
 10
77.7127414085232
 20
-89.07604435707127
 10
77.985592970955
 20
-89.07604435707127
 10
78.21434731117559
 20
-89.07604435707127
 10
78.31356606115078
 20
-89.20041230408879
 10
78.53990883453169
 20
-89.53045245157573
 97
        0
 97
        0
 75
     2
 76
     1
 98
        0
  0
POLYLINE
  5
FA
330
F2
100
AcDbEntity
  8
_U+30EC_U+30A4_U+30E4_U+30FC 1
370
     0
100
AcDb2dPolyline
 66
     1
 10
0.0
 20
0.0
 30
0.0
  0
VERTEX
  5
FB
330
FA
100
AcDbEntity
  8
_U+30EC_U+30A4_U+30E4_U+30FC 1
370
     0
100
AcDbVertex
100
AcDb2dVertex
 10
79.12178546199038
 20
-88.84246688317133
 30
0.0
  0
VERTEX
  5
FC
330
FA
100
AcDbEntity
  8
_U+30EC_U+30A4_U+30E4_U+30FC 1
370
     0
100
AcDbVertex
100
AcDb2dVertex
 10
78.86994898201863
 20
-88.84246688317133
 30
0.0
  0
VERTEX
  5
FD
330
FA
100
AcDbEntity
  8
_U+30EC_U+30A4_U+30E4_U+30FC 1
370
     0
100
AcDbVertex
100
AcDb2dVertex
 10
78.86994898201863
 20
-88.57340492577332
 30
0.0
  0
VERTEX
  5
FE
330
FA
100
AcDbEntity
  8
_U+30EC_U+30A4_U+30E4_U+30FC 1
370
     0
100
AcDbVertex
100
AcDb2dVertex
 10
79.12178546199038
 20
-88.57340492577332
 30
0.0
  0
VERTEX
  5
FF
330
FA
100
AcDbEntity
  8
_U+30EC_U+30A4_U+30E4_U+30FC 1
370
     0
100
AcDbVertex
100
AcDb2dVertex
 10
79.12178546199038
 20
-88.84246688317133
 30
0.0
  0
SEQEND
  5
100
330
FA
100
AcDbEntity
  8
_U+30EC_U+30A4_U+30E4_U+30FC 1
370
     0
  0
HATCH
  5
101
330
F2
100
AcDbEntity
  8
_U+30EC_U+30A4_U+30E4_U+30FC 1
 62
   179
420
  2234388
100
AcDbHatch
 10
0.0
 20
0.0
 30
0.0
210
0.0
220
0.0
230
1.0
  2
SOLID
 70
     1
 71
     0
 91
        1
 92
        1
 93
        4
 72
     1
 10
79.12178546199038
 20
-88.84246688317133
 11
78.86994898201863
 21
-88.84246688317133
 72
     1
 10
78.86994898201863
 20
-88.84246688317133
 11
78.86994898201863
 21
-88.57340492577332
 72
     1
 10
78.86994898201863
 20
-88.57340492577332
 11
79.12178546199038
 21
-88.57340492577332
 72
     1
 10
79.12178546199038
 20
-88.57340492577332
 11
79.12178546199038
 21
-88.84246688317133
 97
        0
 75
     2
 76
     1
 98
        0
  0
SPLINE
  5
102
330
F2
100
AcDbEntity
  8
_U+30EC_U+30A4_U+30E4_U+30FC 1
370
     0
100
AcDbSpline
210
0.0
220
0.0
230
1.0
 70
    11
 71
     3
 72
    26
 73
    22
 74
     0
 42
0.0000000001
 43
0.0000000001
 12
1.0
 22
0.0
 32
0.0
 13
1.0
 23
0.0
 33
0.0
 40
0.0
 40
0.0
 40
0.0
 40
0.0
 40
1.0
 40
1.0
 40
1.0
 40
2.0
 40
2.0
 40
2.0
 40
3.0
 40
3.0
 40
3.0
 40
4.0
 40
4.0
 40
4.0
 40
5.0
 40
5.0
 40
5.0
 40
6.0
 40
6.0
 40
6.0
 40
7.0
 40
7.0
 40
7.0
 40
7.0
 10
79.12178546199038
 20
-87.8809407332381
 30
0.0
 10
79.12178546199038
 20
-87.8809407332381
 30
0.0
 10
79.12178546199038
 20
-88.13415525140397
 30
0.0
 10
79.12178546199038
 20
-88.13415525140397
 30
0.0
 10
78.81276039696348
 20
-88.10693899707049
 30
0.0
 10
78.2946180359819
 20
-87.90126679660108
 30
0.0
 10
77.78887801874723
 20
-87.46718476545959
 30
0.0
 10
77.78887801874723
 20
-87.46718476545959
 30
0.0
 10
77.78887801874723
 20
-88.36256508207603
 30
0.0
 10
77.78887801874723
 20
-88.36256508207603
 30
0.0
 10
77.78887801874723
 20
-88.36256508207603
 30
0.0
 10
77.57734915595289
 20
-88.36256508207603
 30
0.0
 10
77.57734915595289
 20
-88.36256508207603
 30
0.0
 10
77.57734915595289
 20
-88.36256508207603
 30
0.0
 10
77.57734915595289
 20
-87.21397024729373
 30
0.0
 10
77.57734915595289
 20
-87.21397024729373
 30
0.0
 10
77.57734915595289
 20
-87.21397024729373
 30
0.0
 10
77.78887801874723
 20
-87.21397024729373
 30
0.0
 10
77.78887801874723
 20
-87.21397024729373
 30
0.0
 10
78.07895505860526
 20
-87.55985783401282
 30
0.0
 10
78.67116697251971
 20
-87.84476723064297
 30
0.0
 10
79.12178546199038
 20
-87.8809407332381
 30
0.0
  0
HATCH
  5
103
330
F2
100
AcDbEntity
  8
_U+30EC_U+30A4_U+30E4_U+30FC 1
 62
   179
420
  2234388
100
AcDbHatch
 10
0.0
 20
0.0
 30
0.0
210
0.0
220
0.0
230
1.0
  2
SOLID
 70
     1
 71
     0
 91
        1
 92
        1
 93
        1
 72
     4
 94
        3
 73
     0
 74
     1
 95
       26
 96
       22
 40
0.0
 40
0.0
 40
0.0
 40
0.0
 40
1.0
 40
1.0
 40
1.0
 40
2.0
 40
2.0
 40
2.0
 40
3.0
 40
3.0
 40
3.0
 40
4.0
 40
4.0
 40
4.0
 40
5.0
 40
5.0
 40
5.0
 40
6.0
 40
6.0
 40
6.0
 40
7.0
 40
7.0
 40
7.0
 40
7.0
 10
79.12178546199038
 20
-87.8809407332381
 10
79.12178546199038
 20
-87.8809407332381
 10
79.12178546199038
 20
-88.13415525140397
 10
79.12178546199038
 20
-88.13415525140397
 10
78.81276039696348
 20
-88.10693899707049
 10
78.2946180359819
 20
-87.90126679660108
 10
77.78887801874723
 20
-87.46718476545959
 10
77.78887801874723
 20
-87.46718476545959
 10
77.78887801874723
 20
-88.36256508207603
 10
77.78887801874723
 20
-88.36256508207603
 10
77.78887801874723
 20
-88.36256508207603
 10
77.57734915595289
 20
-88.36256508207603
 10
77.57734915595289
 20
-88.36256508207603
 10
77.57734915595289
 20
-88.36256508207603
 10
77.57734915595289
 20
-87.21397024729373
 10
77.57734915595289
 20
-87.21397024729373
 10
77.57734915595289
 20
-87.21397024729373
 10
77.78887801874723
 20
-87.21397024729373
 10
77.78887801874723
 20
-87.21397024729373
 10
78.07895505860526
 20
-87.55985783401282
 10
78.67116697251971
 20
-87.84476723064297
 10
79.12178546199038
 20
-87.8809407332381
 97
        0
 97
        0
 75
     2
 76
     1
 98
        0
  0
ENDBLK
  5
F5
330
F2
100
AcDbEntity
  8
0
100
AcDbBlockEnd
  0
ENDSEC
  0
SECTION
  2
ENTITIES
  0
POLYLINE
  5
41
330
1F
100
AcDbEntity
  8
_U+30EC_U+30A4_U+30E4_U+30FC 1
 62
   179
420
  2234388
370
    25
100
AcDb2dPolyline
 66
     1
 10
0.0
 20
0.0
 30
0.0
  0
VERTEX
  5
42
330
41
100
AcDbEntity
  8
_U+30EC_U+30A4_U+30E4_U+30FC 1
 62
   179
420
  2234388
370
    25
100
AcDbVertex
100
AcDb2dVertex
 10
52.71787504394385
 20
-82.24562331277197
 30
0.0
  0
VERTEX
  5
43
330
41
100
AcDbEntity
  8
_U+30EC_U+30A4_U+30E4_U+30FC 1
 62
   179
420
  2234388
370
    25
100
AcDbVertex
100
AcDb2dVertex
 10
75.71803306827205
 20
-82.24562331277197
 30
0.0
  0
SEQEND
  5
44
330
41
100
AcDbEntity
  8
_U+30EC_U+30A4_U+30E4_U+30FC 1
 62
   179
420
  2234388
370
    25
  0
POLYLINE
  5
45
330
1F
100
AcDbEntity
  8
_U+30EC_U+30A4_U+30E4_U+30FC 1
 62
   179
420
  2234388
370
    25
100
AcDb2dPolyline
 66
     1
 10
0.0
 20
0.0
 30
0.0
  0
VERTEX
  5
46
330
45
100
AcDbEntity
  8
_U+30EC_U+30A4_U+30E4_U+30FC 1
 62
   179
420
  2234388
370
    25
100
AcDbVertex
100
AcDb2dVertex
 10
52.71787504394385
 20
-82.24562331277197
 30
0.0
  0
VERTEX
  5
47
330
45
100
AcDbEntity
  8
_U+30EC_U+30A4_U+30E4_U+30FC 1
 62
   179
420
  2234388
370
    25
100
AcDbVertex
100
AcDb2dVertex
 10
52.71787504394385
 20
-96.94566164243021
 30
0.0
  0
SEQEND
  5
48
330
45
100
AcDbEntity
  8
_U+30EC_U+30A4_U+30E4_U+30FC 1
 62
   179
420
  2234388
370
    25
  0
POLYLINE
  5
49
330
1F
100
AcDbEntity
  8
_U+30EC_U+30A4_U+30E4_U+30FC 1
 62
   179
420
  2234388
370
    25
100
AcDb2dPolyline
 66
     1
 10
0.0
 20
0.0
 30
0.0
  0
VERTEX
  5
4A
330
49
100
AcDbEntity
  8
_U+30EC_U+30A4_U+30E4_U+30FC 1
 62
   179
420
  2234388
370
    25
100
AcDbVertex
100
AcDb2dVertex
 10
75.71803306827205
 20
-82.24562331277197
 30
0.0
  0
VERTEX
  5
4B
330
49
100
AcDbEntity
  8
_U+30EC_U+30A4_U+30E4_U+30FC 1
 62
   179
420
  2234388
370
    25
100
AcDbVertex
100
AcDb2dVertex
 10
75.71803306827205
 20
-83.24539553474419
 30
0.0
  0
SEQEND
  5
4C
330
49
100
AcDbEntity
  8
_U+30EC_U+30A4_U+30E4_U+30FC 1
 62
   179
420
  2234388
370
    25
  0
POLYLINE
  5
4D
330
1F
100
AcDbEntity
  8
_U+30EC_U+30A4_U+30E4_U+30FC 1
 62
   179
420
  2234388
370
    25
100
AcDb2dPolyline
 66
     1
 10
0.0
 20
0.0
 30
0.0
  0
VERTEX
  5
4E
330
4D
100
AcDbEntity
  8
_U+30EC_U+30A4_U+30E4_U+30FC 1
 62
   179
420
  2234388
370
    25
100
AcDbVertex
100
AcDb2dVertex
 10
53.71800001842853
 20
-83.24539553474419
 30
0.0
  0
VERTEX
  5
4F
330
4D
100
AcDbEntity
  8
_U+30EC_U+30A4_U+30E4_U+30FC 1
 62
   179
420
  2234388
370
    25
100
AcDbVertex
100
AcDb2dVertex
 10
75.71803306827205
 20
-83.24539553474419
 30
0.0
  0
SEQEND
  5
50
330
4D
100
AcDbEntity
  8
_U+30EC_U+30A4_U+30E4_U+30FC 1
 62
   179
420
  2234388
370
    25
  0
POLYLINE
  5
51
330
1F
100
AcDbEntity
  8
_U+30EC_U+30A4_U+30E4_U+30FC 1
 62
   179
420
  2234388
370
    25
100
AcDb2dPolyline
 66
     1
 10
0.0
 20
0.0
 30
0.0
  0
VERTEX
  5
52
330
51
100
AcDbEntity
  8
_U+30EC_U+30A4_U+30E4_U+30FC 1
 62
   179
420
  2234388
370
    25
100
AcDbVertex
100
AcDb2dVertex
 10
56.71798688633694
 20
-95.94557192045808
 30
0.0
  0
VERTEX
  5
53
330
51
100
AcDbEntity
  8
_U+30EC_U+30A4_U+30E4_U+30FC 1
 62
   179
420
  2234388
370
    25
100
AcDbVertex
100
AcDb2dVertex
 10
56.71798688633694
 20
-96.94566164243021
 30
0.0
  0
SEQEND
  5
54
330
51
100
AcDbEntity
  8
_U+30EC_U+30A4_U+30E4_U+30FC 1
 62
   179
420
  2234388
370
    25
  0
POLYLINE
  5
55
330
1F
100
AcDbEntity
  8
_U+30EC_U+30A4_U+30E4_U+30FC 1
 62
   179
420
  2234388
370
    25
100
AcDb2dPolyline
 66
     1
 10
0.0
 20
0.0
 30
0.0
  0
VERTEX
  5
56
330
55
100
AcDbEntity
  8
_U+30EC_U+30A4_U+30E4_U+30FC 1
 62
   179
420
  2234388
370
    25
100
AcDbVertex
100
AcDb2dVertex
 10
53.71800001842853
 20
-95.94557192045808
 30
0.0
  0
VERTEX
  5
57
330
55
100
AcDbEntity
  8
_U+30EC_U+30A4_U+30E4_U+30FC 1
 62
   179
420
  2234388
370
    25
100
AcDbVertex
100
AcDb2dVertex
 10
56.71798688633694
 20
-95.94557192045808
 30
0.0
  0
SEQEND
  5
58
330
55
100
AcDbEntity
  8
_U+30EC_U+30A4_U+30E4_U+30FC 1
 62
   179
420
  2234388
370
    25
  0
POLYLINE
  5
59
330
1F
100
AcDbEntity
  8
_U+30EC_U+30A4_U+30E4_U+30FC 1
 62
   179
420
  2234388
370
    25
100
AcDb2dPolyline
 66
     1
 10
0.0
 20
0.0
 30
0.0
  0
VERTEX
  5
5A
330
59
100
AcDbEntity
  8
_U+30EC_U+30A4_U+30E4_U+30FC 1
 62
   179
420
  2234388
370
    25
100
AcDbVertex
100
AcDb2dVertex
 10
53.71800001842853
 20
-83.24539553474419
 30
0.0
  0
VERTEX
  5
5B
330
59
100
AcDbEntity
  8
_U+30EC_U+30A4_U+30E4_U+30FC 1
 62
   179
420
  2234388
370
    25
100
AcDbVertex
100
AcDb2dVertex
 10
53.71800001842853
 20
-95.94557192045808
 30
0.0
  0
SEQEND
  5
5C
330
59
100
AcDbEntity
  8
_U+30EC_U+30A4_U+30E4_U+30FC 1
 62
   179
420
  2234388
370
    25
  0
POLYLINE
  5
5D
330
1F
100
AcDbEntity
  8
_U+30EC_U+30A4_U+30E4_U+30FC 1
 62
   179
420
  2234388
370
    25
100
AcDb2dPolyline
 66
     1
 10
0.0
 20
0.0
 30
0.0
  0
VERTEX
  5
5E
330
5D
100
AcDbEntity
  8
_U+30EC_U+30A4_U+30E4_U+30FC 1
 62
   179
420
  2234388
370
    25
100
AcDbVertex
100
AcDb2dVertex
 10
52.71787504394385
 20
-96.94566164243021
 30
0.0
  0
VERTEX
  5
5F
330
5D
100
AcDbEntity
  8
_U+30EC_U+30A4_U+30E4_U+30FC 1
 62
   179
420
  2234388
370
    25
100
AcDbVertex
100
AcDb2dVertex
 10
56.71798688633694
 20
-96.94566164243021
 30
0.0
  0
SEQEND
  5
60
330
5D
100
AcDbEntity
  8
_U+30EC_U+30A4_U+30E4_U+30FC 1
 62
   179
420
  2234388
370
    25
  0
SPLINE
  5
61
330
1F
100
AcDbEntity
  8
_U+30EC_U+30A4_U+30E4_U+30FC 1
 62
   179
420
  2234388
370
     9
100
AcDbSpline
210
0.0
220
0.0
230
1.0
 70
    11
 71
     3
 72
    17
 73
    13
 74
     0
 42
0.0000000001
 43
0.0000000001
 12
1.0
 22
0.0
 32
0.0
 13
1.0
 23
0.0
 33
0.0
 40
0.0
 40
0.0
 40
0.0
 40
0.0
 40
1.0
 40
1.0
 40
1.0
 40
2.0
 40
2.0
 40
2.0
 40
3.0
 40
3.0
 40
3.0
 40
4.0
 40
4.0
 40
4.0
 40
4.0
 10
52.81778170806168
 20
-78.24501748043885
 30
0.0
 10
52.81778170806168
 20
-78.18987831378577
 30
0.0
 10
52.7730142092038
 20
-78.1451108137972
 30
0.0
 10
52.71787504394385
 20
-78.1451108137972
 30
0.0
 10
52.66277115646078
 20
-78.1451108137972
 30
0.0
 10
52.61796837982601
 20
-78.18987831378577
 30
0.0
 10
52.61796837982601
 20
-78.24501748043885
 30
0.0
 10
52.61796837982601
 20
-78.30047414709152
 30
0.0
 10
52.66277115646078
 20
-78.34527692485824
 30
0.0
 10
52.71787504394385
 20
-78.34527692485824
 30
0.0
 10
52.7730142092038
 20
-78.34527692485824
 30
0.0
 10
52.81778170806168
 20
-78.30047414709152
 30
0.0
 10
52.81778170806168
 20
-78.24501748043885
 30
0.0
  0
SPLINE
  5
62
330
1F
100
AcDbEntity
  8
_U+30EC_U+30A4_U+30E4_U+30FC 1
 62
   179
420
  2234388
370
     9
100
AcDbSpline
210
0.0
220
0.0
230
1.0
 70
    11
 71
     3
 72
    17
 73
    13
 74
     0
 42
0.0000000001
 43
0.0000000001
 12
1.0
 22
0.0
 32
0.0
 13
1.0
 23
0.0
 33
0.0
 40
0.0
 40
0.0
 40
0.0
 40
0.0
 40
1.0
 40
1.0
 40
1.0
 40
2.0
 40
2.0
 40
2.0
 40
3.0
 40
3.0
 40
3.0
 40
4.0
 40
4.0
 40
4.0
 40
4.0
 10
75.81794164771199
 20
-78.24501748043885
 30
0.0
 10
75.81794164771199
 20
-78.18987831378577
 30
0.0
 10
75.77313886994591
 20
-78.1451108137972
 30
0.0
 10
75.71803306827205
 20
-78.1451108137972
 30
0.0
 10
75.66289390301209
 20
-78.1451108137972
 30
0.0
 10
75.61812640415421
 20
-78.18987831378577
 30
0.0
 10
75.61812640415421
 20
-78.24501748043885
 30
0.0
 10
75.61812640415421
 20
-78.30047414709152
 30
0.0
 10
75.66289390301209
 20
-78.34527692485824
 30
0.0
 10
75.71803306827205
 20
-78.34527692485824
 30
0.0
 10
75.77313886994591
 20
-78.34527692485824
 30
0.0
 10
75.81794164771199
 20
-78.30047414709152
 30
0.0
 10
75.81794164771199
 20
-78.24501748043885
 30
0.0
  0
SPLINE
  5
63
330
1F
100
AcDbEntity
  8
_U+30EC_U+30A4_U+30E4_U+30FC 1
 62
   179
420
  2234388
370
     9
100
AcDbSpline
210
0.0
220
0.0
230
1.0
 70
    11
 71
     3
 72
    17
 73
    13
 74
     0
 42
0.0000000001
 43
0.0000000001
 12
1.0
 22
0.0
 32
0.0
 13
1.0
 23
0.0
 33
0.0
 40
0.0
 40
0.0
 40
0.0
 40
0.0
 40
1.0
 40
1.0
 40
1.0
 40
2.0
 40
2.0
 40
2.0
 40
3.0
 40
3.0
 40
3.0
 40
4.0
 40
4.0
 40
4.0
 40
4.0
 10
79.81805157478297
 20
-82.24562331277197
 30
0.0
 10
79.81805157478297
 20
-82.19016664611897
 30
0.0
 10
79.7732487981482
 20
-82.14536386835258
 30
0.0
 10
79.71814491066513
 20
-82.14536386835258
 30
0.0
 10
79.6626529676364
 20
-82.14536386835258
 30
0.0
 10
79.61788546877852
 20
-82.19016664611897
 30
0.0
 10
79.61788546877852
 20
-82.24562331277197
 30
0.0
 10
79.61788546877852
 20
-82.30076247942473
 30
0.0
 10
79.6626529676364
 20
-82.34552997941361
 30
0.0
 10
79.71814491066513
 20
-82.34552997941361
 30
0.0
 10
79.7732487981482
 20
-82.34552997941361
 30
0.0
 10
79.81805157478297
 20
-82.30076247942473
 30
0.0
 10
79.81805157478297
 20
-82.24562331277197
 30
0.0
  0
SPLINE
  5
64
330
1F
100
AcDbEntity
  8
_U+30EC_U+30A4_U+30E4_U+30FC 1
 62
   179
420
  2234388
370
     9
100
AcDbSpline
210
0.0
220
0.0
230
1.0
 70
    11
 71
     3
 72
    17
 73
    13
 74
     0
 42
0.0000000001
 43
0.0000000001
 12
1.0
 22
0.0
 32
0.0
 13
1.0
 23
0.0
 33
0.0
 40
0.0
 40
0.0
 40
0.0
 40
0.0
 40
1.0
 40
1.0
 40
1.0
 40
2.0
 40
2.0
 40
2.0
 40
3.0
 40
3.0
 40
3.0
 40
4.0
 40
4.0
 40
4.0
 40
4.0
 10
79.81805157478297
 20
-83.24539553474419
 30
0.0
 10
79.81805157478297
 20
-83.19025636809144
 30
0.0
 10
79.7732487981482
 20
-83.14548886810256
 30
0.0
 10
79.71814491066513
 20
-83.14548886810256
 30
0.0
 10
79.6626529676364
 20
-83.14548886810256
 30
0.0
 10
79.61788546877852
 20
-83.19025636809144
 30
0.0
 10
79.61788546877852
 20
-83.24539553474419
 30
0.0
 10
79.61788546877852
 20
-83.30049942361943
 30
0.0
 10
79.6626529676364
 20
-83.34530220138583
 30
0.0
 10
79.71814491066513
 20
-83.34530220138583
 30
0.0
 10
79.7732487981482
 20
-83.34530220138583
 30
0.0
 10
79.81805157478297
 20
-83.30049942361943
 30
0.0
 10
79.81805157478297
 20
-83.24539553474419
 30
0.0
  0
SPLINE
  5
65
330
1F
100
AcDbEntity
  8
_U+30EC_U+30A4_U+30E4_U+30FC 1
 62
   179
420
  2234388
370
     9
100
AcDbSpline
210
0.0
220
0.0
230
1.0
 70
    11
 71
     3
 72
    17
 73
    13
 74
     0
 42
0.0000000001
 43
0.0000000001
 12
1.0
 22
0.0
 32
0.0
 13
1.0
 23
0.0
 33
0.0
 40
0.0
 40
0.0
 40
0.0
 40
0.0
 40
1.0
 40
1.0
 40
1.0
 40
2.0
 40
2.0
 40
2.0
 40
3.0
 40
3.0
 40
3.0
 40
4.0
 40
4.0
 40
4.0
 40
4.0
 10
79.81805157478297
 20
-95.94557192045808
 30
0.0
 10
79.81805157478297
 20
-95.890432753805
 30
0.0
 10
79.7732487981482
 20
-95.84566525381643
 30
0.0
 10
79.71814491066513
 20
-95.84566525381643
 30
0.0
 10
79.6626529676364
 20
-95.84566525381643
 30
0.0
 10
79.61788546877852
 20
-95.890432753805
 30
0.0
 10
79.61788546877852
 20
-95.94557192045808
 30
0.0
 10
79.61788546877852
 20
-96.00067580933299
 30
0.0
 10
79.6626529676364
 20
-96.04547858709971
 30
0.0
 10
79.71814491066513
 20
-96.04547858709971
 30
0.0
 10
79.7732487981482
 20
-96.04547858709971
 30
0.0
 10
79.81805157478297
 20
-96.00067580933299
 30
0.0
 10
79.81805157478297
 20
-95.94557192045808
 30
0.0
  0
SPLINE
  5
66
330
1F
100
AcDbEntity
  8
_U+30EC_U+30A4_U+30E4_U+30FC 1
 62
   179
420
  2234388
370
     9
100
AcDbSpline
210
0.0
220
0.0
230
1.0
 70
    11
 71
     3
 72
    17
 73
    13
 74
     0
 42
0.0000000001
 43
0.0000000001
 12
1.0
 22
0.0
 32
0.0
 13
1.0
 23
0.0
 33
0.0
 40
0.0
 40
0.0
 40
0.0
 40
0.0
 40
1.0
 40
1.0
 40
1.0
 40
2.0
 40
2.0
 40
2.0
 40
3.0
 40
3.0
 40
3.0
 40
4.0
 40
4.0
 40
4.0
 40
4.0
 10
48.81802264343737
 20
-96.94566164243021
 30
0.0
 10
48.81802264343737
 20
-96.89020497577754
 30
0.0
 10
48.77325514457949
 20
-96.84575497578858
 30
0.0
 10
48.71811597931953
 20
-96.84575497578858
 30
0.0
 10
48.66301209183646
 20
-96.84575497578858
 30
0.0
 10
48.6182093152017
 20
-96.89020497577754
 30
0.0
 10
48.6182093152017
 20
-96.94566164243021
 30
0.0
 10
48.6182093152017
 20
-97.0008008090833
 30
0.0
 10
48.66301209183646
 20
-97.04556830907185
 30
0.0
 10
48.71811597931953
 20
-97.04556830907185
 30
0.0
 10
48.77325514457949
 20
-97.04556830907185
 30
0.0
 10
48.81802264343737
 20
-97.0008008090833
 30
0.0
 10
48.81802264343737
 20
-96.94566164243021
 30
0.0
  0
SPLINE
  5
67
330
1F
100
AcDbEntity
  8
_U+30EC_U+30A4_U+30E4_U+30FC 1
 62
   179
420
  2234388
370
     9
100
AcDbSpline
210
0.0
220
0.0
230
1.0
 70
    11
 71
     3
 72
    17
 73
    13
 74
     0
 42
0.0000000001
 43
0.0000000001
 12
1.0
 22
0.0
 32
0.0
 13
1.0
 23
0.0
 33
0.0
 40
0.0
 40
0.0
 40
0.0
 40
0.0
 40
1.0
 40
1.0
 40
1.0
 40
2.0
 40
2.0
 40
2.0
 40
3.0
 40
3.0
 40
3.0
 40
4.0
 40
4.0
 40
4.0
 40
4.0
 10
48.81802264343737
 20
-82.24562331277197
 30
0.0
 10
48.81802264343737
 20
-82.19016664611897
 30
0.0
 10
48.77325514457949
 20
-82.14536386835258
 30
0.0
 10
48.71811597931953
 20
-82.14536386835258
 30
0.0
 10
48.66301209183646
 20
-82.14536386835258
 30
0.0
 10
48.6182093152017
 20
-82.19016664611897
 30
0.0
 10
48.6182093152017
 20
-82.24562331277197
 30
0.0
 10
48.6182093152017
 20
-82.30076247942473
 30
0.0
 10
48.66301209183646
 20
-82.34552997941361
 30
0.0
 10
48.71811597931953
 20
-82.34552997941361
 30
0.0
 10
48.77325514457949
 20
-82.34552997941361
 30
0.0
 10
48.81802264343737
 20
-82.30076247942473
 30
0.0
 10
48.81802264343737
 20
-82.24562331277197
 30
0.0
  0
SPLINE
  5
68
330
1F
100
AcDbEntity
  8
_U+30EC_U+30A4_U+30E4_U+30FC 1
 62
   179
420
  2234388
370
     9
100
AcDbSpline
210
0.0
220
0.0
230
1.0
 70
    11
 71
     3
 72
    17
 73
    13
 74
     0
 42
0.0000000001
 43
0.0000000001
 12
1.0
 22
0.0
 32
0.0
 13
1.0
 23
0.0
 33
0.0
 40
0.0
 40
0.0
 40
0.0
 40
0.0
 40
1.0
 40
1.0
 40
1.0
 40
2.0
 40
2.0
 40
2.0
 40
3.0
 40
3.0
 40
3.0
 40
4.0
 40
4.0
 40
4.0
 40
4.0
 10
56.81824632822355
 20
-100.9457735858749
 30
0.0
 10
56.81824632822355
 20
-100.8903169192222
 30
0.0
 10
56.77344355158878
 20
-100.8455141414555
 30
0.0
 10
56.71798688633694
 20
-100.8455141414555
 30
0.0
 10
56.66253022108508
 20
-100.8455141414555
 30
0.0
 10
56.6180802222191
 20
-100.8903169192222
 30
0.0
 10
56.6180802222191
 20
-100.9457735858749
 30
0.0
 10
56.6180802222191
 20
-101.0009127525273
 30
0.0
 10
56.66253022108508
 20
-101.0456802525165
 30
0.0
 10
56.71798688633694
 20
-101.0456802525165
 30
0.0
 10
56.77344355158878
 20
-101.0456802525165
 30
0.0
 10
56.81824632822355
 20
-101.0009127525273
 30
0.0
 10
56.81824632822355
 20
-100.9457735858749
 30
0.0
  0
SPLINE
  5
69
330
1F
100
AcDbEntity
  8
_U+30EC_U+30A4_U+30E4_U+30FC 1
 62
   179
420
  2234388
370
     9
100
AcDbSpline
210
0.0
220
0.0
230
1.0
 70
    11
 71
     3
 72
    17
 73
    13
 74
     0
 42
0.0000000001
 43
0.0000000001
 12
1.0
 22
0.0
 32
0.0
 13
1.0
 23
0.0
 33
0.0
 40
0.0
 40
0.0
 40
0.0
 40
0.0
 40
1.0
 40
1.0
 40
1.0
 40
2.0
 40
2.0
 40
2.0
 40
3.0
 40
3.0
 40
3.0
 40
4.0
 40
4.0
 40
4.0
 40
4.0
 10
52.81778170806168
 20
-100.9457735858749
 30
0.0
 10
52.81778170806168
 20
-100.8903169192222
 30
0.0
 10
52.7730142092038
 20
-100.8455141414555
 30
0.0
 10
52.71787504394385
 20
-100.8455141414555
 30
0.0
 10
52.66277115646078
 20
-100.8455141414555
 30
0.0
 10
52.61796837982601
 20
-100.8903169192222
 30
0.0
 10
52.61796837982601
 20
-100.9457735858749
 30
0.0
 10
52.61796837982601
 20
-101.0009127525273
 30
0.0
 10
52.66277115646078
 20
-101.0456802525165
 30
0.0
 10
52.71787504394385
 20
-101.0456802525165
 30
0.0
 10
52.7730142092038
 20
-101.0456802525165
 30
0.0
 10
52.81778170806168
 20
-101.0009127525273
 30
0.0
 10
52.81778170806168
 20
-100.9457735858749
 30
0.0
  0
POLYLINE
  5
6A
330
1F
100
AcDbEntity
  8
_U+30EC_U+30A4_U+30E4_U+30FC 1
 62
   179
420
  2234388
370
     9
100
AcDb2dPolyline
 66
     1
 10
0.0
 20
0.0
 30
0.0
  0
VERTEX
  5
6B
330
6A
100
AcDbEntity
  8
_U+30EC_U+30A4_U+30E4_U+30FC 1
 62
   179
420
  2234388
370
     9
100
AcDbVertex
100
AcDb2dVertex
 10
79.71814491066513
 20
-82.24562331277197
 30
0.0
  0
VERTEX
  5
6C
330
6A
100
AcDbEntity
  8
_U+30EC_U+30A4_U+30E4_U+30FC 1
 62
   179
420
  2234388
370
     9
100
AcDbVertex
100
AcDb2dVertex
 10
79.71814491066513
 20
-78.47513442482567
 30
0.0
  0
SEQEND
  5
6D
330
6A
100
AcDbEntity
  8
_U+30EC_U+30A4_U+30E4_U+30FC 1
 62
   179
420
  2234388
370
     9
  0
POLYLINE
  5
6E
330
1F
100
AcDbEntity
  8
_U+30EC_U+30A4_U+30E4_U+30FC 1
 62
   179
420
  2234388
370
     9
100
AcDb2dPolyline
 66
     1
 10
0.0
 20
0.0
 30
0.0
  0
VERTEX
  5
6F
330
6E
100
AcDbEntity
  8
_U+30EC_U+30A4_U+30E4_U+30FC 1
 62
   179
420
  2234388
370
     9
100
AcDbVertex
100
AcDb2dVertex
 10
79.71814491066513
 20
-82.24562331277197
 30
0.0
  0
VERTEX
  5
70
330
6E
100
AcDbEntity
  8
_U+30EC_U+30A4_U+30E4_U+30FC 1
 62
   179
420
  2234388
370
     9
100
AcDbVertex
100
AcDb2dVertex
 10
79.71814491066513
 20
-83.24539553474419
 30
0.0
  0
SEQEND
  5
71
330
6E
100
AcDbEntity
  8
_U+30EC_U+30A4_U+30E4_U+30FC 1
 62
   179
420
  2234388
370
     9
  0
POLYLINE
  5
72
330
1F
100
AcDbEntity
  8
_U+30EC_U+30A4_U+30E4_U+30FC 1
 62
   179
420
  2234388
370
     9
100
AcDb2dPolyline
 66
     1
 10
0.0
 20
0.0
 30
0.0
  0
VERTEX
  5
73
330
72
100
AcDbEntity
  8
_U+30EC_U+30A4_U+30E4_U+30FC 1
 62
   179
420
  2234388
370
     9
100
AcDbVertex
100
AcDb2dVertex
 10
78.25810553599129
 20
-82.24562331277197
 30
0.0
  0
VERTEX
  5
74
330
72
100
AcDbEntity
  8
_U+30EC_U+30A4_U+30E4_U+30FC 1
 62
   179
420
  2234388
370
     9
100
AcDbVertex
100
AcDb2dVertex
 10
80.71788182960417
 20
-82.24562331277197
 30
0.0
  0
SEQEND
  5
75
330
72
100
AcDbEntity
  8
_U+30EC_U+30A4_U+30E4_U+30FC 1
 62
   179
420
  2234388
370
     9
  0
POLYLINE
  5
76
330
1F
100
AcDbEntity
  8
_U+30EC_U+30A4_U+30E4_U+30FC 1
 62
   179
420
  2234388
370
     9
100
AcDb2dPolyline
 66
     1
 10
0.0
 20
0.0
 30
0.0
  0
VERTEX
  5
77
330
76
100
AcDbEntity
  8
_U+30EC_U+30A4_U+30E4_U+30FC 1
 62
   179
420
  2234388
370
     9
100
AcDbVertex
100
AcDb2dVertex
 10
78.25810553599129
 20
-83.24539553474419
 30
0.0
  0
VERTEX
  5
78
330
76
100
AcDbEntity
  8
_U+30EC_U+30A4_U+30E4_U+30FC 1
 62
   179
420
  2234388
370
     9
100
AcDbVertex
100
AcDb2dVertex
 10
80.71788182960417
 20
-83.24539553474419
 30
0.0
  0
SEQEND
  5
79
330
76
100
AcDbEntity
  8
_U+30EC_U+30A4_U+30E4_U+30FC 1
 62
   179
420
  2234388
370
     9
  0
INSERT
  5
7B
330
1F
100
AcDbEntity
  8
_U+30EC_U+30A4_U+30E4_U+30FC 1
100
AcDbBlockReference
  2
block 2
 10
0.0
 20
0.0
 30
0.0
  0
POLYLINE
  5
80
330
1F
100
AcDbEntity
  8
_U+30EC_U+30A4_U+30E4_U+30FC 1
 62
   179
420
  2234388
370
     9
100
AcDb2dPolyline
 66
     1
 10
0.0
 20
0.0
 30
0.0
  0
VERTEX
  5
81
330
80
100
AcDbEntity
  8
_U+30EC_U+30A4_U+30E4_U+30FC 1
 62
   179
420
  2234388
370
     9
100
AcDbVertex
100
AcDb2dVertex
 10
52.71787504394385
 20
-100.9457735858749
 30
0.0
  0
VERTEX
  5
82
330
80
100
AcDbEntity
  8
_U+30EC_U+30A4_U+30E4_U+30FC 1
 62
   179
420
  2234388
370
     9
100
AcDbVertex
100
AcDb2dVertex
 10
56.71798688633694
 20
-100.9457735858749
 30
0.0
  0
SEQEND
  5
83
330
80
100
AcDbEntity
  8
_U+30EC_U+30A4_U+30E4_U+30FC 1
 62
   179
420
  2234388
370
     9
  0
POLYLINE
  5
84
330
1F
100
AcDbEntity
  8
_U+30EC_U+30A4_U+30E4_U+30FC 1
 62
   179
420
  2234388
370
     9
100
AcDb2dPolyline
 66
     1
 10
0.0
 20
0.0
 30
0.0
  0
VERTEX
  5
85
330
84
100
AcDbEntity
  8
_U+30EC_U+30A4_U+30E4_U+30FC 1
 62
   179
420
  2234388
370
     9
100
AcDbVertex
100
AcDb2dVertex
 10
52.71787504394385
 20
-99.48573219735052
 30
0.0
  0
VERTEX
  5
86
330
84
100
AcDbEntity
  8
_U+30EC_U+30A4_U+30E4_U+30FC 1
 62
   179
420
  2234388
370
     9
100
AcDbVertex
100
AcDb2dVertex
 10
52.71787504394385
 20
-101.9455458078468
 30
0.0
  0
SEQEND
  5
87
330
84
100
AcDbEntity
  8
_U+30EC_U+30A4_U+30E4_U+30FC 1
 62
   179
420
  2234388
370
     9
  0
POLYLINE
  5
88
330
1F
100
AcDbEntity
  8
_U+30EC_U+30A4_U+30E4_U+30FC 1
 62
   179
420
  2234388
370
     9
100
AcDb2dPolyline
 66
     1
 10
0.0
 20
0.0
 30
0.0
  0
VERTEX
  5
89
330
88
100
AcDbEntity
  8
_U+30EC_U+30A4_U+30E4_U+30FC 1
 62
   179
420
  2234388
370
     9
100
AcDbVertex
100
AcDb2dVertex
 10
56.71798688633694
 20
-99.48573219735052
 30
0.0
  0
VERTEX
  5
8A
330
88
100
AcDbEntity
  8
_U+30EC_U+30A4_U+30E4_U+30FC 1
 62
   179
420
  2234388
370
     9
100
AcDbVertex
100
AcDb2dVertex
 10
56.71798688633694
 20
-101.9455458078468
 30
0.0
  0
SEQEND
  5
8B
330
88
100
AcDbEntity
  8
_U+30EC_U+30A4_U+30E4_U+30FC 1
 62
   179
420
  2234388
370
     9
  0
INSERT
  5
8D
330
1F
100
AcDbEntity
  8
_U+30EC_U+30A4_U+30E4_U+30FC 1
100
AcDbBlockReference
  2
block 3
 10
0.0
 20
0.0
 30
0.0
  0
POLYLINE
  5
A5
330
1F
100
AcDbEntity
  8
_U+30EC_U+30A4_U+30E4_U+30FC 1
 62
   179
420
  2234388
370
     9
100
AcDb2dPolyline
 66
     1
 10
0.0
 20
0.0
 30
0.0
  0
VERTEX
  5
A6
330
A5
100
AcDbEntity
  8
_U+30EC_U+30A4_U+30E4_U+30FC 1
 62
   179
420
  2234388
370
     9
100
AcDbVertex
100
AcDb2dVertex
 10
52.71787504394385
 20
-78.24501748043885
 30
0.0
  0
VERTEX
  5
A7
330
A5
100
AcDbEntity
  8
_U+30EC_U+30A4_U+30E4_U+30FC 1
 62
   179
420
  2234388
370
     9
100
AcDbVertex
100
AcDb2dVertex
 10
75.71803306827205
 20
-78.24501748043885
 30
0.0
  0
SEQEND
  5
A8
330
A5
100
AcDbEntity
  8
_U+30EC_U+30A4_U+30E4_U+30FC 1
 62
   179
420
  2234388
370
     9
  0
POLYLINE
  5
A9
330
1F
100
AcDbEntity
  8
_U+30EC_U+30A4_U+30E4_U+30FC 1
 62
   179
420
  2234388
370
     9
100
AcDb2dPolyline
 66
     1
 10
0.0
 20
0.0
 30
0.0
  0
VERTEX
  5
AA
330
A9
100
AcDbEntity
  8
_U+30EC_U+30A4_U+30E4_U+30FC 1
 62
   179
420
  2234388
370
     9
100
AcDbVertex
100
AcDb2dVertex
 10
52.71787504394385
 20
-79.70502359118471
 30
0.0
  0
VERTEX
  5
AB
330
A9
100
AcDbEntity
  8
_U+30EC_U+30A4_U+30E4_U+30FC 1
 62
   179
420
  2234388
370
     9
100
AcDbVertex
100
AcDb2dVertex
 10
52.71787504394385
 20
-77.24524525846662
 30
0.0
  0
SEQEND
  5
AC
330
A9
100
AcDbEntity
  8
_U+30EC_U+30A4_U+30E4_U+30FC 1
 62
   179
420
  2234388
370
     9
  0
POLYLINE
  5
AD
330
1F
100
AcDbEntity
  8
_U+30EC_U+30A4_U+30E4_U+30FC 1
 62
   179
420
  2234388
370
     9
100
AcDb2dPolyline
 66
     1
 10
0.0
 20
0.0
 30
0.0
  0
VERTEX
  5
AE
330
AD
100
AcDbEntity
  8
_U+30EC_U+30A4_U+30E4_U+30FC 1
 62
   179
420
  2234388
370
     9
100
AcDbVertex
100
AcDb2dVertex
 10
75.71803306827205
 20
-79.70502359118471
 30
0.0
  0
VERTEX
  5
AF
330
AD
100
AcDbEntity
  8
_U+30EC_U+30A4_U+30E4_U+30FC 1
 62
   179
420
  2234388
370
     9
100
AcDbVertex
100
AcDb2dVertex
 10
75.71803306827205
 20
-77.24524525846662
 30
0.0
  0
SEQEND
  5
B0
330
AD
100
AcDbEntity
  8
_U+30EC_U+30A4_U+30E4_U+30FC 1
 62
   179
420
  2234388
370
     9
  0
INSERT
  5
B2
330
1F
100
AcDbEntity
  8
_U+30EC_U+30A4_U+30E4_U+30FC 1
100
AcDbBlockReference
  2
block 4
 10
0.0
 20
0.0
 30
0.0
  0
POLYLINE
  5
B9
330
1F
100
AcDbEntity
  8
_U+30EC_U+30A4_U+30E4_U+30FC 1
 62
   179
420
  2234388
370
     9
100
AcDb2dPolyline
 66
     1
 10
0.0
 20
0.0
 30
0.0
  0
VERTEX
  5
BA
330
B9
100
AcDbEntity
  8
_U+30EC_U+30A4_U+30E4_U+30FC 1
 62
   179
420
  2234388
370
     9
100
AcDbVertex
100
AcDb2dVertex
 10
48.71811597931953
 20
-82.24562331277197
 30
0.0
  0
VERTEX
  5
BB
330
B9
100
AcDbEntity
  8
_U+30EC_U+30A4_U+30E4_U+30FC 1
 62
   179
420
  2234388
370
     9
100
AcDbVertex
100
AcDb2dVertex
 10
48.71811597931953
 20
-96.94566164243021
 30
0.0
  0
SEQEND
  5
BC
330
B9
100
AcDbEntity
  8
_U+30EC_U+30A4_U+30E4_U+30FC 1
 62
   179
420
  2234388
370
     9
  0
POLYLINE
  5
BD
330
1F
100
AcDbEntity
  8
_U+30EC_U+30A4_U+30E4_U+30FC 1
 62
   179
420
  2234388
370
     9
100
AcDb2dPolyline
 66
     1
 10
0.0
 20
0.0
 30
0.0
  0
VERTEX
  5
BE
330
BD
100
AcDbEntity
  8
_U+30EC_U+30A4_U+30E4_U+30FC 1
 62
   179
420
  2234388
370
     9
100
AcDbVertex
100
AcDb2dVertex
 10
50.17815733095966
 20
-82.24562331277197
 30
0.0
  0
VERTEX
  5
BF
330
BD
100
AcDbEntity
  8
_U+30EC_U+30A4_U+30E4_U+30FC 1
 62
   179
420
  2234388
370
     9
100
AcDbVertex
100
AcDb2dVertex
 10
47.71802628261173
 20
-82.24562331277197
 30
0.0
  0
SEQEND
  5
C0
330
BD
100
AcDbEntity
  8
_U+30EC_U+30A4_U+30E4_U+30FC 1
 62
   179
420
  2234388
370
     9
  0
POLYLINE
  5
C1
330
1F
100
AcDbEntity
  8
_U+30EC_U+30A4_U+30E4_U+30FC 1
 62
   179
420
  2234388
370
     9
100
AcDb2dPolyline
 66
     1
 10
0.0
 20
0.0
 30
0.0
  0
VERTEX
  5
C2
330
C1
100
AcDbEntity
  8
_U+30EC_U+30A4_U+30E4_U+30FC 1
 62
   179
420
  2234388
370
     9
100
AcDbVertex
100
AcDb2dVertex
 10
50.17815733095966
 20
-96.94566164243021
 30
0.0
  0
VERTEX
  5
C3
330
C1
100
AcDbEntity
  8
_U+30EC_U+30A4_U+30E4_U+30FC 1
 62
   179
420
  2234388
370
     9
100
AcDbVertex
100
AcDb2dVertex
 10
47.71802628261173
 20
-96.94566164243021
 30
0.0
  0
SEQEND
  5
C4
330
C1
100
AcDbEntity
  8
_U+30EC_U+30A4_U+30E4_U+30FC 1
 62
   179
420
  2234388
370
     9
  0
INSERT
  5
C6
330
1F
100
AcDbEntity
  8
_U+30EC_U+30A4_U+30E4_U+30FC 1
100
AcDbBlockReference
  2
block 5
 10
0.0
 20
0.0
 30
0.0
  0
POLYLINE
  5
EA
330
1F
100
AcDbEntity
  8
_U+30EC_U+30A4_U+30E4_U+30FC 1
 62
   179
420
  2234388
370
     9
100
AcDb2dPolyline
 66
     1
 10
0.0
 20
0.0
 30
0.0
  0
VERTEX
  5
EB
330
EA
100
AcDbEntity
  8
_U+30EC_U+30A4_U+30E4_U+30FC 1
 62
   179
420
  2234388
370
     9
100
AcDbVertex
100
AcDb2dVertex
 10
79.71814491066513
 20
-83.24539553474419
 30
0.0
  0
VERTEX
  5
EC
330
EA
100
AcDbEntity
  8
_U+30EC_U+30A4_U+30E4_U+30FC 1
 62
   179
420
  2234388
370
     9
100
AcDbVertex
100
AcDb2dVertex
 10
79.71814491066513
 20
-95.94557192045808
 30
0.0
  0
SEQEND
  5
ED
330
EA
100
AcDbEntity
  8
_U+30EC_U+30A4_U+30E4_U+30FC 1
 62
   179
420
  2234388
370
     9
  0
POLYLINE
  5
EE
330
1F
100
AcDbEntity
  8
_U+30EC_U+30A4_U+30E4_U+30FC 1
 62
   179
420
  2234388
370
     9
100
AcDb2dPolyline
 66
     1
 10
0.0
 20
0.0
 30
0.0
  0
VERTEX
  5
EF
330
EE
100
AcDbEntity
  8
_U+30EC_U+30A4_U+30E4_U+30FC 1
 62
   179
420
  2234388
370
     9
100
AcDbVertex
100
AcDb2dVertex
 10
59.2580573770899
 20
-95.94557192045808
 30
0.0
  0
VERTEX
  5
F0
330
EE
100
AcDbEntity
  8
_U+30EC_U+30A4_U+30E4_U+30FC 1
 62
   179
420
  2234388
370
     9
100
AcDbVertex
100
AcDb2dVertex
 10
80.71788182960417
 20
-95.94557192045808
 30
0.0
  0
SEQEND
  5
F1
330
EE
100
AcDbEntity
  8
_U+30EC_U+30A4_U+30E4_U+30FC 1
 62
   179
420
  2234388
370
     9
  0
INSERT
  5
F3
330
1F
100
AcDbEntity
  8
_U+30EC_U+30A4_U+30E4_U+30FC 1
100
AcDbBlockReference
  2
block 6
 10
0.0
 20
0.0
 30
0.0
  0
ENDSEC
  0
SECTION
  2
OBJECTS
  0
DICTIONARY
  5
C
330
0
100
AcDbDictionary
281
     1
  3
ACAD_GROUP
350
D
  3
ACAD_LAYOUT
350
1A
  3
ACAD_MATERIAL
350
3B
  3
ACAD_MLEADERSTYLE
350
105
  3
ACAD_MLINESTYLE
350
17
  3
ACAD_PLOTSETTINGS
350
19
  3
ACAD_PLOTSTYLENAME
350
E
  3
ACAD_TABLESTYLE
350
104
  3
ACAD_VISUALSTYLE
350
2A
  0
SUN
  5
3F
330
29
100
AcDbSun
 90
        1
290
     0
 63
     7
421
 16777215
 40
1.0
291
     1
 91
  2455826
 92
 54000000
292
     0
 70
     2
 71
   256
280
     1
  0
DICTIONARY
  5
D
102
{ACAD_REACTORS
330
C
102
}
330
C
100
AcDbDictionary
281
     1
  0
DICTIONARY
  5
1A
102
{ACAD_REACTORS
330
C
102
}
330
C
100
AcDbDictionary
281
     1
  3
Layout1
350
1E
  3
Layout2
350
26
  3
Model
350
22
  0
DICTIONARY
  5
3B
102
{ACAD_REACTORS
330
C
102
}
330
C
100
AcDbDictionary
281
     1
  3
ByBlock
350
3D
  3
ByLayer
350
3C
  3
Global
350
3E
  0
DICTIONARY
  5
105
102
{ACAD_REACTORS
330
C
102
}
330
C
100
AcDbDictionary
281
     1
  0
DICTIONARY
  5
17
102
{ACAD_REACTORS
330
C
102
}
330
C
100
AcDbDictionary
281
     1
  3
Standard
350
18
  0
DICTIONARY
  5
19
102
{ACAD_REACTORS
330
C
102
}
330
C
100
AcDbDictionary
281
     1
  0
ACDBDICTIONARYWDFLT
  5
E
102
{ACAD_REACTORS
330
C
102
}
330
C
100
AcDbDictionary
281
     1
  3
Normal
350
F
100
AcDbDictionaryWithDefault
340
F
  0
DICTIONARY
  5
104
102
{ACAD_REACTORS
330
C
102
}
330
C
100
AcDbDictionary
281
     1
  0
DICTIONARY
  5
2A
102
{ACAD_REACTORS
330
C
102
}
330
C
100
AcDbDictionary
281
     1
  3
2dWireframe
350
2F
  3
3D Hidden
350
31
  3
3dWireframe
350
30
  3
Basic
350
32
  3
Brighten
350
36
  3
ColorChange
350
3A
  3
Conceptual
350
34
  3
Dim
350
35
  3
Facepattern
350
39
  3
Flat
350
2B
  3
FlatWithEdges
350
2C
  3
Gouraud
350
2D
  3
GouraudWithEdges
350
2E
  3
Linepattern
350
38
  3
Realistic
350
33
  3
Thicken
350
37
  0
LAYOUT
  5
1E
102
{ACAD_REACTORS
330
1A
102
}
330
1A
100
AcDbPlotSettings
  1

  2
none_device
  4

  6

 40
0.0
 41
0.0
 42
0.0
 43
0.0
 44
0.0
 45
0.0
 46
0.0
 47
0.0
 48
0.0
 49
0.0
140
0.0
141
0.0
142
1.0
143
1.0
 70
   688
 72
     0
 73
     0
 74
     5
  7

 75
    16
 76
     0
 77
     2
 78
   300
147
1.0
148
0.0
149
0.0
100
AcDbLayout
  1
Layout1
 70
     1
 71
     1
 10
0.0
 20
0.0
 11
12.0
 21
9.0
 12
0.0
 22
0.0
 32
0.0
 14
1.000000000000000E+20
 24
1.000000000000000E+20
 34
1.000000000000000E+20
 15
-1.000000000000000E+20
 25
-1.000000000000000E+20
 35
-1.000000000000000E+20
146
0.0
 13
0.0
 23
0.0
 33
0.0
 16
1.0
 26
0.0
 36
0.0
 17
0.0
 27
1.0
 37
0.0
 76
     0
330
1B
  0
LAYOUT
  5
26
102
{ACAD_REACTORS
330
1A
102
}
330
1A
100
AcDbPlotSettings
  1

  2
none_device
  4

  6

 40
0.0
 41
0.0
 42
0.0
 43
0.0
 44
0.0
 45
0.0
 46
0.0
 47
0.0
 48
0.0
 49
0.0
140
0.0
141
0.0
142
1.0
143
1.0
 70
   688
 72
     0
 73
     0
 74
     5
  7

 75
    16
 76
     0
 77
     2
 78
   300
147
1.0
148
0.0
149
0.0
100
AcDbLayout
  1
Layout2
 70
     1
 71
     2
 10
0.0
 20
0.0
 11
0.0
 21
0.0
 12
0.0
 22
0.0
 32
0.0
 14
0.0
 24
0.0
 34
0.0
 15
0.0
 25
0.0
 35
0.0
146
0.0
 13
0.0
 23
0.0
 33
0.0
 16
1.0
 26
0.0
 36
0.0
 17
0.0
 27
1.0
 37
0.0
 76
     0
330
23
  0
LAYOUT
  5
22
102
{ACAD_REACTORS
330
1A
102
}
330
1A
100
AcDbPlotSettings
  1

  2
none_device
  4

  6

 40
0.0
 41
0.0
 42
0.0
 43
0.0
 44
0.0
 45
0.0
 46
0.0
 47
0.0
 48
0.0
 49
0.0
140
0.0
141
0.0
142
1.0
143
1.0
 70
  1712
 72
     0
 73
     0
 74
     0
  7

 75
     0
 76
     0
 77
     2
 78
   300
147
1.0
148
0.0
149
0.0
100
AcDbLayout
  1
Model
 70
     1
 71
     0
 10
0.0
 20
0.0
 11
12.0
 21
9.0
 12
0.0
 22
0.0
 32
0.0
 14
1.000000000000000E+20
 24
1.000000000000000E+20
 34
1.000000000000000E+20
 15
-1.000000000000000E+20
 25
-1.000000000000000E+20
 35
-1.000000000000000E+20
146
0.0
 13
0.0
 23
0.0
 33
0.0
 16
1.0
 26
0.0
 36
0.0
 17
0.0
 27
1.0
 37
0.0
 76
     0
330
1F
331
29
  0
MATERIAL
  5
3D
102
{ACAD_REACTORS
330
3B
102
}
330
3B
100
AcDbMaterial
  1
ByBlock
 72
     1
 94
      127
  0
MATERIAL
  5
3C
102
{ACAD_REACTORS
330
3B
102
}
330
3B
100
AcDbMaterial
  1
ByLayer
 72
     1
 94
      127
  0
MATERIAL
  5
3E
102
{ACAD_REACTORS
330
3B
102
}
330
3B
100
AcDbMaterial
  1
Global
 72
     1
 94
      127
  0
MLINESTYLE
  5
18
102
{ACAD_REACTORS
330
17
102
}
330
17
100
AcDbMlineStyle
  2
Standard
 70
     0
  3

 62
   256
 51
90.0
 52
90.0
 71
     2
 49
0.5
 62
   256
  6
BYLAYER
 49
-0.5
 62
   256
  6
BYLAYER
  0
ACDBPLACEHOLDER
  5
F
102
{ACAD_REACTORS
330
E
102
}
330
E
  0
VISUALSTYLE
  5
2F
102
{ACAD_REACTORS
330
2A
102
}
330
2A
100
AcDbVisualStyle
  2
2dWireframe
 70
     4
177
     2
291
     0
 71
     0
176
     1
 72
     2
176
     1
 73
     0
176
     1
 90
        0
176
     1
 40
-0.6
176
     1
 41
-30.0
176
     1
 62
     5
 63
     7
421
 16777215
176
     1
 74
     1
176
     1
 91
        4
176
     1
 64
     7
176
     1
 65
   257
176
     1
 75
     1
176
     1
175
     1
176
     1
 42
1.0
176
     1
 92
        0
176
     1
 66
   257
176
     1
 43
1.0
176
     1
 76
     1
176
     1
 77
     6
176
     1
 78
     2
176
     1
 67
     7
176
     1
 79
     5
176
     1
170
     0
176
     1
171
     0
176
     1
290
     0
176
     1
 93
        1
176
     1
 44
0.0
176
     1
173
     0
176
     1
  0
VISUALSTYLE
  5
31
102
{ACAD_REACTORS
330
2A
102
}
330
2A
100
AcDbVisualStyle
  2
3D Hidden
 70
     6
177
     2
291
     0
 71
     1
176
     1
 72
     2
176
     1
 73
     2
176
     1
 90
        0
176
     1
 40
-0.6
176
     1
 41
-30.0
176
     1
 62
     5
 63
     7
421
 16777215
176
     1
 74
     2
176
     1
 91
        2
176
     1
 64
     7
176
     1
 65
   257
176
     1
 75
     2
176
     1
175
     1
176
     1
 42
40.0
176
     1
 92
        0
176
     1
 66
   257
176
     1
 43
1.0
176
     1
 76
     1
176
     1
 77
     6
176
     1
 78
     2
176
     1
 67
     7
176
     1
 79
     3
176
     1
170
     0
176
     1
171
     0
176
     1
290
     0
176
     1
 93
        1
176
     1
 44
0.0
176
     1
173
     0
176
     1
  0
VISUALSTYLE
  5
30
102
{ACAD_REACTORS
330
2A
102
}
330
2A
100
AcDbVisualStyle
  2
3dWireframe
 70
     5
177
     2
291
     0
 71
     0
176
     1
 72
     2
176
     1
 73
     0
176
     1
 90
        0
176
     1
 40
-0.6
176
     1
 41
-30.0
176
     1
 62
     5
 63
     7
421
 16777215
176
     1
 74
     1
176
     1
 91
        4
176
     1
 64
     7
176
     1
 65
   257
176
     1
 75
     1
176
     1
175
     1
176
     1
 42
1.0
176
     1
 92
        0
176
     1
 66
   257
176
     1
 43
1.0
176
     1
 76
     1
176
     1
 77
     6
176
     1
 78
     2
176
     1
 67
     7
176
     1
 79
     5
176
     1
170
     0
176
     1
171
     0
176
     1
290
     0
176
     1
 93
        1
176
     1
 44
0.0
176
     1
173
     0
176
     1
  0
VISUALSTYLE
  5
32
102
{ACAD_REACTORS
330
2A
102
}
330
2A
100
AcDbVisualStyle
  2
Basic
 70
     7
177
     2
291
     1
 71
     1
176
     1
 72
     0
176
     1
 73
     1
176
     1
 90
        0
176
     1
 40
-0.6
176
     1
 41
-30.0
176
     1
 62
     5
 63
     7
421
 16777215
176
     1
 74
     0
176
     1
 91
        4
176
     1
 64
     7
176
     1
 65
   257
176
     1
 75
     1
176
     1
175
     1
176
     1
 42
1.0
176
     1
 92
        8
176
     1
 66
     7
176
     1
 43
1.0
176
     1
 76
     1
176
     1
 77
     6
176
     1
 78
     2
176
     1
 67
     7
176
     1
 79
     5
176
     1
170
     0
176
     1
171
     0
176
     1
290
     0
176
     1
 93
        1
176
     1
 44
0.0
176
     1
173
     0
176
     1
  0
VISUALSTYLE
  5
36
102
{ACAD_REACTORS
330
2A
102
}
330
2A
100
AcDbVisualStyle
  2
Brighten
 70
    12
177
     2
291
     1
 71
     2
176
     1
 72
     2
176
     1
 73
     0
176
     1
 90
        0
176
     1
 40
-0.6
176
     1
 41
-30.0
176
     1
 62
     5
 63
     7
421
 16777215
176
     1
 74
     1
176
     1
 91
        4
176
     1
 64
     7
176
     1
 65
   257
176
     1
 75
     1
176
     1
175
     1
176
     1
 42
1.0
176
     1
 92
        8
176
     1
 66
     7
176
     1
 43
1.0
176
     1
 76
     1
176
     1
 77
     6
176
     1
 78
     2
176
     1
 67
     7
176
     1
 79
     5
176
     1
170
     0
176
     1
171
     0
176
     1
290
     0
176
     1
 93
        1
176
     1
 44
50.0
176
     1
173
     0
176
     1
  0
VISUALSTYLE
  5
3A
102
{ACAD_REACTORS
330
2A
102
}
330
2A
100
AcDbVisualStyle
  2
ColorChange
 70
    16
177
     2
291
     1
 71
     2
176
     1
 72
     2
176
     1
 73
     3
176
     1
 90
        0
176
     1
 40
-0.6
176
     1
 41
-30.0
176
     1
 62
     5
 63
     8
421
  8421504
176
     1
 74
     1
176
     1
 91
        4
176
     1
 64
     7
176
     1
 65
   257
176
     1
 75
     1
176
     1
175
     1
176
     1
 42
1.0
176
     1
 92
        8
176
     1
 66
     8
424
  8421504
176
     1
 43
1.0
176
     1
 76
     1
176
     1
 77
     6
176
     1
 78
     2
176
     1
 67
     7
176
     1
 79
     5
176
     1
170
     0
176
     1
171
     0
176
     1
290
     0
176
     1
 93
        1
176
     1
 44
0.0
176
     1
173
     0
176
     1
  0
VISUALSTYLE
  5
34
102
{ACAD_REACTORS
330
2A
102
}
330
2A
100
AcDbVisualStyle
  2
Conceptual
 70
     9
177
     2
291
     0
 71
     3
176
     1
 72
     2
176
     1
 73
     0
176
     1
 90
        0
176
     1
 40
-0.6
176
     1
 41
-30.0
176
     1
 62
     5
 63
     7
421
 16777215
176
     1
 74
     2
176
     1
 91
        2
176
     1
 64
     7
176
     1
 65
   257
176
     1
 75
     1
176
     1
175
     1
176
     1
 42
40.0
176
     1
 92
        8
176
     1
 66
     7
176
     1
 43
1.0
176
     1
 76
     1
176
     1
 77
     6
176
     1
 78
     2
176
     1
 67
     7
176
     1
 79
     3
176
     1
170
     0
176
     1
171
     0
176
     1
290
     0
176
     1
 93
        1
176
     1
 44
0.0
176
     1
173
     0
176
     1
  0
VISUALSTYLE
  5
35
102
{ACAD_REACTORS
330
2A
102
}
330
2A
100
AcDbVisualStyle
  2
Dim
 70
    11
177
     2
291
     1
 71
     2
176
     1
 72
     2
176
     1
 73
     0
176
     1
 90
        0
176
     1
 40
-0.6
176
     1
 41
-30.0
176
     1
 62
     5
 63
     7
421
 16777215
176
     1
 74
     1
176
     1
 91
        4
176
     1
 64
     7
176
     1
 65
   257
176
     1
 75
     1
176
     1
175
     1
176
     1
 42
1.0
176
     1
 92
        8
176
     1
 66
     7
176
     1
 43
1.0
176
     1
 76
     1
176
     1
 77
     6
176
     1
 78
     2
176
     1
 67
     7
176
     1
 79
     5
176
     1
170
     0
176
     1
171
     0
176
     1
290
     0
176
     1
 93
        1
176
     1
 44
-50.0
176
     1
173
     0
176
     1
  0
VISUALSTYLE
  5
39
102
{ACAD_REACTORS
330
2A
102
}
330
2A
100
AcDbVisualStyle
  2
Facepattern
 70
    15
177
     2
291
     1
 71
     2
176
     1
 72
     2
176
     1
 73
     0
176
     1
 90
        0
176
     1
 40
-0.6
176
     1
 41
-30.0
176
     1
 62
     5
 63
     7
421
 16777215
176
     1
 74
     1
176
     1
 91
        4
176
     1
 64
     7
176
     1
 65
   257
176
     1
 75
     1
176
     1
175
     1
176
     1
 42
1.0
176
     1
 92
        8
176
     1
 66
     7
176
     1
 43
1.0
176
     1
 76
     1
176
     1
 77
     6
176
     1
 78
     2
176
     1
 67
     7
176
     1
 79
     5
176
     1
170
     0
176
     1
171
     0
176
     1
290
     0
176
     1
 93
        1
176
     1
 44
0.0
176
     1
173
     0
176
     1
  0
VISUALSTYLE
  5
2B
102
{ACAD_REACTORS
330
2A
102
}
330
2A
100
AcDbVisualStyle
  2
Flat
 70
     0
177
     2
291
     1
 71
     2
176
     1
 72
     1
176
     1
 73
     1
176
     1
 90
        2
176
     1
 40
-0.6
176
     1
 41
30.0
176
     1
 62
     5
 63
     7
421
 16777215
176
     1
 74
     0
176
     1
 91
        4
176
     1
 64
     7
176
     1
 65
   257
176
     1
 75
     1
176
     1
175
     1
176
     1
 42
1.0
176
     1
 92
        8
176
     1
 66
     7
176
     1
 43
1.0
176
     1
 76
     1
176
     1
 77
     6
176
     1
 78
     2
176
     1
 67
     7
176
     1
 79
     5
176
     1
170
     0
176
     1
171
     0
176
     1
290
     0
176
     1
 93
       13
176
     1
 44
0.0
176
     1
173
     0
176
     1
  0
VISUALSTYLE
  5
2C
102
{ACAD_REACTORS
330
2A
102
}
330
2A
100
AcDbVisualStyle
  2
FlatWithEdges
 70
     1
177
     2
291
     1
 71
     2
176
     1
 72
     1
176
     1
 73
     1
176
     1
 90
        2
176
     1
 40
-0.6
176
     1
 41
30.0
176
     1
 62
     5
 63
     7
421
 16777215
176
     1
 74
     1
176
     1
 91
        4
176
     1
 64
     7
176
     1
 65
   257
176
     1
 75
     1
176
     1
175
     1
176
     1
 42
1.0
176
     1
 92
        0
176
     1
 66
   257
176
     1
 43
1.0
176
     1
 76
     1
176
     1
 77
     6
176
     1
 78
     2
176
     1
 67
     7
176
     1
 79
     5
176
     1
170
     0
176
     1
171
     0
176
     1
290
     0
176
     1
 93
       13
176
     1
 44
0.0
176
     1
173
     0
176
     1
  0
VISUALSTYLE
  5
2D
102
{ACAD_REACTORS
330
2A
102
}
330
2A
100
AcDbVisualStyle
  2
Gouraud
 70
     2
177
     2
291
     1
 71
     2
176
     1
 72
     2
176
     1
 73
     1
176
     1
 90
        2
176
     1
 40
-0.6
176
     1
 41
30.0
176
     1
 62
     5
 63
     7
421
 16777215
176
     1
 74
     0
176
     1
 91
        4
176
     1
 64
     7
176
     1
 65
   257
176
     1
 75
     1
176
     1
175
     1
176
     1
 42
1.0
176
     1
 92
        0
176
     1
 66
     7
176
     1
 43
1.0
176
     1
 76
     1
176
     1
 77
     6
176
     1
 78
     2
176
     1
 67
     7
176
     1
 79
     5
176
     1
170
     0
176
     1
171
     0
176
     1
290
     0
176
     1
 93
       13
176
     1
 44
0.0
176
     1
173
     0
176
     1
  0
VISUALSTYLE
  5
2E
102
{ACAD_REACTORS
330
2A
102
}
330
2A
100
AcDbVisualStyle
  2
GouraudWithEdges
 70
     3
177
     2
291
     1
 71
     2
176
     1
 72
     2
176
     1
 73
     1
176
     1
 90
        2
176
     1
 40
-0.6
176
     1
 41
30.0
176
     1
 62
     5
 63
     7
421
 16777215
176
     1
 74
     1
176
     1
 91
        4
176
     1
 64
     7
176
     1
 65
   257
176
     1
 75
     1
176
     1
175
     1
176
     1
 42
1.0
176
     1
 92
        0
176
     1
 66
   257
176
     1
 43
1.0
176
     1
 76
     1
176
     1
 77
     6
176
     1
 78
     2
176
     1
 67
     7
176
     1
 79
     5
176
     1
170
     0
176
     1
171
     0
176
     1
290
     0
176
     1
 93
       13
176
     1
 44
0.0
176
     1
173
     0
176
     1
  0
VISUALSTYLE
  5
38
102
{ACAD_REACTORS
330
2A
102
}
330
2A
100
AcDbVisualStyle
  2
Linepattern
 70
    14
177
     2
291
     1
 71
     2
176
     1
 72
     2
176
     1
 73
     0
176
     1
 90
        0
176
     1
 40
-0.6
176
     1
 41
-30.0
176
     1
 62
     5
 63
     7
421
 16777215
176
     1
 74
     1
176
     1
 91
        4
176
     1
 64
     7
176
     1
 65
   257
176
     1
 75
     7
176
     1
175
     7
176
     1
 42
1.0
176
     1
 92
        8
176
     1
 66
     7
176
     1
 43
1.0
176
     1
 76
     1
176
     1
 77
     6
176
     1
 78
     2
176
     1
 67
     7
176
     1
 79
     5
176
     1
170
     0
176
     1
171
     0
176
     1
290
     0
176
     1
 93
        1
176
     1
 44
0.0
176
     1
173
     0
176
     1
  0
VISUALSTYLE
  5
33
102
{ACAD_REACTORS
330
2A
102
}
330
2A
100
AcDbVisualStyle
  2
Realistic
 70
     8
177
     2
291
     0
 71
     2
176
     1
 72
     2
176
     1
 73
     0
176
     1
 90
        0
176
     1
 40
-0.6
176
     1
 41
-30.0
176
     1
 62
     5
 63
     7
421
 16777215
176
     1
 74
     1
176
     1
 91
        0
176
     1
 64
     7
176
     1
 65
   257
176
     1
 75
     1
176
     1
175
     1
176
     1
 42
1.0
176
     1
 92
        8
176
     1
 66
     8
424
  7895160
176
     1
 43
1.0
176
     1
 76
     1
176
     1
 77
     6
176
     1
 78
     2
176
     1
 67
     7
176
     1
 79
     5
176
     1
170
     0
176
     1
171
     0
176
     1
290
     0
176
     1
 93
       13
176
     1
 44
0.0
176
     1
173
     0
176
     1
  0
VISUALSTYLE
  5
37
102
{ACAD_REACTORS
330
2A
102
}
330
2A
100
AcDbVisualStyle
  2
Thicken
 70
    13
177
     2
291
     1
 71
     2
176
     1
 72
     2
176
     1
 73
     0
176
     1
 90
        0
176
     1
 40
-0.6
176
     1
 41
-30.0
176
     1
 62
     5
 63
     7
421
 16777215
176
     1
 74
     1
176
     1
 91
        4
176
     1
 64
     7
176
     1
 65
   257
176
     1
 75
     1
176
     1
175
     1
176
     1
 42
1.0
176
     1
 92
       12
176
     1
 66
     7
176
     1
 43
1.0
176
     1
 76
     1
176
     1
 77
     6
176
     1
 78
     2
176
     1
 67
     7
176
     1
 79
     5
176
     1
170
     0
176
     1
171
     0
176
     1
290
     0
176
     1
 93
        1
176
     1
 44
0.0
176
     1
173
     0
176
     1
  0
ENDSEC
  0
EOF
