  0
SECTION
  2
HEADER
  9
$ACADVER
  1
AC1024
  9
$ACADMAINTVER
 70
     6
  9
$DWGCODEPAGE
  3
UNDEFINED
  9
$INSBASE
 10
0.0
 20
0.0
 30
0.0
  9
$EXTMIN
 10
1.000000000000000E+20
 20
1.000000000000000E+20
 30
1.000000000000000E+20
  9
$EXTMAX
 10
-1.000000000000000E+20
 20
-1.000000000000000E+20
 30
-1.000000000000000E+20
  9
$LIMMIN
 10
0.0
 20
0.0
  9
$LIMMAX
 10
12.0
 20
9.0
  9
$ORTHOMODE
 70
     0
  9
$REGENMODE
 70
     1
  9
$FILLMODE
 70
     1
  9
$QTEXTMODE
 70
     0
  9
$MIRRTEXT
 70
     1
  9
$LTSCALE
 40
1.0
  9
$ATTMODE
 70
     1
  9
$TEXTSIZE
 40
0.2
  9
$TRACEWID
 40
0.05
  9
$TEXTSTYLE
  7
Standard
  9
$CLAYER
  8
0
  9
$CELTYPE
  6
ByLayer
  9
$CECOLOR
 62
   256
  9
$CELTSCALE
 40
1.0
  9
$DISPSILH
 70
     0
  9
$DIMSCALE
 40
1.0
  9
$DIMASZ
 40
0.18
  9
$DIMEXO
 40
0.0625
  9
$DIMDLI
 40
0.38
  9
$DIMRND
 40
0.0
  9
$DIMDLE
 40
0.0
  9
$DIMEXE
 40
0.18
  9
$DIMTP
 40
0.0
  9
$DIMTM
 40
0.0
  9
$DIMTXT
 40
0.18
  9
$DIMCEN
 40
0.09
  9
$DIMTSZ
 40
0.0
  9
$DIMTOL
 70
     0
  9
$DIMLIM
 70
     0
  9
$DIMTIH
 70
     1
  9
$DIMTOH
 70
     1
  9
$DIMSE1
 70
     0
  9
$DIMSE2
 70
     0
  9
$DIMTAD
 70
     0
  9
$DIMZIN
 70
     0
  9
$DIMBLK
  1

  9
$DIMASO
 70
     1
  9
$DIMSHO
 70
     1
  9
$DIMPOST
  1

  9
$DIMAPOST
  1

  9
$DIMALT
 70
     0
  9
$DIMALTD
 70
     2
  9
$DIMALTF
 40
25.4
  9
$DIMLFAC
 40
1.0
  9
$DIMTOFL
 70
     0
  9
$DIMTVP
 40
0.0
  9
$DIMTIX
 70
     0
  9
$DIMSOXD
 70
     0
  9
$DIMSAH
 70
     0
  9
$DIMBLK1
  1

  9
$DIMBLK2
  1

  9
$DIMSTYLE
  2
Standard
  9
$DIMCLRD
 70
     0
  9
$DIMCLRE
 70
     0
  9
$DIMCLRT
 70
     0
  9
$DIMTFAC
 40
1.0
  9
$DIMGAP
 40
0.09
  9
$DIMJUST
 70
     0
  9
$DIMSD1
 70
     0
  9
$DIMSD2
 70
     0
  9
$DIMTOLJ
 70
     1
  9
$DIMTZIN
 70
     0
  9
$DIMALTZ
 70
     0
  9
$DIMALTTZ
 70
     0
  9
$DIMUPT
 70
     0
  9
$DIMDEC
 70
     4
  9
$DIMTDEC
 70
     4
  9
$DIMALTU
 70
     2
  9
$DIMALTTD
 70
     2
  9
$DIMTXSTY
  7
Standard
  9
$DIMAUNIT
 70
     0
  9
$DIMADEC
 70
     0
  9
$DIMALTRND
 40
0.0
  9
$DIMAZIN
 70
     0
  9
$DIMDSEP
 70
    46
  9
$DIMATFIT
 70
     3
  9
$DIMFRAC
 70
     0
  9
$DIMLDRBLK
  1

  9
$DIMLUNIT
 70
     2
  9
$DIMLWD
 70
    -2
  9
$DIMLWE
 70
    -2
  9
$DIMTMOVE
 70
     0
  9
$DIMFXL
 40
1.0
  9
$DIMFXLON
 70
     0
  9
$DIMJOGANG
 40
0.7853981633974483
  9
$DIMTFILL
 70
     0
  9
$DIMTFILLCLR
 70
     0
  9
$DIMARCSYM
 70
     0
  9
$DIMLTYPE
  6

  9
$DIMLTEX1
  6

  9
$DIMLTEX2
  6

  9
$DIMTXTDIRECTION
 70
     0
  9
$LUNITS
 70
     2
  9
$LUPREC
 70
     4
  9
$SKETCHINC
 40
0.1
  9
$FILLETRAD
 40
0.5
  9
$AUNITS
 70
     0
  9
$AUPREC
 70
     0
  9
$MENU
  1
.
  9
$ELEVATION
 40
0.0
  9
$PELEVATION
 40
0.0
  9
$THICKNESS
 40
0.0
  9
$LIMCHECK
 70
     0
  9
$CHAMFERA
 40
0.5
  9
$CHAMFERB
 40
0.5
  9
$CHAMFERC
 40
1.0
  9
$CHAMFERD
 40
0.0
  9
$SKPOLY
 70
     0
  9
$TDCREATE
 40
2457917.587094896
  9
$TDUCREATE
 40
2457917.212094907
  9
$TDUPDATE
 40
2457917.587106482
  9
$TDUUPDATE
 40
2457917.212106482
  9
$TDINDWG
 40
0.0000000116
  9
$TDUSRTIMER
 40
0.0000000116
  9
$USRTIMER
 70
     1
  9
$ANGBASE
 50
0.0
  9
$ANGDIR
 70
     0
  9
$PDMODE
 70
     0
  9
$PDSIZE
 40
0.0
  9
$PLINEWID
 40
0.0
  9
$SPLFRAME
 70
     0
  9
$SPLINETYPE
 70
     6
  9
$SPLINESEGS
 70
     8
  9
$HANDSEED
  5
F2
  9
$SURFTAB1
 70
     6
  9
$SURFTAB2
 70
     6
  9
$SURFTYPE
 70
     6
  9
$SURFU
 70
     6
  9
$SURFV
 70
     6
  9
$UCSBASE
  2

  9
$UCSNAME
  2

  9
$UCSORG
 10
0.0
 20
0.0
 30
0.0
  9
$UCSXDIR
 10
1.0
 20
0.0
 30
0.0
  9
$UCSYDIR
 10
0.0
 20
1.0
 30
0.0
  9
$UCSORTHOREF
  2

  9
$UCSORTHOVIEW
 70
     0
  9
$UCSORGTOP
 10
0.0
 20
0.0
 30
0.0
  9
$UCSORGBOTTOM
 10
0.0
 20
0.0
 30
0.0
  9
$UCSORGLEFT
 10
0.0
 20
0.0
 30
0.0
  9
$UCSORGRIGHT
 10
0.0
 20
0.0
 30
0.0
  9
$UCSORGFRONT
 10
0.0
 20
0.0
 30
0.0
  9
$UCSORGBACK
 10
0.0
 20
0.0
 30
0.0
  9
$PUCSBASE
  2

  9
$PUCSNAME
  2

  9
$PUCSORG
 10
0.0
 20
0.0
 30
0.0
  9
$PUCSXDIR
 10
1.0
 20
0.0
 30
0.0
  9
$PUCSYDIR
 10
0.0
 20
1.0
 30
0.0
  9
$PUCSORTHOREF
  2

  9
$PUCSORTHOVIEW
 70
     0
  9
$PUCSORGTOP
 10
0.0
 20
0.0
 30
0.0
  9
$PUCSORGBOTTOM
 10
0.0
 20
0.0
 30
0.0
  9
$PUCSORGLEFT
 10
0.0
 20
0.0
 30
0.0
  9
$PUCSORGRIGHT
 10
0.0
 20
0.0
 30
0.0
  9
$PUCSORGFRONT
 10
0.0
 20
0.0
 30
0.0
  9
$PUCSORGBACK
 10
0.0
 20
0.0
 30
0.0
  9
$USERI1
 70
     0
  9
$USERI2
 70
     0
  9
$USERI3
 70
     0
  9
$USERI4
 70
     0
  9
$USERI5
 70
     0
  9
$USERR1
 40
0.0
  9
$USERR2
 40
0.0
  9
$USERR3
 40
0.0
  9
$USERR4
 40
0.0
  9
$USERR5
 40
0.0
  9
$WORLDVIEW
 70
     1
  9
$SHADEDGE
 70
     3
  9
$SHADEDIF
 70
    70
  9
$TILEMODE
 70
     1
  9
$MAXACTVP
 70
    64
  9
$PINSBASE
 10
0.0
 20
0.0
 30
0.0
  9
$PLIMCHECK
 70
     0
  9
$PEXTMIN
 10
1.000000000000000E+20
 20
1.000000000000000E+20
 30
1.000000000000000E+20
  9
$PEXTMAX
 10
-1.000000000000000E+20
 20
-1.000000000000000E+20
 30
-1.000000000000000E+20
  9
$PLIMMIN
 10
0.0
 20
0.0
  9
$PLIMMAX
 10
12.0
 20
9.0
  9
$UNITMODE
 70
     0
  9
$VISRETAIN
 70
     1
  9
$PLINEGEN
 70
     0
  9
$PSLTSCALE
 70
     1
  9
$TREEDEPTH
 70
  3020
  9
$CMLSTYLE
  2
Standard
  9
$CMLJUST
 70
     0
  9
$CMLSCALE
 40
1.0
  9
$PROXYGRAPHICS
 70
     1
  9
$MEASUREMENT
 70
     0
  9
$CELWEIGHT
370
    -1
  9
$ENDCAPS
280
     0
  9
$JOINSTYLE
280
     0
  9
$LWDISPLAY
290
     1
  9
$INSUNITS
 70
     1
  9
$HYPERLINKBASE
  1

  9
$STYLESHEET
  1

  9
$XEDIT
290
     1
  9
$CEPSNTYPE
380
     0
  9
$PSTYLEMODE
290
     1
  9
$FINGERPRINTGUID
  2
{B03B9387-D815-20B7-AD84-0087B44B1E65}
  9
$VERSIONGUID
  2
{FAEB1C32-E019-11D5-929B-00C0DF256EC4}
  9
$EXTNAMES
290
     1
  9
$PSVPSCALE
 40
0.0
  9
$OLESTARTUP
290
     0
  9
$SORTENTS
280
   127
  9
$INDEXCTL
280
     0
  9
$HIDETEXT
280
     1
  9
$XCLIPFRAME
280
     2
  9
$HALOGAP
280
     0
  9
$OBSCOLOR
 70
   257
  9
$OBSLTYPE
280
     0
  9
$INTERSECTIONDISPLAY
280
     0
  9
$INTERSECTIONCOLOR
 70
   257
  9
$DIMASSOC
280
     2
  9
$PROJECTNAME
  1

  9
$CAMERADISPLAY
290
     0
  9
$LENSLENGTH
 40
50.0
  9
$CAMERAHEIGHT
 40
0.0
  9
$STEPSPERSEC
 40
2.0
  9
$STEPSIZE
 40
6.0
  9
$3DDWFPREC
 40
2.0
  9
$PSOLWIDTH
 40
0.25
  9
$PSOLHEIGHT
 40
4.0
  9
$LOFTANG1
 40
1.570796326794897
  9
$LOFTANG2
 40
1.570796326794897
  9
$LOFTMAG1
 40
0.0
  9
$LOFTMAG2
 40
0.0
  9
$LOFTPARAM
 70
     7
  9
$LOFTNORMALS
280
     1
  9
$LATITUDE
 40
37.795
  9
$LONGITUDE
 40
-122.394
  9
$NORTHDIRECTION
 40
0.0
  9
$TIMEZONE
 70
 -8000
  9
$LIGHTGLYPHDISPLAY
280
     1
  9
$TILEMODELIGHTSYNCH
280
     1
  9
$CMATERIAL
347
3C
  9
$SOLIDHIST
280
     1
  9
$SHOWHIST
280
     1
  9
$DWFFRAME
280
     2
  9
$DGNFRAME
280
     2
  9
$REALWORLDSCALE
290
     1
  9
$INTERFERECOLOR
 62
   256
  9
$CSHADOW
280
     0
  9
$SHADOWPLANELOCATION
 40
0.0
  0
ENDSEC
  0
SECTION
  2
CLASSES
  0
CLASS
  1
ACDBDICTIONARYWDFLT
  2
AcDbDictionaryWithDefault
  3
ObjectDBX Classes
 90
        0
 91
        4
280
     0
281
     0
  0
CLASS
  1
VISUALSTYLE
  2
AcDbVisualStyle
  3
ObjectDBX Classes
 90
     4095
 91
        4
280
     0
281
     0
  0
CLASS
  1
MATERIAL
  2
AcDbMaterial
  3
ObjectDBX Classes
 90
     1153
 91
        4
280
     0
281
     0
  0
CLASS
  1
SUN
  2
AcDbSun
  3
SCENEOE
 90
     1024
 91
        4
280
     0
281
     0
  0
ENDSEC
  0
SECTION
  2
TABLES
  0
TABLE
  2
VPORT
  5
8
330
0
100
AcDbSymbolTable
 70
     1
  0
VPORT
  5
29
330
8
100
AcDbSymbolTableRecord
100
AcDbViewportTableRecord
  2
*Active
 70
     0
 10
0.0
 20
0.0
 11
1.0
 21
1.0
 12
0.0
 22
0.0
 13
0.0
 23
0.0
 14
0.5
 24
0.5
 15
0.5
 25
0.5
 16
0.0
 26
0.0
 36
1.0
 17
63.499999984125
 27
-89.00059456108309
 37
0.0
 40
178.0011891221662
 41
0.7134783795241226
 42
50.0
 43
0.0
 44
0.0
 50
0.0
 51
0.0
 71
     0
 72
   100
 73
     1
 74
     3
 75
     0
 76
     0
 77
     0
 78
     0
281
     0
 65
     1
110
0.0
120
0.0
130
0.0
111
1.0
121
0.0
131
0.0
112
0.0
122
1.0
132
0.0
 79
     0
146
0.0
 60
     3
 61
     5
292
     1
282
     1
141
0.0
142
0.0
 63
   250
361
3F
  0
ENDTAB
  0
TABLE
  2
LTYPE
  5
5
330
0
100
AcDbSymbolTable
 70
     1
  0
LTYPE
  5
14
330
5
100
AcDbSymbolTableRecord
100
AcDbLinetypeTableRecord
  2
ByBlock
 70
     0
  3

 72
    65
 73
     0
 40
0.0
  0
LTYPE
  5
15
330
5
100
AcDbSymbolTableRecord
100
AcDbLinetypeTableRecord
  2
ByLayer
 70
     0
  3

 72
    65
 73
     0
 40
0.0
  0
LTYPE
  5
16
330
5
100
AcDbSymbolTableRecord
100
AcDbLinetypeTableRecord
  2
Continuous
 70
     0
  3
Solid line
 72
    65
 73
     0
 40
0.0
  0
ENDTAB
  0
TABLE
  2
LAYER
  5
2
330
0
100
AcDbSymbolTable
 70
     2
  0
LAYER
  5
10
330
2
100
AcDbSymbolTableRecord
100
AcDbLayerTableRecord
  2
0
 70
     0
 62
     7
  6
Continuous
370
    -3
390
F
347
3E
  0
LAYER
  5
40
330
2
100
AcDbSymbolTableRecord
100
AcDbLayerTableRecord
  2
_U+30EC_U+30A4_U+30E4_U+30FC 1
 70
     0
 62
     7
  6
Continuous
370
    -3
390
F
347
3E
  0
ENDTAB
  0
TABLE
  2
STYLE
  5
3
330
0
100
AcDbSymbolTable
 70
     1
  0
STYLE
  5
11
330
3
100
AcDbSymbolTableRecord
100
AcDbTextStyleTableRecord
  2
Standard
 70
     0
 40
0.0
 41
1.0
 50
0.0
 71
     0
 42
0.2
  3
txt
  4

  0
ENDTAB
  0
TABLE
  2
VIEW
  5
6
330
0
100
AcDbSymbolTable
 70
     0
  0
ENDTAB
  0
TABLE
  2
UCS
  5
7
330
0
100
AcDbSymbolTable
 70
     0
  0
ENDTAB
  0
TABLE
  2
APPID
  5
9
330
0
100
AcDbSymbolTable
 70
     1
  0
APPID
  5
12
330
9
100
AcDbSymbolTableRecord
100
AcDbRegAppTableRecord
  2
ACAD
 70
     0
  0
ENDTAB
  0
TABLE
  2
DIMSTYLE
  5
A
330
0
100
AcDbSymbolTable
 70
     1
100
AcDbDimStyleTable
  0
DIMSTYLE
105
27
330
A
100
AcDbSymbolTableRecord
100
AcDbDimStyleTableRecord
  2
Standard
 70
     0
178
     0
340
11
  0
ENDTAB
  0
TABLE
  2
BLOCK_RECORD
  5
1
330
0
100
AcDbSymbolTable
 70
     6
  0
BLOCK_RECORD
  5
1F
330
1
100
AcDbSymbolTableRecord
100
AcDbBlockTableRecord
  2
*Model_Space
340
22
 70
     0
280
     1
281
     0
  0
BLOCK_RECORD
  5
1B
330
1
100
AcDbSymbolTableRecord
100
AcDbBlockTableRecord
  2
*Paper_Space
340
1E
 70
     0
280
     1
281
     0
  0
BLOCK_RECORD
  5
23
330
1
100
AcDbSymbolTableRecord
100
AcDbBlockTableRecord
  2
*Paper_Space0
340
26
 70
     0
280
     1
281
     0
  0
BLOCK_RECORD
  5
7A
330
1
100
AcDbSymbolTableRecord
100
AcDbBlockTableRecord
  2
block 2
340
0
102
{BLKREFS
331
7B
102
}
 70
     0
280
     1
281
     0
  0
BLOCK_RECORD
  5
8C
330
1
100
AcDbSymbolTableRecord
100
AcDbBlockTableRecord
  2
block 3
340
0
102
{BLKREFS
331
8D
102
}
 70
     0
280
     1
281
     0
  0
BLOCK_RECORD
  5
B1
330
1
100
AcDbSymbolTableRecord
100
AcDbBlockTableRecord
  2
block 4
340
0
102
{BLKREFS
331
B2
102
}
 70
     0
280
     1
281
     0
  0
BLOCK_RECORD
  5
C5
330
1
100
AcDbSymbolTableRecord
100
AcDbBlockTableRecord
  2
block 5
340
0
102
{BLKREFS
331
C6
102
}
 70
     0
280
     1
281
     0
  0
BLOCK_RECORD
  5
DF
330
1
100
AcDbSymbolTableRecord
100
AcDbBlockTableRecord
  2
block 6
340
0
102
{BLKREFS
331
E0
102
}
 70
     0
280
     1
281
     0
  0
ENDTAB
  0
ENDSEC
  0
SECTION
  2
BLOCKS
  0
BLOCK
  5
20
330
1F
100
AcDbEntity
  8
0
100
AcDbBlockBegin
  2
*Model_Space
 70
     0
 10
0.0
 20
0.0
 30
0.0
  3
*Model_Space
  1

  0
ENDBLK
  5
21
330
1F
100
AcDbEntity
  8
0
100
AcDbBlockEnd
  0
BLOCK
  5
1C
330
1B
100
AcDbEntity
 67
     1
  8
0
100
AcDbBlockBegin
  2
*Paper_Space
 70
     0
 10
0.0
 20
0.0
 30
0.0
  3
*Paper_Space
  1

  0
ENDBLK
  5
1D
330
1B
100
AcDbEntity
 67
     1
  8
0
100
AcDbBlockEnd
  0
BLOCK
  5
24
330
23
100
AcDbEntity
  8
0
100
AcDbBlockBegin
  2
*Paper_Space0
 70
     0
 10
0.0
 20
0.0
 30
0.0
  3
*Paper_Space0
  1

  0
ENDBLK
  5
25
330
23
100
AcDbEntity
  8
0
100
AcDbBlockEnd
  0
BLOCK
  5
7C
330
7A
100
AcDbEntity
  8
0
100
AcDbBlockBegin
  2
block 2
 70
     0
 10
0.0
 20
0.0
 30
0.0
  3
block 2
  1

  0
SPLINE
  5
7E
330
7A
100
AcDbEntity
  8
_U+30EC_U+30A4_U+30E4_U+30FC 1
370
     0
100
AcDbSpline
210
0.0
220
0.0
230
1.0
 70
    11
 71
     3
 72
    26
 73
    22
 74
     0
 42
0.0000000001
 43
0.0000000001
 12
1.0
 22
0.0
 32
0.0
 13
1.0
 23
0.0
 33
0.0
 40
0.0
 40
0.0
 40
0.0
 40
0.0
 40
1.0
 40
1.0
 40
1.0
 40
2.0
 40
2.0
 40
2.0
 40
3.0
 40
3.0
 40
3.0
 40
4.0
 40
4.0
 40
4.0
 40
5.0
 40
5.0
 40
5.0
 40
6.0
 40
6.0
 40
6.0
 40
7.0
 40
7.0
 40
7.0
 40
7.0
 10
79.30678708954831
 20
-80.84278291164695
 30
0.0
 10
79.30678708954831
 20
-80.84278291164695
 30
0.0
 10
78.20263398652574
 20
-80.84278291164695
 30
0.0
 10
78.20263398652574
 20
-80.84278291164695
 30
0.0
 10
78.20263398652574
 20
-80.84278291164695
 30
0.0
 10
78.20263398652574
 20
-81.19556068933653
 30
0.0
 10
78.20263398652574
 20
-81.19556068933653
 30
0.0
 10
78.20263398652574
 20
-81.19556068933653
 30
0.0
 10
78.05449488065999
 20
-81.19556068933653
 30
0.0
 10
78.05449488065999
 20
-81.19556068933653
 30
0.0
 10
78.03968097007342
 20
-80.84054359958154
 30
0.0
 10
77.8767279536211
 20
-80.79076196981967
 30
0.0
 10
77.76235078351081
 20
-80.75923934612963
 30
0.0
 10
77.76235078351081
 20
-80.75923934612963
 30
0.0
 10
77.76235078351081
 20
-80.60317652064782
 30
0.0
 10
77.76235078351081
 20
-80.60317652064782
 30
0.0
 10
77.76235078351081
 20
-80.60317652064782
 30
0.0
 10
79.30678708954831
 20
-80.60317652064782
 30
0.0
 10
79.30678708954831
 20
-80.60317652064782
 30
0.0
 10
79.30678708954831
 20
-80.60317652064782
 30
0.0
 10
79.30678708954831
 20
-80.84278291164695
 30
0.0
 10
79.30678708954831
 20
-80.84278291164695
 30
0.0
  0
HATCH
  5
7F
330
7A
100
AcDbEntity
  8
_U+30EC_U+30A4_U+30E4_U+30FC 1
 62
   179
420
  2234388
100
AcDbHatch
 10
0.0
 20
0.0
 30
0.0
210
0.0
220
0.0
230
1.0
  2
SOLID
 70
     1
 71
     0
 91
        1
 92
        1
 93
        1
 72
     4
 94
        3
 73
     0
 74
     1
 95
       26
 96
       22
 40
0.0
 40
0.0
 40
0.0
 40
0.0
 40
1.0
 40
1.0
 40
1.0
 40
2.0
 40
2.0
 40
2.0
 40
3.0
 40
3.0
 40
3.0
 40
4.0
 40
4.0
 40
4.0
 40
5.0
 40
5.0
 40
5.0
 40
6.0
 40
6.0
 40
6.0
 40
7.0
 40
7.0
 40
7.0
 40
7.0
 10
79.30678708954831
 20
-80.84278291164695
 10
79.30678708954831
 20
-80.84278291164695
 10
78.20263398652574
 20
-80.84278291164695
 10
78.20263398652574
 20
-80.84278291164695
 10
78.20263398652574
 20
-80.84278291164695
 10
78.20263398652574
 20
-81.19556068933653
 10
78.20263398652574
 20
-81.19556068933653
 10
78.20263398652574
 20
-81.19556068933653
 10
78.05449488065999
 20
-81.19556068933653
 10
78.05449488065999
 20
-81.19556068933653
 10
78.03968097007342
 20
-80.84054359958154
 10
77.8767279536211
 20
-80.79076196981967
 10
77.76235078351081
 20
-80.75923934612963
 10
77.76235078351081
 20
-80.75923934612963
 10
77.76235078351081
 20
-80.60317652064782
 10
77.76235078351081
 20
-80.60317652064782
 10
77.76235078351081
 20
-80.60317652064782
 10
79.30678708954831
 20
-80.60317652064782
 10
79.30678708954831
 20
-80.60317652064782
 10
79.30678708954831
 20
-80.60317652064782
 10
79.30678708954831
 20
-80.84278291164695
 10
79.30678708954831
 20
-80.84278291164695
 97
        0
 97
        0
 75
     2
 76
     1
 98
        0
  0
ENDBLK
  5
7D
330
7A
100
AcDbEntity
  8
0
100
AcDbBlockEnd
  0
BLOCK
  5
8E
330
8C
100
AcDbEntity
  8
0
100
AcDbBlockBegin
  2
block 3
 70
     0
 10
0.0
 20
0.0
 30
0.0
  3
block 3
  1

  0
POLYLINE
  5
90
330
8C
100
AcDbEntity
  8
_U+30EC_U+30A4_U+30E4_U+30FC 1
370
     0
100
AcDb2dPolyline
 66
     1
 10
0.0
 20
0.0
 30
0.0
  0
VERTEX
  5
91
330
90
100
AcDbEntity
  8
_U+30EC_U+30A4_U+30E4_U+30FC 1
370
     0
100
AcDbVertex
100
AcDb2dVertex
 10
55.3001559649076
 20
-98.59036455868575
 30
0.0
  0
VERTEX
  5
92
330
90
100
AcDbEntity
  8
_U+30EC_U+30A4_U+30E4_U+30FC 1
370
     0
100
AcDbVertex
100
AcDb2dVertex
 10
55.3001559649076
 20
-98.9372856740504
 30
0.0
  0
VERTEX
  5
93
330
90
100
AcDbEntity
  8
_U+30EC_U+30A4_U+30E4_U+30FC 1
370
     0
100
AcDbVertex
100
AcDb2dVertex
 10
55.06743976487898
 20
-98.9372856740504
 30
0.0
  0
VERTEX
  5
94
330
90
100
AcDbEntity
  8
_U+30EC_U+30A4_U+30E4_U+30FC 1
370
     0
100
AcDbVertex
100
AcDb2dVertex
 10
55.06743976487898
 20
-98.59036455868575
 30
0.0
  0
VERTEX
  5
95
330
90
100
AcDbEntity
  8
_U+30EC_U+30A4_U+30E4_U+30FC 1
370
     0
100
AcDbVertex
100
AcDb2dVertex
 10
54.36653508840489
 20
-98.59036455868575
 30
0.0
  0
VERTEX
  5
96
330
90
100
AcDbEntity
  8
_U+30EC_U+30A4_U+30E4_U+30FC 1
370
     0
100
AcDbVertex
100
AcDb2dVertex
 10
54.36653508840489
 20
-98.36608884259599
 30
0.0
  0
VERTEX
  5
97
330
90
100
AcDbEntity
  8
_U+30EC_U+30A4_U+30E4_U+30FC 1
370
     0
100
AcDbVertex
100
AcDb2dVertex
 10
55.09224445237277
 20
-97.3928493680129
 30
0.0
  0
VERTEX
  5
98
330
90
100
AcDbEntity
  8
_U+30EC_U+30A4_U+30E4_U+30FC 1
370
     0
100
AcDbVertex
100
AcDb2dVertex
 10
55.3001559649076
 20
-97.3928493680129
 30
0.0
  0
VERTEX
  5
99
330
90
100
AcDbEntity
  8
_U+30EC_U+30A4_U+30E4_U+30FC 1
370
     0
100
AcDbVertex
100
AcDb2dVertex
 10
55.3001559649076
 20
-98.39158254918684
 30
0.0
  0
VERTEX
  5
9A
330
90
100
AcDbEntity
  8
_U+30EC_U+30A4_U+30E4_U+30FC 1
370
     0
100
AcDbVertex
100
AcDb2dVertex
 10
55.52184785938343
 20
-98.39158254918684
 30
0.0
  0
VERTEX
  5
9B
330
90
100
AcDbEntity
  8
_U+30EC_U+30A4_U+30E4_U+30FC 1
370
     0
100
AcDbVertex
100
AcDb2dVertex
 10
55.52184785938343
 20
-98.59036455868575
 30
0.0
  0
VERTEX
  5
9C
330
90
100
AcDbEntity
  8
_U+30EC_U+30A4_U+30E4_U+30FC 1
370
     0
100
AcDbVertex
100
AcDb2dVertex
 10
55.3001559649076
 20
-98.59036455868575
 30
0.0
  0
SEQEND
  5
9D
330
90
100
AcDbEntity
  8
_U+30EC_U+30A4_U+30E4_U+30FC 1
370
     0
  0
POLYLINE
  5
9E
330
8C
100
AcDbEntity
  8
_U+30EC_U+30A4_U+30E4_U+30FC 1
370
     0
100
AcDb2dPolyline
 66
     1
 10
0.0
 20
0.0
 30
0.0
  0
VERTEX
  5
9F
330
9E
100
AcDbEntity
  8
_U+30EC_U+30A4_U+30E4_U+30FC 1
370
     0
100
AcDbVertex
100
AcDb2dVertex
 10
55.06743976487898
 20
-97.73563636879526
 30
0.0
  0
VERTEX
  5
A0
330
9E
100
AcDbEntity
  8
_U+30EC_U+30A4_U+30E4_U+30FC 1
370
     0
100
AcDbVertex
100
AcDb2dVertex
 10
54.57892522507055
 20
-98.39158254918684
 30
0.0
  0
VERTEX
  5
A1
330
9E
100
AcDbEntity
  8
_U+30EC_U+30A4_U+30E4_U+30FC 1
370
     0
100
AcDbVertex
100
AcDb2dVertex
 10
55.06743976487898
 20
-98.39158254918684
 30
0.0
  0
VERTEX
  5
A2
330
9E
100
AcDbEntity
  8
_U+30EC_U+30A4_U+30E4_U+30FC 1
370
     0
100
AcDbVertex
100
AcDb2dVertex
 10
55.06743976487898
 20
-97.73563636879526
 30
0.0
  0
SEQEND
  5
A3
330
9E
100
AcDbEntity
  8
_U+30EC_U+30A4_U+30E4_U+30FC 1
370
     0
  0
HATCH
  5
A4
330
8C
100
AcDbEntity
  8
_U+30EC_U+30A4_U+30E4_U+30FC 1
 62
   179
420
  2234388
100
AcDbHatch
 10
0.0
 20
0.0
 30
0.0
210
0.0
220
0.0
230
1.0
  2
SOLID
 70
     1
 71
     0
 91
        2
 92
        1
 93
       11
 72
     1
 10
55.3001559649076
 20
-98.59036455868575
 11
55.3001559649076
 21
-98.9372856740504
 72
     1
 10
55.3001559649076
 20
-98.9372856740504
 11
55.06743976487898
 21
-98.9372856740504
 72
     1
 10
55.06743976487898
 20
-98.9372856740504
 11
55.06743976487898
 21
-98.59036455868575
 72
     1
 10
55.06743976487898
 20
-98.59036455868575
 11
54.36653508840489
 21
-98.59036455868575
 72
     1
 10
54.36653508840489
 20
-98.59036455868575
 11
54.36653508840489
 21
-98.36608884259599
 72
     1
 10
54.36653508840489
 20
-98.36608884259599
 11
55.09224445237277
 21
-97.3928493680129
 72
     1
 10
55.09224445237277
 20
-97.3928493680129
 11
55.3001559649076
 21
-97.3928493680129
 72
     1
 10
55.3001559649076
 20
-97.3928493680129
 11
55.3001559649076
 21
-98.39158254918684
 72
     1
 10
55.3001559649076
 20
-98.39158254918684
 11
55.52184785938343
 21
-98.39158254918684
 72
     1
 10
55.52184785938343
 20
-98.39158254918684
 11
55.52184785938343
 21
-98.59036455868575
 72
     1
 10
55.52184785938343
 20
-98.59036455868575
 11
55.3001559649076
 21
-98.59036455868575
 97
        0
 92
        1
 93
        3
 72
     1
 10
55.06743976487898
 20
-97.73563636879526
 11
54.57892522507055
 21
-98.39158254918684
 72
     1
 10
54.57892522507055
 20
-98.39158254918684
 11
55.06743976487898
 21
-98.39158254918684
 72
     1
 10
55.06743976487898
 20
-98.39158254918684
 11
55.06743976487898
 21
-97.73563636879526
 97
        0
 75
     2
 76
     1
 98
        0
  0
ENDBLK
  5
8F
330
8C
100
AcDbEntity
  8
0
100
AcDbBlockEnd
  0
BLOCK
  5
B3
330
B1
100
AcDbEntity
  8
0
100
AcDbBlockBegin
  2
block 4
 70
     0
 10
0.0
 20
0.0
 30
0.0
  3
block 4
  1

  0
SPLINE
  5
B5
330
B1
100
AcDbEntity
  8
_U+30EC_U+30A4_U+30E4_U+30FC 1
370
     0
100
AcDbSpline
210
0.0
220
0.0
230
1.0
 70
    11
 71
     3
 72
    44
 73
    40
 74
     0
 42
0.0000000001
 43
0.0000000001
 12
1.0
 22
0.0
 32
0.0
 13
1.0
 23
0.0
 33
0.0
 40
0.0
 40
0.0
 40
0.0
 40
0.0
 40
1.0
 40
1.0
 40
1.0
 40
2.0
 40
2.0
 40
2.0
 40
3.0
 40
3.0
 40
3.0
 40
4.0
 40
4.0
 40
4.0
 40
5.0
 40
5.0
 40
5.0
 40
6.0
 40
6.0
 40
6.0
 40
7.0
 40
7.0
 40
7.0
 40
8.0
 40
8.0
 40
8.0
 40
9.0
 40
9.0
 40
9.0
 40
10.0
 40
10.0
 40
10.0
 40
11.0
 40
11.0
 40
11.0
 40
12.0
 40
12.0
 40
12.0
 40
13.0
 40
13.0
 40
13.0
 40
13.0
 10
63.87827146840544
 20
-78.6556640428361
 30
0.0
 10
63.64555526837681
 20
-78.8144829447061
 30
0.0
 10
63.54599200885309
 20
-78.88855249763898
 30
0.0
 10
63.49397106702582
 20
-79.0322129793739
 30
0.0
 10
63.49397106702582
 20
-79.0322129793739
 30
0.0
 10
64.32613388148792
 20
-79.0322129793739
 30
0.0
 10
64.32613388148792
 20
-79.0322129793739
 30
0.0
 10
64.32613388148792
 20
-79.0322129793739
 30
0.0
 10
64.32613388148792
 20
-79.23754067029479
 30
0.0
 10
64.32613388148792
 20
-79.23754067029479
 30
0.0
 10
64.32613388148792
 20
-79.23754067029479
 30
0.0
 10
63.22732067646748
 20
-79.23754067029479
 30
0.0
 10
63.22732067646748
 20
-79.23754067029479
 30
0.0
 10
63.26142712177145
 20
-78.87993975892586
 30
0.0
 10
63.33136256012202
 20
-78.80173609141067
 30
0.0
 10
63.74270696106085
 20
-78.50339082238804
 30
0.0
 10
64.01607528781543
 20
-78.30460881288913
 30
0.0
 10
64.08635523571452
 20
-78.2367404318297
 30
0.0
 10
64.08635523571452
 20
-78.09928112196823
 30
0.0
 10
64.08635523571452
 20
-77.98076983727564
 30
0.0
 10
64.00987411594198
 20
-77.84985620883614
 30
0.0
 10
63.79920652701895
 20
-77.84985620883614
 30
0.0
 10
63.52118732135929
 20
-77.84985620883614
 30
0.0
 10
63.51223007309764
 20
-78.08033309679936
 30
0.0
 10
63.50775144896681
 20
-78.19677732420081
 30
0.0
 10
63.50775144896681
 20
-78.19677732420081
 30
0.0
 10
63.26797280319342
 20
-78.19677732420081
 30
0.0
 10
63.26797280319342
 20
-78.19677732420081
 30
0.0
 10
63.27693005145507
 20
-78.0696533007951
 30
0.0
 10
63.2882988665564
 20
-77.95768769752448
 30
0.0
 10
63.37442625368764
 20
-77.83917641283188
 30
0.0
 10
63.49190400973467
 20
-77.67829045367071
 30
0.0
 10
63.69068601923358
 20
-77.64452851791526
 30
0.0
 10
63.8150539662511
 20
-77.64452851791526
 30
0.0
 10
64.11115992320832
 20
-77.64452851791526
 30
0.0
 10
64.33302407245841
 20
-77.82849661682761
 30
0.0
 10
64.33302407245841
 20
-78.10134817925939
 30
0.0
 10
64.33302407245841
 20
-78.33010251947998
 30
0.0
 10
64.20831161589237
 20
-78.42932126945517
 30
0.0
 10
63.87827146840544
 20
-78.6556640428361
 30
0.0
  0
HATCH
  5
B6
330
B1
100
AcDbEntity
  8
_U+30EC_U+30A4_U+30E4_U+30FC 1
 62
   179
420
  2234388
100
AcDbHatch
 10
0.0
 20
0.0
 30
0.0
210
0.0
220
0.0
230
1.0
  2
SOLID
 70
     1
 71
     0
 91
        1
 92
        1
 93
        1
 72
     4
 94
        3
 73
     0
 74
     1
 95
       44
 96
       40
 40
0.0
 40
0.0
 40
0.0
 40
0.0
 40
1.0
 40
1.0
 40
1.0
 40
2.0
 40
2.0
 40
2.0
 40
3.0
 40
3.0
 40
3.0
 40
4.0
 40
4.0
 40
4.0
 40
5.0
 40
5.0
 40
5.0
 40
6.0
 40
6.0
 40
6.0
 40
7.0
 40
7.0
 40
7.0
 40
8.0
 40
8.0
 40
8.0
 40
9.0
 40
9.0
 40
9.0
 40
10.0
 40
10.0
 40
10.0
 40
11.0
 40
11.0
 40
11.0
 40
12.0
 40
12.0
 40
12.0
 40
13.0
 40
13.0
 40
13.0
 40
13.0
 10
63.87827146840544
 20
-78.6556640428361
 10
63.64555526837681
 20
-78.8144829447061
 10
63.54599200885309
 20
-78.88855249763898
 10
63.49397106702582
 20
-79.0322129793739
 10
63.49397106702582
 20
-79.0322129793739
 10
64.32613388148792
 20
-79.0322129793739
 10
64.32613388148792
 20
-79.0322129793739
 10
64.32613388148792
 20
-79.0322129793739
 10
64.32613388148792
 20
-79.23754067029479
 10
64.32613388148792
 20
-79.23754067029479
 10
64.32613388148792
 20
-79.23754067029479
 10
63.22732067646748
 20
-79.23754067029479
 10
63.22732067646748
 20
-79.23754067029479
 10
63.26142712177145
 20
-78.87993975892586
 10
63.33136256012202
 20
-78.80173609141067
 10
63.74270696106085
 20
-78.50339082238804
 10
64.01607528781543
 20
-78.30460881288913
 10
64.08635523571452
 20
-78.2367404318297
 10
64.08635523571452
 20
-78.09928112196823
 10
64.08635523571452
 20
-77.98076983727564
 10
64.00987411594198
 20
-77.84985620883614
 10
63.79920652701895
 20
-77.84985620883614
 10
63.52118732135929
 20
-77.84985620883614
 10
63.51223007309764
 20
-78.08033309679936
 10
63.50775144896681
 20
-78.19677732420081
 10
63.50775144896681
 20
-78.19677732420081
 10
63.26797280319342
 20
-78.19677732420081
 10
63.26797280319342
 20
-78.19677732420081
 10
63.27693005145507
 20
-78.0696533007951
 10
63.2882988665564
 20
-77.95768769752448
 10
63.37442625368764
 20
-77.83917641283188
 10
63.49190400973467
 20
-77.67829045367071
 10
63.69068601923358
 20
-77.64452851791526
 10
63.8150539662511
 20
-77.64452851791526
 10
64.11115992320832
 20
-77.64452851791526
 10
64.33302407245841
 20
-77.82849661682761
 10
64.33302407245841
 20
-78.10134817925939
 10
64.33302407245841
 20
-78.33010251947998
 10
64.20831161589237
 20
-78.42932126945517
 10
63.87827146840544
 20
-78.6556640428361
 97
        0
 97
        0
 75
     2
 76
     1
 98
        0
  0
SPLINE
  5
B7
330
B1
100
AcDbEntity
  8
_U+30EC_U+30A4_U+30E4_U+30FC 1
370
     0
100
AcDbSpline
210
0.0
220
0.0
230
1.0
 70
    11
 71
     3
 72
    62
 73
    58
 74
     0
 42
0.0000000001
 43
0.0000000001
 12
1.0
 22
0.0
 32
0.0
 13
1.0
 23
0.0
 33
0.0
 40
0.0
 40
0.0
 40
0.0
 40
0.0
 40
1.0
 40
1.0
 40
1.0
 40
2.0
 40
2.0
 40
2.0
 40
3.0
 40
3.0
 40
3.0
 40
4.0
 40
4.0
 40
4.0
 40
5.0
 40
5.0
 40
5.0
 40
6.0
 40
6.0
 40
6.0
 40
7.0
 40
7.0
 40
7.0
 40
8.0
 40
8.0
 40
8.0
 40
9.0
 40
9.0
 40
9.0
 40
10.0
 40
10.0
 40
10.0
 40
11.0
 40
11.0
 40
11.0
 40
12.0
 40
12.0
 40
12.0
 40
13.0
 40
13.0
 40
13.0
 40
14.0
 40
14.0
 40
14.0
 40
15.0
 40
15.0
 40
15.0
 40
16.0
 40
16.0
 40
16.0
 40
17.0
 40
17.0
 40
17.0
 40
18.0
 40
18.0
 40
18.0
 40
19.0
 40
19.0
 40
19.0
 40
19.0
 10
65.02755532228478
 20
-79.28818357392795
 30
0.0
 10
64.92626951501843
 20
-79.28818357392795
 30
0.0
 10
64.69338106021554
 20
-79.26716849146793
 30
0.0
 10
64.55971135538785
 20
-79.08113333526444
 30
0.0
 10
64.4804741592271
 20
-78.9688232224453
 30
0.0
 10
64.4763400446448
 20
-78.8696044724701
 30
0.0
 10
64.47151691096546
 20
-78.78485512353295
 30
0.0
 10
64.47151691096546
 20
-78.78485512353295
 30
0.0
 10
64.7064724230595
 20
-78.78485512353295
 30
0.0
 10
64.7064724230595
 20
-78.78485512353295
 30
0.0
 10
64.70922849944769
 20
-78.85892467646583
 30
0.0
 10
64.7202528050005
 20
-79.09353567901134
 30
0.0
 10
65.02342120770248
 20
-79.09353567901134
 30
0.0
 10
65.17018227537413
 20
-79.09353567901134
 30
0.0
 10
65.33279078227791
 20
-79.0239447502093
 30
0.0
 10
65.33279078227791
 20
-78.79553491953723
 30
0.0
 10
65.33279078227791
 20
-78.67909069213579
 30
0.0
 10
65.29213865555197
 20
-78.63051484579377
 30
0.0
 10
65.25837671979652
 20
-78.59881996732946
 30
0.0
 10
65.17913952363577
 20
-78.52475041439659
 30
0.0
 10
65.05511608616678
 20
-78.51200356110117
 30
0.0
 10
64.99586044382048
 20
-78.51200356110117
 30
0.0
 10
64.97587889000603
 20
-78.51200356110117
 30
0.0
 10
64.93729382057124
 20
-78.51407061839232
 30
0.0
 10
64.90766599939809
 20
-78.51820473297462
 30
0.0
 10
64.90766599939809
 20
-78.51820473297462
 30
0.0
 10
64.90766599939809
 20
-78.323556838058
 30
0.0
 10
64.90766599939809
 20
-78.323556838058
 30
0.0
 10
64.94831812612404
 20
-78.33010251947998
 30
0.0
 10
64.99379338652933
 20
-78.33216957677112
 30
0.0
 10
65.00068357749983
 20
-78.33216957677112
 30
0.0
 10
65.07096352539892
 20
-78.33216957677112
 30
0.0
 10
65.28318140729031
 20
-78.31080998476259
 30
0.0
 10
65.28318140729031
 20
-78.07413192492592
 30
0.0
 10
65.28318140729031
 20
-77.89636499788702
 30
0.0
 10
65.14331053058918
 20
-77.84124347012303
 30
0.0
 10
65.02548826499363
 20
-77.84124347012303
 30
0.0
 10
64.74299043520314
 20
-77.84124347012303
 30
0.0
 10
64.73403318694149
 20
-78.07413192492592
 30
0.0
 10
64.72921005326215
 20
-78.14578991101911
 30
0.0
 10
64.72921005326215
 20
-78.14578991101911
 30
0.0
 10
64.51216903769141
 20
-78.14578991101911
 30
0.0
 10
64.51216903769141
 20
-78.14578991101911
 30
0.0
 10
64.52112628595306
 20
-78.02107745445306
 30
0.0
 10
64.55075410712621
 20
-77.64452851791526
 30
0.0
 10
65.03926864693463
 20
-77.64452851791526
 30
0.0
 10
65.27904729270801
 20
-77.64452851791526
 30
0.0
 10
65.5367404350047
 20
-77.77165254132098
 30
0.0
 10
65.5367404350047
 20
-78.06758624350394
 30
0.0
 10
65.5367404350047
 20
-78.25396590925595
 30
0.0
 10
65.43476560864131
 20
-78.33630369135342
 30
0.0
 10
65.32865666769561
 20
-78.39762639099088
 30
0.0
 10
65.39411348191537
 20
-78.42518715487287
 30
0.0
 10
65.58841686728346
 20
-78.5054578796792
 30
0.0
 10
65.58841686728346
 20
-78.7827880662418
 30
0.0
 10
65.58841686728346
 20
-79.12109644289335
 30
0.0
 10
65.32383353401627
 20
-79.28818357392795
 30
0.0
 10
65.02755532228478
 20
-79.28818357392795
 30
0.0
  0
HATCH
  5
B8
330
B1
100
AcDbEntity
  8
_U+30EC_U+30A4_U+30E4_U+30FC 1
 62
   179
420
  2234388
100
AcDbHatch
 10
0.0
 20
0.0
 30
0.0
210
0.0
220
0.0
230
1.0
  2
SOLID
 70
     1
 71
     0
 91
        1
 92
        1
 93
        1
 72
     4
 94
        3
 73
     0
 74
     1
 95
       62
 96
       58
 40
0.0
 40
0.0
 40
0.0
 40
0.0
 40
1.0
 40
1.0
 40
1.0
 40
2.0
 40
2.0
 40
2.0
 40
3.0
 40
3.0
 40
3.0
 40
4.0
 40
4.0
 40
4.0
 40
5.0
 40
5.0
 40
5.0
 40
6.0
 40
6.0
 40
6.0
 40
7.0
 40
7.0
 40
7.0
 40
8.0
 40
8.0
 40
8.0
 40
9.0
 40
9.0
 40
9.0
 40
10.0
 40
10.0
 40
10.0
 40
11.0
 40
11.0
 40
11.0
 40
12.0
 40
12.0
 40
12.0
 40
13.0
 40
13.0
 40
13.0
 40
14.0
 40
14.0
 40
14.0
 40
15.0
 40
15.0
 40
15.0
 40
16.0
 40
16.0
 40
16.0
 40
17.0
 40
17.0
 40
17.0
 40
18.0
 40
18.0
 40
18.0
 40
19.0
 40
19.0
 40
19.0
 40
19.0
 10
65.02755532228478
 20
-79.28818357392795
 10
64.92626951501843
 20
-79.28818357392795
 10
64.69338106021554
 20
-79.26716849146793
 10
64.55971135538785
 20
-79.08113333526444
 10
64.4804741592271
 20
-78.9688232224453
 10
64.4763400446448
 20
-78.8696044724701
 10
64.47151691096546
 20
-78.78485512353295
 10
64.47151691096546
 20
-78.78485512353295
 10
64.7064724230595
 20
-78.78485512353295
 10
64.7064724230595
 20
-78.78485512353295
 10
64.70922849944769
 20
-78.85892467646583
 10
64.7202528050005
 20
-79.09353567901134
 10
65.02342120770248
 20
-79.09353567901134
 10
65.17018227537413
 20
-79.09353567901134
 10
65.33279078227791
 20
-79.0239447502093
 10
65.33279078227791
 20
-78.79553491953723
 10
65.33279078227791
 20
-78.67909069213579
 10
65.29213865555197
 20
-78.63051484579377
 10
65.25837671979652
 20
-78.59881996732946
 10
65.17913952363577
 20
-78.52475041439659
 10
65.05511608616678
 20
-78.51200356110117
 10
64.99586044382048
 20
-78.51200356110117
 10
64.97587889000603
 20
-78.51200356110117
 10
64.93729382057124
 20
-78.51407061839232
 10
64.90766599939809
 20
-78.51820473297462
 10
64.90766599939809
 20
-78.51820473297462
 10
64.90766599939809
 20
-78.323556838058
 10
64.90766599939809
 20
-78.323556838058
 10
64.94831812612404
 20
-78.33010251947998
 10
64.99379338652933
 20
-78.33216957677112
 10
65.00068357749983
 20
-78.33216957677112
 10
65.07096352539892
 20
-78.33216957677112
 10
65.28318140729031
 20
-78.31080998476259
 10
65.28318140729031
 20
-78.07413192492592
 10
65.28318140729031
 20
-77.89636499788702
 10
65.14331053058918
 20
-77.84124347012303
 10
65.02548826499363
 20
-77.84124347012303
 10
64.74299043520314
 20
-77.84124347012303
 10
64.73403318694149
 20
-78.07413192492592
 10
64.72921005326215
 20
-78.14578991101911
 10
64.72921005326215
 20
-78.14578991101911
 10
64.51216903769141
 20
-78.14578991101911
 10
64.51216903769141
 20
-78.14578991101911
 10
64.52112628595306
 20
-78.02107745445306
 10
64.55075410712621
 20
-77.64452851791526
 10
65.03926864693463
 20
-77.64452851791526
 10
65.27904729270801
 20
-77.64452851791526
 10
65.5367404350047
 20
-77.77165254132098
 10
65.5367404350047
 20
-78.06758624350394
 10
65.5367404350047
 20
-78.25396590925595
 10
65.43476560864131
 20
-78.33630369135342
 10
65.32865666769561
 20
-78.39762639099088
 10
65.39411348191537
 20
-78.42518715487287
 10
65.58841686728346
 20
-78.5054578796792
 10
65.58841686728346
 20
-78.7827880662418
 10
65.58841686728346
 20
-79.12109644289335
 10
65.32383353401627
 20
-79.28818357392795
 10
65.02755532228478
 20
-79.28818357392795
 97
        0
 97
        0
 75
     2
 76
     1
 98
        0
  0
ENDBLK
  5
B4
330
B1
100
AcDbEntity
  8
0
100
AcDbBlockEnd
  0
BLOCK
  5
C7
330
C5
100
AcDbEntity
  8
0
100
AcDbBlockBegin
  2
block 5
 70
     0
 10
0.0
 20
0.0
 30
0.0
  3
block 5
  1

  0
SPLINE
  5
C9
330
C5
100
AcDbEntity
  8
_U+30EC_U+30A4_U+30E4_U+30FC 1
370
     0
100
AcDbSpline
210
0.0
220
0.0
230
1.0
 70
    11
 71
     3
 72
    26
 73
    22
 74
     0
 42
0.0000000001
 43
0.0000000001
 12
1.0
 22
0.0
 32
0.0
 13
1.0
 23
0.0
 33
0.0
 40
0.0
 40
0.0
 40
0.0
 40
0.0
 40
1.0
 40
1.0
 40
1.0
 40
2.0
 40
2.0
 40
2.0
 40
3.0
 40
3.0
 40
3.0
 40
4.0
 40
4.0
 40
4.0
 40
5.0
 40
5.0
 40
5.0
 40
6.0
 40
6.0
 40
6.0
 40
7.0
 40
7.0
 40
7.0
 40
7.0
 10
48.30661212985044
 20
-91.02837996856235
 30
0.0
 10
48.30661212985044
 20
-91.02837996856235
 30
0.0
 10
47.2022867720536
 20
-91.02837996856235
 30
0.0
 10
47.2022867720536
 20
-91.02837996856235
 30
0.0
 10
47.2022867720536
 20
-91.02837996856235
 30
0.0
 10
47.2022867720536
 20
-91.38081323670342
 30
0.0
 10
47.2022867720536
 20
-91.38081323670342
 30
0.0
 10
47.2022867720536
 20
-91.38081323670342
 30
0.0
 10
47.05431992096212
 20
-91.38081323670342
 30
0.0
 10
47.05431992096212
 20
-91.38081323670342
 30
0.0
 10
47.03950601037554
 20
-91.02596840172268
 30
0.0
 10
46.87655299392323
 20
-90.97635902673508
 30
0.0
 10
46.76234807858719
 20
-90.94466414827079
 30
0.0
 10
46.76234807858719
 20
-90.94466414827079
 30
0.0
 10
46.76234807858719
 20
-90.78860132278896
 30
0.0
 10
46.76234807858719
 20
-90.78860132278896
 30
0.0
 10
46.76234807858719
 20
-90.78860132278896
 30
0.0
 10
48.30661212985044
 20
-90.78860132278896
 30
0.0
 10
48.30661212985044
 20
-90.78860132278896
 30
0.0
 10
48.30661212985044
 20
-90.78860132278896
 30
0.0
 10
48.30661212985044
 20
-91.02837996856235
 30
0.0
 10
48.30661212985044
 20
-91.02837996856235
 30
0.0
  0
HATCH
  5
CA
330
C5
100
AcDbEntity
  8
_U+30EC_U+30A4_U+30E4_U+30FC 1
 62
   179
420
  2234388
100
AcDbHatch
 10
0.0
 20
0.0
 30
0.0
210
0.0
220
0.0
230
1.0
  2
SOLID
 70
     1
 71
     0
 91
        1
 92
        1
 93
        1
 72
     4
 94
        3
 73
     0
 74
     1
 95
       26
 96
       22
 40
0.0
 40
0.0
 40
0.0
 40
0.0
 40
1.0
 40
1.0
 40
1.0
 40
2.0
 40
2.0
 40
2.0
 40
3.0
 40
3.0
 40
3.0
 40
4.0
 40
4.0
 40
4.0
 40
5.0
 40
5.0
 40
5.0
 40
6.0
 40
6.0
 40
6.0
 40
7.0
 40
7.0
 40
7.0
 40
7.0
 10
48.30661212985044
 20
-91.02837996856235
 10
48.30661212985044
 20
-91.02837996856235
 10
47.2022867720536
 20
-91.02837996856235
 10
47.2022867720536
 20
-91.02837996856235
 10
47.2022867720536
 20
-91.02837996856235
 10
47.2022867720536
 20
-91.38081323670342
 10
47.2022867720536
 20
-91.38081323670342
 10
47.2022867720536
 20
-91.38081323670342
 10
47.05431992096212
 20
-91.38081323670342
 10
47.05431992096212
 20
-91.38081323670342
 10
47.03950601037554
 20
-91.02596840172268
 10
46.87655299392323
 20
-90.97635902673508
 10
46.76234807858719
 20
-90.94466414827079
 10
46.76234807858719
 20
-90.94466414827079
 10
46.76234807858719
 20
-90.78860132278896
 10
46.76234807858719
 20
-90.78860132278896
 10
46.76234807858719
 20
-90.78860132278896
 10
48.30661212985044
 20
-90.78860132278896
 10
48.30661212985044
 20
-90.78860132278896
 10
48.30661212985044
 20
-90.78860132278896
 10
48.30661212985044
 20
-91.02837996856235
 10
48.30661212985044
 20
-91.02837996856235
 97
        0
 97
        0
 75
     2
 76
     1
 98
        0
  0
SPLINE
  5
CB
330
C5
100
AcDbEntity
  8
_U+30EC_U+30A4_U+30E4_U+30FC 1
370
     0
100
AcDbSpline
210
0.0
220
0.0
230
1.0
 70
    11
 71
     3
 72
    26
 73
    22
 74
     0
 42
0.0000000001
 43
0.0000000001
 12
1.0
 22
0.0
 32
0.0
 13
1.0
 23
0.0
 33
0.0
 40
0.0
 40
0.0
 40
0.0
 40
0.0
 40
1.0
 40
1.0
 40
1.0
 40
2.0
 40
2.0
 40
2.0
 40
3.0
 40
3.0
 40
3.0
 40
4.0
 40
4.0
 40
4.0
 40
5.0
 40
5.0
 40
5.0
 40
6.0
 40
6.0
 40
6.0
 40
7.0
 40
7.0
 40
7.0
 40
7.0
 10
48.30661212985044
 20
-89.77057560689764
 30
0.0
 10
48.30661212985044
 20
-89.77057560689764
 30
0.0
 10
47.2022867720536
 20
-89.77057560689764
 30
0.0
 10
47.2022867720536
 20
-89.77057560689764
 30
0.0
 10
47.2022867720536
 20
-89.77057560689764
 30
0.0
 10
47.2022867720536
 20
-90.12300887503869
 30
0.0
 10
47.2022867720536
 20
-90.12300887503869
 30
0.0
 10
47.2022867720536
 20
-90.12300887503869
 30
0.0
 10
47.05431992096212
 20
-90.12300887503869
 30
0.0
 10
47.05431992096212
 20
-90.12300887503869
 30
0.0
 10
47.03950601037554
 20
-89.76816404005797
 30
0.0
 10
46.87655299392323
 20
-89.71855466507037
 30
0.0
 10
46.76234807858719
 20
-89.68685978660606
 30
0.0
 10
46.76234807858719
 20
-89.68685978660606
 30
0.0
 10
46.76234807858719
 20
-89.53079696112425
 30
0.0
 10
46.76234807858719
 20
-89.53079696112425
 30
0.0
 10
46.76234807858719
 20
-89.53079696112425
 30
0.0
 10
48.30661212985044
 20
-89.53079696112425
 30
0.0
 10
48.30661212985044
 20
-89.53079696112425
 30
0.0
 10
48.30661212985044
 20
-89.53079696112425
 30
0.0
 10
48.30661212985044
 20
-89.77057560689764
 30
0.0
 10
48.30661212985044
 20
-89.77057560689764
 30
0.0
  0
HATCH
  5
CC
330
C5
100
AcDbEntity
  8
_U+30EC_U+30A4_U+30E4_U+30FC 1
 62
   179
420
  2234388
100
AcDbHatch
 10
0.0
 20
0.0
 30
0.0
210
0.0
220
0.0
230
1.0
  2
SOLID
 70
     1
 71
     0
 91
        1
 92
        1
 93
        1
 72
     4
 94
        3
 73
     0
 74
     1
 95
       26
 96
       22
 40
0.0
 40
0.0
 40
0.0
 40
0.0
 40
1.0
 40
1.0
 40
1.0
 40
2.0
 40
2.0
 40
2.0
 40
3.0
 40
3.0
 40
3.0
 40
4.0
 40
4.0
 40
4.0
 40
5.0
 40
5.0
 40
5.0
 40
6.0
 40
6.0
 40
6.0
 40
7.0
 40
7.0
 40
7.0
 40
7.0
 10
48.30661212985044
 20
-89.77057560689764
 10
48.30661212985044
 20
-89.77057560689764
 10
47.2022867720536
 20
-89.77057560689764
 10
47.2022867720536
 20
-89.77057560689764
 10
47.2022867720536
 20
-89.77057560689764
 10
47.2022867720536
 20
-90.12300887503869
 10
47.2022867720536
 20
-90.12300887503869
 10
47.2022867720536
 20
-90.12300887503869
 10
47.05431992096212
 20
-90.12300887503869
 10
47.05431992096212
 20
-90.12300887503869
 10
47.03950601037554
 20
-89.76816404005797
 10
46.87655299392323
 20
-89.71855466507037
 10
46.76234807858719
 20
-89.68685978660606
 10
46.76234807858719
 20
-89.68685978660606
 10
46.76234807858719
 20
-89.53079696112425
 10
46.76234807858719
 20
-89.53079696112425
 10
46.76234807858719
 20
-89.53079696112425
 10
48.30661212985044
 20
-89.53079696112425
 10
48.30661212985044
 20
-89.53079696112425
 10
48.30661212985044
 20
-89.53079696112425
 10
48.30661212985044
 20
-89.77057560689764
 10
48.30661212985044
 20
-89.77057560689764
 97
        0
 97
        0
 75
     2
 76
     1
 98
        0
  0
POLYLINE
  5
CD
330
C5
100
AcDbEntity
  8
_U+30EC_U+30A4_U+30E4_U+30FC 1
370
     0
100
AcDb2dPolyline
 66
     1
 10
0.0
 20
0.0
 30
0.0
  0
VERTEX
  5
CE
330
CD
100
AcDbEntity
  8
_U+30EC_U+30A4_U+30E4_U+30FC 1
370
     0
100
AcDbVertex
100
AcDb2dVertex
 10
48.30661212985044
 20
-88.93100583714225
 30
0.0
  0
VERTEX
  5
CF
330
CD
100
AcDbEntity
  8
_U+30EC_U+30A4_U+30E4_U+30FC 1
370
     0
100
AcDbVertex
100
AcDb2dVertex
 10
48.05494790465293
 20
-88.93100583714225
 30
0.0
  0
VERTEX
  5
D0
330
CD
100
AcDbEntity
  8
_U+30EC_U+30A4_U+30E4_U+30FC 1
370
     0
100
AcDbVertex
100
AcDb2dVertex
 10
48.05494790465293
 20
-88.66194387974424
 30
0.0
  0
VERTEX
  5
D1
330
CD
100
AcDbEntity
  8
_U+30EC_U+30A4_U+30E4_U+30FC 1
370
     0
100
AcDbVertex
100
AcDb2dVertex
 10
48.30661212985044
 20
-88.66194387974424
 30
0.0
  0
VERTEX
  5
D2
330
CD
100
AcDbEntity
  8
_U+30EC_U+30A4_U+30E4_U+30FC 1
370
     0
100
AcDbVertex
100
AcDb2dVertex
 10
48.30661212985044
 20
-88.93100583714225
 30
0.0
  0
SEQEND
  5
D3
330
CD
100
AcDbEntity
  8
_U+30EC_U+30A4_U+30E4_U+30FC 1
370
     0
  0
HATCH
  5
D4
330
C5
100
AcDbEntity
  8
_U+30EC_U+30A4_U+30E4_U+30FC 1
 62
   179
420
  2234388
100
AcDbHatch
 10
0.0
 20
0.0
 30
0.0
210
0.0
220
0.0
230
1.0
  2
SOLID
 70
     1
 71
     0
 91
        1
 92
        1
 93
        4
 72
     1
 10
48.30661212985044
 20
-88.93100583714225
 11
48.05494790465293
 21
-88.93100583714225
 72
     1
 10
48.05494790465293
 20
-88.93100583714225
 11
48.05494790465293
 21
-88.66194387974424
 72
     1
 10
48.05494790465293
 20
-88.66194387974424
 11
48.30661212985044
 21
-88.66194387974424
 72
     1
 10
48.30661212985044
 20
-88.66194387974424
 11
48.30661212985044
 21
-88.93100583714225
 97
        0
 75
     2
 76
     1
 98
        0
  0
SPLINE
  5
D5
330
C5
100
AcDbEntity
  8
_U+30EC_U+30A4_U+30E4_U+30FC 1
370
     0
100
AcDbSpline
210
0.0
220
0.0
230
1.0
 70
    11
 71
     3
 72
    26
 73
    22
 74
     0
 42
0.0000000001
 43
0.0000000001
 12
1.0
 22
0.0
 32
0.0
 13
1.0
 23
0.0
 33
0.0
 40
0.0
 40
0.0
 40
0.0
 40
0.0
 40
1.0
 40
1.0
 40
1.0
 40
2.0
 40
2.0
 40
2.0
 40
3.0
 40
3.0
 40
3.0
 40
4.0
 40
4.0
 40
4.0
 40
5.0
 40
5.0
 40
5.0
 40
6.0
 40
6.0
 40
6.0
 40
7.0
 40
7.0
 40
7.0
 40
7.0
 10
48.30661212985044
 20
-87.96947968720902
 30
0.0
 10
48.30661212985044
 20
-87.96947968720902
 30
0.0
 10
48.30661212985044
 20
-88.22269420537489
 30
0.0
 10
48.30661212985044
 20
-88.22269420537489
 30
0.0
 10
47.99775931959778
 20
-88.19547795104141
 30
0.0
 10
47.47944470384195
 20
-87.989805750572
 30
0.0
 10
46.97387694138153
 20
-87.55572371943052
 30
0.0
 10
46.97387694138153
 20
-87.55572371943052
 30
0.0
 10
46.97387694138153
 20
-88.45110403604696
 30
0.0
 10
46.97387694138153
 20
-88.45110403604696
 30
0.0
 10
46.97387694138153
 20
-88.45110403604696
 30
0.0
 10
46.76234807858719
 20
-88.45110403604696
 30
0.0
 10
46.76234807858719
 20
-88.45110403604696
 30
0.0
 10
46.76234807858719
 20
-88.45110403604696
 30
0.0
 10
46.76234807858719
 20
-87.30250920126466
 30
0.0
 10
46.76234807858719
 20
-87.30250920126466
 30
0.0
 10
46.76234807858719
 20
-87.30250920126466
 30
0.0
 10
46.97387694138153
 20
-87.30250920126466
 30
0.0
 10
46.97387694138153
 20
-87.30250920126466
 30
0.0
 10
47.26360947169105
 20
-87.64839678798374
 30
0.0
 10
47.85599364037975
 20
-87.9333061846139
 30
0.0
 10
48.30661212985044
 20
-87.96947968720902
 30
0.0
  0
HATCH
  5
D6
330
C5
100
AcDbEntity
  8
_U+30EC_U+30A4_U+30E4_U+30FC 1
 62
   179
420
  2234388
100
AcDbHatch
 10
0.0
 20
0.0
 30
0.0
210
0.0
220
0.0
230
1.0
  2
SOLID
 70
     1
 71
     0
 91
        1
 92
        1
 93
        1
 72
     4
 94
        3
 73
     0
 74
     1
 95
       26
 96
       22
 40
0.0
 40
0.0
 40
0.0
 40
0.0
 40
1.0
 40
1.0
 40
1.0
 40
2.0
 40
2.0
 40
2.0
 40
3.0
 40
3.0
 40
3.0
 40
4.0
 40
4.0
 40
4.0
 40
5.0
 40
5.0
 40
5.0
 40
6.0
 40
6.0
 40
6.0
 40
7.0
 40
7.0
 40
7.0
 40
7.0
 10
48.30661212985044
 20
-87.96947968720902
 10
48.30661212985044
 20
-87.96947968720902
 10
48.30661212985044
 20
-88.22269420537489
 10
48.30661212985044
 20
-88.22269420537489
 10
47.99775931959778
 20
-88.19547795104141
 10
47.47944470384195
 20
-87.989805750572
 10
46.97387694138153
 20
-87.55572371943052
 10
46.97387694138153
 20
-87.55572371943052
 10
46.97387694138153
 20
-88.45110403604696
 10
46.97387694138153
 20
-88.45110403604696
 10
46.97387694138153
 20
-88.45110403604696
 10
46.76234807858719
 20
-88.45110403604696
 10
46.76234807858719
 20
-88.45110403604696
 10
46.76234807858719
 20
-88.45110403604696
 10
46.76234807858719
 20
-87.30250920126466
 10
46.76234807858719
 20
-87.30250920126466
 10
46.76234807858719
 20
-87.30250920126466
 10
46.97387694138153
 20
-87.30250920126466
 10
46.97387694138153
 20
-87.30250920126466
 10
47.26360947169105
 20
-87.64839678798374
 10
47.85599364037975
 20
-87.9333061846139
 10
48.30661212985044
 20
-87.96947968720902
 97
        0
 97
        0
 75
     2
 76
     1
 98
        0
  0
ENDBLK
  5
C8
330
C5
100
AcDbEntity
  8
0
100
AcDbBlockEnd
  0
BLOCK
  5
E1
330
DF
100
AcDbEntity
  8
0
100
AcDbBlockBegin
  2
block 6
 70
     0
 10
0.0
 20
0.0
 30
0.0
  3
block 6
  1

  0
SPLINE
  5
E3
330
DF
100
AcDbEntity
  8
_U+30EC_U+30A4_U+30E4_U+30FC 1
370
     0
100
AcDbSpline
210
0.0
220
0.0
230
1.0
 70
    11
 71
     3
 72
    32
 73
    28
 74
     0
 42
0.0000000001
 43
0.0000000001
 12
1.0
 22
0.0
 32
0.0
 13
1.0
 23
0.0
 33
0.0
 40
0.0
 40
0.0
 40
0.0
 40
0.0
 40
1.0
 40
1.0
 40
1.0
 40
2.0
 40
2.0
 40
2.0
 40
3.0
 40
3.0
 40
3.0
 40
4.0
 40
4.0
 40
4.0
 40
5.0
 40
5.0
 40
5.0
 40
6.0
 40
6.0
 40
6.0
 40
7.0
 40
7.0
 40
7.0
 40
8.0
 40
8.0
 40
8.0
 40
9.0
 40
9.0
 40
9.0
 40
9.0
 10
79.35708548363296
 20
-90.50369192615881
 30
0.0
 10
79.35708548363296
 20
-90.68903806326524
 30
0.0
 10
79.28749455483091
 20
-90.95120982969276
 30
0.0
 10
78.95538735005282
 20
-90.9918619564187
 30
0.0
 10
78.95538735005282
 20
-90.9918619564187
 30
0.0
 10
78.95538735005282
 20
-90.76379663529517
 30
0.0
 10
78.95538735005282
 20
-90.76379663529517
 30
0.0
 10
79.01464299239912
 20
-90.75242782019384
 30
0.0
 10
79.16278209826487
 20
-90.71832137488987
 30
0.0
 10
79.16278209826487
 20
-90.50128035931913
 30
0.0
 10
79.16278209826487
 20
-90.18949921790401
 30
0.0
 10
78.83274195077793
 20
-90.14884709117807
 30
0.0
 10
78.62741425985703
 20
-90.13506670923707
 30
0.0
 10
78.70802949421189
 20
-90.23221840192112
 30
0.0
 10
78.76521807926703
 20
-90.30456540711137
 30
0.0
 10
78.76521807926703
 20
-90.49921330202798
 30
0.0
 10
78.76521807926703
 20
-90.69144963010491
 30
0.0
 10
78.65910913832134
 20
-91.01459958662136
 30
0.0
 10
78.2532768901589
 20
-91.01459958662136
 30
0.0
 10
77.93357202912772
 20
-91.01459958662136
 30
0.0
 10
77.71377493716878
 20
-90.80203719518144
 30
0.0
 10
77.71377493716878
 20
-90.46303979943285
 30
0.0
 10
77.71377493716878
 20
-89.91354706953551
 30
0.0
 10
78.26774629119696
 20
-89.90217825443418
 30
0.0
 10
78.48134221128245
 20
-89.90217825443418
 30
0.0
 10
78.71216360879419
 20
-89.90217825443418
 30
0.0
 10
79.35708548363296
 20
-89.92250431779716
 30
0.0
 10
79.35708548363296
 20
-90.50369192615881
 30
0.0
  0
SPLINE
  5
E4
330
DF
100
AcDbEntity
  8
_U+30EC_U+30A4_U+30E4_U+30FC 1
370
     0
100
AcDbSpline
210
0.0
220
0.0
230
1.0
 70
    11
 71
     3
 72
    17
 73
    13
 74
     0
 42
0.0000000001
 43
0.0000000001
 12
1.0
 22
0.0
 32
0.0
 13
1.0
 23
0.0
 33
0.0
 40
0.0
 40
0.0
 40
0.0
 40
0.0
 40
1.0
 40
1.0
 40
1.0
 40
2.0
 40
2.0
 40
2.0
 40
3.0
 40
3.0
 40
3.0
 40
4.0
 40
4.0
 40
4.0
 40
4.0
 10
77.90601126524572
 20
-90.46062823259318
 30
0.0
 10
77.90601126524572
 20
-90.58740774645038
 30
0.0
 10
77.96319985030087
 20
-90.77482094084796
 30
0.0
 10
78.2491427755766
 20
-90.77482094084796
 30
0.0
 10
78.475141039409
 20
-90.77482094084796
 30
0.0
 10
78.57022567480189
 20
-90.62564830633664
 30
0.0
 10
78.57022567480189
 20
-90.48095429595615
 30
0.0
 10
78.57022567480189
 20
-90.20052352345682
 30
0.0
 10
78.36076386929871
 20
-90.15987139673086
 30
0.0
 10
78.24431964189726
 20
-90.15987139673086
 30
0.0
 10
78.06930879124657
 20
-90.15987139673086
 30
0.0
 10
77.90601126524572
 20
-90.26184622309427
 30
0.0
 10
77.90601126524572
 20
-90.46062823259318
 30
0.0
  0
HATCH
  5
E5
330
DF
100
AcDbEntity
  8
_U+30EC_U+30A4_U+30E4_U+30FC 1
 62
   179
420
  2234388
100
AcDbHatch
 10
0.0
 20
0.0
 30
0.0
210
0.0
220
0.0
230
1.0
  2
SOLID
 70
     1
 71
     0
 91
        2
 92
        1
 93
        1
 72
     4
 94
        3
 73
     0
 74
     1
 95
       32
 96
       28
 40
0.0
 40
0.0
 40
0.0
 40
0.0
 40
1.0
 40
1.0
 40
1.0
 40
2.0
 40
2.0
 40
2.0
 40
3.0
 40
3.0
 40
3.0
 40
4.0
 40
4.0
 40
4.0
 40
5.0
 40
5.0
 40
5.0
 40
6.0
 40
6.0
 40
6.0
 40
7.0
 40
7.0
 40
7.0
 40
8.0
 40
8.0
 40
8.0
 40
9.0
 40
9.0
 40
9.0
 40
9.0
 10
79.35708548363296
 20
-90.50369192615881
 10
79.35708548363296
 20
-90.68903806326524
 10
79.28749455483091
 20
-90.95120982969276
 10
78.95538735005282
 20
-90.9918619564187
 10
78.95538735005282
 20
-90.9918619564187
 10
78.95538735005282
 20
-90.76379663529517
 10
78.95538735005282
 20
-90.76379663529517
 10
79.01464299239912
 20
-90.75242782019384
 10
79.16278209826487
 20
-90.71832137488987
 10
79.16278209826487
 20
-90.50128035931913
 10
79.16278209826487
 20
-90.18949921790401
 10
78.83274195077793
 20
-90.14884709117807
 10
78.62741425985703
 20
-90.13506670923707
 10
78.70802949421189
 20
-90.23221840192112
 10
78.76521807926703
 20
-90.30456540711137
 10
78.76521807926703
 20
-90.49921330202798
 10
78.76521807926703
 20
-90.69144963010491
 10
78.65910913832134
 20
-91.01459958662136
 10
78.2532768901589
 20
-91.01459958662136
 10
77.93357202912772
 20
-91.01459958662136
 10
77.71377493716878
 20
-90.80203719518144
 10
77.71377493716878
 20
-90.46303979943285
 10
77.71377493716878
 20
-89.91354706953551
 10
78.26774629119696
 20
-89.90217825443418
 10
78.48134221128245
 20
-89.90217825443418
 10
78.71216360879419
 20
-89.90217825443418
 10
79.35708548363296
 20
-89.92250431779716
 10
79.35708548363296
 20
-90.50369192615881
 97
        0
 97
        0
 92
        1
 93
        1
 72
     4
 94
        3
 73
     0
 74
     1
 95
       17
 96
       13
 40
0.0
 40
0.0
 40
0.0
 40
0.0
 40
1.0
 40
1.0
 40
1.0
 40
2.0
 40
2.0
 40
2.0
 40
3.0
 40
3.0
 40
3.0
 40
4.0
 40
4.0
 40
4.0
 40
4.0
 10
77.90601126524572
 20
-90.46062823259318
 10
77.90601126524572
 20
-90.58740774645038
 10
77.96319985030087
 20
-90.77482094084796
 10
78.2491427755766
 20
-90.77482094084796
 10
78.475141039409
 20
-90.77482094084796
 10
78.57022567480189
 20
-90.62564830633664
 10
78.57022567480189
 20
-90.48095429595615
 10
78.57022567480189
 20
-90.20052352345682
 10
78.36076386929871
 20
-90.15987139673086
 10
78.24431964189726
 20
-90.15987139673086
 10
78.06930879124657
 20
-90.15987139673086
 10
77.90601126524572
 20
-90.26184622309427
 10
77.90601126524572
 20
-90.46062823259318
 97
        0
 97
        0
 75
     2
 76
     1
 98
        0
  0
POLYLINE
  5
E6
330
DF
100
AcDbEntity
  8
_U+30EC_U+30A4_U+30E4_U+30FC 1
370
     0
100
AcDb2dPolyline
 66
     1
 10
0.0
 20
0.0
 30
0.0
  0
VERTEX
  5
E7
330
E6
100
AcDbEntity
  8
_U+30EC_U+30A4_U+30E4_U+30FC 1
370
     0
100
AcDbVertex
100
AcDb2dVertex
 10
79.30678708954831
 20
-89.67101234737392
 30
0.0
  0
VERTEX
  5
E8
330
E6
100
AcDbEntity
  8
_U+30EC_U+30A4_U+30E4_U+30FC 1
370
     0
100
AcDbVertex
100
AcDb2dVertex
 10
79.05460610002802
 20
-89.67101234737392
 30
0.0
  0
VERTEX
  5
E9
330
E6
100
AcDbEntity
  8
_U+30EC_U+30A4_U+30E4_U+30FC 1
370
     0
100
AcDbVertex
100
AcDb2dVertex
 10
79.05460610002802
 20
-89.40195038997591
 30
0.0
  0
VERTEX
  5
EA
330
E6
100
AcDbEntity
  8
_U+30EC_U+30A4_U+30E4_U+30FC 1
370
     0
100
AcDbVertex
100
AcDb2dVertex
 10
79.30678708954831
 20
-89.40195038997591
 30
0.0
  0
VERTEX
  5
EB
330
E6
100
AcDbEntity
  8
_U+30EC_U+30A4_U+30E4_U+30FC 1
370
     0
100
AcDbVertex
100
AcDb2dVertex
 10
79.30678708954831
 20
-89.67101234737392
 30
0.0
  0
SEQEND
  5
EC
330
E6
100
AcDbEntity
  8
_U+30EC_U+30A4_U+30E4_U+30FC 1
370
     0
  0
HATCH
  5
ED
330
DF
100
AcDbEntity
  8
_U+30EC_U+30A4_U+30E4_U+30FC 1
 62
   179
420
  2234388
100
AcDbHatch
 10
0.0
 20
0.0
 30
0.0
210
0.0
220
0.0
230
1.0
  2
SOLID
 70
     1
 71
     0
 91
        1
 92
        1
 93
        4
 72
     1
 10
79.30678708954831
 20
-89.67101234737392
 11
79.05460610002802
 21
-89.67101234737392
 72
     1
 10
79.05460610002802
 20
-89.67101234737392
 11
79.05460610002802
 21
-89.40195038997591
 72
     1
 10
79.05460610002802
 20
-89.40195038997591
 11
79.30678708954831
 21
-89.40195038997591
 72
     1
 10
79.30678708954831
 20
-89.40195038997591
 11
79.30678708954831
 21
-89.67101234737392
 97
        0
 75
     2
 76
     1
 98
        0
  0
SPLINE
  5
EE
330
DF
100
AcDbEntity
  8
_U+30EC_U+30A4_U+30E4_U+30FC 1
370
     0
100
AcDbSpline
210
0.0
220
0.0
230
1.0
 70
    11
 71
     3
 72
    26
 73
    22
 74
     0
 42
0.0000000001
 43
0.0000000001
 12
1.0
 22
0.0
 32
0.0
 13
1.0
 23
0.0
 33
0.0
 40
0.0
 40
0.0
 40
0.0
 40
0.0
 40
1.0
 40
1.0
 40
1.0
 40
2.0
 40
2.0
 40
2.0
 40
3.0
 40
3.0
 40
3.0
 40
4.0
 40
4.0
 40
4.0
 40
5.0
 40
5.0
 40
5.0
 40
6.0
 40
6.0
 40
6.0
 40
7.0
 40
7.0
 40
7.0
 40
7.0
 10
79.30678708954831
 20
-88.70948619744068
 30
0.0
 10
79.30678708954831
 20
-88.70948619744068
 30
0.0
 10
79.30678708954831
 20
-88.96270071560654
 30
0.0
 10
79.30678708954831
 20
-88.96270071560654
 30
0.0
 10
78.99741751497287
 20
-88.93548446127308
 30
0.0
 10
78.4792751539913
 20
-88.72981226080366
 30
0.0
 10
77.97353513675662
 20
-88.29573022966218
 30
0.0
 10
77.97353513675662
 20
-88.29573022966218
 30
0.0
 10
77.97353513675662
 20
-89.19111054627861
 30
0.0
 10
77.97353513675662
 20
-89.19111054627861
 30
0.0
 10
77.97353513675662
 20
-89.19111054627861
 30
0.0
 10
77.76200627396229
 20
-89.19111054627861
 30
0.0
 10
77.76200627396229
 20
-89.19111054627861
 30
0.0
 10
77.76200627396229
 20
-89.19111054627861
 30
0.0
 10
77.76200627396229
 20
-88.04251571149632
 30
0.0
 10
77.76200627396229
 20
-88.04251571149632
 30
0.0
 10
77.76200627396229
 20
-88.04251571149632
 30
0.0
 10
77.97353513675662
 20
-88.04251571149632
 30
0.0
 10
77.97353513675662
 20
-88.04251571149632
 30
0.0
 10
78.26361217661466
 20
-88.38840329821541
 30
0.0
 10
78.85616860007762
 20
-88.67331269484556
 30
0.0
 10
79.30678708954831
 20
-88.70948619744068
 30
0.0
  0
HATCH
  5
EF
330
DF
100
AcDbEntity
  8
_U+30EC_U+30A4_U+30E4_U+30FC 1
 62
   179
420
  2234388
100
AcDbHatch
 10
0.0
 20
0.0
 30
0.0
210
0.0
220
0.0
230
1.0
  2
SOLID
 70
     1
 71
     0
 91
        1
 92
        1
 93
        1
 72
     4
 94
        3
 73
     0
 74
     1
 95
       26
 96
       22
 40
0.0
 40
0.0
 40
0.0
 40
0.0
 40
1.0
 40
1.0
 40
1.0
 40
2.0
 40
2.0
 40
2.0
 40
3.0
 40
3.0
 40
3.0
 40
4.0
 40
4.0
 40
4.0
 40
5.0
 40
5.0
 40
5.0
 40
6.0
 40
6.0
 40
6.0
 40
7.0
 40
7.0
 40
7.0
 40
7.0
 10
79.30678708954831
 20
-88.70948619744068
 10
79.30678708954831
 20
-88.70948619744068
 10
79.30678708954831
 20
-88.96270071560654
 10
79.30678708954831
 20
-88.96270071560654
 10
78.99741751497287
 20
-88.93548446127308
 10
78.4792751539913
 20
-88.72981226080366
 10
77.97353513675662
 20
-88.29573022966218
 10
77.97353513675662
 20
-88.29573022966218
 10
77.97353513675662
 20
-89.19111054627861
 10
77.97353513675662
 20
-89.19111054627861
 10
77.97353513675662
 20
-89.19111054627861
 10
77.76200627396229
 20
-89.19111054627861
 10
77.76200627396229
 20
-89.19111054627861
 10
77.76200627396229
 20
-89.19111054627861
 10
77.76200627396229
 20
-88.04251571149632
 10
77.76200627396229
 20
-88.04251571149632
 10
77.76200627396229
 20
-88.04251571149632
 10
77.97353513675662
 20
-88.04251571149632
 10
77.97353513675662
 20
-88.04251571149632
 10
78.26361217661466
 20
-88.38840329821541
 10
78.85616860007762
 20
-88.67331269484556
 10
79.30678708954831
 20
-88.70948619744068
 97
        0
 97
        0
 75
     2
 76
     1
 98
        0
  0
ENDBLK
  5
E2
330
DF
100
AcDbEntity
  8
0
100
AcDbBlockEnd
  0
ENDSEC
  0
SECTION
  2
ENTITIES
  0
POLYLINE
  5
41
330
1F
100
AcDbEntity
  8
_U+30EC_U+30A4_U+30E4_U+30FC 1
 62
   179
420
  2234388
370
    25
100
AcDb2dPolyline
 66
     1
 10
0.0
 20
0.0
 30
0.0
  0
VERTEX
  5
42
330
41
100
AcDbEntity
  8
_U+30EC_U+30A4_U+30E4_U+30FC 1
 62
   179
420
  2234388
370
    25
100
AcDbVertex
100
AcDb2dVertex
 10
52.90287170589086
 20
-83.83347609015286
 30
0.0
  0
VERTEX
  5
43
330
41
100
AcDbEntity
  8
_U+30EC_U+30A4_U+30E4_U+30FC 1
 62
   179
420
  2234388
370
    25
100
AcDbVertex
100
AcDb2dVertex
 10
75.90302973021905
 20
-83.83347609015286
 30
0.0
  0
SEQEND
  5
44
330
41
100
AcDbEntity
  8
_U+30EC_U+30A4_U+30E4_U+30FC 1
 62
   179
420
  2234388
370
    25
  0
POLYLINE
  5
45
330
1F
100
AcDbEntity
  8
_U+30EC_U+30A4_U+30E4_U+30FC 1
 62
   179
420
  2234388
370
    25
100
AcDb2dPolyline
 66
     1
 10
0.0
 20
0.0
 30
0.0
  0
VERTEX
  5
46
330
45
100
AcDbEntity
  8
_U+30EC_U+30A4_U+30E4_U+30FC 1
 62
   179
420
  2234388
370
    25
100
AcDbVertex
100
AcDb2dVertex
 10
52.90287170589086
 20
-83.83347609015286
 30
0.0
  0
VERTEX
  5
47
330
45
100
AcDbEntity
  8
_U+30EC_U+30A4_U+30E4_U+30FC 1
 62
   179
420
  2234388
370
    25
100
AcDbVertex
100
AcDb2dVertex
 10
52.90287170589086
 20
-95.533174698339
 30
0.0
  0
SEQEND
  5
48
330
45
100
AcDbEntity
  8
_U+30EC_U+30A4_U+30E4_U+30FC 1
 62
   179
420
  2234388
370
    25
  0
POLYLINE
  5
49
330
1F
100
AcDbEntity
  8
_U+30EC_U+30A4_U+30E4_U+30FC 1
 62
   179
420
  2234388
370
    25
100
AcDb2dPolyline
 66
     1
 10
0.0
 20
0.0
 30
0.0
  0
VERTEX
  5
4A
330
49
100
AcDbEntity
  8
_U+30EC_U+30A4_U+30E4_U+30FC 1
 62
   179
420
  2234388
370
    25
100
AcDbVertex
100
AcDb2dVertex
 10
75.90302973021905
 20
-83.83347609015286
 30
0.0
  0
VERTEX
  5
4B
330
49
100
AcDbEntity
  8
_U+30EC_U+30A4_U+30E4_U+30FC 1
 62
   179
420
  2234388
370
    25
100
AcDbVertex
100
AcDb2dVertex
 10
75.90302973021905
 20
-84.83324831212508
 30
0.0
  0
SEQEND
  5
4C
330
49
100
AcDbEntity
  8
_U+30EC_U+30A4_U+30E4_U+30FC 1
 62
   179
420
  2234388
370
    25
  0
POLYLINE
  5
4D
330
1F
100
AcDbEntity
  8
_U+30EC_U+30A4_U+30E4_U+30FC 1
 62
   179
420
  2234388
370
    25
100
AcDb2dPolyline
 66
     1
 10
0.0
 20
0.0
 30
0.0
  0
VERTEX
  5
4E
330
4D
100
AcDbEntity
  8
_U+30EC_U+30A4_U+30E4_U+30FC 1
 62
   179
420
  2234388
370
    25
100
AcDbVertex
100
AcDb2dVertex
 10
53.90334945814432
 20
-84.83324831212508
 30
0.0
  0
VERTEX
  5
4F
330
4D
100
AcDbEntity
  8
_U+30EC_U+30A4_U+30E4_U+30FC 1
 62
   179
420
  2234388
370
    25
100
AcDbVertex
100
AcDb2dVertex
 10
75.90302973021905
 20
-84.83324831212508
 30
0.0
  0
SEQEND
  5
50
330
4D
100
AcDbEntity
  8
_U+30EC_U+30A4_U+30E4_U+30FC 1
 62
   179
420
  2234388
370
    25
  0
POLYLINE
  5
51
330
1F
100
AcDbEntity
  8
_U+30EC_U+30A4_U+30E4_U+30FC 1
 62
   179
420
  2234388
370
    25
100
AcDb2dPolyline
 66
     1
 10
0.0
 20
0.0
 30
0.0
  0
VERTEX
  5
52
330
51
100
AcDbEntity
  8
_U+30EC_U+30A4_U+30E4_U+30FC 1
 62
   179
420
  2234388
370
    25
100
AcDbVertex
100
AcDb2dVertex
 10
56.90333632605272
 20
-94.53343775414461
 30
0.0
  0
VERTEX
  5
53
330
51
100
AcDbEntity
  8
_U+30EC_U+30A4_U+30E4_U+30FC 1
 62
   179
420
  2234388
370
    25
100
AcDbVertex
100
AcDb2dVertex
 10
56.90333632605272
 20
-95.533174698339
 30
0.0
  0
SEQEND
  5
54
330
51
100
AcDbEntity
  8
_U+30EC_U+30A4_U+30E4_U+30FC 1
 62
   179
420
  2234388
370
    25
  0
POLYLINE
  5
55
330
1F
100
AcDbEntity
  8
_U+30EC_U+30A4_U+30E4_U+30FC 1
 62
   179
420
  2234388
370
    25
100
AcDb2dPolyline
 66
     1
 10
0.0
 20
0.0
 30
0.0
  0
VERTEX
  5
56
330
55
100
AcDbEntity
  8
_U+30EC_U+30A4_U+30E4_U+30FC 1
 62
   179
420
  2234388
370
    25
100
AcDbVertex
100
AcDb2dVertex
 10
53.90334945814432
 20
-94.53343775414461
 30
0.0
  0
VERTEX
  5
57
330
55
100
AcDbEntity
  8
_U+30EC_U+30A4_U+30E4_U+30FC 1
 62
   179
420
  2234388
370
    25
100
AcDbVertex
100
AcDb2dVertex
 10
56.90333632605272
 20
-94.53343775414461
 30
0.0
  0
SEQEND
  5
58
330
55
100
AcDbEntity
  8
_U+30EC_U+30A4_U+30E4_U+30FC 1
 62
   179
420
  2234388
370
    25
  0
POLYLINE
  5
59
330
1F
100
AcDbEntity
  8
_U+30EC_U+30A4_U+30E4_U+30FC 1
 62
   179
420
  2234388
370
    25
100
AcDb2dPolyline
 66
     1
 10
0.0
 20
0.0
 30
0.0
  0
VERTEX
  5
5A
330
59
100
AcDbEntity
  8
_U+30EC_U+30A4_U+30E4_U+30FC 1
 62
   179
420
  2234388
370
    25
100
AcDbVertex
100
AcDb2dVertex
 10
53.90334945814432
 20
-84.83324831212508
 30
0.0
  0
VERTEX
  5
5B
330
59
100
AcDbEntity
  8
_U+30EC_U+30A4_U+30E4_U+30FC 1
 62
   179
420
  2234388
370
    25
100
AcDbVertex
100
AcDb2dVertex
 10
53.90334945814432
 20
-94.53343775414461
 30
0.0
  0
SEQEND
  5
5C
330
59
100
AcDbEntity
  8
_U+30EC_U+30A4_U+30E4_U+30FC 1
 62
   179
420
  2234388
370
    25
  0
POLYLINE
  5
5D
330
1F
100
AcDbEntity
  8
_U+30EC_U+30A4_U+30E4_U+30FC 1
 62
   179
420
  2234388
370
    25
100
AcDb2dPolyline
 66
     1
 10
0.0
 20
0.0
 30
0.0
  0
VERTEX
  5
5E
330
5D
100
AcDbEntity
  8
_U+30EC_U+30A4_U+30E4_U+30FC 1
 62
   179
420
  2234388
370
    25
100
AcDbVertex
100
AcDb2dVertex
 10
52.90287170589086
 20
-95.533174698339
 30
0.0
  0
VERTEX
  5
5F
330
5D
100
AcDbEntity
  8
_U+30EC_U+30A4_U+30E4_U+30FC 1
 62
   179
420
  2234388
370
    25
100
AcDbVertex
100
AcDb2dVertex
 10
56.90333632605272
 20
-95.533174698339
 30
0.0
  0
SEQEND
  5
60
330
5D
100
AcDbEntity
  8
_U+30EC_U+30A4_U+30E4_U+30FC 1
 62
   179
420
  2234388
370
    25
  0
SPLINE
  5
61
330
1F
100
AcDbEntity
  8
_U+30EC_U+30A4_U+30E4_U+30FC 1
 62
   179
420
  2234388
370
     9
100
AcDbSpline
210
0.0
220
0.0
230
1.0
 70
    11
 71
     3
 72
    17
 73
    13
 74
     0
 42
0.0000000001
 43
0.0000000001
 12
1.0
 22
0.0
 32
0.0
 13
1.0
 23
0.0
 33
0.0
 40
0.0
 40
0.0
 40
0.0
 40
0.0
 40
1.0
 40
1.0
 40
1.0
 40
2.0
 40
2.0
 40
2.0
 40
3.0
 40
3.0
 40
3.0
 40
4.0
 40
4.0
 40
4.0
 40
4.0
 10
53.00277837000869
 20
-79.83301136893077
 30
0.0
 10
53.00277837000869
 20
-79.77790748005553
 30
0.0
 10
52.9580108711508
 20
-79.73310470228881
 30
0.0
 10
52.90287170589086
 20
-79.73310470228881
 30
0.0
 10
52.84776781840778
 20
-79.73310470228881
 30
0.0
 10
52.80296504177302
 20
-79.77790748005553
 30
0.0
 10
52.80296504177302
 20
-79.83301136893077
 30
0.0
 10
52.80296504177302
 20
-79.8885033133613
 30
0.0
 10
52.84776781840778
 20
-79.93327081335018
 30
0.0
 10
52.90287170589086
 20
-79.93327081335018
 30
0.0
 10
52.9580108711508
 20
-79.93327081335018
 30
0.0
 10
53.00277837000869
 20
-79.8885033133613
 30
0.0
 10
53.00277837000869
 20
-79.83301136893077
 30
0.0
  0
SPLINE
  5
62
330
1F
100
AcDbEntity
  8
_U+30EC_U+30A4_U+30E4_U+30FC 1
 62
   179
420
  2234388
370
     9
100
AcDbSpline
210
0.0
220
0.0
230
1.0
 70
    11
 71
     3
 72
    17
 73
    13
 74
     0
 42
0.0000000001
 43
0.0000000001
 12
1.0
 22
0.0
 32
0.0
 13
1.0
 23
0.0
 33
0.0
 40
0.0
 40
0.0
 40
0.0
 40
0.0
 40
1.0
 40
1.0
 40
1.0
 40
2.0
 40
2.0
 40
2.0
 40
3.0
 40
3.0
 40
3.0
 40
4.0
 40
4.0
 40
4.0
 40
4.0
 10
76.00293639433688
 20
-79.83301136893077
 30
0.0
 10
76.00293639433688
 20
-79.77790748005553
 30
0.0
 10
75.958168895479
 20
-79.73310470228881
 30
0.0
 10
75.90302973021905
 20
-79.73310470228881
 30
0.0
 10
75.84792775881594
 20
-79.73310470228881
 30
0.0
 10
75.80312498104922
 20
-79.77790748005553
 30
0.0
 10
75.80312498104922
 20
-79.83301136893077
 30
0.0
 10
75.80312498104922
 20
-79.8885033133613
 30
0.0
 10
75.84792775881594
 20
-79.93327081335018
 30
0.0
 10
75.90302973021905
 20
-79.93327081335018
 30
0.0
 10
75.958168895479
 20
-79.93327081335018
 30
0.0
 10
76.00293639433688
 20
-79.8885033133613
 30
0.0
 10
76.00293639433688
 20
-79.83301136893077
 30
0.0
  0
SPLINE
  5
63
330
1F
100
AcDbEntity
  8
_U+30EC_U+30A4_U+30E4_U+30FC 1
 62
   179
420
  2234388
370
     9
100
AcDbSpline
210
0.0
220
0.0
230
1.0
 70
    11
 71
     3
 72
    17
 73
    13
 74
     0
 42
0.0000000001
 43
0.0000000001
 12
1.0
 22
0.0
 32
0.0
 13
1.0
 23
0.0
 33
0.0
 40
0.0
 40
0.0
 40
0.0
 40
0.0
 40
1.0
 40
1.0
 40
1.0
 40
2.0
 40
2.0
 40
2.0
 40
3.0
 40
3.0
 40
3.0
 40
4.0
 40
4.0
 40
4.0
 40
4.0
 10
80.00340101449875
 20
-83.83347609015286
 30
0.0
 10
80.00340101449875
 20
-83.77801942349986
 30
0.0
 10
79.958598237864
 20
-83.73321664573346
 30
0.0
 10
79.9034610911351
 20
-83.73321664573346
 30
0.0
 10
79.84764962958342
 20
-83.73321664573346
 30
0.0
 10
79.80288213072552
 20
-83.77801942349986
 30
0.0
 10
79.80288213072552
 20
-83.83347609015286
 30
0.0
 10
79.80288213072552
 20
-83.88857997902778
 30
0.0
 10
79.84764962958342
 20
-83.9333827567945
 30
0.0
 10
79.9034610911351
 20
-83.9333827567945
 30
0.0
 10
79.958598237864
 20
-83.9333827567945
 30
0.0
 10
80.00340101449875
 20
-83.88857997902778
 30
0.0
 10
80.00340101449875
 20
-83.83347609015286
 30
0.0
  0
SPLINE
  5
64
330
1F
100
AcDbEntity
  8
_U+30EC_U+30A4_U+30E4_U+30FC 1
 62
   179
420
  2234388
370
     9
100
AcDbSpline
210
0.0
220
0.0
230
1.0
 70
    11
 71
     3
 72
    17
 73
    13
 74
     0
 42
0.0000000001
 43
0.0000000001
 12
1.0
 22
0.0
 32
0.0
 13
1.0
 23
0.0
 33
0.0
 40
0.0
 40
0.0
 40
0.0
 40
0.0
 40
1.0
 40
1.0
 40
1.0
 40
2.0
 40
2.0
 40
2.0
 40
3.0
 40
3.0
 40
3.0
 40
4.0
 40
4.0
 40
4.0
 40
4.0
 10
80.00340101449875
 20
-84.83324831212508
 30
0.0
 10
80.00340101449875
 20
-84.778109145472
 30
0.0
 10
79.958598237864
 20
-84.73334164548345
 30
0.0
 10
79.9034610911351
 20
-84.73334164548345
 30
0.0
 10
79.84764962958342
 20
-84.73334164548345
 30
0.0
 10
79.80288213072552
 20
-84.778109145472
 30
0.0
 10
79.80288213072552
 20
-84.83324831212508
 30
0.0
 10
79.80288213072552
 20
-84.888352201
 30
0.0
 10
79.84764962958342
 20
-84.93315497876672
 30
0.0
 10
79.9034610911351
 20
-84.93315497876672
 30
0.0
 10
79.958598237864
 20
-84.93315497876672
 30
0.0
 10
80.00340101449875
 20
-84.888352201
 30
0.0
 10
80.00340101449875
 20
-84.83324831212508
 30
0.0
  0
SPLINE
  5
65
330
1F
100
AcDbEntity
  8
_U+30EC_U+30A4_U+30E4_U+30FC 1
 62
   179
420
  2234388
370
     9
100
AcDbSpline
210
0.0
220
0.0
230
1.0
 70
    11
 71
     3
 72
    17
 73
    13
 74
     0
 42
0.0000000001
 43
0.0000000001
 12
1.0
 22
0.0
 32
0.0
 13
1.0
 23
0.0
 33
0.0
 40
0.0
 40
0.0
 40
0.0
 40
0.0
 40
1.0
 40
1.0
 40
1.0
 40
2.0
 40
2.0
 40
2.0
 40
3.0
 40
3.0
 40
3.0
 40
4.0
 40
4.0
 40
4.0
 40
4.0
 10
80.00340101449875
 20
-94.53343775414461
 30
0.0
 10
80.00340101449875
 20
-94.47829858749154
 30
0.0
 10
79.958598237864
 20
-94.43349580972482
 30
0.0
 10
79.9034610911351
 20
-94.43349580972482
 30
0.0
 10
79.84764962958342
 20
-94.43349580972482
 30
0.0
 10
79.80288213072552
 20
-94.47829858749154
 30
0.0
 10
79.80288213072552
 20
-94.53343775414461
 30
0.0
 10
79.80288213072552
 20
-94.58854164301954
 30
0.0
 10
79.84764962958342
 20
-94.63334442078626
 30
0.0
 10
79.9034610911351
 20
-94.63334442078626
 30
0.0
 10
79.958598237864
 20
-94.63334442078626
 30
0.0
 10
80.00340101449875
 20
-94.58854164301954
 30
0.0
 10
80.00340101449875
 20
-94.53343775414461
 30
0.0
  0
SPLINE
  5
66
330
1F
100
AcDbEntity
  8
_U+30EC_U+30A4_U+30E4_U+30FC 1
 62
   179
420
  2234388
370
     9
100
AcDbSpline
210
0.0
220
0.0
230
1.0
 70
    11
 71
     3
 72
    17
 73
    13
 74
     0
 42
0.0000000001
 43
0.0000000001
 12
1.0
 22
0.0
 32
0.0
 13
1.0
 23
0.0
 33
0.0
 40
0.0
 40
0.0
 40
0.0
 40
0.0
 40
1.0
 40
1.0
 40
1.0
 40
2.0
 40
2.0
 40
2.0
 40
3.0
 40
3.0
 40
3.0
 40
4.0
 40
4.0
 40
4.0
 40
4.0
 10
49.00305458316126
 20
-95.533174698339
 30
0.0
 10
49.00305458316126
 20
-95.47807080946409
 30
0.0
 10
48.9582518065265
 20
-95.43326803169737
 30
0.0
 10
48.90311387666297
 20
-95.43326803169737
 30
0.0
 10
48.84800875378347
 20
-95.43326803169737
 30
0.0
 10
48.80320597714871
 20
-95.47807080946409
 30
0.0
 10
48.80320597714871
 20
-95.533174698339
 30
0.0
 10
48.80320597714871
 20
-95.58831386499207
 30
0.0
 10
48.84800875378347
 20
-95.63308136498064
 30
0.0
 10
48.90311387666297
 20
-95.63308136498064
 30
0.0
 10
48.9582518065265
 20
-95.63308136498064
 30
0.0
 10
49.00305458316126
 20
-95.58831386499207
 30
0.0
 10
49.00305458316126
 20
-95.533174698339
 30
0.0
  0
SPLINE
  5
67
330
1F
100
AcDbEntity
  8
_U+30EC_U+30A4_U+30E4_U+30FC 1
 62
   179
420
  2234388
370
     9
100
AcDbSpline
210
0.0
220
0.0
230
1.0
 70
    11
 71
     3
 72
    17
 73
    13
 74
     0
 42
0.0000000001
 43
0.0000000001
 12
1.0
 22
0.0
 32
0.0
 13
1.0
 23
0.0
 33
0.0
 40
0.0
 40
0.0
 40
0.0
 40
0.0
 40
1.0
 40
1.0
 40
1.0
 40
2.0
 40
2.0
 40
2.0
 40
3.0
 40
3.0
 40
3.0
 40
4.0
 40
4.0
 40
4.0
 40
4.0
 10
49.00305458316126
 20
-83.83347609015286
 30
0.0
 10
49.00305458316126
 20
-83.77801942349986
 30
0.0
 10
48.9582518065265
 20
-83.73321664573346
 30
0.0
 10
48.90311387666297
 20
-83.73321664573346
 30
0.0
 10
48.84800875378347
 20
-83.73321664573346
 30
0.0
 10
48.80320597714871
 20
-83.77801942349986
 30
0.0
 10
48.80320597714871
 20
-83.83347609015286
 30
0.0
 10
48.80320597714871
 20
-83.88857997902778
 30
0.0
 10
48.84800875378347
 20
-83.9333827567945
 30
0.0
 10
48.90311387666297
 20
-83.9333827567945
 30
0.0
 10
48.9582518065265
 20
-83.9333827567945
 30
0.0
 10
49.00305458316126
 20
-83.88857997902778
 30
0.0
 10
49.00305458316126
 20
-83.83347609015286
 30
0.0
  0
SPLINE
  5
68
330
1F
100
AcDbEntity
  8
_U+30EC_U+30A4_U+30E4_U+30FC 1
 62
   179
420
  2234388
370
     9
100
AcDbSpline
210
0.0
220
0.0
230
1.0
 70
    11
 71
     3
 72
    17
 73
    13
 74
     0
 42
0.0000000001
 43
0.0000000001
 12
1.0
 22
0.0
 32
0.0
 13
1.0
 23
0.0
 33
0.0
 40
0.0
 40
0.0
 40
0.0
 40
0.0
 40
1.0
 40
1.0
 40
1.0
 40
2.0
 40
2.0
 40
2.0
 40
3.0
 40
3.0
 40
3.0
 40
4.0
 40
4.0
 40
4.0
 40
4.0
 10
57.00324443019358
 20
-99.53293386400588
 30
0.0
 10
57.00324443019358
 20
-99.47782997513032
 30
0.0
 10
56.95844165242718
 20
-99.43302719736424
 30
0.0
 10
56.90333632605272
 20
-99.43302719736424
 30
0.0
 10
56.8475268830321
 20
-99.43302719736424
 30
0.0
 10
56.80342966193489
 20
-99.47782997513032
 30
0.0
 10
56.80342966193489
 20
-99.53293386400588
 30
0.0
 10
56.80342966193489
 20
-99.58874330843632
 30
0.0
 10
56.8475268830321
 20
-99.63354608620304
 30
0.0
 10
56.90333632605272
 20
-99.63354608620304
 30
0.0
 10
56.95844165242718
 20
-99.63354608620304
 30
0.0
 10
57.00324443019358
 20
-99.58874330843632
 30
0.0
 10
57.00324443019358
 20
-99.53293386400588
 30
0.0
  0
SPLINE
  5
69
330
1F
100
AcDbEntity
  8
_U+30EC_U+30A4_U+30E4_U+30FC 1
 62
   179
420
  2234388
370
     9
100
AcDbSpline
210
0.0
220
0.0
230
1.0
 70
    11
 71
     3
 72
    17
 73
    13
 74
     0
 42
0.0000000001
 43
0.0000000001
 12
1.0
 22
0.0
 32
0.0
 13
1.0
 23
0.0
 33
0.0
 40
0.0
 40
0.0
 40
0.0
 40
0.0
 40
1.0
 40
1.0
 40
1.0
 40
2.0
 40
2.0
 40
2.0
 40
3.0
 40
3.0
 40
3.0
 40
4.0
 40
4.0
 40
4.0
 40
4.0
 10
53.00277837000869
 20
-99.53293386400588
 30
0.0
 10
53.00277837000869
 20
-99.47782997513032
 30
0.0
 10
52.9580108711508
 20
-99.43302719736424
 30
0.0
 10
52.90287170589086
 20
-99.43302719736424
 30
0.0
 10
52.84776781840778
 20
-99.43302719736424
 30
0.0
 10
52.80296504177302
 20
-99.47782997513032
 30
0.0
 10
52.80296504177302
 20
-99.53293386400588
 30
0.0
 10
52.80296504177302
 20
-99.58874330843632
 30
0.0
 10
52.84776781840778
 20
-99.63354608620304
 30
0.0
 10
52.90287170589086
 20
-99.63354608620304
 30
0.0
 10
52.9580108711508
 20
-99.63354608620304
 30
0.0
 10
53.00277837000869
 20
-99.58874330843632
 30
0.0
 10
53.00277837000869
 20
-99.53293386400588
 30
0.0
  0
POLYLINE
  5
6A
330
1F
100
AcDbEntity
  8
_U+30EC_U+30A4_U+30E4_U+30FC 1
 62
   179
420
  2234388
370
     9
100
AcDb2dPolyline
 66
     1
 10
0.0
 20
0.0
 30
0.0
  0
VERTEX
  5
6B
330
6A
100
AcDbEntity
  8
_U+30EC_U+30A4_U+30E4_U+30FC 1
 62
   179
420
  2234388
370
     9
100
AcDbVertex
100
AcDb2dVertex
 10
79.9034610911351
 20
-83.83347609015286
 30
0.0
  0
VERTEX
  5
6C
330
6A
100
AcDbEntity
  8
_U+30EC_U+30A4_U+30E4_U+30FC 1
 62
   179
420
  2234388
370
     9
100
AcDbVertex
100
AcDb2dVertex
 10
79.9034610911351
 20
-80.06316359109543
 30
0.0
  0
SEQEND
  5
6D
330
6A
100
AcDbEntity
  8
_U+30EC_U+30A4_U+30E4_U+30FC 1
 62
   179
420
  2234388
370
     9
  0
POLYLINE
  5
6E
330
1F
100
AcDbEntity
  8
_U+30EC_U+30A4_U+30E4_U+30FC 1
 62
   179
420
  2234388
370
     9
100
AcDb2dPolyline
 66
     1
 10
0.0
 20
0.0
 30
0.0
  0
VERTEX
  5
6F
330
6E
100
AcDbEntity
  8
_U+30EC_U+30A4_U+30E4_U+30FC 1
 62
   179
420
  2234388
370
     9
100
AcDbVertex
100
AcDb2dVertex
 10
79.9034610911351
 20
-83.83347609015286
 30
0.0
  0
VERTEX
  5
70
330
6E
100
AcDbEntity
  8
_U+30EC_U+30A4_U+30E4_U+30FC 1
 62
   179
420
  2234388
370
     9
100
AcDbVertex
100
AcDb2dVertex
 10
79.9034610911351
 20
-84.83324831212508
 30
0.0
  0
SEQEND
  5
71
330
6E
100
AcDbEntity
  8
_U+30EC_U+30A4_U+30E4_U+30FC 1
 62
   179
420
  2234388
370
     9
  0
POLYLINE
  5
72
330
1F
100
AcDbEntity
  8
_U+30EC_U+30A4_U+30E4_U+30FC 1
 62
   179
420
  2234388
370
     9
100
AcDb2dPolyline
 66
     1
 10
0.0
 20
0.0
 30
0.0
  0
VERTEX
  5
73
330
72
100
AcDbEntity
  8
_U+30EC_U+30A4_U+30E4_U+30FC 1
 62
   179
420
  2234388
370
     9
100
AcDbVertex
100
AcDb2dVertex
 10
78.44345299874078
 20
-83.83347609015286
 30
0.0
  0
VERTEX
  5
74
330
72
100
AcDbEntity
  8
_U+30EC_U+30A4_U+30E4_U+30FC 1
 62
   179
420
  2234388
370
     9
100
AcDbVertex
100
AcDb2dVertex
 10
80.90323331310765
 20
-83.83347609015286
 30
0.0
  0
SEQEND
  5
75
330
72
100
AcDbEntity
  8
_U+30EC_U+30A4_U+30E4_U+30FC 1
 62
   179
420
  2234388
370
     9
  0
POLYLINE
  5
76
330
1F
100
AcDbEntity
  8
_U+30EC_U+30A4_U+30E4_U+30FC 1
 62
   179
420
  2234388
370
     9
100
AcDb2dPolyline
 66
     1
 10
0.0
 20
0.0
 30
0.0
  0
VERTEX
  5
77
330
76
100
AcDbEntity
  8
_U+30EC_U+30A4_U+30E4_U+30FC 1
 62
   179
420
  2234388
370
     9
100
AcDbVertex
100
AcDb2dVertex
 10
78.44345299874078
 20
-84.83324831212508
 30
0.0
  0
VERTEX
  5
78
330
76
100
AcDbEntity
  8
_U+30EC_U+30A4_U+30E4_U+30FC 1
 62
   179
420
  2234388
370
     9
100
AcDbVertex
100
AcDb2dVertex
 10
80.90323331310765
 20
-84.83324831212508
 30
0.0
  0
SEQEND
  5
79
330
76
100
AcDbEntity
  8
_U+30EC_U+30A4_U+30E4_U+30FC 1
 62
   179
420
  2234388
370
     9
  0
INSERT
  5
7B
330
1F
100
AcDbEntity
  8
_U+30EC_U+30A4_U+30E4_U+30FC 1
100
AcDbBlockReference
  2
block 2
 10
0.0
 20
0.0
 30
0.0
  0
POLYLINE
  5
80
330
1F
100
AcDbEntity
  8
_U+30EC_U+30A4_U+30E4_U+30FC 1
 62
   179
420
  2234388
370
     9
100
AcDb2dPolyline
 66
     1
 10
0.0
 20
0.0
 30
0.0
  0
VERTEX
  5
81
330
80
100
AcDbEntity
  8
_U+30EC_U+30A4_U+30E4_U+30FC 1
 62
   179
420
  2234388
370
     9
100
AcDbVertex
100
AcDb2dVertex
 10
52.90287170589086
 20
-99.53293386400588
 30
0.0
  0
VERTEX
  5
82
330
80
100
AcDbEntity
  8
_U+30EC_U+30A4_U+30E4_U+30FC 1
 62
   179
420
  2234388
370
     9
100
AcDbVertex
100
AcDb2dVertex
 10
56.90333632605272
 20
-99.53293386400588
 30
0.0
  0
SEQEND
  5
83
330
80
100
AcDbEntity
  8
_U+30EC_U+30A4_U+30E4_U+30FC 1
 62
   179
420
  2234388
370
     9
  0
POLYLINE
  5
84
330
1F
100
AcDbEntity
  8
_U+30EC_U+30A4_U+30E4_U+30FC 1
 62
   179
420
  2234388
370
     9
100
AcDb2dPolyline
 66
     1
 10
0.0
 20
0.0
 30
0.0
  0
VERTEX
  5
85
330
84
100
AcDbEntity
  8
_U+30EC_U+30A4_U+30E4_U+30FC 1
 62
   179
420
  2234388
370
     9
100
AcDbVertex
100
AcDb2dVertex
 10
52.90287170589086
 20
-98.07359803103705
 30
0.0
  0
VERTEX
  5
86
330
84
100
AcDbEntity
  8
_U+30EC_U+30A4_U+30E4_U+30FC 1
 62
   179
420
  2234388
370
     9
100
AcDbVertex
100
AcDb2dVertex
 10
52.90287170589086
 20
-100.5334116415333
 30
0.0
  0
SEQEND
  5
87
330
84
100
AcDbEntity
  8
_U+30EC_U+30A4_U+30E4_U+30FC 1
 62
   179
420
  2234388
370
     9
  0
POLYLINE
  5
88
330
1F
100
AcDbEntity
  8
_U+30EC_U+30A4_U+30E4_U+30FC 1
 62
   179
420
  2234388
370
     9
100
AcDb2dPolyline
 66
     1
 10
0.0
 20
0.0
 30
0.0
  0
VERTEX
  5
89
330
88
100
AcDbEntity
  8
_U+30EC_U+30A4_U+30E4_U+30FC 1
 62
   179
420
  2234388
370
     9
100
AcDbVertex
100
AcDb2dVertex
 10
56.90333632605272
 20
-98.07359803103705
 30
0.0
  0
VERTEX
  5
8A
330
88
100
AcDbEntity
  8
_U+30EC_U+30A4_U+30E4_U+30FC 1
 62
   179
420
  2234388
370
     9
100
AcDbVertex
100
AcDb2dVertex
 10
56.90333632605272
 20
-100.5334116415333
 30
0.0
  0
SEQEND
  5
8B
330
88
100
AcDbEntity
  8
_U+30EC_U+30A4_U+30E4_U+30FC 1
 62
   179
420
  2234388
370
     9
  0
INSERT
  5
8D
330
1F
100
AcDbEntity
  8
_U+30EC_U+30A4_U+30E4_U+30FC 1
100
AcDbBlockReference
  2
block 3
 10
0.0
 20
0.0
 30
0.0
  0
POLYLINE
  5
A5
330
1F
100
AcDbEntity
  8
_U+30EC_U+30A4_U+30E4_U+30FC 1
 62
   179
420
  2234388
370
     9
100
AcDb2dPolyline
 66
     1
 10
0.0
 20
0.0
 30
0.0
  0
VERTEX
  5
A6
330
A5
100
AcDbEntity
  8
_U+30EC_U+30A4_U+30E4_U+30FC 1
 62
   179
420
  2234388
370
     9
100
AcDbVertex
100
AcDb2dVertex
 10
52.90287170589086
 20
-79.83301136893077
 30
0.0
  0
VERTEX
  5
A7
330
A5
100
AcDbEntity
  8
_U+30EC_U+30A4_U+30E4_U+30FC 1
 62
   179
420
  2234388
370
     9
100
AcDbVertex
100
AcDb2dVertex
 10
75.90302973021905
 20
-79.83301136893077
 30
0.0
  0
SEQEND
  5
A8
330
A5
100
AcDbEntity
  8
_U+30EC_U+30A4_U+30E4_U+30FC 1
 62
   179
420
  2234388
370
     9
  0
POLYLINE
  5
A9
330
1F
100
AcDbEntity
  8
_U+30EC_U+30A4_U+30E4_U+30FC 1
 62
   179
420
  2234388
370
     9
100
AcDb2dPolyline
 66
     1
 10
0.0
 20
0.0
 30
0.0
  0
VERTEX
  5
AA
330
A9
100
AcDbEntity
  8
_U+30EC_U+30A4_U+30E4_U+30FC 1
 62
   179
420
  2234388
370
     9
100
AcDbVertex
100
AcDb2dVertex
 10
52.90287170589086
 20
-81.29305275745448
 30
0.0
  0
VERTEX
  5
AB
330
A9
100
AcDbEntity
  8
_U+30EC_U+30A4_U+30E4_U+30FC 1
 62
   179
420
  2234388
370
     9
100
AcDbVertex
100
AcDb2dVertex
 10
52.90287170589086
 20
-78.83327442473608
 30
0.0
  0
SEQEND
  5
AC
330
A9
100
AcDbEntity
  8
_U+30EC_U+30A4_U+30E4_U+30FC 1
 62
   179
420
  2234388
370
     9
  0
POLYLINE
  5
AD
330
1F
100
AcDbEntity
  8
_U+30EC_U+30A4_U+30E4_U+30FC 1
 62
   179
420
  2234388
370
     9
100
AcDb2dPolyline
 66
     1
 10
0.0
 20
0.0
 30
0.0
  0
VERTEX
  5
AE
330
AD
100
AcDbEntity
  8
_U+30EC_U+30A4_U+30E4_U+30FC 1
 62
   179
420
  2234388
370
     9
100
AcDbVertex
100
AcDb2dVertex
 10
75.90302973021905
 20
-81.29305275745448
 30
0.0
  0
VERTEX
  5
AF
330
AD
100
AcDbEntity
  8
_U+30EC_U+30A4_U+30E4_U+30FC 1
 62
   179
420
  2234388
370
     9
100
AcDbVertex
100
AcDb2dVertex
 10
75.90302973021905
 20
-78.83327442473608
 30
0.0
  0
SEQEND
  5
B0
330
AD
100
AcDbEntity
  8
_U+30EC_U+30A4_U+30E4_U+30FC 1
 62
   179
420
  2234388
370
     9
  0
INSERT
  5
B2
330
1F
100
AcDbEntity
  8
_U+30EC_U+30A4_U+30E4_U+30FC 1
100
AcDbBlockReference
  2
block 4
 10
0.0
 20
0.0
 30
0.0
  0
POLYLINE
  5
B9
330
1F
100
AcDbEntity
  8
_U+30EC_U+30A4_U+30E4_U+30FC 1
 62
   179
420
  2234388
370
     9
100
AcDb2dPolyline
 66
     1
 10
0.0
 20
0.0
 30
0.0
  0
VERTEX
  5
BA
330
B9
100
AcDbEntity
  8
_U+30EC_U+30A4_U+30E4_U+30FC 1
 62
   179
420
  2234388
370
     9
100
AcDbVertex
100
AcDb2dVertex
 10
48.90311387666297
 20
-83.83347609015286
 30
0.0
  0
VERTEX
  5
BB
330
B9
100
AcDbEntity
  8
_U+30EC_U+30A4_U+30E4_U+30FC 1
 62
   179
420
  2234388
370
     9
100
AcDbVertex
100
AcDb2dVertex
 10
48.90311387666297
 20
-95.533174698339
 30
0.0
  0
SEQEND
  5
BC
330
B9
100
AcDbEntity
  8
_U+30EC_U+30A4_U+30E4_U+30FC 1
 62
   179
420
  2234388
370
     9
  0
POLYLINE
  5
BD
330
1F
100
AcDbEntity
  8
_U+30EC_U+30A4_U+30E4_U+30FC 1
 62
   179
420
  2234388
370
     9
100
AcDb2dPolyline
 66
     1
 10
0.0
 20
0.0
 30
0.0
  0
VERTEX
  5
BE
330
BD
100
AcDbEntity
  8
_U+30EC_U+30A4_U+30E4_U+30FC 1
 62
   179
420
  2234388
370
     9
100
AcDbVertex
100
AcDb2dVertex
 10
50.36315399290667
 20
-83.83347609015286
 30
0.0
  0
VERTEX
  5
BF
330
BD
100
AcDbEntity
  8
_U+30EC_U+30A4_U+30E4_U+30FC 1
 62
   179
420
  2234388
370
     9
100
AcDbVertex
100
AcDb2dVertex
 10
47.90337572232752
 20
-83.83347609015286
 30
0.0
  0
SEQEND
  5
C0
330
BD
100
AcDbEntity
  8
_U+30EC_U+30A4_U+30E4_U+30FC 1
 62
   179
420
  2234388
370
     9
  0
POLYLINE
  5
C1
330
1F
100
AcDbEntity
  8
_U+30EC_U+30A4_U+30E4_U+30FC 1
 62
   179
420
  2234388
370
     9
100
AcDb2dPolyline
 66
     1
 10
0.0
 20
0.0
 30
0.0
  0
VERTEX
  5
C2
330
C1
100
AcDbEntity
  8
_U+30EC_U+30A4_U+30E4_U+30FC 1
 62
   179
420
  2234388
370
     9
100
AcDbVertex
100
AcDb2dVertex
 10
50.36315399290667
 20
-95.533174698339
 30
0.0
  0
VERTEX
  5
C3
330
C1
100
AcDbEntity
  8
_U+30EC_U+30A4_U+30E4_U+30FC 1
 62
   179
420
  2234388
370
     9
100
AcDbVertex
100
AcDb2dVertex
 10
47.90337572232752
 20
-95.533174698339
 30
0.0
  0
SEQEND
  5
C4
330
C1
100
AcDbEntity
  8
_U+30EC_U+30A4_U+30E4_U+30FC 1
 62
   179
420
  2234388
370
     9
  0
INSERT
  5
C6
330
1F
100
AcDbEntity
  8
_U+30EC_U+30A4_U+30E4_U+30FC 1
100
AcDbBlockReference
  2
block 5
 10
0.0
 20
0.0
 30
0.0
  0
POLYLINE
  5
D7
330
1F
100
AcDbEntity
  8
_U+30EC_U+30A4_U+30E4_U+30FC 1
 62
   179
420
  2234388
370
     9
100
AcDb2dPolyline
 66
     1
 10
0.0
 20
0.0
 30
0.0
  0
VERTEX
  5
D8
330
D7
100
AcDbEntity
  8
_U+30EC_U+30A4_U+30E4_U+30FC 1
 62
   179
420
  2234388
370
     9
100
AcDbVertex
100
AcDb2dVertex
 10
79.9034610911351
 20
-84.83324831212508
 30
0.0
  0
VERTEX
  5
D9
330
D7
100
AcDbEntity
  8
_U+30EC_U+30A4_U+30E4_U+30FC 1
 62
   179
420
  2234388
370
     9
100
AcDbVertex
100
AcDb2dVertex
 10
79.9034610911351
 20
-94.53343775414461
 30
0.0
  0
SEQEND
  5
DA
330
D7
100
AcDbEntity
  8
_U+30EC_U+30A4_U+30E4_U+30FC 1
 62
   179
420
  2234388
370
     9
  0
POLYLINE
  5
DB
330
1F
100
AcDbEntity
  8
_U+30EC_U+30A4_U+30E4_U+30FC 1
 62
   179
420
  2234388
370
     9
100
AcDb2dPolyline
 66
     1
 10
0.0
 20
0.0
 30
0.0
  0
VERTEX
  5
DC
330
DB
100
AcDbEntity
  8
_U+30EC_U+30A4_U+30E4_U+30FC 1
 62
   179
420
  2234388
370
     9
100
AcDbVertex
100
AcDb2dVertex
 10
59.44305554069479
 20
-94.53343775414461
 30
0.0
  0
VERTEX
  5
DD
330
DB
100
AcDbEntity
  8
_U+30EC_U+30A4_U+30E4_U+30FC 1
 62
   179
420
  2234388
370
     9
100
AcDbVertex
100
AcDb2dVertex
 10
80.90323331310765
 20
-94.53343775414461
 30
0.0
  0
SEQEND
  5
DE
330
DB
100
AcDbEntity
  8
_U+30EC_U+30A4_U+30E4_U+30FC 1
 62
   179
420
  2234388
370
     9
  0
INSERT
  5
E0
330
1F
100
AcDbEntity
  8
_U+30EC_U+30A4_U+30E4_U+30FC 1
100
AcDbBlockReference
  2
block 6
 10
0.0
 20
0.0
 30
0.0
  0
ENDSEC
  0
SECTION
  2
OBJECTS
  0
DICTIONARY
  5
C
330
0
100
AcDbDictionary
281
     1
  3
ACAD_GROUP
350
D
  3
ACAD_LAYOUT
350
1A
  3
ACAD_MATERIAL
350
3B
  3
ACAD_MLEADERSTYLE
350
F1
  3
ACAD_MLINESTYLE
350
17
  3
ACAD_PLOTSETTINGS
350
19
  3
ACAD_PLOTSTYLENAME
350
E
  3
ACAD_TABLESTYLE
350
F0
  3
ACAD_VISUALSTYLE
350
2A
  0
SUN
  5
3F
330
29
100
AcDbSun
 90
        1
290
     0
 63
     7
421
 16777215
 40
1.0
291
     1
 91
  2455826
 92
 54000000
292
     0
 70
     2
 71
   256
280
     1
  0
DICTIONARY
  5
D
102
{ACAD_REACTORS
330
C
102
}
330
C
100
AcDbDictionary
281
     1
  0
DICTIONARY
  5
1A
102
{ACAD_REACTORS
330
C
102
}
330
C
100
AcDbDictionary
281
     1
  3
Layout1
350
1E
  3
Layout2
350
26
  3
Model
350
22
  0
DICTIONARY
  5
3B
102
{ACAD_REACTORS
330
C
102
}
330
C
100
AcDbDictionary
281
     1
  3
ByBlock
350
3D
  3
ByLayer
350
3C
  3
Global
350
3E
  0
DICTIONARY
  5
F1
102
{ACAD_REACTORS
330
C
102
}
330
C
100
AcDbDictionary
281
     1
  0
DICTIONARY
  5
17
102
{ACAD_REACTORS
330
C
102
}
330
C
100
AcDbDictionary
281
     1
  3
Standard
350
18
  0
DICTIONARY
  5
19
102
{ACAD_REACTORS
330
C
102
}
330
C
100
AcDbDictionary
281
     1
  0
ACDBDICTIONARYWDFLT
  5
E
102
{ACAD_REACTORS
330
C
102
}
330
C
100
AcDbDictionary
281
     1
  3
Normal
350
F
100
AcDbDictionaryWithDefault
340
F
  0
DICTIONARY
  5
F0
102
{ACAD_REACTORS
330
C
102
}
330
C
100
AcDbDictionary
281
     1
  0
DICTIONARY
  5
2A
102
{ACAD_REACTORS
330
C
102
}
330
C
100
AcDbDictionary
281
     1
  3
2dWireframe
350
2F
  3
3D Hidden
350
31
  3
3dWireframe
350
30
  3
Basic
350
32
  3
Brighten
350
36
  3
ColorChange
350
3A
  3
Conceptual
350
34
  3
Dim
350
35
  3
Facepattern
350
39
  3
Flat
350
2B
  3
FlatWithEdges
350
2C
  3
Gouraud
350
2D
  3
GouraudWithEdges
350
2E
  3
Linepattern
350
38
  3
Realistic
350
33
  3
Thicken
350
37
  0
LAYOUT
  5
1E
102
{ACAD_REACTORS
330
1A
102
}
330
1A
100
AcDbPlotSettings
  1

  2
none_device
  4

  6

 40
0.0
 41
0.0
 42
0.0
 43
0.0
 44
0.0
 45
0.0
 46
0.0
 47
0.0
 48
0.0
 49
0.0
140
0.0
141
0.0
142
1.0
143
1.0
 70
   688
 72
     0
 73
     0
 74
     5
  7

 75
    16
 76
     0
 77
     2
 78
   300
147
1.0
148
0.0
149
0.0
100
AcDbLayout
  1
Layout1
 70
     1
 71
     1
 10
0.0
 20
0.0
 11
12.0
 21
9.0
 12
0.0
 22
0.0
 32
0.0
 14
1.000000000000000E+20
 24
1.000000000000000E+20
 34
1.000000000000000E+20
 15
-1.000000000000000E+20
 25
-1.000000000000000E+20
 35
-1.000000000000000E+20
146
0.0
 13
0.0
 23
0.0
 33
0.0
 16
1.0
 26
0.0
 36
0.0
 17
0.0
 27
1.0
 37
0.0
 76
     0
330
1B
  0
LAYOUT
  5
26
102
{ACAD_REACTORS
330
1A
102
}
330
1A
100
AcDbPlotSettings
  1

  2
none_device
  4

  6

 40
0.0
 41
0.0
 42
0.0
 43
0.0
 44
0.0
 45
0.0
 46
0.0
 47
0.0
 48
0.0
 49
0.0
140
0.0
141
0.0
142
1.0
143
1.0
 70
   688
 72
     0
 73
     0
 74
     5
  7

 75
    16
 76
     0
 77
     2
 78
   300
147
1.0
148
0.0
149
0.0
100
AcDbLayout
  1
Layout2
 70
     1
 71
     2
 10
0.0
 20
0.0
 11
0.0
 21
0.0
 12
0.0
 22
0.0
 32
0.0
 14
0.0
 24
0.0
 34
0.0
 15
0.0
 25
0.0
 35
0.0
146
0.0
 13
0.0
 23
0.0
 33
0.0
 16
1.0
 26
0.0
 36
0.0
 17
0.0
 27
1.0
 37
0.0
 76
     0
330
23
  0
LAYOUT
  5
22
102
{ACAD_REACTORS
330
1A
102
}
330
1A
100
AcDbPlotSettings
  1

  2
none_device
  4

  6

 40
0.0
 41
0.0
 42
0.0
 43
0.0
 44
0.0
 45
0.0
 46
0.0
 47
0.0
 48
0.0
 49
0.0
140
0.0
141
0.0
142
1.0
143
1.0
 70
  1712
 72
     0
 73
     0
 74
     0
  7

 75
     0
 76
     0
 77
     2
 78
   300
147
1.0
148
0.0
149
0.0
100
AcDbLayout
  1
Model
 70
     1
 71
     0
 10
0.0
 20
0.0
 11
12.0
 21
9.0
 12
0.0
 22
0.0
 32
0.0
 14
1.000000000000000E+20
 24
1.000000000000000E+20
 34
1.000000000000000E+20
 15
-1.000000000000000E+20
 25
-1.000000000000000E+20
 35
-1.000000000000000E+20
146
0.0
 13
0.0
 23
0.0
 33
0.0
 16
1.0
 26
0.0
 36
0.0
 17
0.0
 27
1.0
 37
0.0
 76
     0
330
1F
331
29
  0
MATERIAL
  5
3D
102
{ACAD_REACTORS
330
3B
102
}
330
3B
100
AcDbMaterial
  1
ByBlock
 72
     1
 94
      127
  0
MATERIAL
  5
3C
102
{ACAD_REACTORS
330
3B
102
}
330
3B
100
AcDbMaterial
  1
ByLayer
 72
     1
 94
      127
  0
MATERIAL
  5
3E
102
{ACAD_REACTORS
330
3B
102
}
330
3B
100
AcDbMaterial
  1
Global
 72
     1
 94
      127
  0
MLINESTYLE
  5
18
102
{ACAD_REACTORS
330
17
102
}
330
17
100
AcDbMlineStyle
  2
Standard
 70
     0
  3

 62
   256
 51
90.0
 52
90.0
 71
     2
 49
0.5
 62
   256
  6
BYLAYER
 49
-0.5
 62
   256
  6
BYLAYER
  0
ACDBPLACEHOLDER
  5
F
102
{ACAD_REACTORS
330
E
102
}
330
E
  0
VISUALSTYLE
  5
2F
102
{ACAD_REACTORS
330
2A
102
}
330
2A
100
AcDbVisualStyle
  2
2dWireframe
 70
     4
177
     2
291
     0
 71
     0
176
     1
 72
     2
176
     1
 73
     0
176
     1
 90
        0
176
     1
 40
-0.6
176
     1
 41
-30.0
176
     1
 62
     5
 63
     7
421
 16777215
176
     1
 74
     1
176
     1
 91
        4
176
     1
 64
     7
176
     1
 65
   257
176
     1
 75
     1
176
     1
175
     1
176
     1
 42
1.0
176
     1
 92
        0
176
     1
 66
   257
176
     1
 43
1.0
176
     1
 76
     1
176
     1
 77
     6
176
     1
 78
     2
176
     1
 67
     7
176
     1
 79
     5
176
     1
170
     0
176
     1
171
     0
176
     1
290
     0
176
     1
 93
        1
176
     1
 44
0.0
176
     1
173
     0
176
     1
  0
VISUALSTYLE
  5
31
102
{ACAD_REACTORS
330
2A
102
}
330
2A
100
AcDbVisualStyle
  2
3D Hidden
 70
     6
177
     2
291
     0
 71
     1
176
     1
 72
     2
176
     1
 73
     2
176
     1
 90
        0
176
     1
 40
-0.6
176
     1
 41
-30.0
176
     1
 62
     5
 63
     7
421
 16777215
176
     1
 74
     2
176
     1
 91
        2
176
     1
 64
     7
176
     1
 65
   257
176
     1
 75
     2
176
     1
175
     1
176
     1
 42
40.0
176
     1
 92
        0
176
     1
 66
   257
176
     1
 43
1.0
176
     1
 76
     1
176
     1
 77
     6
176
     1
 78
     2
176
     1
 67
     7
176
     1
 79
     3
176
     1
170
     0
176
     1
171
     0
176
     1
290
     0
176
     1
 93
        1
176
     1
 44
0.0
176
     1
173
     0
176
     1
  0
VISUALSTYLE
  5
30
102
{ACAD_REACTORS
330
2A
102
}
330
2A
100
AcDbVisualStyle
  2
3dWireframe
 70
     5
177
     2
291
     0
 71
     0
176
     1
 72
     2
176
     1
 73
     0
176
     1
 90
        0
176
     1
 40
-0.6
176
     1
 41
-30.0
176
     1
 62
     5
 63
     7
421
 16777215
176
     1
 74
     1
176
     1
 91
        4
176
     1
 64
     7
176
     1
 65
   257
176
     1
 75
     1
176
     1
175
     1
176
     1
 42
1.0
176
     1
 92
        0
176
     1
 66
   257
176
     1
 43
1.0
176
     1
 76
     1
176
     1
 77
     6
176
     1
 78
     2
176
     1
 67
     7
176
     1
 79
     5
176
     1
170
     0
176
     1
171
     0
176
     1
290
     0
176
     1
 93
        1
176
     1
 44
0.0
176
     1
173
     0
176
     1
  0
VISUALSTYLE
  5
32
102
{ACAD_REACTORS
330
2A
102
}
330
2A
100
AcDbVisualStyle
  2
Basic
 70
     7
177
     2
291
     1
 71
     1
176
     1
 72
     0
176
     1
 73
     1
176
     1
 90
        0
176
     1
 40
-0.6
176
     1
 41
-30.0
176
     1
 62
     5
 63
     7
421
 16777215
176
     1
 74
     0
176
     1
 91
        4
176
     1
 64
     7
176
     1
 65
   257
176
     1
 75
     1
176
     1
175
     1
176
     1
 42
1.0
176
     1
 92
        8
176
     1
 66
     7
176
     1
 43
1.0
176
     1
 76
     1
176
     1
 77
     6
176
     1
 78
     2
176
     1
 67
     7
176
     1
 79
     5
176
     1
170
     0
176
     1
171
     0
176
     1
290
     0
176
     1
 93
        1
176
     1
 44
0.0
176
     1
173
     0
176
     1
  0
VISUALSTYLE
  5
36
102
{ACAD_REACTORS
330
2A
102
}
330
2A
100
AcDbVisualStyle
  2
Brighten
 70
    12
177
     2
291
     1
 71
     2
176
     1
 72
     2
176
     1
 73
     0
176
     1
 90
        0
176
     1
 40
-0.6
176
     1
 41
-30.0
176
     1
 62
     5
 63
     7
421
 16777215
176
     1
 74
     1
176
     1
 91
        4
176
     1
 64
     7
176
     1
 65
   257
176
     1
 75
     1
176
     1
175
     1
176
     1
 42
1.0
176
     1
 92
        8
176
     1
 66
     7
176
     1
 43
1.0
176
     1
 76
     1
176
     1
 77
     6
176
     1
 78
     2
176
     1
 67
     7
176
     1
 79
     5
176
     1
170
     0
176
     1
171
     0
176
     1
290
     0
176
     1
 93
        1
176
     1
 44
50.0
176
     1
173
     0
176
     1
  0
VISUALSTYLE
  5
3A
102
{ACAD_REACTORS
330
2A
102
}
330
2A
100
AcDbVisualStyle
  2
ColorChange
 70
    16
177
     2
291
     1
 71
     2
176
     1
 72
     2
176
     1
 73
     3
176
     1
 90
        0
176
     1
 40
-0.6
176
     1
 41
-30.0
176
     1
 62
     5
 63
     8
421
  8421504
176
     1
 74
     1
176
     1
 91
        4
176
     1
 64
     7
176
     1
 65
   257
176
     1
 75
     1
176
     1
175
     1
176
     1
 42
1.0
176
     1
 92
        8
176
     1
 66
     8
424
  8421504
176
     1
 43
1.0
176
     1
 76
     1
176
     1
 77
     6
176
     1
 78
     2
176
     1
 67
     7
176
     1
 79
     5
176
     1
170
     0
176
     1
171
     0
176
     1
290
     0
176
     1
 93
        1
176
     1
 44
0.0
176
     1
173
     0
176
     1
  0
VISUALSTYLE
  5
34
102
{ACAD_REACTORS
330
2A
102
}
330
2A
100
AcDbVisualStyle
  2
Conceptual
 70
     9
177
     2
291
     0
 71
     3
176
     1
 72
     2
176
     1
 73
     0
176
     1
 90
        0
176
     1
 40
-0.6
176
     1
 41
-30.0
176
     1
 62
     5
 63
     7
421
 16777215
176
     1
 74
     2
176
     1
 91
        2
176
     1
 64
     7
176
     1
 65
   257
176
     1
 75
     1
176
     1
175
     1
176
     1
 42
40.0
176
     1
 92
        8
176
     1
 66
     7
176
     1
 43
1.0
176
     1
 76
     1
176
     1
 77
     6
176
     1
 78
     2
176
     1
 67
     7
176
     1
 79
     3
176
     1
170
     0
176
     1
171
     0
176
     1
290
     0
176
     1
 93
        1
176
     1
 44
0.0
176
     1
173
     0
176
     1
  0
VISUALSTYLE
  5
35
102
{ACAD_REACTORS
330
2A
102
}
330
2A
100
AcDbVisualStyle
  2
Dim
 70
    11
177
     2
291
     1
 71
     2
176
     1
 72
     2
176
     1
 73
     0
176
     1
 90
        0
176
     1
 40
-0.6
176
     1
 41
-30.0
176
     1
 62
     5
 63
     7
421
 16777215
176
     1
 74
     1
176
     1
 91
        4
176
     1
 64
     7
176
     1
 65
   257
176
     1
 75
     1
176
     1
175
     1
176
     1
 42
1.0
176
     1
 92
        8
176
     1
 66
     7
176
     1
 43
1.0
176
     1
 76
     1
176
     1
 77
     6
176
     1
 78
     2
176
     1
 67
     7
176
     1
 79
     5
176
     1
170
     0
176
     1
171
     0
176
     1
290
     0
176
     1
 93
        1
176
     1
 44
-50.0
176
     1
173
     0
176
     1
  0
VISUALSTYLE
  5
39
102
{ACAD_REACTORS
330
2A
102
}
330
2A
100
AcDbVisualStyle
  2
Facepattern
 70
    15
177
     2
291
     1
 71
     2
176
     1
 72
     2
176
     1
 73
     0
176
     1
 90
        0
176
     1
 40
-0.6
176
     1
 41
-30.0
176
     1
 62
     5
 63
     7
421
 16777215
176
     1
 74
     1
176
     1
 91
        4
176
     1
 64
     7
176
     1
 65
   257
176
     1
 75
     1
176
     1
175
     1
176
     1
 42
1.0
176
     1
 92
        8
176
     1
 66
     7
176
     1
 43
1.0
176
     1
 76
     1
176
     1
 77
     6
176
     1
 78
     2
176
     1
 67
     7
176
     1
 79
     5
176
     1
170
     0
176
     1
171
     0
176
     1
290
     0
176
     1
 93
        1
176
     1
 44
0.0
176
     1
173
     0
176
     1
  0
VISUALSTYLE
  5
2B
102
{ACAD_REACTORS
330
2A
102
}
330
2A
100
AcDbVisualStyle
  2
Flat
 70
     0
177
     2
291
     1
 71
     2
176
     1
 72
     1
176
     1
 73
     1
176
     1
 90
        2
176
     1
 40
-0.6
176
     1
 41
30.0
176
     1
 62
     5
 63
     7
421
 16777215
176
     1
 74
     0
176
     1
 91
        4
176
     1
 64
     7
176
     1
 65
   257
176
     1
 75
     1
176
     1
175
     1
176
     1
 42
1.0
176
     1
 92
        8
176
     1
 66
     7
176
     1
 43
1.0
176
     1
 76
     1
176
     1
 77
     6
176
     1
 78
     2
176
     1
 67
     7
176
     1
 79
     5
176
     1
170
     0
176
     1
171
     0
176
     1
290
     0
176
     1
 93
       13
176
     1
 44
0.0
176
     1
173
     0
176
     1
  0
VISUALSTYLE
  5
2C
102
{ACAD_REACTORS
330
2A
102
}
330
2A
100
AcDbVisualStyle
  2
FlatWithEdges
 70
     1
177
     2
291
     1
 71
     2
176
     1
 72
     1
176
     1
 73
     1
176
     1
 90
        2
176
     1
 40
-0.6
176
     1
 41
30.0
176
     1
 62
     5
 63
     7
421
 16777215
176
     1
 74
     1
176
     1
 91
        4
176
     1
 64
     7
176
     1
 65
   257
176
     1
 75
     1
176
     1
175
     1
176
     1
 42
1.0
176
     1
 92
        0
176
     1
 66
   257
176
     1
 43
1.0
176
     1
 76
     1
176
     1
 77
     6
176
     1
 78
     2
176
     1
 67
     7
176
     1
 79
     5
176
     1
170
     0
176
     1
171
     0
176
     1
290
     0
176
     1
 93
       13
176
     1
 44
0.0
176
     1
173
     0
176
     1
  0
VISUALSTYLE
  5
2D
102
{ACAD_REACTORS
330
2A
102
}
330
2A
100
AcDbVisualStyle
  2
Gouraud
 70
     2
177
     2
291
     1
 71
     2
176
     1
 72
     2
176
     1
 73
     1
176
     1
 90
        2
176
     1
 40
-0.6
176
     1
 41
30.0
176
     1
 62
     5
 63
     7
421
 16777215
176
     1
 74
     0
176
     1
 91
        4
176
     1
 64
     7
176
     1
 65
   257
176
     1
 75
     1
176
     1
175
     1
176
     1
 42
1.0
176
     1
 92
        0
176
     1
 66
     7
176
     1
 43
1.0
176
     1
 76
     1
176
     1
 77
     6
176
     1
 78
     2
176
     1
 67
     7
176
     1
 79
     5
176
     1
170
     0
176
     1
171
     0
176
     1
290
     0
176
     1
 93
       13
176
     1
 44
0.0
176
     1
173
     0
176
     1
  0
VISUALSTYLE
  5
2E
102
{ACAD_REACTORS
330
2A
102
}
330
2A
100
AcDbVisualStyle
  2
GouraudWithEdges
 70
     3
177
     2
291
     1
 71
     2
176
     1
 72
     2
176
     1
 73
     1
176
     1
 90
        2
176
     1
 40
-0.6
176
     1
 41
30.0
176
     1
 62
     5
 63
     7
421
 16777215
176
     1
 74
     1
176
     1
 91
        4
176
     1
 64
     7
176
     1
 65
   257
176
     1
 75
     1
176
     1
175
     1
176
     1
 42
1.0
176
     1
 92
        0
176
     1
 66
   257
176
     1
 43
1.0
176
     1
 76
     1
176
     1
 77
     6
176
     1
 78
     2
176
     1
 67
     7
176
     1
 79
     5
176
     1
170
     0
176
     1
171
     0
176
     1
290
     0
176
     1
 93
       13
176
     1
 44
0.0
176
     1
173
     0
176
     1
  0
VISUALSTYLE
  5
38
102
{ACAD_REACTORS
330
2A
102
}
330
2A
100
AcDbVisualStyle
  2
Linepattern
 70
    14
177
     2
291
     1
 71
     2
176
     1
 72
     2
176
     1
 73
     0
176
     1
 90
        0
176
     1
 40
-0.6
176
     1
 41
-30.0
176
     1
 62
     5
 63
     7
421
 16777215
176
     1
 74
     1
176
     1
 91
        4
176
     1
 64
     7
176
     1
 65
   257
176
     1
 75
     7
176
     1
175
     7
176
     1
 42
1.0
176
     1
 92
        8
176
     1
 66
     7
176
     1
 43
1.0
176
     1
 76
     1
176
     1
 77
     6
176
     1
 78
     2
176
     1
 67
     7
176
     1
 79
     5
176
     1
170
     0
176
     1
171
     0
176
     1
290
     0
176
     1
 93
        1
176
     1
 44
0.0
176
     1
173
     0
176
     1
  0
VISUALSTYLE
  5
33
102
{ACAD_REACTORS
330
2A
102
}
330
2A
100
AcDbVisualStyle
  2
Realistic
 70
     8
177
     2
291
     0
 71
     2
176
     1
 72
     2
176
     1
 73
     0
176
     1
 90
        0
176
     1
 40
-0.6
176
     1
 41
-30.0
176
     1
 62
     5
 63
     7
421
 16777215
176
     1
 74
     1
176
     1
 91
        0
176
     1
 64
     7
176
     1
 65
   257
176
     1
 75
     1
176
     1
175
     1
176
     1
 42
1.0
176
     1
 92
        8
176
     1
 66
     8
424
  7895160
176
     1
 43
1.0
176
     1
 76
     1
176
     1
 77
     6
176
     1
 78
     2
176
     1
 67
     7
176
     1
 79
     5
176
     1
170
     0
176
     1
171
     0
176
     1
290
     0
176
     1
 93
       13
176
     1
 44
0.0
176
     1
173
     0
176
     1
  0
VISUALSTYLE
  5
37
102
{ACAD_REACTORS
330
2A
102
}
330
2A
100
AcDbVisualStyle
  2
Thicken
 70
    13
177
     2
291
     1
 71
     2
176
     1
 72
     2
176
     1
 73
     0
176
     1
 90
        0
176
     1
 40
-0.6
176
     1
 41
-30.0
176
     1
 62
     5
 63
     7
421
 16777215
176
     1
 74
     1
176
     1
 91
        4
176
     1
 64
     7
176
     1
 65
   257
176
     1
 75
     1
176
     1
175
     1
176
     1
 42
1.0
176
     1
 92
       12
176
     1
 66
     7
176
     1
 43
1.0
176
     1
 76
     1
176
     1
 77
     6
176
     1
 78
     2
176
     1
 67
     7
176
     1
 79
     5
176
     1
170
     0
176
     1
171
     0
176
     1
290
     0
176
     1
 93
        1
176
     1
 44
0.0
176
     1
173
     0
176
     1
  0
ENDSEC
  0
EOF
