  0
SECTION
  2
HEADER
  9
$ACADVER
  1
AC1024
  9
$ACADMAINTVER
 70
     6
  9
$DWGCODEPAGE
  3
UNDEFINED
  9
$INSBASE
 10
0.0
 20
0.0
 30
0.0
  9
$EXTMIN
 10
1.000000000000000E+20
 20
1.000000000000000E+20
 30
1.000000000000000E+20
  9
$EXTMAX
 10
-1.000000000000000E+20
 20
-1.000000000000000E+20
 30
-1.000000000000000E+20
  9
$LIMMIN
 10
0.0
 20
0.0
  9
$LIMMAX
 10
12.0
 20
9.0
  9
$ORTHOMODE
 70
     0
  9
$REGENMODE
 70
     1
  9
$FILLMODE
 70
     1
  9
$QTEXTMODE
 70
     0
  9
$MIRRTEXT
 70
     1
  9
$LTSCALE
 40
1.0
  9
$ATTMODE
 70
     1
  9
$TEXTSIZE
 40
0.2
  9
$TRACEWID
 40
0.05
  9
$TEXTSTYLE
  7
Standard
  9
$CLAYER
  8
0
  9
$CELTYPE
  6
ByLayer
  9
$CECOLOR
 62
   256
  9
$CELTSCALE
 40
1.0
  9
$DISPSILH
 70
     0
  9
$DIMSCALE
 40
1.0
  9
$DIMASZ
 40
0.18
  9
$DIMEXO
 40
0.0625
  9
$DIMDLI
 40
0.38
  9
$DIMRND
 40
0.0
  9
$DIMDLE
 40
0.0
  9
$DIMEXE
 40
0.18
  9
$DIMTP
 40
0.0
  9
$DIMTM
 40
0.0
  9
$DIMTXT
 40
0.18
  9
$DIMCEN
 40
0.09
  9
$DIMTSZ
 40
0.0
  9
$DIMTOL
 70
     0
  9
$DIMLIM
 70
     0
  9
$DIMTIH
 70
     1
  9
$DIMTOH
 70
     1
  9
$DIMSE1
 70
     0
  9
$DIMSE2
 70
     0
  9
$DIMTAD
 70
     0
  9
$DIMZIN
 70
     0
  9
$DIMBLK
  1

  9
$DIMASO
 70
     1
  9
$DIMSHO
 70
     1
  9
$DIMPOST
  1

  9
$DIMAPOST
  1

  9
$DIMALT
 70
     0
  9
$DIMALTD
 70
     2
  9
$DIMALTF
 40
25.4
  9
$DIMLFAC
 40
1.0
  9
$DIMTOFL
 70
     0
  9
$DIMTVP
 40
0.0
  9
$DIMTIX
 70
     0
  9
$DIMSOXD
 70
     0
  9
$DIMSAH
 70
     0
  9
$DIMBLK1
  1

  9
$DIMBLK2
  1

  9
$DIMSTYLE
  2
Standard
  9
$DIMCLRD
 70
     0
  9
$DIMCLRE
 70
     0
  9
$DIMCLRT
 70
     0
  9
$DIMTFAC
 40
1.0
  9
$DIMGAP
 40
0.09
  9
$DIMJUST
 70
     0
  9
$DIMSD1
 70
     0
  9
$DIMSD2
 70
     0
  9
$DIMTOLJ
 70
     1
  9
$DIMTZIN
 70
     0
  9
$DIMALTZ
 70
     0
  9
$DIMALTTZ
 70
     0
  9
$DIMUPT
 70
     0
  9
$DIMDEC
 70
     4
  9
$DIMTDEC
 70
     4
  9
$DIMALTU
 70
     2
  9
$DIMALTTD
 70
     2
  9
$DIMTXSTY
  7
Standard
  9
$DIMAUNIT
 70
     0
  9
$DIMADEC
 70
     0
  9
$DIMALTRND
 40
0.0
  9
$DIMAZIN
 70
     0
  9
$DIMDSEP
 70
    46
  9
$DIMATFIT
 70
     3
  9
$DIMFRAC
 70
     0
  9
$DIMLDRBLK
  1

  9
$DIMLUNIT
 70
     2
  9
$DIMLWD
 70
    -2
  9
$DIMLWE
 70
    -2
  9
$DIMTMOVE
 70
     0
  9
$DIMFXL
 40
1.0
  9
$DIMFXLON
 70
     0
  9
$DIMJOGANG
 40
0.7853981633974483
  9
$DIMTFILL
 70
     0
  9
$DIMTFILLCLR
 70
     0
  9
$DIMARCSYM
 70
     0
  9
$DIMLTYPE
  6

  9
$DIMLTEX1
  6

  9
$DIMLTEX2
  6

  9
$DIMTXTDIRECTION
 70
     0
  9
$LUNITS
 70
     2
  9
$LUPREC
 70
     4
  9
$SKETCHINC
 40
0.1
  9
$FILLETRAD
 40
0.5
  9
$AUNITS
 70
     0
  9
$AUPREC
 70
     0
  9
$MENU
  1
.
  9
$ELEVATION
 40
0.0
  9
$PELEVATION
 40
0.0
  9
$THICKNESS
 40
0.0
  9
$LIMCHECK
 70
     0
  9
$CHAMFERA
 40
0.5
  9
$CHAMFERB
 40
0.5
  9
$CHAMFERC
 40
1.0
  9
$CHAMFERD
 40
0.0
  9
$SKPOLY
 70
     0
  9
$TDCREATE
 40
2457917.587060174
  9
$TDUCREATE
 40
2457917.212060185
  9
$TDUPDATE
 40
2457917.587060174
  9
$TDUUPDATE
 40
2457917.212060185
  9
$TDINDWG
 40
0.0000000116
  9
$TDUSRTIMER
 40
0.0000000116
  9
$USRTIMER
 70
     1
  9
$ANGBASE
 50
0.0
  9
$ANGDIR
 70
     0
  9
$PDMODE
 70
     0
  9
$PDSIZE
 40
0.0
  9
$PLINEWID
 40
0.0
  9
$SPLFRAME
 70
     0
  9
$SPLINETYPE
 70
     6
  9
$SPLINESEGS
 70
     8
  9
$HANDSEED
  5
105
  9
$SURFTAB1
 70
     6
  9
$SURFTAB2
 70
     6
  9
$SURFTYPE
 70
     6
  9
$SURFU
 70
     6
  9
$SURFV
 70
     6
  9
$UCSBASE
  2

  9
$UCSNAME
  2

  9
$UCSORG
 10
0.0
 20
0.0
 30
0.0
  9
$UCSXDIR
 10
1.0
 20
0.0
 30
0.0
  9
$UCSYDIR
 10
0.0
 20
1.0
 30
0.0
  9
$UCSORTHOREF
  2

  9
$UCSORTHOVIEW
 70
     0
  9
$UCSORGTOP
 10
0.0
 20
0.0
 30
0.0
  9
$UCSORGBOTTOM
 10
0.0
 20
0.0
 30
0.0
  9
$UCSORGLEFT
 10
0.0
 20
0.0
 30
0.0
  9
$UCSORGRIGHT
 10
0.0
 20
0.0
 30
0.0
  9
$UCSORGFRONT
 10
0.0
 20
0.0
 30
0.0
  9
$UCSORGBACK
 10
0.0
 20
0.0
 30
0.0
  9
$PUCSBASE
  2

  9
$PUCSNAME
  2

  9
$PUCSORG
 10
0.0
 20
0.0
 30
0.0
  9
$PUCSXDIR
 10
1.0
 20
0.0
 30
0.0
  9
$PUCSYDIR
 10
0.0
 20
1.0
 30
0.0
  9
$PUCSORTHOREF
  2

  9
$PUCSORTHOVIEW
 70
     0
  9
$PUCSORGTOP
 10
0.0
 20
0.0
 30
0.0
  9
$PUCSORGBOTTOM
 10
0.0
 20
0.0
 30
0.0
  9
$PUCSORGLEFT
 10
0.0
 20
0.0
 30
0.0
  9
$PUCSORGRIGHT
 10
0.0
 20
0.0
 30
0.0
  9
$PUCSORGFRONT
 10
0.0
 20
0.0
 30
0.0
  9
$PUCSORGBACK
 10
0.0
 20
0.0
 30
0.0
  9
$USERI1
 70
     0
  9
$USERI2
 70
     0
  9
$USERI3
 70
     0
  9
$USERI4
 70
     0
  9
$USERI5
 70
     0
  9
$USERR1
 40
0.0
  9
$USERR2
 40
0.0
  9
$USERR3
 40
0.0
  9
$USERR4
 40
0.0
  9
$USERR5
 40
0.0
  9
$WORLDVIEW
 70
     1
  9
$SHADEDGE
 70
     3
  9
$SHADEDIF
 70
    70
  9
$TILEMODE
 70
     1
  9
$MAXACTVP
 70
    64
  9
$PINSBASE
 10
0.0
 20
0.0
 30
0.0
  9
$PLIMCHECK
 70
     0
  9
$PEXTMIN
 10
1.000000000000000E+20
 20
1.000000000000000E+20
 30
1.000000000000000E+20
  9
$PEXTMAX
 10
-1.000000000000000E+20
 20
-1.000000000000000E+20
 30
-1.000000000000000E+20
  9
$PLIMMIN
 10
0.0
 20
0.0
  9
$PLIMMAX
 10
12.0
 20
9.0
  9
$UNITMODE
 70
     0
  9
$VISRETAIN
 70
     1
  9
$PLINEGEN
 70
     0
  9
$PSLTSCALE
 70
     1
  9
$TREEDEPTH
 70
  3020
  9
$CMLSTYLE
  2
Standard
  9
$CMLJUST
 70
     0
  9
$CMLSCALE
 40
1.0
  9
$PROXYGRAPHICS
 70
     1
  9
$MEASUREMENT
 70
     0
  9
$CELWEIGHT
370
    -1
  9
$ENDCAPS
280
     0
  9
$JOINSTYLE
280
     0
  9
$LWDISPLAY
290
     1
  9
$INSUNITS
 70
     1
  9
$HYPERLINKBASE
  1

  9
$STYLESHEET
  1

  9
$XEDIT
290
     1
  9
$CEPSNTYPE
380
     0
  9
$PSTYLEMODE
290
     1
  9
$FINGERPRINTGUID
  2
{EA1623B3-44AA-AFCA-BE77-235DBA9ACF5F}
  9
$VERSIONGUID
  2
{FAEB1C32-E019-11D5-929B-00C0DF256EC4}
  9
$EXTNAMES
290
     1
  9
$PSVPSCALE
 40
0.0
  9
$OLESTARTUP
290
     0
  9
$SORTENTS
280
   127
  9
$INDEXCTL
280
     0
  9
$HIDETEXT
280
     1
  9
$XCLIPFRAME
280
     2
  9
$HALOGAP
280
     0
  9
$OBSCOLOR
 70
   257
  9
$OBSLTYPE
280
     0
  9
$INTERSECTIONDISPLAY
280
     0
  9
$INTERSECTIONCOLOR
 70
   257
  9
$DIMASSOC
280
     2
  9
$PROJECTNAME
  1

  9
$CAMERADISPLAY
290
     0
  9
$LENSLENGTH
 40
50.0
  9
$CAMERAHEIGHT
 40
0.0
  9
$STEPSPERSEC
 40
2.0
  9
$STEPSIZE
 40
6.0
  9
$3DDWFPREC
 40
2.0
  9
$PSOLWIDTH
 40
0.25
  9
$PSOLHEIGHT
 40
4.0
  9
$LOFTANG1
 40
1.570796326794897
  9
$LOFTANG2
 40
1.570796326794897
  9
$LOFTMAG1
 40
0.0
  9
$LOFTMAG2
 40
0.0
  9
$LOFTPARAM
 70
     7
  9
$LOFTNORMALS
280
     1
  9
$LATITUDE
 40
37.795
  9
$LONGITUDE
 40
-122.394
  9
$NORTHDIRECTION
 40
0.0
  9
$TIMEZONE
 70
 -8000
  9
$LIGHTGLYPHDISPLAY
280
     1
  9
$TILEMODELIGHTSYNCH
280
     1
  9
$CMATERIAL
347
3C
  9
$SOLIDHIST
280
     1
  9
$SHOWHIST
280
     1
  9
$DWFFRAME
280
     2
  9
$DGNFRAME
280
     2
  9
$REALWORLDSCALE
290
     1
  9
$INTERFERECOLOR
 62
   256
  9
$CSHADOW
280
     0
  9
$SHADOWPLANELOCATION
 40
0.0
  0
ENDSEC
  0
SECTION
  2
CLASSES
  0
CLASS
  1
ACDBDICTIONARYWDFLT
  2
AcDbDictionaryWithDefault
  3
ObjectDBX Classes
 90
        0
 91
        4
280
     0
281
     0
  0
CLASS
  1
VISUALSTYLE
  2
AcDbVisualStyle
  3
ObjectDBX Classes
 90
     4095
 91
        4
280
     0
281
     0
  0
CLASS
  1
MATERIAL
  2
AcDbMaterial
  3
ObjectDBX Classes
 90
     1153
 91
        4
280
     0
281
     0
  0
CLASS
  1
SUN
  2
AcDbSun
  3
SCENEOE
 90
     1024
 91
        4
280
     0
281
     0
  0
ENDSEC
  0
SECTION
  2
TABLES
  0
TABLE
  2
VPORT
  5
8
330
0
100
AcDbSymbolTable
 70
     1
  0
VPORT
  5
29
330
8
100
AcDbSymbolTableRecord
100
AcDbViewportTableRecord
  2
*Active
 70
     0
 10
0.0
 20
0.0
 11
1.0
 21
1.0
 12
0.0
 22
0.0
 13
0.0
 23
0.0
 14
0.5
 24
0.5
 15
0.5
 25
0.5
 16
0.0
 26
0.0
 36
1.0
 17
105.0008280156501
 27
-148.4999710739862
 37
0.0
 40
296.9999421479724
 41
0.7070764206636528
 42
50.0
 43
0.0
 44
0.0
 50
0.0
 51
0.0
 71
     0
 72
   100
 73
     1
 74
     3
 75
     0
 76
     0
 77
     0
 78
     0
281
     0
 65
     1
110
0.0
120
0.0
130
0.0
111
1.0
121
0.0
131
0.0
112
0.0
122
1.0
132
0.0
 79
     0
146
0.0
 60
     3
 61
     5
292
     1
282
     1
141
0.0
142
0.0
 63
   250
361
3F
  0
ENDTAB
  0
TABLE
  2
LTYPE
  5
5
330
0
100
AcDbSymbolTable
 70
     1
  0
LTYPE
  5
14
330
5
100
AcDbSymbolTableRecord
100
AcDbLinetypeTableRecord
  2
ByBlock
 70
     0
  3

 72
    65
 73
     0
 40
0.0
  0
LTYPE
  5
15
330
5
100
AcDbSymbolTableRecord
100
AcDbLinetypeTableRecord
  2
ByLayer
 70
     0
  3

 72
    65
 73
     0
 40
0.0
  0
LTYPE
  5
16
330
5
100
AcDbSymbolTableRecord
100
AcDbLinetypeTableRecord
  2
Continuous
 70
     0
  3
Solid line
 72
    65
 73
     0
 40
0.0
  0
ENDTAB
  0
TABLE
  2
LAYER
  5
2
330
0
100
AcDbSymbolTable
 70
     2
  0
LAYER
  5
10
330
2
100
AcDbSymbolTableRecord
100
AcDbLayerTableRecord
  2
0
 70
     0
 62
     7
  6
Continuous
370
    -3
390
F
347
3E
  0
LAYER
  5
40
330
2
100
AcDbSymbolTableRecord
100
AcDbLayerTableRecord
  2
_U+30EC_U+30A4_U+30E4_U+30FC 1
 70
     0
 62
     7
  6
Continuous
370
    -3
390
F
347
3E
  0
ENDTAB
  0
TABLE
  2
STYLE
  5
3
330
0
100
AcDbSymbolTable
 70
     1
  0
STYLE
  5
11
330
3
100
AcDbSymbolTableRecord
100
AcDbTextStyleTableRecord
  2
Standard
 70
     0
 40
0.0
 41
1.0
 50
0.0
 71
     0
 42
0.2
  3
txt
  4

  0
ENDTAB
  0
TABLE
  2
VIEW
  5
6
330
0
100
AcDbSymbolTable
 70
     0
  0
ENDTAB
  0
TABLE
  2
UCS
  5
7
330
0
100
AcDbSymbolTable
 70
     0
  0
ENDTAB
  0
TABLE
  2
APPID
  5
9
330
0
100
AcDbSymbolTable
 70
     1
  0
APPID
  5
12
330
9
100
AcDbSymbolTableRecord
100
AcDbRegAppTableRecord
  2
ACAD
 70
     0
  0
ENDTAB
  0
TABLE
  2
DIMSTYLE
  5
A
330
0
100
AcDbSymbolTable
 70
     1
100
AcDbDimStyleTable
  0
DIMSTYLE
105
27
330
A
100
AcDbSymbolTableRecord
100
AcDbDimStyleTableRecord
  2
Standard
 70
     0
178
     0
340
11
  0
ENDTAB
  0
TABLE
  2
BLOCK_RECORD
  5
1
330
0
100
AcDbSymbolTable
 70
     7
  0
BLOCK_RECORD
  5
1F
330
1
100
AcDbSymbolTableRecord
100
AcDbBlockTableRecord
  2
*Model_Space
340
22
 70
     0
280
     1
281
     0
  0
BLOCK_RECORD
  5
1B
330
1
100
AcDbSymbolTableRecord
100
AcDbBlockTableRecord
  2
*Paper_Space
340
1E
 70
     0
280
     1
281
     0
  0
BLOCK_RECORD
  5
23
330
1
100
AcDbSymbolTableRecord
100
AcDbBlockTableRecord
  2
*Paper_Space0
340
26
 70
     0
280
     1
281
     0
  0
BLOCK_RECORD
  5
93
330
1
100
AcDbSymbolTableRecord
100
AcDbBlockTableRecord
  2
block 2
340
0
102
{BLKREFS
331
94
102
}
 70
     0
280
     1
281
     0
  0
BLOCK_RECORD
  5
A9
330
1
100
AcDbSymbolTableRecord
100
AcDbBlockTableRecord
  2
block 3
340
0
102
{BLKREFS
331
AA
102
}
 70
     0
280
     1
281
     0
  0
BLOCK_RECORD
  5
C6
330
1
100
AcDbSymbolTableRecord
100
AcDbBlockTableRecord
  2
block 4
340
0
102
{BLKREFS
331
C7
102
}
 70
     0
280
     1
281
     0
  0
BLOCK_RECORD
  5
DB
330
1
100
AcDbSymbolTableRecord
100
AcDbBlockTableRecord
  2
block 5
340
0
102
{BLKREFS
331
DC
102
}
 70
     0
280
     1
281
     0
  0
BLOCK_RECORD
  5
EB
330
1
100
AcDbSymbolTableRecord
100
AcDbBlockTableRecord
  2
block 6
340
0
102
{BLKREFS
331
EC
102
}
 70
     0
280
     1
281
     0
  0
BLOCK_RECORD
  5
FB
330
1
100
AcDbSymbolTableRecord
100
AcDbBlockTableRecord
  2
block 7
340
0
102
{BLKREFS
331
FC
102
}
 70
     0
280
     1
281
     0
  0
ENDTAB
  0
ENDSEC
  0
SECTION
  2
BLOCKS
  0
BLOCK
  5
20
330
1F
100
AcDbEntity
  8
0
100
AcDbBlockBegin
  2
*Model_Space
 70
     0
 10
0.0
 20
0.0
 30
0.0
  3
*Model_Space
  1

  0
ENDBLK
  5
21
330
1F
100
AcDbEntity
  8
0
100
AcDbBlockEnd
  0
BLOCK
  5
1C
330
1B
100
AcDbEntity
 67
     1
  8
0
100
AcDbBlockBegin
  2
*Paper_Space
 70
     0
 10
0.0
 20
0.0
 30
0.0
  3
*Paper_Space
  1

  0
ENDBLK
  5
1D
330
1B
100
AcDbEntity
 67
     1
  8
0
100
AcDbBlockEnd
  0
BLOCK
  5
24
330
23
100
AcDbEntity
  8
0
100
AcDbBlockBegin
  2
*Paper_Space0
 70
     0
 10
0.0
 20
0.0
 30
0.0
  3
*Paper_Space0
  1

  0
ENDBLK
  5
25
330
23
100
AcDbEntity
  8
0
100
AcDbBlockEnd
  0
BLOCK
  5
95
330
93
100
AcDbEntity
  8
0
100
AcDbBlockBegin
  2
block 2
 70
     0
 10
0.0
 20
0.0
 30
0.0
  3
block 2
  1

  0
SPLINE
  5
97
330
93
100
AcDbEntity
  8
_U+30EC_U+30A4_U+30E4_U+30FC 1
370
     0
100
AcDbSpline
210
0.0
220
0.0
230
1.0
 70
    11
 71
     3
 72
    26
 73
    22
 74
     0
 42
0.0000000001
 43
0.0000000001
 12
1.0
 22
0.0
 32
0.0
 13
1.0
 23
0.0
 33
0.0
 40
0.0
 40
0.0
 40
0.0
 40
0.0
 40
1.0
 40
1.0
 40
1.0
 40
2.0
 40
2.0
 40
2.0
 40
3.0
 40
3.0
 40
3.0
 40
4.0
 40
4.0
 40
4.0
 40
5.0
 40
5.0
 40
5.0
 40
6.0
 40
6.0
 40
6.0
 40
7.0
 40
7.0
 40
7.0
 40
7.0
 10
121.9908311326967
 20
-139.1215684331016
 30
0.0
 10
121.9908311326967
 20
-139.1215684331016
 30
0.0
 10
120.8866780296742
 20
-139.1215684331016
 30
0.0
 10
120.8866780296742
 20
-139.1215684331016
 30
0.0
 10
120.8866780296742
 20
-139.1215684331016
 30
0.0
 10
120.8866780296742
 20
-139.4743462107911
 30
0.0
 10
120.8866780296742
 20
-139.4743462107911
 30
0.0
 10
120.8866780296742
 20
-139.4743462107911
 30
0.0
 10
120.7385389238084
 20
-139.4743462107911
 30
0.0
 10
120.7385389238084
 20
-139.4743462107911
 30
0.0
 10
120.7237250132219
 20
-139.1193291210361
 30
0.0
 10
120.5607719967695
 20
-139.0695474912743
 30
0.0
 10
120.4463948266592
 20
-139.03785261281
 30
0.0
 10
120.4463948266592
 20
-139.03785261281
 30
0.0
 10
120.4463948266592
 20
-138.8819620421024
 30
0.0
 10
120.4463948266592
 20
-138.8819620421024
 30
0.0
 10
120.4463948266592
 20
-138.8819620421024
 30
0.0
 10
121.9908311326967
 20
-138.8819620421024
 30
0.0
 10
121.9908311326967
 20
-138.8819620421024
 30
0.0
 10
121.9908311326967
 20
-138.8819620421024
 30
0.0
 10
121.9908311326967
 20
-139.1215684331016
 30
0.0
 10
121.9908311326967
 20
-139.1215684331016
 30
0.0
  0
HATCH
  5
98
330
93
100
AcDbEntity
  8
_U+30EC_U+30A4_U+30E4_U+30FC 1
 62
   179
420
  2234388
100
AcDbHatch
 10
0.0
 20
0.0
 30
0.0
210
0.0
220
0.0
230
1.0
  2
SOLID
 70
     1
 71
     0
 91
        1
 92
        1
 93
        1
 72
     4
 94
        3
 73
     0
 74
     1
 95
       26
 96
       22
 40
0.0
 40
0.0
 40
0.0
 40
0.0
 40
1.0
 40
1.0
 40
1.0
 40
2.0
 40
2.0
 40
2.0
 40
3.0
 40
3.0
 40
3.0
 40
4.0
 40
4.0
 40
4.0
 40
5.0
 40
5.0
 40
5.0
 40
6.0
 40
6.0
 40
6.0
 40
7.0
 40
7.0
 40
7.0
 40
7.0
 10
121.9908311326967
 20
-139.1215684331016
 10
121.9908311326967
 20
-139.1215684331016
 10
120.8866780296742
 20
-139.1215684331016
 10
120.8866780296742
 20
-139.1215684331016
 10
120.8866780296742
 20
-139.1215684331016
 10
120.8866780296742
 20
-139.4743462107911
 10
120.8866780296742
 20
-139.4743462107911
 10
120.8866780296742
 20
-139.4743462107911
 10
120.7385389238084
 20
-139.4743462107911
 10
120.7385389238084
 20
-139.4743462107911
 10
120.7237250132219
 20
-139.1193291210361
 10
120.5607719967695
 20
-139.0695474912743
 10
120.4463948266592
 20
-139.03785261281
 10
120.4463948266592
 20
-139.03785261281
 10
120.4463948266592
 20
-138.8819620421024
 10
120.4463948266592
 20
-138.8819620421024
 10
120.4463948266592
 20
-138.8819620421024
 10
121.9908311326967
 20
-138.8819620421024
 10
121.9908311326967
 20
-138.8819620421024
 10
121.9908311326967
 20
-138.8819620421024
 10
121.9908311326967
 20
-139.1215684331016
 10
121.9908311326967
 20
-139.1215684331016
 97
        0
 97
        0
 75
     2
 76
     1
 98
        0
  0
ENDBLK
  5
96
330
93
100
AcDbEntity
  8
0
100
AcDbBlockEnd
  0
BLOCK
  5
AB
330
A9
100
AcDbEntity
  8
0
100
AcDbBlockBegin
  2
block 3
 70
     0
 10
0.0
 20
0.0
 30
0.0
  3
block 3
  1

  0
SPLINE
  5
AD
330
A9
100
AcDbEntity
  8
_U+30EC_U+30A4_U+30E4_U+30FC 1
370
     0
100
AcDbSpline
210
0.0
220
0.0
230
1.0
 70
    11
 71
     3
 72
    29
 73
    25
 74
     0
 42
0.0000000001
 43
0.0000000001
 12
1.0
 22
0.0
 32
0.0
 13
1.0
 23
0.0
 33
0.0
 40
0.0
 40
0.0
 40
0.0
 40
0.0
 40
1.0
 40
1.0
 40
1.0
 40
2.0
 40
2.0
 40
2.0
 40
3.0
 40
3.0
 40
3.0
 40
4.0
 40
4.0
 40
4.0
 40
5.0
 40
5.0
 40
5.0
 40
6.0
 40
6.0
 40
6.0
 40
7.0
 40
7.0
 40
7.0
 40
8.0
 40
8.0
 40
8.0
 40
8.0
 10
106.812429443783
 20
-153.461778390454
 30
0.0
 10
107.0218912492862
 20
-153.5771890892099
 30
0.0
 10
107.0408392744551
 20
-153.7625352263163
 30
0.0
 10
107.0408392744551
 20
-153.8869031733338
 30
0.0
 10
107.0408392744551
 20
-154.0584689284993
 30
0.0
 10
106.9943304854042
 20
-154.2100531298503
 30
0.0
 10
106.812429443783
 20
-154.3116834466651
 30
0.0
 10
106.6177815488664
 20
-154.4226155212902
 30
0.0
 10
106.3811034890297
 20
-154.4429415846532
 30
0.0
 10
106.2181504725774
 20
-154.4429415846532
 30
0.0
 10
106.074145481294
 20
-154.4429415846532
 30
0.0
 10
105.8223090013222
 20
-154.4250270881299
 30
0.0
 10
105.6235269918233
 20
-154.3116834466651
 30
0.0
 10
105.4206108677421
 20
-154.1966172574578
 30
0.0
 10
105.3971842184424
 20
-154.0247069927438
 30
0.0
 10
105.3971842184424
 20
-153.8869031733338
 30
0.0
 10
105.3971842184424
 20
-153.717059965911
 30
0.0
 10
105.4416259502021
 20
-153.5634087072689
 30
0.0
 10
105.6235269918233
 20
-153.461778390454
 30
0.0
 10
105.8161078294488
 20
-153.3553249399598
 30
0.0
 10
106.0445176601208
 20
-153.330520252466
 30
0.0
 10
106.2181504725774
 20
-153.330520252466
 30
0.0
 10
106.3893717181943
 20
-153.330520252466
 30
0.0
 10
106.6198486061575
 20
-153.3532578826686
 30
0.0
 10
106.812429443783
 20
-153.461778390454
 30
0.0
  0
SPLINE
  5
AE
330
A9
100
AcDbEntity
  8
_U+30EC_U+30A4_U+30E4_U+30FC 1
370
     0
100
AcDbSpline
210
0.0
220
0.0
230
1.0
 70
    11
 71
     3
 72
    17
 73
    13
 74
     0
 42
0.0000000001
 43
0.0000000001
 12
1.0
 22
0.0
 32
0.0
 13
1.0
 23
0.0
 33
0.0
 40
0.0
 40
0.0
 40
0.0
 40
0.0
 40
1.0
 40
1.0
 40
1.0
 40
2.0
 40
2.0
 40
2.0
 40
3.0
 40
3.0
 40
3.0
 40
4.0
 40
4.0
 40
4.0
 40
4.0
 10
105.5897650560678
 20
-153.8869031733338
 30
0.0
 10
105.5897650560678
 20
-154.1535535638922
 30
0.0
 10
105.8732964145039
 20
-154.2031629388798
 30
0.0
 10
106.2181504725774
 20
-154.2031629388798
 30
0.0
 10
106.5375108240601
 20
-154.2031629388798
 30
0.0
 10
106.8461913795385
 20
-154.1649223789935
 30
0.0
 10
106.8461913795385
 20
-153.8869031733338
 30
0.0
 10
106.8461913795385
 20
-153.6223198400666
 30
0.0
 10
106.5650715879421
 20
-153.5702988982394
 30
0.0
 10
106.2181504725774
 20
-153.5702988982394
 30
0.0
 10
105.8984456115462
 20
-153.5702988982394
 30
0.0
 10
105.5897650560678
 20
-153.6109510249653
 30
0.0
 10
105.5897650560678
 20
-153.8869031733338
 30
0.0
  0
HATCH
  5
AF
330
A9
100
AcDbEntity
  8
_U+30EC_U+30A4_U+30E4_U+30FC 1
 62
   179
420
  2234388
100
AcDbHatch
 10
0.0
 20
0.0
 30
0.0
210
0.0
220
0.0
230
1.0
  2
SOLID
 70
     1
 71
     0
 91
        2
 92
        1
 93
        1
 72
     4
 94
        3
 73
     0
 74
     1
 95
       29
 96
       25
 40
0.0
 40
0.0
 40
0.0
 40
0.0
 40
1.0
 40
1.0
 40
1.0
 40
2.0
 40
2.0
 40
2.0
 40
3.0
 40
3.0
 40
3.0
 40
4.0
 40
4.0
 40
4.0
 40
5.0
 40
5.0
 40
5.0
 40
6.0
 40
6.0
 40
6.0
 40
7.0
 40
7.0
 40
7.0
 40
8.0
 40
8.0
 40
8.0
 40
8.0
 10
106.812429443783
 20
-153.461778390454
 10
107.0218912492862
 20
-153.5771890892099
 10
107.0408392744551
 20
-153.7625352263163
 10
107.0408392744551
 20
-153.8869031733338
 10
107.0408392744551
 20
-154.0584689284993
 10
106.9943304854042
 20
-154.2100531298503
 10
106.812429443783
 20
-154.3116834466651
 10
106.6177815488664
 20
-154.4226155212902
 10
106.3811034890297
 20
-154.4429415846532
 10
106.2181504725774
 20
-154.4429415846532
 10
106.074145481294
 20
-154.4429415846532
 10
105.8223090013222
 20
-154.4250270881299
 10
105.6235269918233
 20
-154.3116834466651
 10
105.4206108677421
 20
-154.1966172574578
 10
105.3971842184424
 20
-154.0247069927438
 10
105.3971842184424
 20
-153.8869031733338
 10
105.3971842184424
 20
-153.717059965911
 10
105.4416259502021
 20
-153.5634087072689
 10
105.6235269918233
 20
-153.461778390454
 10
105.8161078294488
 20
-153.3553249399598
 10
106.0445176601208
 20
-153.330520252466
 10
106.2181504725774
 20
-153.330520252466
 10
106.3893717181943
 20
-153.330520252466
 10
106.6198486061575
 20
-153.3532578826686
 10
106.812429443783
 20
-153.461778390454
 97
        0
 97
        0
 92
        1
 93
        1
 72
     4
 94
        3
 73
     0
 74
     1
 95
       17
 96
       13
 40
0.0
 40
0.0
 40
0.0
 40
0.0
 40
1.0
 40
1.0
 40
1.0
 40
2.0
 40
2.0
 40
2.0
 40
3.0
 40
3.0
 40
3.0
 40
4.0
 40
4.0
 40
4.0
 40
4.0
 10
105.5897650560678
 20
-153.8869031733338
 10
105.5897650560678
 20
-154.1535535638922
 10
105.8732964145039
 20
-154.2031629388798
 10
106.2181504725774
 20
-154.2031629388798
 10
106.5375108240601
 20
-154.2031629388798
 10
106.8461913795385
 20
-154.1649223789935
 10
106.8461913795385
 20
-153.8869031733338
 10
106.8461913795385
 20
-153.6223198400666
 10
106.5650715879421
 20
-153.5702988982394
 10
106.2181504725774
 20
-153.5702988982394
 10
105.8984456115462
 20
-153.5702988982394
 10
105.5897650560678
 20
-153.6109510249653
 10
105.5897650560678
 20
-153.8869031733338
 97
        0
 97
        0
 75
     2
 76
     1
 98
        0
  0
POLYLINE
  5
B0
330
A9
100
AcDbEntity
  8
_U+30EC_U+30A4_U+30E4_U+30FC 1
370
     0
100
AcDb2dPolyline
 66
     1
 10
0.0
 20
0.0
 30
0.0
  0
VERTEX
  5
B1
330
B0
100
AcDbEntity
  8
_U+30EC_U+30A4_U+30E4_U+30FC 1
370
     0
100
AcDbVertex
100
AcDb2dVertex
 10
106.9901963708219
 20
-153.0993543454057
 30
0.0
  0
VERTEX
  5
B2
330
B0
100
AcDbEntity
  8
_U+30EC_U+30A4_U+30E4_U+30FC 1
370
     0
100
AcDbVertex
100
AcDb2dVertex
 10
106.7383598908501
 20
-153.0993543454057
 30
0.0
  0
VERTEX
  5
B3
330
B0
100
AcDbEntity
  8
_U+30EC_U+30A4_U+30E4_U+30FC 1
370
     0
100
AcDbVertex
100
AcDb2dVertex
 10
106.7383598908501
 20
-152.8302923880077
 30
0.0
  0
VERTEX
  5
B4
330
B0
100
AcDbEntity
  8
_U+30EC_U+30A4_U+30E4_U+30FC 1
370
     0
100
AcDbVertex
100
AcDb2dVertex
 10
106.9901963708219
 20
-152.8302923880077
 30
0.0
  0
VERTEX
  5
B5
330
B0
100
AcDbEntity
  8
_U+30EC_U+30A4_U+30E4_U+30FC 1
370
     0
100
AcDbVertex
100
AcDb2dVertex
 10
106.9901963708219
 20
-153.0993543454057
 30
0.0
  0
SEQEND
  5
B6
330
B0
100
AcDbEntity
  8
_U+30EC_U+30A4_U+30E4_U+30FC 1
370
     0
  0
HATCH
  5
B7
330
A9
100
AcDbEntity
  8
_U+30EC_U+30A4_U+30E4_U+30FC 1
 62
   179
420
  2234388
100
AcDbHatch
 10
0.0
 20
0.0
 30
0.0
210
0.0
220
0.0
230
1.0
  2
SOLID
 70
     1
 71
     0
 91
        1
 92
        1
 93
        4
 72
     1
 10
106.9901963708219
 20
-153.0993543454057
 11
106.7383598908501
 21
-153.0993543454057
 72
     1
 10
106.7383598908501
 20
-153.0993543454057
 11
106.7383598908501
 21
-152.8302923880077
 72
     1
 10
106.7383598908501
 20
-152.8302923880077
 11
106.9901963708219
 21
-152.8302923880077
 72
     1
 10
106.9901963708219
 20
-152.8302923880077
 11
106.9901963708219
 21
-153.0993543454057
 97
        0
 75
     2
 76
     1
 98
        0
  0
SPLINE
  5
B8
330
A9
100
AcDbEntity
  8
_U+30EC_U+30A4_U+30E4_U+30FC 1
370
     0
100
AcDbSpline
210
0.0
220
0.0
230
1.0
 70
    11
 71
     3
 72
    53
 73
    49
 74
     0
 42
0.0000000001
 43
0.0000000001
 12
1.0
 22
0.0
 32
0.0
 13
1.0
 23
0.0
 33
0.0
 40
0.0
 40
0.0
 40
0.0
 40
0.0
 40
1.0
 40
1.0
 40
1.0
 40
2.0
 40
2.0
 40
2.0
 40
3.0
 40
3.0
 40
3.0
 40
4.0
 40
4.0
 40
4.0
 40
5.0
 40
5.0
 40
5.0
 40
6.0
 40
6.0
 40
6.0
 40
7.0
 40
7.0
 40
7.0
 40
8.0
 40
8.0
 40
8.0
 40
9.0
 40
9.0
 40
9.0
 40
10.0
 40
10.0
 40
10.0
 40
11.0
 40
11.0
 40
11.0
 40
12.0
 40
12.0
 40
12.0
 40
13.0
 40
13.0
 40
13.0
 40
14.0
 40
14.0
 40
14.0
 40
15.0
 40
15.0
 40
15.0
 40
16.0
 40
16.0
 40
16.0
 40
16.0
 10
107.0408392744551
 20
-152.0634141329911
 30
0.0
 10
107.0408392744551
 20
-152.1471299532827
 30
0.0
 10
107.0239583065773
 20
-152.2553059515195
 30
0.0
 10
106.9605685496488
 20
-152.3641709688534
 30
0.0
 10
106.8506700036693
 20
-152.5495171059598
 30
0.0
 10
106.7194118656813
 20
-152.571910226614
 30
0.0
 10
106.6115803769929
 20
-152.5922362899769
 30
0.0
 10
106.6115803769929
 20
-152.5922362899769
 30
0.0
 10
106.6115803769929
 20
-152.3548692110432
 30
0.0
 10
106.6115803769929
 20
-152.3548692110432
 30
0.0
 10
106.8103623864919
 20
-152.296302587794
 30
0.0
 10
106.839990207665
 20
-152.1605658256751
 30
0.0
 10
106.839990207665
 20
-152.0610025661514
 30
0.0
 10
106.839990207665
 20
-151.9118299316401
 30
0.0
 10
106.7404269481413
 20
-151.7488769151878
 30
0.0
 10
106.5078830028869
 20
-151.7488769151878
 30
0.0
 10
106.2519124083329
 20
-151.7488769151878
 30
0.0
 10
106.1819769699823
 20
-151.9411132432647
 30
0.0
 10
106.1819769699823
 20
-152.0699598144131
 30
0.0
 10
106.1819769699823
 20
-152.1040662597171
 30
0.0
 10
106.1819769699823
 20
-152.2553059515195
 30
0.0
 10
106.3111680506792
 20
-152.3503905869124
 30
0.0
 10
106.3111680506792
 20
-152.3503905869124
 30
0.0
 10
106.2922200255103
 20
-152.5381482908585
 30
0.0
 10
106.2922200255103
 20
-152.5381482908585
 30
0.0
 10
106.2922200255103
 20
-152.5381482908585
 30
0.0
 10
105.4457600647844
 20
-152.4093017197102
 30
0.0
 10
105.4457600647844
 20
-152.4093017197102
 30
0.0
 10
105.4457600647844
 20
-152.4093017197102
 30
0.0
 10
105.4457600647844
 20
-151.5773111600223
 30
0.0
 10
105.4457600647844
 20
-151.5773111600223
 30
0.0
 10
105.4457600647844
 20
-151.5773111600223
 30
0.0
 10
105.640407959701
 20
-151.5773111600223
 30
0.0
 10
105.640407959701
 20
-151.5773111600223
 30
0.0
 10
105.640407959701
 20
-151.5773111600223
 30
0.0
 10
105.640407959701
 20
-152.2349798881565
 30
0.0
 10
105.640407959701
 20
-152.2349798881565
 30
0.0
 10
105.640407959701
 20
-152.2349798881565
 30
0.0
 10
106.0634656852897
 20
-152.3052598360556
 30
0.0
 10
106.0634656852897
 20
-152.3052598360556
 30
0.0
 10
106.0297037495342
 20
-152.2398030218359
 30
0.0
 10
105.9893961323568
 20
-152.1516085774135
 30
0.0
 10
105.9893961323568
 20
-152.0248290635563
 30
0.0
 10
105.9893961323568
 20
-151.7537000488671
 30
0.0
 10
106.1757757981088
 20
-151.5004855307013
 30
0.0
 10
106.488934977718
 20
-151.5004855307013
 30
0.0
 10
106.8062282719096
 20
-151.5004855307013
 30
0.0
 10
107.0408392744551
 20
-151.7399196669261
 30
0.0
 10
107.0408392744551
 20
-152.0634141329911
 30
0.0
  0
HATCH
  5
B9
330
A9
100
AcDbEntity
  8
_U+30EC_U+30A4_U+30E4_U+30FC 1
 62
   179
420
  2234388
100
AcDbHatch
 10
0.0
 20
0.0
 30
0.0
210
0.0
220
0.0
230
1.0
  2
SOLID
 70
     1
 71
     0
 91
        1
 92
        1
 93
        1
 72
     4
 94
        3
 73
     0
 74
     1
 95
       53
 96
       49
 40
0.0
 40
0.0
 40
0.0
 40
0.0
 40
1.0
 40
1.0
 40
1.0
 40
2.0
 40
2.0
 40
2.0
 40
3.0
 40
3.0
 40
3.0
 40
4.0
 40
4.0
 40
4.0
 40
5.0
 40
5.0
 40
5.0
 40
6.0
 40
6.0
 40
6.0
 40
7.0
 40
7.0
 40
7.0
 40
8.0
 40
8.0
 40
8.0
 40
9.0
 40
9.0
 40
9.0
 40
10.0
 40
10.0
 40
10.0
 40
11.0
 40
11.0
 40
11.0
 40
12.0
 40
12.0
 40
12.0
 40
13.0
 40
13.0
 40
13.0
 40
14.0
 40
14.0
 40
14.0
 40
15.0
 40
15.0
 40
15.0
 40
16.0
 40
16.0
 40
16.0
 40
16.0
 10
107.0408392744551
 20
-152.0634141329911
 10
107.0408392744551
 20
-152.1471299532827
 10
107.0239583065773
 20
-152.2553059515195
 10
106.9605685496488
 20
-152.3641709688534
 10
106.8506700036693
 20
-152.5495171059598
 10
106.7194118656813
 20
-152.571910226614
 10
106.6115803769929
 20
-152.5922362899769
 10
106.6115803769929
 20
-152.5922362899769
 10
106.6115803769929
 20
-152.3548692110432
 10
106.6115803769929
 20
-152.3548692110432
 10
106.8103623864919
 20
-152.296302587794
 10
106.839990207665
 20
-152.1605658256751
 10
106.839990207665
 20
-152.0610025661514
 10
106.839990207665
 20
-151.9118299316401
 10
106.7404269481413
 20
-151.7488769151878
 10
106.5078830028869
 20
-151.7488769151878
 10
106.2519124083329
 20
-151.7488769151878
 10
106.1819769699823
 20
-151.9411132432647
 10
106.1819769699823
 20
-152.0699598144131
 10
106.1819769699823
 20
-152.1040662597171
 10
106.1819769699823
 20
-152.2553059515195
 10
106.3111680506792
 20
-152.3503905869124
 10
106.3111680506792
 20
-152.3503905869124
 10
106.2922200255103
 20
-152.5381482908585
 10
106.2922200255103
 20
-152.5381482908585
 10
106.2922200255103
 20
-152.5381482908585
 10
105.4457600647844
 20
-152.4093017197102
 10
105.4457600647844
 20
-152.4093017197102
 10
105.4457600647844
 20
-152.4093017197102
 10
105.4457600647844
 20
-151.5773111600223
 10
105.4457600647844
 20
-151.5773111600223
 10
105.4457600647844
 20
-151.5773111600223
 10
105.640407959701
 20
-151.5773111600223
 10
105.640407959701
 20
-151.5773111600223
 10
105.640407959701
 20
-151.5773111600223
 10
105.640407959701
 20
-152.2349798881565
 10
105.640407959701
 20
-152.2349798881565
 10
105.640407959701
 20
-152.2349798881565
 10
106.0634656852897
 20
-152.3052598360556
 10
106.0634656852897
 20
-152.3052598360556
 10
106.0297037495342
 20
-152.2398030218359
 10
105.9893961323568
 20
-152.1516085774135
 10
105.9893961323568
 20
-152.0248290635563
 10
105.9893961323568
 20
-151.7537000488671
 10
106.1757757981088
 20
-151.5004855307013
 10
106.488934977718
 20
-151.5004855307013
 10
106.8062282719096
 20
-151.5004855307013
 10
107.0408392744551
 20
-151.7399196669261
 10
107.0408392744551
 20
-152.0634141329911
 97
        0
 97
        0
 75
     2
 76
     1
 98
        0
  0
ENDBLK
  5
AC
330
A9
100
AcDbEntity
  8
0
100
AcDbBlockEnd
  0
BLOCK
  5
C8
330
C6
100
AcDbEntity
  8
0
100
AcDbBlockBegin
  2
block 4
 70
     0
 10
0.0
 20
0.0
 30
0.0
  3
block 4
  1

  0
SPLINE
  5
CA
330
C6
100
AcDbEntity
  8
_U+30EC_U+30A4_U+30E4_U+30FC 1
370
     0
100
AcDbSpline
210
0.0
220
0.0
230
1.0
 70
    11
 71
     3
 72
    26
 73
    22
 74
     0
 42
0.0000000001
 43
0.0000000001
 12
1.0
 22
0.0
 32
0.0
 13
1.0
 23
0.0
 33
0.0
 40
0.0
 40
0.0
 40
0.0
 40
0.0
 40
1.0
 40
1.0
 40
1.0
 40
2.0
 40
2.0
 40
2.0
 40
3.0
 40
3.0
 40
3.0
 40
4.0
 40
4.0
 40
4.0
 40
5.0
 40
5.0
 40
5.0
 40
6.0
 40
6.0
 40
6.0
 40
7.0
 40
7.0
 40
7.0
 40
7.0
 10
98.61620277482513
 20
-160.0102158888169
 30
0.0
 10
98.61620277482513
 20
-160.0102158888169
 30
0.0
 10
98.61620277482513
 20
-158.9060627857943
 30
0.0
 10
98.61620277482513
 20
-158.9060627857943
 30
0.0
 10
98.61620277482513
 20
-158.9060627857943
 30
0.0
 10
98.26376950668406
 20
-158.9060627857943
 30
0.0
 10
98.26376950668406
 20
-158.9060627857943
 30
0.0
 10
98.26376950668406
 20
-158.9060627857943
 30
0.0
 10
98.26376950668406
 20
-158.7579236799286
 30
0.0
 10
98.26376950668406
 20
-158.7579236799286
 30
0.0
 10
98.6186143416648
 20
-158.743109769342
 30
0.0
 10
98.66822371665239
 20
-158.5801567528897
 30
0.0
 10
98.69991859511669
 20
-158.4657795827794
 30
0.0
 10
98.69991859511669
 20
-158.4657795827794
 30
0.0
 10
98.85598142059851
 20
-158.4657795827794
 30
0.0
 10
98.85598142059851
 20
-158.4657795827794
 30
0.0
 10
98.85598142059851
 20
-158.4657795827794
 30
0.0
 10
98.85598142059851
 20
-160.0102158888169
 30
0.0
 10
98.85598142059851
 20
-160.0102158888169
 30
0.0
 10
98.85598142059851
 20
-160.0102158888169
 30
0.0
 10
98.61620277482513
 20
-160.0102158888169
 30
0.0
 10
98.61620277482513
 20
-160.0102158888169
 30
0.0
  0
HATCH
  5
CB
330
C6
100
AcDbEntity
  8
_U+30EC_U+30A4_U+30E4_U+30FC 1
 62
   179
420
  2234388
100
AcDbHatch
 10
0.0
 20
0.0
 30
0.0
210
0.0
220
0.0
230
1.0
  2
SOLID
 70
     1
 71
     0
 91
        1
 92
        1
 93
        1
 72
     4
 94
        3
 73
     0
 74
     1
 95
       26
 96
       22
 40
0.0
 40
0.0
 40
0.0
 40
0.0
 40
1.0
 40
1.0
 40
1.0
 40
2.0
 40
2.0
 40
2.0
 40
3.0
 40
3.0
 40
3.0
 40
4.0
 40
4.0
 40
4.0
 40
5.0
 40
5.0
 40
5.0
 40
6.0
 40
6.0
 40
6.0
 40
7.0
 40
7.0
 40
7.0
 40
7.0
 10
98.61620277482513
 20
-160.0102158888169
 10
98.61620277482513
 20
-160.0102158888169
 10
98.61620277482513
 20
-158.9060627857943
 10
98.61620277482513
 20
-158.9060627857943
 10
98.61620277482513
 20
-158.9060627857943
 10
98.26376950668406
 20
-158.9060627857943
 10
98.26376950668406
 20
-158.9060627857943
 10
98.26376950668406
 20
-158.9060627857943
 10
98.26376950668406
 20
-158.7579236799286
 10
98.26376950668406
 20
-158.7579236799286
 10
98.6186143416648
 20
-158.743109769342
 10
98.66822371665239
 20
-158.5801567528897
 10
98.69991859511669
 20
-158.4657795827794
 10
98.69991859511669
 20
-158.4657795827794
 10
98.85598142059851
 20
-158.4657795827794
 10
98.85598142059851
 20
-158.4657795827794
 10
98.85598142059851
 20
-158.4657795827794
 10
98.85598142059851
 20
-160.0102158888169
 10
98.85598142059851
 20
-160.0102158888169
 10
98.85598142059851
 20
-160.0102158888169
 10
98.61620277482513
 20
-160.0102158888169
 10
98.61620277482513
 20
-160.0102158888169
 97
        0
 97
        0
 75
     2
 76
     1
 98
        0
  0
SPLINE
  5
CC
330
C6
100
AcDbEntity
  8
_U+30EC_U+30A4_U+30E4_U+30FC 1
370
     0
100
AcDbSpline
210
0.0
220
0.0
230
1.0
 70
    11
 71
     3
 72
    29
 73
    25
 74
     0
 42
0.0000000001
 43
0.0000000001
 12
1.0
 22
0.0
 32
0.0
 13
1.0
 23
0.0
 33
0.0
 40
0.0
 40
0.0
 40
0.0
 40
0.0
 40
1.0
 40
1.0
 40
1.0
 40
2.0
 40
2.0
 40
2.0
 40
3.0
 40
3.0
 40
3.0
 40
4.0
 40
4.0
 40
4.0
 40
5.0
 40
5.0
 40
5.0
 40
6.0
 40
6.0
 40
6.0
 40
7.0
 40
7.0
 40
7.0
 40
8.0
 40
8.0
 40
8.0
 40
8.0
 10
100.3511528611969
 20
-159.832448961778
 30
0.0
 10
100.2357421624411
 20
-160.0419107672812
 30
0.0
 10
100.0503960253346
 20
-160.0608587924501
 30
0.0
 10
99.9260280783171
 20
-160.0608587924501
 30
0.0
 10
99.75446232315167
 20
-160.0608587924501
 30
0.0
 10
99.60287812180067
 20
-160.0143500033992
 30
0.0
 10
99.50124780498581
 20
-159.832448961778
 30
0.0
 10
99.39031573036075
 20
-159.6378010668614
 30
0.0
 10
99.36998966699778
 20
-159.4011230070247
 30
0.0
 10
99.36998966699778
 20
-159.2381699905724
 30
0.0
 10
99.36998966699778
 20
-159.094164999289
 30
0.0
 10
99.38824867306961
 20
-158.8423285193172
 30
0.0
 10
99.50124780498581
 20
-158.6435465098183
 30
0.0
 10
99.61631399419315
 20
-158.4406303857371
 30
0.0
 10
99.78822425890712
 20
-158.4172037364374
 30
0.0
 10
99.9260280783171
 20
-158.4172037364374
 30
0.0
 10
100.0958712857399
 20
-158.4172037364374
 30
0.0
 10
100.2495225443821
 20
-158.4616454681971
 30
0.0
 10
100.3511528611969
 20
-158.6435465098183
 30
0.0
 10
100.4576063116912
 20
-158.8361273474437
 30
0.0
 10
100.482410999185
 20
-159.0645371781158
 30
0.0
 10
100.482410999185
 20
-159.2381699905724
 30
0.0
 10
100.482410999185
 20
-159.4093912361893
 30
0.0
 10
100.4596733689823
 20
-159.6398681241525
 30
0.0
 10
100.3511528611969
 20
-159.832448961778
 30
0.0
  0
SPLINE
  5
CD
330
C6
100
AcDbEntity
  8
_U+30EC_U+30A4_U+30E4_U+30FC 1
370
     0
100
AcDbSpline
210
0.0
220
0.0
230
1.0
 70
    11
 71
     3
 72
    17
 73
    13
 74
     0
 42
0.0000000001
 43
0.0000000001
 12
1.0
 22
0.0
 32
0.0
 13
1.0
 23
0.0
 33
0.0
 40
0.0
 40
0.0
 40
0.0
 40
0.0
 40
1.0
 40
1.0
 40
1.0
 40
2.0
 40
2.0
 40
2.0
 40
3.0
 40
3.0
 40
3.0
 40
4.0
 40
4.0
 40
4.0
 40
4.0
 10
99.9260280783171
 20
-158.6097845740628
 30
0.0
 10
99.65937768775878
 20
-158.6097845740628
 30
0.0
 10
99.60976831277118
 20
-158.8933159324989
 30
0.0
 10
99.60976831277118
 20
-159.2381699905724
 30
0.0
 10
99.60976831277118
 20
-159.5575303420551
 30
0.0
 10
99.64800887265744
 20
-159.8662108975334
 30
0.0
 10
99.9260280783171
 20
-159.8662108975334
 30
0.0
 10
100.1906114115843
 20
-159.8662108975334
 30
0.0
 10
100.2426323534116
 20
-159.5850911059371
 30
0.0
 10
100.2426323534116
 20
-159.2381699905724
 30
0.0
 10
100.2426323534116
 20
-158.9184651295412
 30
0.0
 10
100.2019802266856
 20
-158.6097845740628
 30
0.0
 10
99.9260280783171
 20
-158.6097845740628
 30
0.0
  0
HATCH
  5
CE
330
C6
100
AcDbEntity
  8
_U+30EC_U+30A4_U+30E4_U+30FC 1
 62
   179
420
  2234388
100
AcDbHatch
 10
0.0
 20
0.0
 30
0.0
210
0.0
220
0.0
230
1.0
  2
SOLID
 70
     1
 71
     0
 91
        2
 92
        1
 93
        1
 72
     4
 94
        3
 73
     0
 74
     1
 95
       29
 96
       25
 40
0.0
 40
0.0
 40
0.0
 40
0.0
 40
1.0
 40
1.0
 40
1.0
 40
2.0
 40
2.0
 40
2.0
 40
3.0
 40
3.0
 40
3.0
 40
4.0
 40
4.0
 40
4.0
 40
5.0
 40
5.0
 40
5.0
 40
6.0
 40
6.0
 40
6.0
 40
7.0
 40
7.0
 40
7.0
 40
8.0
 40
8.0
 40
8.0
 40
8.0
 10
100.3511528611969
 20
-159.832448961778
 10
100.2357421624411
 20
-160.0419107672812
 10
100.0503960253346
 20
-160.0608587924501
 10
99.9260280783171
 20
-160.0608587924501
 10
99.75446232315167
 20
-160.0608587924501
 10
99.60287812180067
 20
-160.0143500033992
 10
99.50124780498581
 20
-159.832448961778
 10
99.39031573036075
 20
-159.6378010668614
 10
99.36998966699778
 20
-159.4011230070247
 10
99.36998966699778
 20
-159.2381699905724
 10
99.36998966699778
 20
-159.094164999289
 10
99.38824867306961
 20
-158.8423285193172
 10
99.50124780498581
 20
-158.6435465098183
 10
99.61631399419315
 20
-158.4406303857371
 10
99.78822425890712
 20
-158.4172037364374
 10
99.9260280783171
 20
-158.4172037364374
 10
100.0958712857399
 20
-158.4172037364374
 10
100.2495225443821
 20
-158.4616454681971
 10
100.3511528611969
 20
-158.6435465098183
 10
100.4576063116912
 20
-158.8361273474437
 10
100.482410999185
 20
-159.0645371781158
 10
100.482410999185
 20
-159.2381699905724
 10
100.482410999185
 20
-159.4093912361893
 10
100.4596733689823
 20
-159.6398681241525
 10
100.3511528611969
 20
-159.832448961778
 97
        0
 97
        0
 92
        1
 93
        1
 72
     4
 94
        3
 73
     0
 74
     1
 95
       17
 96
       13
 40
0.0
 40
0.0
 40
0.0
 40
0.0
 40
1.0
 40
1.0
 40
1.0
 40
2.0
 40
2.0
 40
2.0
 40
3.0
 40
3.0
 40
3.0
 40
4.0
 40
4.0
 40
4.0
 40
4.0
 10
99.9260280783171
 20
-158.6097845740628
 10
99.65937768775878
 20
-158.6097845740628
 10
99.60976831277118
 20
-158.8933159324989
 10
99.60976831277118
 20
-159.2381699905724
 10
99.60976831277118
 20
-159.5575303420551
 10
99.64800887265744
 20
-159.8662108975334
 10
99.9260280783171
 20
-159.8662108975334
 10
100.1906114115843
 20
-159.8662108975334
 10
100.2426323534116
 20
-159.5850911059371
 10
100.2426323534116
 20
-159.2381699905724
 10
100.2426323534116
 20
-158.9184651295412
 10
100.2019802266856
 20
-158.6097845740628
 10
99.9260280783171
 20
-158.6097845740628
 97
        0
 97
        0
 75
     2
 76
     1
 98
        0
  0
ENDBLK
  5
C9
330
C6
100
AcDbEntity
  8
0
100
AcDbBlockEnd
  0
BLOCK
  5
DD
330
DB
100
AcDbEntity
  8
0
100
AcDbBlockBegin
  2
block 5
 70
     0
 10
0.0
 20
0.0
 30
0.0
  3
block 5
  1

  0
SPLINE
  5
DF
330
DB
100
AcDbEntity
  8
_U+30EC_U+30A4_U+30E4_U+30FC 1
370
     0
100
AcDbSpline
210
0.0
220
0.0
230
1.0
 70
    11
 71
     3
 72
    62
 73
    58
 74
     0
 42
0.0000000001
 43
0.0000000001
 12
1.0
 22
0.0
 32
0.0
 13
1.0
 23
0.0
 33
0.0
 40
0.0
 40
0.0
 40
0.0
 40
0.0
 40
1.0
 40
1.0
 40
1.0
 40
2.0
 40
2.0
 40
2.0
 40
3.0
 40
3.0
 40
3.0
 40
4.0
 40
4.0
 40
4.0
 40
5.0
 40
5.0
 40
5.0
 40
6.0
 40
6.0
 40
6.0
 40
7.0
 40
7.0
 40
7.0
 40
8.0
 40
8.0
 40
8.0
 40
9.0
 40
9.0
 40
9.0
 40
10.0
 40
10.0
 40
10.0
 40
11.0
 40
11.0
 40
11.0
 40
12.0
 40
12.0
 40
12.0
 40
13.0
 40
13.0
 40
13.0
 40
14.0
 40
14.0
 40
14.0
 40
15.0
 40
15.0
 40
15.0
 40
16.0
 40
16.0
 40
16.0
 40
17.0
 40
17.0
 40
17.0
 40
18.0
 40
18.0
 40
18.0
 40
19.0
 40
19.0
 40
19.0
 40
19.0
 10
102.1594834814046
 20
-136.8617580495519
 30
0.0
 10
102.0578531645897
 20
-136.8617580495519
 30
0.0
 10
101.8249647097868
 20
-136.8405707123176
 30
0.0
 10
101.6916395145077
 20
-136.6543633013399
 30
0.0
 10
101.6124023183469
 20
-136.542225443295
 30
0.0
 10
101.6079236942161
 20
-136.4428344385456
 30
0.0
 10
101.6034450700853
 20
-136.3582573443827
 30
0.0
 10
101.6034450700853
 20
-136.3582573443827
 30
0.0
 10
101.8384005821793
 20
-136.3582573443827
 30
0.0
 10
101.8384005821793
 20
-136.3582573443827
 30
0.0
 10
101.840812149019
 20
-136.4323268973155
 30
0.0
 10
101.8521809641203
 20
-136.6671101546353
 30
0.0
 10
102.1550048572738
 20
-136.6671101546353
 30
0.0
 10
102.3021104344939
 20
-136.6671101546353
 30
0.0
 10
102.4647189413977
 20
-136.597346971059
 30
0.0
 10
102.4647189413977
 20
-136.3687648856127
 30
0.0
 10
102.4647189413977
 20
-136.2524929129855
 30
0.0
 10
102.4240668146718
 20
-136.2037448118692
 30
0.0
 10
102.3903048789163
 20
-136.1720499334049
 30
0.0
 10
102.3110676827556
 20
-136.0979803804721
 30
0.0
 10
102.186699735738
 20
-136.0854057819509
 30
0.0
 10
102.1277886029403
 20
-136.0854057819509
 30
0.0
 10
102.1074625395773
 20
-136.0854057819509
 30
0.0
 10
102.069221979691
 20
-136.087472839242
 30
0.0
 10
102.0395941585179
 20
-136.0916069538243
 30
0.0
 10
102.0395941585179
 20
-136.0916069538243
 30
0.0
 10
102.0395941585179
 20
-135.8969590589077
 30
0.0
 10
102.0395941585179
 20
-135.8969590589077
 30
0.0
 10
102.0802462852438
 20
-135.9033324855554
 30
0.0
 10
102.1257215456491
 20
-135.9055717976208
 30
0.0
 10
102.1322672270711
 20
-135.9055717976208
 30
0.0
 10
102.2025471749702
 20
-135.9055717976208
 30
0.0
 10
102.4151095664101
 20
-135.8843844603865
 30
0.0
 10
102.4151095664101
 20
-135.6473618910014
 30
0.0
 10
102.4151095664101
 20
-135.4697672187367
 30
0.0
 10
102.2748941801604
 20
-135.4146456909727
 30
0.0
 10
102.1574164241134
 20
-135.4146456909727
 30
0.0
 10
101.8745740847744
 20
-135.4146456909727
 30
0.0
 10
101.8656168365128
 20
-135.6473618910014
 30
0.0
 10
101.8611382123819
 20
-135.7193643866431
 30
0.0
 10
101.8611382123819
 20
-135.7193643866431
 30
0.0
 10
101.6440971968112
 20
-135.7193643866431
 30
0.0
 10
101.6440971968112
 20
-135.7193643866431
 30
0.0
 10
101.6530544450729
 20
-135.5944796753028
 30
0.0
 10
101.6823377566975
 20
-135.217930738765
 30
0.0
 10
102.1708522965059
 20
-135.217930738765
 30
0.0
 10
102.4106309422793
 20
-135.217930738765
 30
0.0
 10
102.668324084576
 20
-135.3448825073964
 30
0.0
 10
102.668324084576
 20
-135.6409884643537
 30
0.0
 10
102.668324084576
 20
-135.8271958753314
 30
0.0
 10
102.5663492582126
 20
-135.9097059122031
 30
0.0
 10
102.4602403172669
 20
-135.9710286118406
 30
0.0
 10
102.5256971314866
 20
-135.9985893757226
 30
0.0
 10
102.7203450264033
 20
-136.0790323553032
 30
0.0
 10
102.7203450264033
 20
-136.3561902870915
 30
0.0
 10
102.7203450264033
 20
-136.6946709185173
 30
0.0
 10
102.4557616931361
 20
-136.8617580495519
 30
0.0
 10
102.1594834814046
 20
-136.8617580495519
 30
0.0
  0
HATCH
  5
E0
330
DB
100
AcDbEntity
  8
_U+30EC_U+30A4_U+30E4_U+30FC 1
 62
   179
420
  2234388
100
AcDbHatch
 10
0.0
 20
0.0
 30
0.0
210
0.0
220
0.0
230
1.0
  2
SOLID
 70
     1
 71
     0
 91
        1
 92
        1
 93
        1
 72
     4
 94
        3
 73
     0
 74
     1
 95
       62
 96
       58
 40
0.0
 40
0.0
 40
0.0
 40
0.0
 40
1.0
 40
1.0
 40
1.0
 40
2.0
 40
2.0
 40
2.0
 40
3.0
 40
3.0
 40
3.0
 40
4.0
 40
4.0
 40
4.0
 40
5.0
 40
5.0
 40
5.0
 40
6.0
 40
6.0
 40
6.0
 40
7.0
 40
7.0
 40
7.0
 40
8.0
 40
8.0
 40
8.0
 40
9.0
 40
9.0
 40
9.0
 40
10.0
 40
10.0
 40
10.0
 40
11.0
 40
11.0
 40
11.0
 40
12.0
 40
12.0
 40
12.0
 40
13.0
 40
13.0
 40
13.0
 40
14.0
 40
14.0
 40
14.0
 40
15.0
 40
15.0
 40
15.0
 40
16.0
 40
16.0
 40
16.0
 40
17.0
 40
17.0
 40
17.0
 40
18.0
 40
18.0
 40
18.0
 40
19.0
 40
19.0
 40
19.0
 40
19.0
 10
102.1594834814046
 20
-136.8617580495519
 10
102.0578531645897
 20
-136.8617580495519
 10
101.8249647097868
 20
-136.8405707123176
 10
101.6916395145077
 20
-136.6543633013399
 10
101.6124023183469
 20
-136.542225443295
 10
101.6079236942161
 20
-136.4428344385456
 10
101.6034450700853
 20
-136.3582573443827
 10
101.6034450700853
 20
-136.3582573443827
 10
101.8384005821793
 20
-136.3582573443827
 10
101.8384005821793
 20
-136.3582573443827
 10
101.840812149019
 20
-136.4323268973155
 10
101.8521809641203
 20
-136.6671101546353
 10
102.1550048572738
 20
-136.6671101546353
 10
102.3021104344939
 20
-136.6671101546353
 10
102.4647189413977
 20
-136.597346971059
 10
102.4647189413977
 20
-136.3687648856127
 10
102.4647189413977
 20
-136.2524929129855
 10
102.4240668146718
 20
-136.2037448118692
 10
102.3903048789163
 20
-136.1720499334049
 10
102.3110676827556
 20
-136.0979803804721
 10
102.186699735738
 20
-136.0854057819509
 10
102.1277886029403
 20
-136.0854057819509
 10
102.1074625395773
 20
-136.0854057819509
 10
102.069221979691
 20
-136.087472839242
 10
102.0395941585179
 20
-136.0916069538243
 10
102.0395941585179
 20
-136.0916069538243
 10
102.0395941585179
 20
-135.8969590589077
 10
102.0395941585179
 20
-135.8969590589077
 10
102.0802462852438
 20
-135.9033324855554
 10
102.1257215456491
 20
-135.9055717976208
 10
102.1322672270711
 20
-135.9055717976208
 10
102.2025471749702
 20
-135.9055717976208
 10
102.4151095664101
 20
-135.8843844603865
 10
102.4151095664101
 20
-135.6473618910014
 10
102.4151095664101
 20
-135.4697672187367
 10
102.2748941801604
 20
-135.4146456909727
 10
102.1574164241134
 20
-135.4146456909727
 10
101.8745740847744
 20
-135.4146456909727
 10
101.8656168365128
 20
-135.6473618910014
 10
101.8611382123819
 20
-135.7193643866431
 10
101.8611382123819
 20
-135.7193643866431
 10
101.6440971968112
 20
-135.7193643866431
 10
101.6440971968112
 20
-135.7193643866431
 10
101.6530544450729
 20
-135.5944796753028
 10
101.6823377566975
 20
-135.217930738765
 10
102.1708522965059
 20
-135.217930738765
 10
102.4106309422793
 20
-135.217930738765
 10
102.668324084576
 20
-135.3448825073964
 10
102.668324084576
 20
-135.6409884643537
 10
102.668324084576
 20
-135.8271958753314
 10
102.5663492582126
 20
-135.9097059122031
 10
102.4602403172669
 20
-135.9710286118406
 10
102.5256971314866
 20
-135.9985893757226
 10
102.7203450264033
 20
-136.0790323553032
 10
102.7203450264033
 20
-136.3561902870915
 10
102.7203450264033
 20
-136.6946709185173
 10
102.4557616931361
 20
-136.8617580495519
 10
102.1594834814046
 20
-136.8617580495519
 97
        0
 97
        0
 75
     2
 76
     1
 98
        0
  0
SPLINE
  5
E1
330
DB
100
AcDbEntity
  8
_U+30EC_U+30A4_U+30E4_U+30FC 1
370
     0
100
AcDbSpline
210
0.0
220
0.0
230
1.0
 70
    11
 71
     3
 72
    62
 73
    58
 74
     0
 42
0.0000000001
 43
0.0000000001
 12
1.0
 22
0.0
 32
0.0
 13
1.0
 23
0.0
 33
0.0
 40
0.0
 40
0.0
 40
0.0
 40
0.0
 40
1.0
 40
1.0
 40
1.0
 40
2.0
 40
2.0
 40
2.0
 40
3.0
 40
3.0
 40
3.0
 40
4.0
 40
4.0
 40
4.0
 40
5.0
 40
5.0
 40
5.0
 40
6.0
 40
6.0
 40
6.0
 40
7.0
 40
7.0
 40
7.0
 40
8.0
 40
8.0
 40
8.0
 40
9.0
 40
9.0
 40
9.0
 40
10.0
 40
10.0
 40
10.0
 40
11.0
 40
11.0
 40
11.0
 40
12.0
 40
12.0
 40
12.0
 40
13.0
 40
13.0
 40
13.0
 40
14.0
 40
14.0
 40
14.0
 40
15.0
 40
15.0
 40
15.0
 40
16.0
 40
16.0
 40
16.0
 40
17.0
 40
17.0
 40
17.0
 40
18.0
 40
18.0
 40
18.0
 40
19.0
 40
19.0
 40
19.0
 40
19.0
 10
103.4172878430693
 20
-136.8617580495519
 30
0.0
 10
103.3156575262544
 20
-136.8617580495519
 30
0.0
 10
103.0827690714515
 20
-136.8405707123176
 30
0.0
 10
102.9494438761724
 20
-136.6543633013399
 30
0.0
 10
102.8702066800116
 20
-136.542225443295
 30
0.0
 10
102.8657280558808
 20
-136.4428344385456
 30
0.0
 10
102.86124943175
 20
-136.3582573443827
 30
0.0
 10
102.86124943175
 20
-136.3582573443827
 30
0.0
 10
103.096204943844
 20
-136.3582573443827
 30
0.0
 10
103.096204943844
 20
-136.3582573443827
 30
0.0
 10
103.0986165106837
 20
-136.4323268973155
 30
0.0
 10
103.109985325785
 20
-136.6671101546353
 30
0.0
 10
103.4128092189385
 20
-136.6671101546353
 30
0.0
 10
103.5599147961586
 20
-136.6671101546353
 30
0.0
 10
103.7225233030624
 20
-136.597346971059
 30
0.0
 10
103.7225233030624
 20
-136.3687648856127
 30
0.0
 10
103.7225233030624
 20
-136.2524929129855
 30
0.0
 10
103.6818711763365
 20
-136.2037448118692
 30
0.0
 10
103.6477647310325
 20
-136.1720499334049
 30
0.0
 10
103.5688720444203
 20
-136.0979803804721
 30
0.0
 10
103.4445040974028
 20
-136.0854057819509
 30
0.0
 10
103.385592964605
 20
-136.0854057819509
 30
0.0
 10
103.365266901242
 20
-136.0854057819509
 30
0.0
 10
103.3270263413557
 20
-136.087472839242
 30
0.0
 10
103.2973985201826
 20
-136.0916069538243
 30
0.0
 10
103.2973985201826
 20
-136.0916069538243
 30
0.0
 10
103.2973985201826
 20
-135.8969590589077
 30
0.0
 10
103.2973985201826
 20
-135.8969590589077
 30
0.0
 10
103.3380506469085
 20
-135.9033324855554
 30
0.0
 10
103.3835259073138
 20
-135.9055717976208
 30
0.0
 10
103.3900715887358
 20
-135.9055717976208
 30
0.0
 10
103.4603515366349
 20
-135.9055717976208
 30
0.0
 10
103.6729139280748
 20
-135.8843844603865
 30
0.0
 10
103.6729139280748
 20
-135.6473618910014
 30
0.0
 10
103.6729139280748
 20
-135.4697672187367
 30
0.0
 10
103.5326985418252
 20
-135.4146456909727
 30
0.0
 10
103.4152207857781
 20
-135.4146456909727
 30
0.0
 10
103.1323784464391
 20
-135.4146456909727
 30
0.0
 10
103.1234211981775
 20
-135.6473618910014
 30
0.0
 10
103.1189425740467
 20
-135.7193643866431
 30
0.0
 10
103.1189425740467
 20
-135.7193643866431
 30
0.0
 10
102.9019015584759
 20
-135.7193643866431
 30
0.0
 10
102.9019015584759
 20
-135.7193643866431
 30
0.0
 10
102.9108588067376
 20
-135.5944796753028
 30
0.0
 10
102.9401421183622
 20
-135.217930738765
 30
0.0
 10
103.4286566581706
 20
-135.217930738765
 30
0.0
 10
103.668435303944
 20
-135.217930738765
 30
0.0
 10
103.9261284462407
 20
-135.3448825073964
 30
0.0
 10
103.9261284462407
 20
-135.6409884643537
 30
0.0
 10
103.9261284462407
 20
-135.8271958753314
 30
0.0
 10
103.8241536198773
 20
-135.9097059122031
 30
0.0
 10
103.7180446789316
 20
-135.9710286118406
 30
0.0
 10
103.7835014931513
 20
-135.9985893757226
 30
0.0
 10
103.978149388068
 20
-136.0790323553032
 30
0.0
 10
103.978149388068
 20
-136.3561902870915
 30
0.0
 10
103.978149388068
 20
-136.6946709185173
 30
0.0
 10
103.7135660548008
 20
-136.8617580495519
 30
0.0
 10
103.4172878430693
 20
-136.8617580495519
 30
0.0
  0
HATCH
  5
E2
330
DB
100
AcDbEntity
  8
_U+30EC_U+30A4_U+30E4_U+30FC 1
 62
   179
420
  2234388
100
AcDbHatch
 10
0.0
 20
0.0
 30
0.0
210
0.0
220
0.0
230
1.0
  2
SOLID
 70
     1
 71
     0
 91
        1
 92
        1
 93
        1
 72
     4
 94
        3
 73
     0
 74
     1
 95
       62
 96
       58
 40
0.0
 40
0.0
 40
0.0
 40
0.0
 40
1.0
 40
1.0
 40
1.0
 40
2.0
 40
2.0
 40
2.0
 40
3.0
 40
3.0
 40
3.0
 40
4.0
 40
4.0
 40
4.0
 40
5.0
 40
5.0
 40
5.0
 40
6.0
 40
6.0
 40
6.0
 40
7.0
 40
7.0
 40
7.0
 40
8.0
 40
8.0
 40
8.0
 40
9.0
 40
9.0
 40
9.0
 40
10.0
 40
10.0
 40
10.0
 40
11.0
 40
11.0
 40
11.0
 40
12.0
 40
12.0
 40
12.0
 40
13.0
 40
13.0
 40
13.0
 40
14.0
 40
14.0
 40
14.0
 40
15.0
 40
15.0
 40
15.0
 40
16.0
 40
16.0
 40
16.0
 40
17.0
 40
17.0
 40
17.0
 40
18.0
 40
18.0
 40
18.0
 40
19.0
 40
19.0
 40
19.0
 40
19.0
 10
103.4172878430693
 20
-136.8617580495519
 10
103.3156575262544
 20
-136.8617580495519
 10
103.0827690714515
 20
-136.8405707123176
 10
102.9494438761724
 20
-136.6543633013399
 10
102.8702066800116
 20
-136.542225443295
 10
102.8657280558808
 20
-136.4428344385456
 10
102.86124943175
 20
-136.3582573443827
 10
102.86124943175
 20
-136.3582573443827
 10
103.096204943844
 20
-136.3582573443827
 10
103.096204943844
 20
-136.3582573443827
 10
103.0986165106837
 20
-136.4323268973155
 10
103.109985325785
 20
-136.6671101546353
 10
103.4128092189385
 20
-136.6671101546353
 10
103.5599147961586
 20
-136.6671101546353
 10
103.7225233030624
 20
-136.597346971059
 10
103.7225233030624
 20
-136.3687648856127
 10
103.7225233030624
 20
-136.2524929129855
 10
103.6818711763365
 20
-136.2037448118692
 10
103.6477647310325
 20
-136.1720499334049
 10
103.5688720444203
 20
-136.0979803804721
 10
103.4445040974028
 20
-136.0854057819509
 10
103.385592964605
 20
-136.0854057819509
 10
103.365266901242
 20
-136.0854057819509
 10
103.3270263413557
 20
-136.087472839242
 10
103.2973985201826
 20
-136.0916069538243
 10
103.2973985201826
 20
-136.0916069538243
 10
103.2973985201826
 20
-135.8969590589077
 10
103.2973985201826
 20
-135.8969590589077
 10
103.3380506469085
 20
-135.9033324855554
 10
103.3835259073138
 20
-135.9055717976208
 10
103.3900715887358
 20
-135.9055717976208
 10
103.4603515366349
 20
-135.9055717976208
 10
103.6729139280748
 20
-135.8843844603865
 10
103.6729139280748
 20
-135.6473618910014
 10
103.6729139280748
 20
-135.4697672187367
 10
103.5326985418252
 20
-135.4146456909727
 10
103.4152207857781
 20
-135.4146456909727
 10
103.1323784464391
 20
-135.4146456909727
 10
103.1234211981775
 20
-135.6473618910014
 10
103.1189425740467
 20
-135.7193643866431
 10
103.1189425740467
 20
-135.7193643866431
 10
102.9019015584759
 20
-135.7193643866431
 10
102.9019015584759
 20
-135.7193643866431
 10
102.9108588067376
 20
-135.5944796753028
 10
102.9401421183622
 20
-135.217930738765
 10
103.4286566581706
 20
-135.217930738765
 10
103.668435303944
 20
-135.217930738765
 10
103.9261284462407
 20
-135.3448825073964
 10
103.9261284462407
 20
-135.6409884643537
 10
103.9261284462407
 20
-135.8271958753314
 10
103.8241536198773
 20
-135.9097059122031
 10
103.7180446789316
 20
-135.9710286118406
 10
103.7835014931513
 20
-135.9985893757226
 10
103.978149388068
 20
-136.0790323553032
 10
103.978149388068
 20
-136.3561902870915
 10
103.978149388068
 20
-136.6946709185173
 10
103.7135660548008
 20
-136.8617580495519
 10
103.4172878430693
 20
-136.8617580495519
 97
        0
 97
        0
 75
     2
 76
     1
 98
        0
  0
ENDBLK
  5
DE
330
DB
100
AcDbEntity
  8
0
100
AcDbBlockEnd
  0
BLOCK
  5
ED
330
EB
100
AcDbEntity
  8
0
100
AcDbBlockBegin
  2
block 6
 70
     0
 10
0.0
 20
0.0
 30
0.0
  3
block 6
  1

  0
SPLINE
  5
EF
330
EB
100
AcDbEntity
  8
_U+30EC_U+30A4_U+30E4_U+30FC 1
370
     0
100
AcDbSpline
210
0.0
220
0.0
230
1.0
 70
    11
 71
     3
 72
    29
 73
    25
 74
     0
 42
0.0000000001
 43
0.0000000001
 12
1.0
 22
0.0
 32
0.0
 13
1.0
 23
0.0
 33
0.0
 40
0.0
 40
0.0
 40
0.0
 40
0.0
 40
1.0
 40
1.0
 40
1.0
 40
2.0
 40
2.0
 40
2.0
 40
3.0
 40
3.0
 40
3.0
 40
4.0
 40
4.0
 40
4.0
 40
5.0
 40
5.0
 40
5.0
 40
6.0
 40
6.0
 40
6.0
 40
7.0
 40
7.0
 40
7.0
 40
8.0
 40
8.0
 40
8.0
 40
8.0
 10
90.33505450215583
 20
-160.0612033019986
 30
0.0
 10
90.05014510552566
 20
-160.0612033019986
 30
0.0
 10
89.77884383606224
 20
-159.9237439921371
 30
0.0
 10
89.77884383606224
 20
-159.5747558194813
 30
0.0
 10
89.77884383606224
 20
-159.3187852249273
 30
0.0
 10
89.93025578263897
 20
-159.2237005895344
 30
0.0
 10
90.04342716932942
 20
-159.1623778898969
 30
0.0
 10
89.909929719276
 20
-159.1031222475506
 30
0.0
 10
89.8286254658241
 20
-158.9887450774403
 30
0.0
 10
89.8286254658241
 20
-158.8278591182792
 30
0.0
 10
89.8286254658241
 20
-158.5529404985562
 30
0.0
 10
90.04101560248975
 20
-158.4175482459859
 30
0.0
 10
90.33505450215583
 20
-158.4175482459859
 30
0.0
 10
90.63805065008354
 20
-158.4175482459859
 30
0.0
 10
90.84148353848755
 20
-158.5615532372694
 30
0.0
 10
90.84148353848755
 20
-158.8278591182792
 30
0.0
 10
90.84148353848755
 20
-158.9887450774403
 30
0.0
 10
90.75776771819598
 20
-159.1031222475506
 30
0.0
 10
90.62444252291681
 20
-159.1623778898969
 30
0.0
 10
90.71935490353545
 20
-159.2130207935301
 30
0.0
 10
90.88885360140974
 20
-159.308105428923
 30
0.0
 10
90.88885360140974
 20
-159.570621704899
 30
0.0
 10
90.88885360140974
 20
-159.9451035841457
 30
0.0
 10
90.5905083323871
 20
-160.0612033019986
 30
0.0
 10
90.33505450215583
 20
-160.0612033019986
 30
0.0
  0
SPLINE
  5
F0
330
EB
100
AcDbEntity
  8
_U+30EC_U+30A4_U+30E4_U+30FC 1
370
     0
100
AcDbSpline
210
0.0
220
0.0
230
1.0
 70
    11
 71
     3
 72
    17
 73
    13
 74
     0
 42
0.0000000001
 43
0.0000000001
 12
1.0
 22
0.0
 32
0.0
 13
1.0
 23
0.0
 33
0.0
 40
0.0
 40
0.0
 40
0.0
 40
0.0
 40
1.0
 40
1.0
 40
1.0
 40
2.0
 40
2.0
 40
2.0
 40
3.0
 40
3.0
 40
3.0
 40
4.0
 40
4.0
 40
4.0
 40
4.0
 10
90.33505450215583
 20
-159.2702093785852
 30
0.0
 10
90.18123098873942
 20
-159.2702093785852
 30
0.0
 10
90.01845022706136
 20
-159.3570257848135
 30
0.0
 10
90.01845022706136
 20
-159.5599419088948
 30
0.0
 10
90.01845022706136
 20
-159.7652695998156
 30
0.0
 10
90.1541869891802
 20
-159.866555407082
 30
0.0
 10
90.33505450215583
 20
-159.866555407082
 30
0.0
 10
90.534008766429
 20
-159.866555407082
 30
0.0
 10
90.65148652247602
 20
-159.7439100078071
 30
0.0
 10
90.65148652247602
 20
-159.5661430807682
 30
0.0
 10
90.65148652247602
 20
-159.3442789315181
 30
0.0
 10
90.4775092004709
 20
-159.2702093785852
 30
0.0
 10
90.33505450215583
 20
-159.2702093785852
 30
0.0
  0
SPLINE
  5
F1
330
EB
100
AcDbEntity
  8
_U+30EC_U+30A4_U+30E4_U+30FC 1
370
     0
100
AcDbSpline
210
0.0
220
0.0
230
1.0
 70
    11
 71
     3
 72
    17
 73
    13
 74
     0
 42
0.0000000001
 43
0.0000000001
 12
1.0
 22
0.0
 32
0.0
 13
1.0
 23
0.0
 33
0.0
 40
0.0
 40
0.0
 40
0.0
 40
0.0
 40
1.0
 40
1.0
 40
1.0
 40
2.0
 40
2.0
 40
2.0
 40
3.0
 40
3.0
 40
3.0
 40
4.0
 40
4.0
 40
4.0
 40
4.0
 10
90.33505450215583
 20
-158.6101290836114
 30
0.0
 10
90.15866561331103
 20
-158.6101290836114
 30
0.0
 10
90.06823185682322
 20
-158.7052137190043
 30
0.0
 10
90.06823185682322
 20
-158.8406059715746
 30
0.0
 10
90.06823185682322
 20
-158.9632513708495
 30
0.0
 10
90.1450574861443
 20
-159.0817626555421
 30
0.0
 10
90.33505450215583
 20
-159.0817626555421
 30
0.0
 10
90.52487926339309
 20
-159.0817626555421
 30
0.0
 10
90.60187714748842
 20
-158.9632513708495
 30
0.0
 10
90.60187714748842
 20
-158.8406059715746
 30
0.0
 10
90.60187714748842
 20
-158.7052137190043
 30
0.0
 10
90.50903182416094
 20
-158.6101290836114
 30
0.0
 10
90.33505450215583
 20
-158.6101290836114
 30
0.0
  0
HATCH
  5
F2
330
EB
100
AcDbEntity
  8
_U+30EC_U+30A4_U+30E4_U+30FC 1
 62
   179
420
  2234388
100
AcDbHatch
 10
0.0
 20
0.0
 30
0.0
210
0.0
220
0.0
230
1.0
  2
SOLID
 70
     1
 71
     0
 91
        3
 92
        1
 93
        1
 72
     4
 94
        3
 73
     0
 74
     1
 95
       29
 96
       25
 40
0.0
 40
0.0
 40
0.0
 40
0.0
 40
1.0
 40
1.0
 40
1.0
 40
2.0
 40
2.0
 40
2.0
 40
3.0
 40
3.0
 40
3.0
 40
4.0
 40
4.0
 40
4.0
 40
5.0
 40
5.0
 40
5.0
 40
6.0
 40
6.0
 40
6.0
 40
7.0
 40
7.0
 40
7.0
 40
8.0
 40
8.0
 40
8.0
 40
8.0
 10
90.33505450215583
 20
-160.0612033019986
 10
90.05014510552566
 20
-160.0612033019986
 10
89.77884383606224
 20
-159.9237439921371
 10
89.77884383606224
 20
-159.5747558194813
 10
89.77884383606224
 20
-159.3187852249273
 10
89.93025578263897
 20
-159.2237005895344
 10
90.04342716932942
 20
-159.1623778898969
 10
89.909929719276
 20
-159.1031222475506
 10
89.8286254658241
 20
-158.9887450774403
 10
89.8286254658241
 20
-158.8278591182792
 10
89.8286254658241
 20
-158.5529404985562
 10
90.04101560248975
 20
-158.4175482459859
 10
90.33505450215583
 20
-158.4175482459859
 10
90.63805065008354
 20
-158.4175482459859
 10
90.84148353848755
 20
-158.5615532372694
 10
90.84148353848755
 20
-158.8278591182792
 10
90.84148353848755
 20
-158.9887450774403
 10
90.75776771819598
 20
-159.1031222475506
 10
90.62444252291681
 20
-159.1623778898969
 10
90.71935490353545
 20
-159.2130207935301
 10
90.88885360140974
 20
-159.308105428923
 10
90.88885360140974
 20
-159.570621704899
 10
90.88885360140974
 20
-159.9451035841457
 10
90.5905083323871
 20
-160.0612033019986
 10
90.33505450215583
 20
-160.0612033019986
 97
        0
 97
        0
 92
        1
 93
        1
 72
     4
 94
        3
 73
     0
 74
     1
 95
       17
 96
       13
 40
0.0
 40
0.0
 40
0.0
 40
0.0
 40
1.0
 40
1.0
 40
1.0
 40
2.0
 40
2.0
 40
2.0
 40
3.0
 40
3.0
 40
3.0
 40
4.0
 40
4.0
 40
4.0
 40
4.0
 10
90.33505450215583
 20
-159.2702093785852
 10
90.18123098873942
 20
-159.2702093785852
 10
90.01845022706136
 20
-159.3570257848135
 10
90.01845022706136
 20
-159.5599419088948
 10
90.01845022706136
 20
-159.7652695998156
 10
90.1541869891802
 20
-159.866555407082
 10
90.33505450215583
 20
-159.866555407082
 10
90.534008766429
 20
-159.866555407082
 10
90.65148652247602
 20
-159.7439100078071
 10
90.65148652247602
 20
-159.5661430807682
 10
90.65148652247602
 20
-159.3442789315181
 10
90.4775092004709
 20
-159.2702093785852
 10
90.33505450215583
 20
-159.2702093785852
 97
        0
 97
        0
 92
        1
 93
        1
 72
     4
 94
        3
 73
     0
 74
     1
 95
       17
 96
       13
 40
0.0
 40
0.0
 40
0.0
 40
0.0
 40
1.0
 40
1.0
 40
1.0
 40
2.0
 40
2.0
 40
2.0
 40
3.0
 40
3.0
 40
3.0
 40
4.0
 40
4.0
 40
4.0
 40
4.0
 10
90.33505450215583
 20
-158.6101290836114
 10
90.15866561331103
 20
-158.6101290836114
 10
90.06823185682322
 20
-158.7052137190043
 10
90.06823185682322
 20
-158.8406059715746
 10
90.06823185682322
 20
-158.9632513708495
 10
90.1450574861443
 20
-159.0817626555421
 10
90.33505450215583
 20
-159.0817626555421
 10
90.52487926339309
 20
-159.0817626555421
 10
90.60187714748842
 20
-158.9632513708495
 10
90.60187714748842
 20
-158.8406059715746
 10
90.60187714748842
 20
-158.7052137190043
 10
90.50903182416094
 20
-158.6101290836114
 10
90.33505450215583
 20
-158.6101290836114
 97
        0
 97
        0
 75
     2
 76
     1
 98
        0
  0
ENDBLK
  5
EE
330
EB
100
AcDbEntity
  8
0
100
AcDbBlockEnd
  0
BLOCK
  5
FD
330
FB
100
AcDbEntity
  8
0
100
AcDbBlockBegin
  2
block 7
 70
     0
 10
0.0
 20
0.0
 30
0.0
  3
block 7
  1

  0
SPLINE
  5
FF
330
FB
100
AcDbEntity
  8
_U+30EC_U+30A4_U+30E4_U+30FC 1
370
     0
100
AcDbSpline
210
0.0
220
0.0
230
1.0
 70
    11
 71
     3
 72
    26
 73
    22
 74
     0
 42
0.0000000001
 43
0.0000000001
 12
1.0
 22
0.0
 32
0.0
 13
1.0
 23
0.0
 33
0.0
 40
0.0
 40
0.0
 40
0.0
 40
0.0
 40
1.0
 40
1.0
 40
1.0
 40
2.0
 40
2.0
 40
2.0
 40
3.0
 40
3.0
 40
3.0
 40
4.0
 40
4.0
 40
4.0
 40
5.0
 40
5.0
 40
5.0
 40
6.0
 40
6.0
 40
6.0
 40
7.0
 40
7.0
 40
7.0
 40
7.0
 10
121.9904866231482
 20
-150.2885009389904
 30
0.0
 10
121.9904866231482
 20
-150.2885009389904
 30
0.0
 10
120.8863335201256
 20
-150.2885009389904
 30
0.0
 10
120.8863335201256
 20
-150.2885009389904
 30
0.0
 10
120.8863335201256
 20
-150.2885009389904
 30
0.0
 10
120.8863335201256
 20
-150.6409342071314
 30
0.0
 10
120.8863335201256
 20
-150.6409342071314
 30
0.0
 10
120.8863335201256
 20
-150.6409342071314
 30
0.0
 10
120.7381944142599
 20
-150.6409342071314
 30
0.0
 10
120.7381944142599
 20
-150.6409342071314
 30
0.0
 10
120.7233805036733
 20
-150.2860893721507
 30
0.0
 10
120.560427487221
 20
-150.2364799971631
 30
0.0
 10
120.4460503171107
 20
-150.2047851186988
 30
0.0
 10
120.4460503171107
 20
-150.2047851186988
 30
0.0
 10
120.4460503171107
 20
-150.048722293217
 30
0.0
 10
120.4460503171107
 20
-150.048722293217
 30
0.0
 10
120.4460503171107
 20
-150.048722293217
 30
0.0
 10
121.9904866231482
 20
-150.048722293217
 30
0.0
 10
121.9904866231482
 20
-150.048722293217
 30
0.0
 10
121.9904866231482
 20
-150.048722293217
 30
0.0
 10
121.9904866231482
 20
-150.2885009389904
 30
0.0
 10
121.9904866231482
 20
-150.2885009389904
 30
0.0
  0
HATCH
  5
100
330
FB
100
AcDbEntity
  8
_U+30EC_U+30A4_U+30E4_U+30FC 1
 62
   179
420
  2234388
100
AcDbHatch
 10
0.0
 20
0.0
 30
0.0
210
0.0
220
0.0
230
1.0
  2
SOLID
 70
     1
 71
     0
 91
        1
 92
        1
 93
        1
 72
     4
 94
        3
 73
     0
 74
     1
 95
       26
 96
       22
 40
0.0
 40
0.0
 40
0.0
 40
0.0
 40
1.0
 40
1.0
 40
1.0
 40
2.0
 40
2.0
 40
2.0
 40
3.0
 40
3.0
 40
3.0
 40
4.0
 40
4.0
 40
4.0
 40
5.0
 40
5.0
 40
5.0
 40
6.0
 40
6.0
 40
6.0
 40
7.0
 40
7.0
 40
7.0
 40
7.0
 10
121.9904866231482
 20
-150.2885009389904
 10
121.9904866231482
 20
-150.2885009389904
 10
120.8863335201256
 20
-150.2885009389904
 10
120.8863335201256
 20
-150.2885009389904
 10
120.8863335201256
 20
-150.2885009389904
 10
120.8863335201256
 20
-150.6409342071314
 10
120.8863335201256
 20
-150.6409342071314
 10
120.8863335201256
 20
-150.6409342071314
 10
120.7381944142599
 20
-150.6409342071314
 10
120.7381944142599
 20
-150.6409342071314
 10
120.7233805036733
 20
-150.2860893721507
 10
120.560427487221
 20
-150.2364799971631
 10
120.4460503171107
 20
-150.2047851186988
 10
120.4460503171107
 20
-150.2047851186988
 10
120.4460503171107
 20
-150.048722293217
 10
120.4460503171107
 20
-150.048722293217
 10
120.4460503171107
 20
-150.048722293217
 10
121.9904866231482
 20
-150.048722293217
 10
121.9904866231482
 20
-150.048722293217
 10
121.9904866231482
 20
-150.048722293217
 10
121.9904866231482
 20
-150.2885009389904
 10
121.9904866231482
 20
-150.2885009389904
 97
        0
 97
        0
 75
     2
 76
     1
 98
        0
  0
SPLINE
  5
101
330
FB
100
AcDbEntity
  8
_U+30EC_U+30A4_U+30E4_U+30FC 1
370
     0
100
AcDbSpline
210
0.0
220
0.0
230
1.0
 70
    11
 71
     3
 72
    62
 73
    58
 74
     0
 42
0.0000000001
 43
0.0000000001
 12
1.0
 22
0.0
 32
0.0
 13
1.0
 23
0.0
 33
0.0
 40
0.0
 40
0.0
 40
0.0
 40
0.0
 40
1.0
 40
1.0
 40
1.0
 40
2.0
 40
2.0
 40
2.0
 40
3.0
 40
3.0
 40
3.0
 40
4.0
 40
4.0
 40
4.0
 40
5.0
 40
5.0
 40
5.0
 40
6.0
 40
6.0
 40
6.0
 40
7.0
 40
7.0
 40
7.0
 40
8.0
 40
8.0
 40
8.0
 40
9.0
 40
9.0
 40
9.0
 40
10.0
 40
10.0
 40
10.0
 40
11.0
 40
11.0
 40
11.0
 40
12.0
 40
12.0
 40
12.0
 40
13.0
 40
13.0
 40
13.0
 40
14.0
 40
14.0
 40
14.0
 40
15.0
 40
15.0
 40
15.0
 40
16.0
 40
16.0
 40
16.0
 40
17.0
 40
17.0
 40
17.0
 40
18.0
 40
18.0
 40
18.0
 40
19.0
 40
19.0
 40
19.0
 40
19.0
 10
122.0411295267814
 20
-148.9876328837601
 30
0.0
 10
122.0411295267814
 20
-149.0892632005749
 30
0.0
 10
122.0201144443214
 20
-149.3221516553778
 30
0.0
 10
121.8340792881179
 20
-149.455476850657
 30
0.0
 10
121.7217691752987
 20
-149.5347140468177
 30
0.0
 10
121.6225504253235
 20
-149.5391926709486
 30
0.0
 10
121.5378010763864
 20
-149.5436712950794
 30
0.0
 10
121.5378010763864
 20
-149.5436712950794
 30
0.0
 10
121.5378010763864
 20
-149.3087157829853
 30
0.0
 10
121.5378010763864
 20
-149.3087157829853
 30
0.0
 10
121.6118706293193
 20
-149.3063042161457
 30
0.0
 10
121.8464816318648
 20
-149.2949354010443
 30
0.0
 10
121.8464816318648
 20
-148.9921115078909
 30
0.0
 10
121.8464816318648
 20
-148.8450059306707
 30
0.0
 10
121.7768907030627
 20
-148.6823974237669
 30
0.0
 10
121.5484808723907
 20
-148.6823974237669
 30
0.0
 10
121.4320366449892
 20
-148.6823974237669
 30
0.0
 10
121.3834607986472
 20
-148.7230495504928
 30
0.0
 10
121.3517659201829
 20
-148.7571559957968
 30
0.0
 10
121.27769636725
 20
-148.8360486824091
 30
0.0
 10
121.2649495139546
 20
-148.9604166294266
 30
0.0
 10
121.2649495139546
 20
-149.0193277622243
 30
0.0
 10
121.2649495139546
 20
-149.0396538255873
 30
0.0
 10
121.2670165712457
 20
-149.0778943854736
 30
0.0
 10
121.271150685828
 20
-149.1075222066467
 30
0.0
 10
121.271150685828
 20
-149.1075222066467
 30
0.0
 10
121.0765027909114
 20
-149.1075222066467
 30
0.0
 10
121.0765027909114
 20
-149.1075222066467
 30
0.0
 10
121.0830484723334
 20
-149.0668700799208
 30
0.0
 10
121.0851155296246
 20
-149.0213948195155
 30
0.0
 10
121.0851155296246
 20
-149.0148491380935
 30
0.0
 10
121.0851155296246
 20
-148.9445691901944
 30
0.0
 10
121.063755937616
 20
-148.7320067987545
 30
0.0
 10
120.8270778777793
 20
-148.7320067987545
 30
0.0
 10
120.6493109507405
 20
-148.7320067987545
 30
0.0
 10
120.5941894229765
 20
-148.8722221850042
 30
0.0
 10
120.5941894229765
 20
-148.9896999410512
 30
0.0
 10
120.5941894229765
 20
-149.2725422803902
 30
0.0
 10
120.8270778777793
 20
-149.2814995286519
 30
0.0
 10
120.8987358638725
 20
-149.2859781527827
 30
0.0
 10
120.8987358638725
 20
-149.2859781527827
 30
0.0
 10
120.8987358638725
 20
-149.5030191683534
 30
0.0
 10
120.8987358638725
 20
-149.5030191683534
 30
0.0
 10
120.7740234073065
 20
-149.4940619200918
 30
0.0
 10
120.3974744707687
 20
-149.4647786084672
 30
0.0
 10
120.3974744707687
 20
-148.9762640686587
 30
0.0
 10
120.3974744707687
 20
-148.7364854228853
 30
0.0
 10
120.5245984941744
 20
-148.4787922805886
 30
0.0
 10
120.8205321963574
 20
-148.4787922805886
 30
0.0
 10
121.0069118621094
 20
-148.4787922805886
 30
0.0
 10
121.0892496442069
 20
-148.580767106952
 30
0.0
 10
121.1505723438443
 20
-148.6868760478977
 30
0.0
 10
121.1781331077263
 20
-148.621419233678
 30
0.0
 10
121.2584038325326
 20
-148.4267713387614
 30
0.0
 10
121.5357340190952
 20
-148.4267713387614
 30
0.0
 10
121.8740423957468
 20
-148.4267713387614
 30
0.0
 10
122.0411295267814
 20
-148.6913546720286
 30
0.0
 10
122.0411295267814
 20
-148.9876328837601
 30
0.0
  0
HATCH
  5
102
330
FB
100
AcDbEntity
  8
_U+30EC_U+30A4_U+30E4_U+30FC 1
 62
   179
420
  2234388
100
AcDbHatch
 10
0.0
 20
0.0
 30
0.0
210
0.0
220
0.0
230
1.0
  2
SOLID
 70
     1
 71
     0
 91
        1
 92
        1
 93
        1
 72
     4
 94
        3
 73
     0
 74
     1
 95
       62
 96
       58
 40
0.0
 40
0.0
 40
0.0
 40
0.0
 40
1.0
 40
1.0
 40
1.0
 40
2.0
 40
2.0
 40
2.0
 40
3.0
 40
3.0
 40
3.0
 40
4.0
 40
4.0
 40
4.0
 40
5.0
 40
5.0
 40
5.0
 40
6.0
 40
6.0
 40
6.0
 40
7.0
 40
7.0
 40
7.0
 40
8.0
 40
8.0
 40
8.0
 40
9.0
 40
9.0
 40
9.0
 40
10.0
 40
10.0
 40
10.0
 40
11.0
 40
11.0
 40
11.0
 40
12.0
 40
12.0
 40
12.0
 40
13.0
 40
13.0
 40
13.0
 40
14.0
 40
14.0
 40
14.0
 40
15.0
 40
15.0
 40
15.0
 40
16.0
 40
16.0
 40
16.0
 40
17.0
 40
17.0
 40
17.0
 40
18.0
 40
18.0
 40
18.0
 40
19.0
 40
19.0
 40
19.0
 40
19.0
 10
122.0411295267814
 20
-148.9876328837601
 10
122.0411295267814
 20
-149.0892632005749
 10
122.0201144443214
 20
-149.3221516553778
 10
121.8340792881179
 20
-149.455476850657
 10
121.7217691752987
 20
-149.5347140468177
 10
121.6225504253235
 20
-149.5391926709486
 10
121.5378010763864
 20
-149.5436712950794
 10
121.5378010763864
 20
-149.5436712950794
 10
121.5378010763864
 20
-149.3087157829853
 10
121.5378010763864
 20
-149.3087157829853
 10
121.6118706293193
 20
-149.3063042161457
 10
121.8464816318648
 20
-149.2949354010443
 10
121.8464816318648
 20
-148.9921115078909
 10
121.8464816318648
 20
-148.8450059306707
 10
121.7768907030627
 20
-148.6823974237669
 10
121.5484808723907
 20
-148.6823974237669
 10
121.4320366449892
 20
-148.6823974237669
 10
121.3834607986472
 20
-148.7230495504928
 10
121.3517659201829
 20
-148.7571559957968
 10
121.27769636725
 20
-148.8360486824091
 10
121.2649495139546
 20
-148.9604166294266
 10
121.2649495139546
 20
-149.0193277622243
 10
121.2649495139546
 20
-149.0396538255873
 10
121.2670165712457
 20
-149.0778943854736
 10
121.271150685828
 20
-149.1075222066467
 10
121.271150685828
 20
-149.1075222066467
 10
121.0765027909114
 20
-149.1075222066467
 10
121.0765027909114
 20
-149.1075222066467
 10
121.0830484723334
 20
-149.0668700799208
 10
121.0851155296246
 20
-149.0213948195155
 10
121.0851155296246
 20
-149.0148491380935
 10
121.0851155296246
 20
-148.9445691901944
 10
121.063755937616
 20
-148.7320067987545
 10
120.8270778777793
 20
-148.7320067987545
 10
120.6493109507405
 20
-148.7320067987545
 10
120.5941894229765
 20
-148.8722221850042
 10
120.5941894229765
 20
-148.9896999410512
 10
120.5941894229765
 20
-149.2725422803902
 10
120.8270778777793
 20
-149.2814995286519
 10
120.8987358638725
 20
-149.2859781527827
 10
120.8987358638725
 20
-149.2859781527827
 10
120.8987358638725
 20
-149.5030191683534
 10
120.8987358638725
 20
-149.5030191683534
 10
120.7740234073065
 20
-149.4940619200918
 10
120.3974744707687
 20
-149.4647786084672
 10
120.3974744707687
 20
-148.9762640686587
 10
120.3974744707687
 20
-148.7364854228853
 10
120.5245984941744
 20
-148.4787922805886
 10
120.8205321963574
 20
-148.4787922805886
 10
121.0069118621094
 20
-148.4787922805886
 10
121.0892496442069
 20
-148.580767106952
 10
121.1505723438443
 20
-148.6868760478977
 10
121.1781331077263
 20
-148.621419233678
 10
121.2584038325326
 20
-148.4267713387614
 10
121.5357340190952
 20
-148.4267713387614
 10
121.8740423957468
 20
-148.4267713387614
 10
122.0411295267814
 20
-148.6913546720286
 10
122.0411295267814
 20
-148.9876328837601
 97
        0
 97
        0
 75
     2
 76
     1
 98
        0
  0
ENDBLK
  5
FE
330
FB
100
AcDbEntity
  8
0
100
AcDbBlockEnd
  0
ENDSEC
  0
SECTION
  2
ENTITIES
  0
POLYLINE
  5
41
330
1F
100
AcDbEntity
  8
_U+30EC_U+30A4_U+30E4_U+30FC 1
 62
   179
420
  2234388
370
    25
100
AcDb2dPolyline
 66
     1
 10
0.0
 20
0.0
 30
0.0
  0
VERTEX
  5
42
330
41
100
AcDbEntity
  8
_U+30EC_U+30A4_U+30E4_U+30FC 1
 62
   179
420
  2234388
370
    25
100
AcDbVertex
100
AcDb2dVertex
 10
86.29275835404388
 20
-142.1124355200273
 30
0.0
  0
VERTEX
  5
43
330
41
100
AcDbEntity
  8
_U+30EC_U+30A4_U+30E4_U+30FC 1
 62
   179
420
  2234388
370
    25
100
AcDbVertex
100
AcDb2dVertex
 10
95.2927189577691
 20
-142.1124355200273
 30
0.0
  0
SEQEND
  5
44
330
41
100
AcDbEntity
  8
_U+30EC_U+30A4_U+30E4_U+30FC 1
 62
   179
420
  2234388
370
    25
  0
POLYLINE
  5
45
330
1F
100
AcDbEntity
  8
_U+30EC_U+30A4_U+30E4_U+30FC 1
 62
   179
420
  2234388
370
    25
100
AcDb2dPolyline
 66
     1
 10
0.0
 20
0.0
 30
0.0
  0
VERTEX
  5
46
330
45
100
AcDbEntity
  8
_U+30EC_U+30A4_U+30E4_U+30FC 1
 62
   179
420
  2234388
370
    25
100
AcDbVertex
100
AcDb2dVertex
 10
119.2926139010363
 20
-142.1124355200273
 30
0.0
  0
VERTEX
  5
47
330
45
100
AcDbEntity
  8
_U+30EC_U+30A4_U+30E4_U+30FC 1
 62
   179
420
  2234388
370
    25
100
AcDbVertex
100
AcDb2dVertex
 10
119.2926139010363
 20
-143.1122077419999
 30
0.0
  0
SEQEND
  5
48
330
45
100
AcDbEntity
  8
_U+30EC_U+30A4_U+30E4_U+30FC 1
 62
   179
420
  2234388
370
    25
  0
POLYLINE
  5
49
330
1F
100
AcDbEntity
  8
_U+30EC_U+30A4_U+30E4_U+30FC 1
 62
   179
420
  2234388
370
    25
100
AcDb2dPolyline
 66
     1
 10
0.0
 20
0.0
 30
0.0
  0
VERTEX
  5
4A
330
49
100
AcDbEntity
  8
_U+30EC_U+30A4_U+30E4_U+30FC 1
 62
   179
420
  2234388
370
    25
100
AcDbVertex
100
AcDb2dVertex
 10
97.29258330901018
 20
-143.1122077419999
 30
0.0
  0
VERTEX
  5
4B
330
49
100
AcDbEntity
  8
_U+30EC_U+30A4_U+30E4_U+30FC 1
 62
   179
420
  2234388
370
    25
100
AcDbVertex
100
AcDb2dVertex
 10
119.2926139010363
 20
-143.1122077419999
 30
0.0
  0
SEQEND
  5
4C
330
49
100
AcDbEntity
  8
_U+30EC_U+30A4_U+30E4_U+30FC 1
 62
   179
420
  2234388
370
    25
  0
POLYLINE
  5
4D
330
1F
100
AcDbEntity
  8
_U+30EC_U+30A4_U+30E4_U+30FC 1
 62
   179
420
  2234388
370
    25
100
AcDb2dPolyline
 66
     1
 10
0.0
 20
0.0
 30
0.0
  0
VERTEX
  5
4E
330
4D
100
AcDbEntity
  8
_U+30EC_U+30A4_U+30E4_U+30FC 1
 62
   179
420
  2234388
370
    25
100
AcDbVertex
100
AcDb2dVertex
 10
94.2925939832844
 20
-143.1418057975479
 30
0.0
  0
VERTEX
  5
4F
330
4D
100
AcDbEntity
  8
_U+30EC_U+30A4_U+30E4_U+30FC 1
 62
   179
420
  2234388
370
    25
100
AcDbVertex
100
AcDb2dVertex
 10
94.2925939832844
 20
-157.3127127384499
 30
0.0
  0
SEQEND
  5
50
330
4D
100
AcDbEntity
  8
_U+30EC_U+30A4_U+30E4_U+30FC 1
 62
   179
420
  2234388
370
    25
  0
POLYLINE
  5
51
330
1F
100
AcDbEntity
  8
_U+30EC_U+30A4_U+30E4_U+30FC 1
 62
   179
420
  2234388
370
    25
100
AcDb2dPolyline
 66
     1
 10
0.0
 20
0.0
 30
0.0
  0
VERTEX
  5
52
330
51
100
AcDbEntity
  8
_U+30EC_U+30A4_U+30E4_U+30FC 1
 62
   179
420
  2234388
370
    25
100
AcDbVertex
100
AcDb2dVertex
 10
104.2926795614943
 20
-156.1124216276386
 30
0.0
  0
VERTEX
  5
53
330
51
100
AcDbEntity
  8
_U+30EC_U+30A4_U+30E4_U+30FC 1
 62
   179
420
  2234388
370
    25
100
AcDbVertex
100
AcDb2dVertex
 10
104.2926795614943
 20
-156.6126605164023
 30
0.0
  0
SEQEND
  5
54
330
51
100
AcDbEntity
  8
_U+30EC_U+30A4_U+30E4_U+30FC 1
 62
   179
420
  2234388
370
    25
  0
POLYLINE
  5
55
330
1F
100
AcDbEntity
  8
_U+30EC_U+30A4_U+30E4_U+30FC 1
 62
   179
420
  2234388
370
    25
100
AcDb2dPolyline
 66
     1
 10
0.0
 20
0.0
 30
0.0
  0
VERTEX
  5
56
330
55
100
AcDbEntity
  8
_U+30EC_U+30A4_U+30E4_U+30FC 1
 62
   179
420
  2234388
370
    25
100
AcDbVertex
100
AcDb2dVertex
 10
97.29258330901018
 20
-156.1124216276386
 30
0.0
  0
VERTEX
  5
57
330
55
100
AcDbEntity
  8
_U+30EC_U+30A4_U+30E4_U+30FC 1
 62
   179
420
  2234388
370
    25
100
AcDbVertex
100
AcDb2dVertex
 10
104.2926795614943
 20
-156.1124216276386
 30
0.0
  0
SEQEND
  5
58
330
55
100
AcDbEntity
  8
_U+30EC_U+30A4_U+30E4_U+30FC 1
 62
   179
420
  2234388
370
    25
  0
POLYLINE
  5
59
330
1F
100
AcDbEntity
  8
_U+30EC_U+30A4_U+30E4_U+30FC 1
 62
   179
420
  2234388
370
    25
100
AcDb2dPolyline
 66
     1
 10
0.0
 20
0.0
 30
0.0
  0
VERTEX
  5
5A
330
59
100
AcDbEntity
  8
_U+30EC_U+30A4_U+30E4_U+30FC 1
 62
   179
420
  2234388
370
    25
100
AcDbVertex
100
AcDb2dVertex
 10
96.29249115448499
 20
-142.1124355200273
 30
0.0
  0
VERTEX
  5
5B
330
59
100
AcDbEntity
  8
_U+30EC_U+30A4_U+30E4_U+30FC 1
 62
   179
420
  2234388
370
    25
100
AcDbVertex
100
AcDb2dVertex
 10
119.2926139010363
 20
-142.1124355200273
 30
0.0
  0
SEQEND
  5
5C
330
59
100
AcDbEntity
  8
_U+30EC_U+30A4_U+30E4_U+30FC 1
 62
   179
420
  2234388
370
    25
  0
POLYLINE
  5
5D
330
1F
100
AcDbEntity
  8
_U+30EC_U+30A4_U+30E4_U+30FC 1
 62
   179
420
  2234388
370
    25
100
AcDb2dPolyline
 66
     1
 10
0.0
 20
0.0
 30
0.0
  0
VERTEX
  5
5E
330
5D
100
AcDbEntity
  8
_U+30EC_U+30A4_U+30E4_U+30FC 1
 62
   179
420
  2234388
370
    25
100
AcDbVertex
100
AcDb2dVertex
 10
86.29275835404388
 20
-143.1418057975479
 30
0.0
  0
VERTEX
  5
5F
330
5D
100
AcDbEntity
  8
_U+30EC_U+30A4_U+30E4_U+30FC 1
 62
   179
420
  2234388
370
    25
100
AcDbVertex
100
AcDb2dVertex
 10
94.2925939832844
 20
-143.1418057975479
 30
0.0
  0
SEQEND
  5
60
330
5D
100
AcDbEntity
  8
_U+30EC_U+30A4_U+30E4_U+30FC 1
 62
   179
420
  2234388
370
    25
  0
POLYLINE
  5
61
330
1F
100
AcDbEntity
  8
_U+30EC_U+30A4_U+30E4_U+30FC 1
 62
   179
420
  2234388
370
    25
100
AcDb2dPolyline
 66
     1
 10
0.0
 20
0.0
 30
0.0
  0
VERTEX
  5
62
330
61
100
AcDbEntity
  8
_U+30EC_U+30A4_U+30E4_U+30FC 1
 62
   179
420
  2234388
370
    25
100
AcDbVertex
100
AcDb2dVertex
 10
95.2927189577691
 20
-142.1124355200273
 30
0.0
  0
VERTEX
  5
63
330
61
100
AcDbEntity
  8
_U+30EC_U+30A4_U+30E4_U+30FC 1
 62
   179
420
  2234388
370
    25
100
AcDbVertex
100
AcDb2dVertex
 10
95.2927189577691
 20
-156.1124216276386
 30
0.0
  0
SEQEND
  5
64
330
61
100
AcDbEntity
  8
_U+30EC_U+30A4_U+30E4_U+30FC 1
 62
   179
420
  2234388
370
    25
  0
POLYLINE
  5
65
330
1F
100
AcDbEntity
  8
_U+30EC_U+30A4_U+30E4_U+30FC 1
 62
   179
420
  2234388
370
    25
100
AcDb2dPolyline
 66
     1
 10
0.0
 20
0.0
 30
0.0
  0
VERTEX
  5
66
330
65
100
AcDbEntity
  8
_U+30EC_U+30A4_U+30E4_U+30FC 1
 62
   179
420
  2234388
370
    25
100
AcDbVertex
100
AcDb2dVertex
 10
96.29249115448499
 20
-142.1124355200273
 30
0.0
  0
VERTEX
  5
67
330
65
100
AcDbEntity
  8
_U+30EC_U+30A4_U+30E4_U+30FC 1
 62
   179
420
  2234388
370
    25
100
AcDbVertex
100
AcDb2dVertex
 10
96.29249115448499
 20
-156.1124216276386
 30
0.0
  0
SEQEND
  5
68
330
65
100
AcDbEntity
  8
_U+30EC_U+30A4_U+30E4_U+30FC 1
 62
   179
420
  2234388
370
    25
  0
POLYLINE
  5
69
330
1F
100
AcDbEntity
  8
_U+30EC_U+30A4_U+30E4_U+30FC 1
 62
   179
420
  2234388
370
    25
100
AcDb2dPolyline
 66
     1
 10
0.0
 20
0.0
 30
0.0
  0
VERTEX
  5
6A
330
69
100
AcDbEntity
  8
_U+30EC_U+30A4_U+30E4_U+30FC 1
 62
   179
420
  2234388
370
    25
100
AcDbVertex
100
AcDb2dVertex
 10
97.29258330901018
 20
-143.1122077419999
 30
0.0
  0
VERTEX
  5
6B
330
69
100
AcDbEntity
  8
_U+30EC_U+30A4_U+30E4_U+30FC 1
 62
   179
420
  2234388
370
    25
100
AcDbVertex
100
AcDb2dVertex
 10
97.29258330901018
 20
-156.1124216276386
 30
0.0
  0
SEQEND
  5
6C
330
69
100
AcDbEntity
  8
_U+30EC_U+30A4_U+30E4_U+30FC 1
 62
   179
420
  2234388
370
    25
  0
POLYLINE
  5
6D
330
1F
100
AcDbEntity
  8
_U+30EC_U+30A4_U+30E4_U+30FC 1
 62
   179
420
  2234388
370
    25
100
AcDb2dPolyline
 66
     1
 10
0.0
 20
0.0
 30
0.0
  0
VERTEX
  5
6E
330
6D
100
AcDbEntity
  8
_U+30EC_U+30A4_U+30E4_U+30FC 1
 62
   179
420
  2234388
370
    25
100
AcDbVertex
100
AcDb2dVertex
 10
95.2927189577691
 20
-156.1124216276386
 30
0.0
  0
VERTEX
  5
6F
330
6D
100
AcDbEntity
  8
_U+30EC_U+30A4_U+30E4_U+30FC 1
 62
   179
420
  2234388
370
    25
100
AcDbVertex
100
AcDb2dVertex
 10
96.29249115448499
 20
-156.1124216276386
 30
0.0
  0
SEQEND
  5
70
330
6D
100
AcDbEntity
  8
_U+30EC_U+30A4_U+30E4_U+30FC 1
 62
   179
420
  2234388
370
    25
  0
POLYLINE
  5
71
330
1F
100
AcDbEntity
  8
_U+30EC_U+30A4_U+30E4_U+30FC 1
 62
   179
420
  2234388
370
    25
100
AcDb2dPolyline
 66
     1
 10
0.0
 20
0.0
 30
0.0
  0
VERTEX
  5
72
330
71
100
AcDbEntity
  8
_U+30EC_U+30A4_U+30E4_U+30FC 1
 62
   179
420
  2234388
370
    25
100
AcDbVertex
100
AcDb2dVertex
 10
94.2925939832844
 20
-157.3127127384499
 30
0.0
  0
VERTEX
  5
73
330
71
100
AcDbEntity
  8
_U+30EC_U+30A4_U+30E4_U+30FC 1
 62
   179
420
  2234388
370
    25
100
AcDbVertex
100
AcDb2dVertex
 10
104.2926795614943
 20
-156.6126605164023
 30
0.0
  0
SEQEND
  5
74
330
71
100
AcDbEntity
  8
_U+30EC_U+30A4_U+30E4_U+30FC 1
 62
   179
420
  2234388
370
    25
  0
POLYLINE
  5
75
330
1F
100
AcDbEntity
  8
_U+30EC_U+30A4_U+30E4_U+30FC 1
 62
   179
420
  2234388
370
    25
100
AcDb2dPolyline
 66
     1
 10
0.0
 20
0.0
 30
0.0
  0
VERTEX
  5
76
330
75
100
AcDbEntity
  8
_U+30EC_U+30A4_U+30E4_U+30FC 1
 62
   179
420
  2234388
370
    25
100
AcDbVertex
100
AcDb2dVertex
 10
86.29275835404388
 20
-142.1124355200273
 30
0.0
  0
VERTEX
  5
77
330
75
100
AcDbEntity
  8
_U+30EC_U+30A4_U+30E4_U+30FC 1
 62
   179
420
  2234388
370
    25
100
AcDbVertex
100
AcDb2dVertex
 10
86.29275835404388
 20
-143.1122077419999
 30
0.0
  0
SEQEND
  5
78
330
75
100
AcDbEntity
  8
_U+30EC_U+30A4_U+30E4_U+30FC 1
 62
   179
420
  2234388
370
    25
  0
SPLINE
  5
79
330
1F
100
AcDbEntity
  8
_U+30EC_U+30A4_U+30E4_U+30FC 1
 62
   179
420
  2234388
370
     9
100
AcDbSpline
210
0.0
220
0.0
230
1.0
 70
    11
 71
     3
 72
    17
 73
    13
 74
     0
 42
0.0000000001
 43
0.0000000001
 12
1.0
 22
0.0
 32
0.0
 13
1.0
 23
0.0
 33
0.0
 40
0.0
 40
0.0
 40
0.0
 40
0.0
 40
1.0
 40
1.0
 40
1.0
 40
2.0
 40
2.0
 40
2.0
 40
3.0
 40
3.0
 40
3.0
 40
4.0
 40
4.0
 40
4.0
 40
4.0
 10
119.3925205651542
 20
-138.1126763543608
 30
0.0
 10
119.3925205651542
 20
-138.0575371877077
 30
0.0
 10
119.3477530662963
 20
-138.0127696877191
 30
0.0
 10
119.2926139010363
 20
-138.0127696877191
 30
0.0
 10
119.2375100135532
 20
-138.0127696877191
 30
0.0
 10
119.1927072369185
 20
-138.0575371877077
 30
0.0
 10
119.1927072369185
 20
-138.1126763543608
 30
0.0
 10
119.1927072369185
 20
-138.1677802432357
 30
0.0
 10
119.2375100135532
 20
-138.2125830210024
 30
0.0
 10
119.2926139010363
 20
-138.2125830210024
 30
0.0
 10
119.3477530662963
 20
-138.2125830210024
 30
0.0
 10
119.3925205651542
 20
-138.1677802432357
 30
0.0
 10
119.3925205651542
 20
-138.1126763543608
 30
0.0
  0
SPLINE
  5
7A
330
1F
100
AcDbEntity
  8
_U+30EC_U+30A4_U+30E4_U+30FC 1
 62
   179
420
  2234388
370
     9
100
AcDbSpline
210
0.0
220
0.0
230
1.0
 70
    11
 71
     3
 72
    17
 73
    13
 74
     0
 42
0.0000000001
 43
0.0000000001
 12
1.0
 22
0.0
 32
0.0
 13
1.0
 23
0.0
 33
0.0
 40
0.0
 40
0.0
 40
0.0
 40
0.0
 40
1.0
 40
1.0
 40
1.0
 40
2.0
 40
2.0
 40
2.0
 40
3.0
 40
3.0
 40
3.0
 40
4.0
 40
4.0
 40
4.0
 40
4.0
 10
123.3926324075472
 20
-142.1124355200273
 30
0.0
 10
123.3926324075472
 20
-142.0572963533746
 30
0.0
 10
123.3478649086894
 20
-142.0125288533857
 30
0.0
 10
123.2927257434294
 20
-142.0125288533857
 30
0.0
 10
123.2372721914132
 20
-142.0125288533857
 30
0.0
 10
123.1924694136464
 20
-142.0572963533746
 30
0.0
 10
123.1924694136464
 20
-142.1124355200273
 30
0.0
 10
123.1924694136464
 20
-142.1675394089026
 30
0.0
 10
123.2372721914132
 20
-142.2123421866693
 30
0.0
 10
123.2927257434294
 20
-142.2123421866693
 30
0.0
 10
123.3478649086894
 20
-142.2123421866693
 30
0.0
 10
123.3926324075472
 20
-142.1675394089026
 30
0.0
 10
123.3926324075472
 20
-142.1124355200273
 30
0.0
  0
SPLINE
  5
7B
330
1F
100
AcDbEntity
  8
_U+30EC_U+30A4_U+30E4_U+30FC 1
 62
   179
420
  2234388
370
     9
100
AcDbSpline
210
0.0
220
0.0
230
1.0
 70
    11
 71
     3
 72
    17
 73
    13
 74
     0
 42
0.0000000001
 43
0.0000000001
 12
1.0
 22
0.0
 32
0.0
 13
1.0
 23
0.0
 33
0.0
 40
0.0
 40
0.0
 40
0.0
 40
0.0
 40
1.0
 40
1.0
 40
1.0
 40
2.0
 40
2.0
 40
2.0
 40
3.0
 40
3.0
 40
3.0
 40
4.0
 40
4.0
 40
4.0
 40
4.0
 10
123.3926324075472
 20
-143.1122077419999
 30
0.0
 10
123.3926324075472
 20
-143.0570685753468
 30
0.0
 10
123.3478649086894
 20
-143.0123010753579
 30
0.0
 10
123.2927257434294
 20
-143.0123010753579
 30
0.0
 10
123.2372721914132
 20
-143.0123010753579
 30
0.0
 10
123.1924694136464
 20
-143.0570685753468
 30
0.0
 10
123.1924694136464
 20
-143.1122077419999
 30
0.0
 10
123.1924694136464
 20
-143.1680171864303
 30
0.0
 10
123.2372721914132
 20
-143.2127846864192
 30
0.0
 10
123.2927257434294
 20
-143.2127846864192
 30
0.0
 10
123.3478649086894
 20
-143.2127846864192
 30
0.0
 10
123.3926324075472
 20
-143.1680171864303
 30
0.0
 10
123.3926324075472
 20
-143.1122077419999
 30
0.0
  0
SPLINE
  5
7C
330
1F
100
AcDbEntity
  8
_U+30EC_U+30A4_U+30E4_U+30FC 1
 62
   179
420
  2234388
370
     9
100
AcDbSpline
210
0.0
220
0.0
230
1.0
 70
    11
 71
     3
 72
    17
 73
    13
 74
     0
 42
0.0000000001
 43
0.0000000001
 12
1.0
 22
0.0
 32
0.0
 13
1.0
 23
0.0
 33
0.0
 40
0.0
 40
0.0
 40
0.0
 40
0.0
 40
1.0
 40
1.0
 40
1.0
 40
2.0
 40
2.0
 40
2.0
 40
3.0
 40
3.0
 40
3.0
 40
4.0
 40
4.0
 40
4.0
 40
4.0
 10
86.39266501816172
 20
-138.1126763543608
 30
0.0
 10
86.39266501816172
 20
-138.0575371877077
 30
0.0
 10
86.34786224152695
 20
-138.0127696877191
 30
0.0
 10
86.29275835404388
 20
-138.0127696877191
 30
0.0
 10
86.23726641101516
 20
-138.0127696877191
 30
0.0
 10
86.19249891215726
 20
-138.0575371877077
 30
0.0
 10
86.19249891215726
 20
-138.1126763543608
 30
0.0
 10
86.19249891215726
 20
-138.1677802432357
 30
0.0
 10
86.23726641101516
 20
-138.2125830210024
 30
0.0
 10
86.29275835404388
 20
-138.2125830210024
 30
0.0
 10
86.34786224152695
 20
-138.2125830210024
 30
0.0
 10
86.39266501816172
 20
-138.1677802432357
 30
0.0
 10
86.39266501816172
 20
-138.1126763543608
 30
0.0
  0
SPLINE
  5
7D
330
1F
100
AcDbEntity
  8
_U+30EC_U+30A4_U+30E4_U+30FC 1
 62
   179
420
  2234388
370
     9
100
AcDbSpline
210
0.0
220
0.0
230
1.0
 70
    11
 71
     3
 72
    17
 73
    13
 74
     0
 42
0.0000000001
 43
0.0000000001
 12
1.0
 22
0.0
 32
0.0
 13
1.0
 23
0.0
 33
0.0
 40
0.0
 40
0.0
 40
0.0
 40
0.0
 40
1.0
 40
1.0
 40
1.0
 40
2.0
 40
2.0
 40
2.0
 40
3.0
 40
3.0
 40
3.0
 40
4.0
 40
4.0
 40
4.0
 40
4.0
 10
104.3925888627908
 20
-161.3131421818942
 30
0.0
 10
104.3925888627908
 20
-161.2580382930186
 30
0.0
 10
104.3478187267543
 20
-161.2132355152525
 30
0.0
 10
104.2926795614943
 20
-161.2132355152525
 30
0.0
 10
104.2375756740112
 20
-161.2132355152525
 30
0.0
 10
104.1927728973765
 20
-161.2580382930186
 30
0.0
 10
104.1927728973765
 20
-161.3131421818942
 30
0.0
 10
104.1927728973765
 20
-161.3682813485466
 30
0.0
 10
104.2375756740112
 20
-161.4130488485358
 30
0.0
 10
104.2926795614943
 20
-161.4130488485358
 30
0.0
 10
104.3478187267543
 20
-161.4130488485358
 30
0.0
 10
104.3925888627908
 20
-161.3682813485466
 30
0.0
 10
104.3925888627908
 20
-161.3131421818942
 30
0.0
  0
SPLINE
  5
7E
330
1F
100
AcDbEntity
  8
_U+30EC_U+30A4_U+30E4_U+30FC 1
 62
   179
420
  2234388
370
     9
100
AcDbSpline
210
0.0
220
0.0
230
1.0
 70
    11
 71
     3
 72
    17
 73
    13
 74
     0
 42
0.0000000001
 43
0.0000000001
 12
1.0
 22
0.0
 32
0.0
 13
1.0
 23
0.0
 33
0.0
 40
0.0
 40
0.0
 40
0.0
 40
0.0
 40
1.0
 40
1.0
 40
1.0
 40
2.0
 40
2.0
 40
2.0
 40
3.0
 40
3.0
 40
3.0
 40
4.0
 40
4.0
 40
4.0
 40
4.0
 10
94.39250064740224
 20
-161.3131421818942
 30
0.0
 10
94.39250064740224
 20
-161.2580382930186
 30
0.0
 10
94.34773314854435
 20
-161.2132355152525
 30
0.0
 10
94.2925939832844
 20
-161.2132355152525
 30
0.0
 10
94.23713731803255
 20
-161.2132355152525
 30
0.0
 10
94.19237219867428
 20
-161.2580382930186
 30
0.0
 10
94.19237219867428
 20
-161.3131421818942
 30
0.0
 10
94.19237219867428
 20
-161.3682813485466
 30
0.0
 10
94.23713731803255
 20
-161.4130488485358
 30
0.0
 10
94.2925939832844
 20
-161.4130488485358
 30
0.0
 10
94.34773314854435
 20
-161.4130488485358
 30
0.0
 10
94.39250064740224
 20
-161.3682813485466
 30
0.0
 10
94.39250064740224
 20
-161.3131421818942
 30
0.0
  0
SPLINE
  5
7F
330
1F
100
AcDbEntity
  8
_U+30EC_U+30A4_U+30E4_U+30FC 1
 62
   179
420
  2234388
370
     9
100
AcDbSpline
210
0.0
220
0.0
230
1.0
 70
    11
 71
     3
 72
    17
 73
    13
 74
     0
 42
0.0000000001
 43
0.0000000001
 12
1.0
 22
0.0
 32
0.0
 13
1.0
 23
0.0
 33
0.0
 40
0.0
 40
0.0
 40
0.0
 40
0.0
 40
1.0
 40
1.0
 40
1.0
 40
2.0
 40
2.0
 40
2.0
 40
3.0
 40
3.0
 40
3.0
 40
4.0
 40
4.0
 40
4.0
 40
4.0
 10
86.39266501816172
 20
-161.3131421818942
 30
0.0
 10
86.39266501816172
 20
-161.2580382930186
 30
0.0
 10
86.34786224152695
 20
-161.2132355152525
 30
0.0
 10
86.29275835404388
 20
-161.2132355152525
 30
0.0
 10
86.23726641101516
 20
-161.2132355152525
 30
0.0
 10
86.19249891215726
 20
-161.2580382930186
 30
0.0
 10
86.19249891215726
 20
-161.3131421818942
 30
0.0
 10
86.19249891215726
 20
-161.3682813485466
 30
0.0
 10
86.23726641101516
 20
-161.4130488485358
 30
0.0
 10
86.29275835404388
 20
-161.4130488485358
 30
0.0
 10
86.34786224152695
 20
-161.4130488485358
 30
0.0
 10
86.39266501816172
 20
-161.3682813485466
 30
0.0
 10
86.39266501816172
 20
-161.3131421818942
 30
0.0
  0
SPLINE
  5
80
330
1F
100
AcDbEntity
  8
_U+30EC_U+30A4_U+30E4_U+30FC 1
 62
   179
420
  2234388
370
     9
100
AcDbSpline
210
0.0
220
0.0
230
1.0
 70
    11
 71
     3
 72
    17
 73
    13
 74
     0
 42
0.0000000001
 43
0.0000000001
 12
1.0
 22
0.0
 32
0.0
 13
1.0
 23
0.0
 33
0.0
 40
0.0
 40
0.0
 40
0.0
 40
0.0
 40
1.0
 40
1.0
 40
1.0
 40
2.0
 40
2.0
 40
2.0
 40
3.0
 40
3.0
 40
3.0
 40
4.0
 40
4.0
 40
4.0
 40
4.0
 10
108.3923452902364
 20
-156.1124216276386
 30
0.0
 10
108.3923452902364
 20
-156.0573177387637
 30
0.0
 10
108.3475805284688
 20
-156.012514960997
 30
0.0
 10
108.2924386261186
 20
-156.012514960997
 30
0.0
 10
108.2373347386355
 20
-156.012514960997
 30
0.0
 10
108.1925319620008
 20
-156.0573177387637
 30
0.0
 10
108.1925319620008
 20
-156.1124216276386
 30
0.0
 10
108.1925319620008
 20
-156.1675607942917
 30
0.0
 10
108.2373347386355
 20
-156.2123282942802
 30
0.0
 10
108.2924386261186
 20
-156.2123282942802
 30
0.0
 10
108.3475805284688
 20
-156.2123282942802
 30
0.0
 10
108.3923452902364
 20
-156.1675607942917
 30
0.0
 10
108.3923452902364
 20
-156.1124216276386
 30
0.0
  0
SPLINE
  5
81
330
1F
100
AcDbEntity
  8
_U+30EC_U+30A4_U+30E4_U+30FC 1
 62
   179
420
  2234388
370
     9
100
AcDbSpline
210
0.0
220
0.0
230
1.0
 70
    11
 71
     3
 72
    17
 73
    13
 74
     0
 42
0.0000000001
 43
0.0000000001
 12
1.0
 22
0.0
 32
0.0
 13
1.0
 23
0.0
 33
0.0
 40
0.0
 40
0.0
 40
0.0
 40
0.0
 40
1.0
 40
1.0
 40
1.0
 40
2.0
 40
2.0
 40
2.0
 40
3.0
 40
3.0
 40
3.0
 40
4.0
 40
4.0
 40
4.0
 40
4.0
 10
108.3923452902364
 20
-156.6126605164023
 30
0.0
 10
108.3923452902364
 20
-156.5575566275274
 30
0.0
 10
108.3475805284688
 20
-156.5127538497607
 30
0.0
 10
108.2924386261186
 20
-156.5127538497607
 30
0.0
 10
108.2373347386355
 20
-156.5127538497607
 30
0.0
 10
108.1925319620008
 20
-156.5575566275274
 30
0.0
 10
108.1925319620008
 20
-156.6126605164023
 30
0.0
 10
108.1925319620008
 20
-156.6677996830554
 30
0.0
 10
108.2373347386355
 20
-156.7125671830439
 30
0.0
 10
108.2924386261186
 20
-156.7125671830439
 30
0.0
 10
108.3475805284688
 20
-156.7125671830439
 30
0.0
 10
108.3923452902364
 20
-156.6677996830554
 30
0.0
 10
108.3923452902364
 20
-156.6126605164023
 30
0.0
  0
SPLINE
  5
82
330
1F
100
AcDbEntity
  8
_U+30EC_U+30A4_U+30E4_U+30FC 1
 62
   179
420
  2234388
370
     9
100
AcDbSpline
210
0.0
220
0.0
230
1.0
 70
    11
 71
     3
 72
    17
 73
    13
 74
     0
 42
0.0000000001
 43
0.0000000001
 12
1.0
 22
0.0
 32
0.0
 13
1.0
 23
0.0
 33
0.0
 40
0.0
 40
0.0
 40
0.0
 40
0.0
 40
1.0
 40
1.0
 40
1.0
 40
2.0
 40
2.0
 40
2.0
 40
3.0
 40
3.0
 40
3.0
 40
4.0
 40
4.0
 40
4.0
 40
4.0
 10
123.3926324075472
 20
-156.1124216276386
 30
0.0
 10
123.3926324075472
 20
-156.0573177387637
 30
0.0
 10
123.3478649086894
 20
-156.012514960997
 30
0.0
 10
123.2927257434294
 20
-156.012514960997
 30
0.0
 10
123.2372721914132
 20
-156.012514960997
 30
0.0
 10
123.1924694136464
 20
-156.0573177387637
 30
0.0
 10
123.1924694136464
 20
-156.1124216276386
 30
0.0
 10
123.1924694136464
 20
-156.1675607942917
 30
0.0
 10
123.2372721914132
 20
-156.2123282942802
 30
0.0
 10
123.2927257434294
 20
-156.2123282942802
 30
0.0
 10
123.3478649086894
 20
-156.2123282942802
 30
0.0
 10
123.3926324075472
 20
-156.1675607942917
 30
0.0
 10
123.3926324075472
 20
-156.1124216276386
 30
0.0
  0
POLYLINE
  5
83
330
1F
100
AcDbEntity
  8
_U+30EC_U+30A4_U+30E4_U+30FC 1
 62
   179
420
  2234388
370
     9
100
AcDb2dPolyline
 66
     1
 10
0.0
 20
0.0
 30
0.0
  0
VERTEX
  5
84
330
83
100
AcDbEntity
  8
_U+30EC_U+30A4_U+30E4_U+30FC 1
 62
   179
420
  2234388
370
     9
100
AcDbVertex
100
AcDb2dVertex
 10
123.2927257434294
 20
-142.1124355200273
 30
0.0
  0
VERTEX
  5
85
330
83
100
AcDbEntity
  8
_U+30EC_U+30A4_U+30E4_U+30FC 1
 62
   179
420
  2234388
370
     9
100
AcDbVertex
100
AcDb2dVertex
 10
123.2927257434294
 20
-138.3421230209699
 30
0.0
  0
SEQEND
  5
86
330
83
100
AcDbEntity
  8
_U+30EC_U+30A4_U+30E4_U+30FC 1
 62
   179
420
  2234388
370
     9
  0
POLYLINE
  5
87
330
1F
100
AcDbEntity
  8
_U+30EC_U+30A4_U+30E4_U+30FC 1
 62
   179
420
  2234388
370
     9
100
AcDb2dPolyline
 66
     1
 10
0.0
 20
0.0
 30
0.0
  0
VERTEX
  5
88
330
87
100
AcDbEntity
  8
_U+30EC_U+30A4_U+30E4_U+30FC 1
 62
   179
420
  2234388
370
     9
100
AcDbVertex
100
AcDb2dVertex
 10
123.2927257434294
 20
-142.1124355200273
 30
0.0
  0
VERTEX
  5
89
330
87
100
AcDbEntity
  8
_U+30EC_U+30A4_U+30E4_U+30FC 1
 62
   179
420
  2234388
370
     9
100
AcDbVertex
100
AcDb2dVertex
 10
123.2927257434294
 20
-143.1122077419999
 30
0.0
  0
SEQEND
  5
8A
330
87
100
AcDbEntity
  8
_U+30EC_U+30A4_U+30E4_U+30FC 1
 62
   179
420
  2234388
370
     9
  0
POLYLINE
  5
8B
330
1F
100
AcDbEntity
  8
_U+30EC_U+30A4_U+30E4_U+30FC 1
 62
   179
420
  2234388
370
     9
100
AcDb2dPolyline
 66
     1
 10
0.0
 20
0.0
 30
0.0
  0
VERTEX
  5
8C
330
8B
100
AcDbEntity
  8
_U+30EC_U+30A4_U+30E4_U+30FC 1
 62
   179
420
  2234388
370
     9
100
AcDbVertex
100
AcDb2dVertex
 10
121.8326843917893
 20
-142.1124355200273
 30
0.0
  0
VERTEX
  5
8D
330
8B
100
AcDbEntity
  8
_U+30EC_U+30A4_U+30E4_U+30FC 1
 62
   179
420
  2234388
370
     9
100
AcDbVertex
100
AcDb2dVertex
 10
124.2924979401453
 20
-142.1124355200273
 30
0.0
  0
SEQEND
  5
8E
330
8B
100
AcDbEntity
  8
_U+30EC_U+30A4_U+30E4_U+30FC 1
 62
   179
420
  2234388
370
     9
  0
POLYLINE
  5
8F
330
1F
100
AcDbEntity
  8
_U+30EC_U+30A4_U+30E4_U+30FC 1
 62
   179
420
  2234388
370
     9
100
AcDb2dPolyline
 66
     1
 10
0.0
 20
0.0
 30
0.0
  0
VERTEX
  5
90
330
8F
100
AcDbEntity
  8
_U+30EC_U+30A4_U+30E4_U+30FC 1
 62
   179
420
  2234388
370
     9
100
AcDbVertex
100
AcDb2dVertex
 10
121.8326843917893
 20
-143.1122077419999
 30
0.0
  0
VERTEX
  5
91
330
8F
100
AcDbEntity
  8
_U+30EC_U+30A4_U+30E4_U+30FC 1
 62
   179
420
  2234388
370
     9
100
AcDbVertex
100
AcDb2dVertex
 10
124.2924979401453
 20
-143.1122077419999
 30
0.0
  0
SEQEND
  5
92
330
8F
100
AcDbEntity
  8
_U+30EC_U+30A4_U+30E4_U+30FC 1
 62
   179
420
  2234388
370
     9
  0
INSERT
  5
94
330
1F
100
AcDbEntity
  8
_U+30EC_U+30A4_U+30E4_U+30FC 1
100
AcDbBlockReference
  2
block 2
 10
0.0
 20
0.0
 30
0.0
  0
POLYLINE
  5
99
330
1F
100
AcDbEntity
  8
_U+30EC_U+30A4_U+30E4_U+30FC 1
 62
   179
420
  2234388
370
     9
100
AcDb2dPolyline
 66
     1
 10
0.0
 20
0.0
 30
0.0
  0
VERTEX
  5
9A
330
99
100
AcDbEntity
  8
_U+30EC_U+30A4_U+30E4_U+30FC 1
 62
   179
420
  2234388
370
     9
100
AcDbVertex
100
AcDb2dVertex
 10
108.2924386261186
 20
-156.1124216276386
 30
0.0
  0
VERTEX
  5
9B
330
99
100
AcDbEntity
  8
_U+30EC_U+30A4_U+30E4_U+30FC 1
 62
   179
420
  2234388
370
     9
100
AcDbVertex
100
AcDb2dVertex
 10
108.2924386261186
 20
-150.8548685733974
 30
0.0
  0
SEQEND
  5
9C
330
99
100
AcDbEntity
  8
_U+30EC_U+30A4_U+30E4_U+30FC 1
 62
   179
420
  2234388
370
     9
  0
POLYLINE
  5
9D
330
1F
100
AcDbEntity
  8
_U+30EC_U+30A4_U+30E4_U+30FC 1
 62
   179
420
  2234388
370
     9
100
AcDb2dPolyline
 66
     1
 10
0.0
 20
0.0
 30
0.0
  0
VERTEX
  5
9E
330
9D
100
AcDbEntity
  8
_U+30EC_U+30A4_U+30E4_U+30FC 1
 62
   179
420
  2234388
370
     9
100
AcDbVertex
100
AcDb2dVertex
 10
108.2924386261186
 20
-156.1124216276386
 30
0.0
  0
VERTEX
  5
9F
330
9D
100
AcDbEntity
  8
_U+30EC_U+30A4_U+30E4_U+30FC 1
 62
   179
420
  2234388
370
     9
100
AcDbVertex
100
AcDb2dVertex
 10
108.2924386261186
 20
-157.6131030161522
 30
0.0
  0
SEQEND
  5
A0
330
9D
100
AcDbEntity
  8
_U+30EC_U+30A4_U+30E4_U+30FC 1
 62
   179
420
  2234388
370
     9
  0
POLYLINE
  5
A1
330
1F
100
AcDbEntity
  8
_U+30EC_U+30A4_U+30E4_U+30FC 1
 62
   179
420
  2234388
370
     9
100
AcDb2dPolyline
 66
     1
 10
0.0
 20
0.0
 30
0.0
  0
VERTEX
  5
A2
330
A1
100
AcDbEntity
  8
_U+30EC_U+30A4_U+30E4_U+30FC 1
 62
   179
420
  2234388
370
     9
100
AcDbVertex
100
AcDb2dVertex
 10
106.832399973292
 20
-156.1124216276386
 30
0.0
  0
VERTEX
  5
A3
330
A1
100
AcDbEntity
  8
_U+30EC_U+30A4_U+30E4_U+30FC 1
 62
   179
420
  2234388
370
     9
100
AcDbVertex
100
AcDb2dVertex
 10
109.2925636006033
 20
-156.1124216276386
 30
0.0
  0
SEQEND
  5
A4
330
A1
100
AcDbEntity
  8
_U+30EC_U+30A4_U+30E4_U+30FC 1
 62
   179
420
  2234388
370
     9
  0
POLYLINE
  5
A5
330
1F
100
AcDbEntity
  8
_U+30EC_U+30A4_U+30E4_U+30FC 1
 62
   179
420
  2234388
370
     9
100
AcDb2dPolyline
 66
     1
 10
0.0
 20
0.0
 30
0.0
  0
VERTEX
  5
A6
330
A5
100
AcDbEntity
  8
_U+30EC_U+30A4_U+30E4_U+30FC 1
 62
   179
420
  2234388
370
     9
100
AcDbVertex
100
AcDb2dVertex
 10
106.832399973292
 20
-156.6126605164023
 30
0.0
  0
VERTEX
  5
A7
330
A5
100
AcDbEntity
  8
_U+30EC_U+30A4_U+30E4_U+30FC 1
 62
   179
420
  2234388
370
     9
100
AcDbVertex
100
AcDb2dVertex
 10
109.2925636006033
 20
-156.6126605164023
 30
0.0
  0
SEQEND
  5
A8
330
A5
100
AcDbEntity
  8
_U+30EC_U+30A4_U+30E4_U+30FC 1
 62
   179
420
  2234388
370
     9
  0
INSERT
  5
AA
330
1F
100
AcDbEntity
  8
_U+30EC_U+30A4_U+30E4_U+30FC 1
100
AcDbBlockReference
  2
block 3
 10
0.0
 20
0.0
 30
0.0
  0
POLYLINE
  5
BA
330
1F
100
AcDbEntity
  8
_U+30EC_U+30A4_U+30E4_U+30FC 1
 62
   179
420
  2234388
370
     9
100
AcDb2dPolyline
 66
     1
 10
0.0
 20
0.0
 30
0.0
  0
VERTEX
  5
BB
330
BA
100
AcDbEntity
  8
_U+30EC_U+30A4_U+30E4_U+30FC 1
 62
   179
420
  2234388
370
     9
100
AcDbVertex
100
AcDb2dVertex
 10
94.2925939832844
 20
-161.3131421818942
 30
0.0
  0
VERTEX
  5
BC
330
BA
100
AcDbEntity
  8
_U+30EC_U+30A4_U+30E4_U+30FC 1
 62
   179
420
  2234388
370
     9
100
AcDbVertex
100
AcDb2dVertex
 10
104.2926795614943
 20
-161.3131421818942
 30
0.0
  0
SEQEND
  5
BD
330
BA
100
AcDbEntity
  8
_U+30EC_U+30A4_U+30E4_U+30FC 1
 62
   179
420
  2234388
370
     9
  0
POLYLINE
  5
BE
330
1F
100
AcDbEntity
  8
_U+30EC_U+30A4_U+30E4_U+30FC 1
 62
   179
420
  2234388
370
     9
100
AcDb2dPolyline
 66
     1
 10
0.0
 20
0.0
 30
0.0
  0
VERTEX
  5
BF
330
BE
100
AcDbEntity
  8
_U+30EC_U+30A4_U+30E4_U+30FC 1
 62
   179
420
  2234388
370
     9
100
AcDbVertex
100
AcDb2dVertex
 10
94.2925939832844
 20
-159.853136071148
 30
0.0
  0
VERTEX
  5
C0
330
BE
100
AcDbEntity
  8
_U+30EC_U+30A4_U+30E4_U+30FC 1
 62
   179
420
  2234388
370
     9
100
AcDbVertex
100
AcDb2dVertex
 10
94.2925939832844
 20
-162.3136199594216
 30
0.0
  0
SEQEND
  5
C1
330
BE
100
AcDbEntity
  8
_U+30EC_U+30A4_U+30E4_U+30FC 1
 62
   179
420
  2234388
370
     9
  0
POLYLINE
  5
C2
330
1F
100
AcDbEntity
  8
_U+30EC_U+30A4_U+30E4_U+30FC 1
 62
   179
420
  2234388
370
     9
100
AcDb2dPolyline
 66
     1
 10
0.0
 20
0.0
 30
0.0
  0
VERTEX
  5
C3
330
C2
100
AcDbEntity
  8
_U+30EC_U+30A4_U+30E4_U+30FC 1
 62
   179
420
  2234388
370
     9
100
AcDbVertex
100
AcDb2dVertex
 10
104.2926795614943
 20
-159.1530838491003
 30
0.0
  0
VERTEX
  5
C4
330
C2
100
AcDbEntity
  8
_U+30EC_U+30A4_U+30E4_U+30FC 1
 62
   179
420
  2234388
370
     9
100
AcDbVertex
100
AcDb2dVertex
 10
104.2926795614943
 20
-162.3136199594216
 30
0.0
  0
SEQEND
  5
C5
330
C2
100
AcDbEntity
  8
_U+30EC_U+30A4_U+30E4_U+30FC 1
 62
   179
420
  2234388
370
     9
  0
INSERT
  5
C7
330
1F
100
AcDbEntity
  8
_U+30EC_U+30A4_U+30E4_U+30FC 1
100
AcDbBlockReference
  2
block 4
 10
0.0
 20
0.0
 30
0.0
  0
POLYLINE
  5
CF
330
1F
100
AcDbEntity
  8
_U+30EC_U+30A4_U+30E4_U+30FC 1
 62
   179
420
  2234388
370
     9
100
AcDb2dPolyline
 66
     1
 10
0.0
 20
0.0
 30
0.0
  0
VERTEX
  5
D0
330
CF
100
AcDbEntity
  8
_U+30EC_U+30A4_U+30E4_U+30FC 1
 62
   179
420
  2234388
370
     9
100
AcDbVertex
100
AcDb2dVertex
 10
86.29275835404388
 20
-138.1126763543608
 30
0.0
  0
VERTEX
  5
D1
330
CF
100
AcDbEntity
  8
_U+30EC_U+30A4_U+30E4_U+30FC 1
 62
   179
420
  2234388
370
     9
100
AcDbVertex
100
AcDb2dVertex
 10
119.2926139010363
 20
-138.1126763543608
 30
0.0
  0
SEQEND
  5
D2
330
CF
100
AcDbEntity
  8
_U+30EC_U+30A4_U+30E4_U+30FC 1
 62
   179
420
  2234388
370
     9
  0
POLYLINE
  5
D3
330
1F
100
AcDbEntity
  8
_U+30EC_U+30A4_U+30E4_U+30FC 1
 62
   179
420
  2234388
370
     9
100
AcDb2dPolyline
 66
     1
 10
0.0
 20
0.0
 30
0.0
  0
VERTEX
  5
D4
330
D3
100
AcDbEntity
  8
_U+30EC_U+30A4_U+30E4_U+30FC 1
 62
   179
420
  2234388
370
     9
100
AcDbVertex
100
AcDb2dVertex
 10
86.29275835404388
 20
-139.5727177428845
 30
0.0
  0
VERTEX
  5
D5
330
D3
100
AcDbEntity
  8
_U+30EC_U+30A4_U+30E4_U+30FC 1
 62
   179
420
  2234388
370
     9
100
AcDbVertex
100
AcDb2dVertex
 10
86.29275835404388
 20
-137.1122338546108
 30
0.0
  0
SEQEND
  5
D6
330
D3
100
AcDbEntity
  8
_U+30EC_U+30A4_U+30E4_U+30FC 1
 62
   179
420
  2234388
370
     9
  0
POLYLINE
  5
D7
330
1F
100
AcDbEntity
  8
_U+30EC_U+30A4_U+30E4_U+30FC 1
 62
   179
420
  2234388
370
     9
100
AcDb2dPolyline
 66
     1
 10
0.0
 20
0.0
 30
0.0
  0
VERTEX
  5
D8
330
D7
100
AcDbEntity
  8
_U+30EC_U+30A4_U+30E4_U+30FC 1
 62
   179
420
  2234388
370
     9
100
AcDbVertex
100
AcDb2dVertex
 10
119.2926139010363
 20
-139.5727177428845
 30
0.0
  0
VERTEX
  5
D9
330
D7
100
AcDbEntity
  8
_U+30EC_U+30A4_U+30E4_U+30FC 1
 62
   179
420
  2234388
370
     9
100
AcDbVertex
100
AcDb2dVertex
 10
119.2926139010363
 20
-137.1122338546108
 30
0.0
  0
SEQEND
  5
DA
330
D7
100
AcDbEntity
  8
_U+30EC_U+30A4_U+30E4_U+30FC 1
 62
   179
420
  2234388
370
     9
  0
INSERT
  5
DC
330
1F
100
AcDbEntity
  8
_U+30EC_U+30A4_U+30E4_U+30FC 1
100
AcDbBlockReference
  2
block 5
 10
0.0
 20
0.0
 30
0.0
  0
POLYLINE
  5
E3
330
1F
100
AcDbEntity
  8
_U+30EC_U+30A4_U+30E4_U+30FC 1
 62
   179
420
  2234388
370
     9
100
AcDb2dPolyline
 66
     1
 10
0.0
 20
0.0
 30
0.0
  0
VERTEX
  5
E4
330
E3
100
AcDbEntity
  8
_U+30EC_U+30A4_U+30E4_U+30FC 1
 62
   179
420
  2234388
370
     9
100
AcDbVertex
100
AcDb2dVertex
 10
94.2925939832844
 20
-161.3131421818942
 30
0.0
  0
VERTEX
  5
E5
330
E3
100
AcDbEntity
  8
_U+30EC_U+30A4_U+30E4_U+30FC 1
 62
   179
420
  2234388
370
     9
100
AcDbVertex
100
AcDb2dVertex
 10
86.29275835404388
 20
-161.3131421818942
 30
0.0
  0
SEQEND
  5
E6
330
E3
100
AcDbEntity
  8
_U+30EC_U+30A4_U+30E4_U+30FC 1
 62
   179
420
  2234388
370
     9
  0
POLYLINE
  5
E7
330
1F
100
AcDbEntity
  8
_U+30EC_U+30A4_U+30E4_U+30FC 1
 62
   179
420
  2234388
370
     9
100
AcDb2dPolyline
 66
     1
 10
0.0
 20
0.0
 30
0.0
  0
VERTEX
  5
E8
330
E7
100
AcDbEntity
  8
_U+30EC_U+30A4_U+30E4_U+30FC 1
 62
   179
420
  2234388
370
     9
100
AcDbVertex
100
AcDb2dVertex
 10
86.29275835404388
 20
-146.1528346856841
 30
0.0
  0
VERTEX
  5
E9
330
E7
100
AcDbEntity
  8
_U+30EC_U+30A4_U+30E4_U+30FC 1
 62
   179
420
  2234388
370
     9
100
AcDbVertex
100
AcDb2dVertex
 10
86.29275835404388
 20
-162.3136199594216
 30
0.0
  0
SEQEND
  5
EA
330
E7
100
AcDbEntity
  8
_U+30EC_U+30A4_U+30E4_U+30FC 1
 62
   179
420
  2234388
370
     9
  0
INSERT
  5
EC
330
1F
100
AcDbEntity
  8
_U+30EC_U+30A4_U+30E4_U+30FC 1
100
AcDbBlockReference
  2
block 6
 10
0.0
 20
0.0
 30
0.0
  0
POLYLINE
  5
F3
330
1F
100
AcDbEntity
  8
_U+30EC_U+30A4_U+30E4_U+30FC 1
 62
   179
420
  2234388
370
     9
100
AcDb2dPolyline
 66
     1
 10
0.0
 20
0.0
 30
0.0
  0
VERTEX
  5
F4
330
F3
100
AcDbEntity
  8
_U+30EC_U+30A4_U+30E4_U+30FC 1
 62
   179
420
  2234388
370
     9
100
AcDbVertex
100
AcDb2dVertex
 10
123.2927257434294
 20
-156.1124216276386
 30
0.0
  0
VERTEX
  5
F5
330
F3
100
AcDbEntity
  8
_U+30EC_U+30A4_U+30E4_U+30FC 1
 62
   179
420
  2234388
370
     9
100
AcDbVertex
100
AcDb2dVertex
 10
123.2927257434294
 20
-143.1122077419999
 30
0.0
  0
SEQEND
  5
F6
330
F3
100
AcDbEntity
  8
_U+30EC_U+30A4_U+30E4_U+30FC 1
 62
   179
420
  2234388
370
     9
  0
POLYLINE
  5
F7
330
1F
100
AcDbEntity
  8
_U+30EC_U+30A4_U+30E4_U+30FC 1
 62
   179
420
  2234388
370
     9
100
AcDb2dPolyline
 66
     1
 10
0.0
 20
0.0
 30
0.0
  0
VERTEX
  5
F8
330
F7
100
AcDbEntity
  8
_U+30EC_U+30A4_U+30E4_U+30FC 1
 62
   179
420
  2234388
370
     9
100
AcDbVertex
100
AcDb2dVertex
 10
106.832399973292
 20
-156.1124216276386
 30
0.0
  0
VERTEX
  5
F9
330
F7
100
AcDbEntity
  8
_U+30EC_U+30A4_U+30E4_U+30FC 1
 62
   179
420
  2234388
370
     9
100
AcDbVertex
100
AcDb2dVertex
 10
124.2924979401453
 20
-156.1124216276386
 30
0.0
  0
SEQEND
  5
FA
330
F7
100
AcDbEntity
  8
_U+30EC_U+30A4_U+30E4_U+30FC 1
 62
   179
420
  2234388
370
     9
  0
INSERT
  5
FC
330
1F
100
AcDbEntity
  8
_U+30EC_U+30A4_U+30E4_U+30FC 1
100
AcDbBlockReference
  2
block 7
 10
0.0
 20
0.0
 30
0.0
  0
ENDSEC
  0
SECTION
  2
OBJECTS
  0
DICTIONARY
  5
C
330
0
100
AcDbDictionary
281
     1
  3
ACAD_GROUP
350
D
  3
ACAD_LAYOUT
350
1A
  3
ACAD_MATERIAL
350
3B
  3
ACAD_MLEADERSTYLE
350
104
  3
ACAD_MLINESTYLE
350
17
  3
ACAD_PLOTSETTINGS
350
19
  3
ACAD_PLOTSTYLENAME
350
E
  3
ACAD_TABLESTYLE
350
103
  3
ACAD_VISUALSTYLE
350
2A
  0
SUN
  5
3F
330
29
100
AcDbSun
 90
        1
290
     0
 63
     7
421
 16777215
 40
1.0
291
     1
 91
  2455826
 92
 54000000
292
     0
 70
     2
 71
   256
280
     1
  0
DICTIONARY
  5
D
102
{ACAD_REACTORS
330
C
102
}
330
C
100
AcDbDictionary
281
     1
  0
DICTIONARY
  5
1A
102
{ACAD_REACTORS
330
C
102
}
330
C
100
AcDbDictionary
281
     1
  3
Layout1
350
1E
  3
Layout2
350
26
  3
Model
350
22
  0
DICTIONARY
  5
3B
102
{ACAD_REACTORS
330
C
102
}
330
C
100
AcDbDictionary
281
     1
  3
ByBlock
350
3D
  3
ByLayer
350
3C
  3
Global
350
3E
  0
DICTIONARY
  5
104
102
{ACAD_REACTORS
330
C
102
}
330
C
100
AcDbDictionary
281
     1
  0
DICTIONARY
  5
17
102
{ACAD_REACTORS
330
C
102
}
330
C
100
AcDbDictionary
281
     1
  3
Standard
350
18
  0
DICTIONARY
  5
19
102
{ACAD_REACTORS
330
C
102
}
330
C
100
AcDbDictionary
281
     1
  0
ACDBDICTIONARYWDFLT
  5
E
102
{ACAD_REACTORS
330
C
102
}
330
C
100
AcDbDictionary
281
     1
  3
Normal
350
F
100
AcDbDictionaryWithDefault
340
F
  0
DICTIONARY
  5
103
102
{ACAD_REACTORS
330
C
102
}
330
C
100
AcDbDictionary
281
     1
  0
DICTIONARY
  5
2A
102
{ACAD_REACTORS
330
C
102
}
330
C
100
AcDbDictionary
281
     1
  3
2dWireframe
350
2F
  3
3D Hidden
350
31
  3
3dWireframe
350
30
  3
Basic
350
32
  3
Brighten
350
36
  3
ColorChange
350
3A
  3
Conceptual
350
34
  3
Dim
350
35
  3
Facepattern
350
39
  3
Flat
350
2B
  3
FlatWithEdges
350
2C
  3
Gouraud
350
2D
  3
GouraudWithEdges
350
2E
  3
Linepattern
350
38
  3
Realistic
350
33
  3
Thicken
350
37
  0
LAYOUT
  5
1E
102
{ACAD_REACTORS
330
1A
102
}
330
1A
100
AcDbPlotSettings
  1

  2
none_device
  4

  6

 40
0.0
 41
0.0
 42
0.0
 43
0.0
 44
0.0
 45
0.0
 46
0.0
 47
0.0
 48
0.0
 49
0.0
140
0.0
141
0.0
142
1.0
143
1.0
 70
   688
 72
     0
 73
     0
 74
     5
  7

 75
    16
 76
     0
 77
     2
 78
   300
147
1.0
148
0.0
149
0.0
100
AcDbLayout
  1
Layout1
 70
     1
 71
     1
 10
0.0
 20
0.0
 11
12.0
 21
9.0
 12
0.0
 22
0.0
 32
0.0
 14
1.000000000000000E+20
 24
1.000000000000000E+20
 34
1.000000000000000E+20
 15
-1.000000000000000E+20
 25
-1.000000000000000E+20
 35
-1.000000000000000E+20
146
0.0
 13
0.0
 23
0.0
 33
0.0
 16
1.0
 26
0.0
 36
0.0
 17
0.0
 27
1.0
 37
0.0
 76
     0
330
1B
  0
LAYOUT
  5
26
102
{ACAD_REACTORS
330
1A
102
}
330
1A
100
AcDbPlotSettings
  1

  2
none_device
  4

  6

 40
0.0
 41
0.0
 42
0.0
 43
0.0
 44
0.0
 45
0.0
 46
0.0
 47
0.0
 48
0.0
 49
0.0
140
0.0
141
0.0
142
1.0
143
1.0
 70
   688
 72
     0
 73
     0
 74
     5
  7

 75
    16
 76
     0
 77
     2
 78
   300
147
1.0
148
0.0
149
0.0
100
AcDbLayout
  1
Layout2
 70
     1
 71
     2
 10
0.0
 20
0.0
 11
0.0
 21
0.0
 12
0.0
 22
0.0
 32
0.0
 14
0.0
 24
0.0
 34
0.0
 15
0.0
 25
0.0
 35
0.0
146
0.0
 13
0.0
 23
0.0
 33
0.0
 16
1.0
 26
0.0
 36
0.0
 17
0.0
 27
1.0
 37
0.0
 76
     0
330
23
  0
LAYOUT
  5
22
102
{ACAD_REACTORS
330
1A
102
}
330
1A
100
AcDbPlotSettings
  1

  2
none_device
  4

  6

 40
0.0
 41
0.0
 42
0.0
 43
0.0
 44
0.0
 45
0.0
 46
0.0
 47
0.0
 48
0.0
 49
0.0
140
0.0
141
0.0
142
1.0
143
1.0
 70
  1712
 72
     0
 73
     0
 74
     0
  7

 75
     0
 76
     0
 77
     2
 78
   300
147
1.0
148
0.0
149
0.0
100
AcDbLayout
  1
Model
 70
     1
 71
     0
 10
0.0
 20
0.0
 11
12.0
 21
9.0
 12
0.0
 22
0.0
 32
0.0
 14
1.000000000000000E+20
 24
1.000000000000000E+20
 34
1.000000000000000E+20
 15
-1.000000000000000E+20
 25
-1.000000000000000E+20
 35
-1.000000000000000E+20
146
0.0
 13
0.0
 23
0.0
 33
0.0
 16
1.0
 26
0.0
 36
0.0
 17
0.0
 27
1.0
 37
0.0
 76
     0
330
1F
331
29
  0
MATERIAL
  5
3D
102
{ACAD_REACTORS
330
3B
102
}
330
3B
100
AcDbMaterial
  1
ByBlock
 72
     1
 94
      127
  0
MATERIAL
  5
3C
102
{ACAD_REACTORS
330
3B
102
}
330
3B
100
AcDbMaterial
  1
ByLayer
 72
     1
 94
      127
  0
MATERIAL
  5
3E
102
{ACAD_REACTORS
330
3B
102
}
330
3B
100
AcDbMaterial
  1
Global
 72
     1
 94
      127
  0
MLINESTYLE
  5
18
102
{ACAD_REACTORS
330
17
102
}
330
17
100
AcDbMlineStyle
  2
Standard
 70
     0
  3

 62
   256
 51
90.0
 52
90.0
 71
     2
 49
0.5
 62
   256
  6
BYLAYER
 49
-0.5
 62
   256
  6
BYLAYER
  0
ACDBPLACEHOLDER
  5
F
102
{ACAD_REACTORS
330
E
102
}
330
E
  0
VISUALSTYLE
  5
2F
102
{ACAD_REACTORS
330
2A
102
}
330
2A
100
AcDbVisualStyle
  2
2dWireframe
 70
     4
177
     2
291
     0
 71
     0
176
     1
 72
     2
176
     1
 73
     0
176
     1
 90
        0
176
     1
 40
-0.6
176
     1
 41
-30.0
176
     1
 62
     5
 63
     7
421
 16777215
176
     1
 74
     1
176
     1
 91
        4
176
     1
 64
     7
176
     1
 65
   257
176
     1
 75
     1
176
     1
175
     1
176
     1
 42
1.0
176
     1
 92
        0
176
     1
 66
   257
176
     1
 43
1.0
176
     1
 76
     1
176
     1
 77
     6
176
     1
 78
     2
176
     1
 67
     7
176
     1
 79
     5
176
     1
170
     0
176
     1
171
     0
176
     1
290
     0
176
     1
 93
        1
176
     1
 44
0.0
176
     1
173
     0
176
     1
  0
VISUALSTYLE
  5
31
102
{ACAD_REACTORS
330
2A
102
}
330
2A
100
AcDbVisualStyle
  2
3D Hidden
 70
     6
177
     2
291
     0
 71
     1
176
     1
 72
     2
176
     1
 73
     2
176
     1
 90
        0
176
     1
 40
-0.6
176
     1
 41
-30.0
176
     1
 62
     5
 63
     7
421
 16777215
176
     1
 74
     2
176
     1
 91
        2
176
     1
 64
     7
176
     1
 65
   257
176
     1
 75
     2
176
     1
175
     1
176
     1
 42
40.0
176
     1
 92
        0
176
     1
 66
   257
176
     1
 43
1.0
176
     1
 76
     1
176
     1
 77
     6
176
     1
 78
     2
176
     1
 67
     7
176
     1
 79
     3
176
     1
170
     0
176
     1
171
     0
176
     1
290
     0
176
     1
 93
        1
176
     1
 44
0.0
176
     1
173
     0
176
     1
  0
VISUALSTYLE
  5
30
102
{ACAD_REACTORS
330
2A
102
}
330
2A
100
AcDbVisualStyle
  2
3dWireframe
 70
     5
177
     2
291
     0
 71
     0
176
     1
 72
     2
176
     1
 73
     0
176
     1
 90
        0
176
     1
 40
-0.6
176
     1
 41
-30.0
176
     1
 62
     5
 63
     7
421
 16777215
176
     1
 74
     1
176
     1
 91
        4
176
     1
 64
     7
176
     1
 65
   257
176
     1
 75
     1
176
     1
175
     1
176
     1
 42
1.0
176
     1
 92
        0
176
     1
 66
   257
176
     1
 43
1.0
176
     1
 76
     1
176
     1
 77
     6
176
     1
 78
     2
176
     1
 67
     7
176
     1
 79
     5
176
     1
170
     0
176
     1
171
     0
176
     1
290
     0
176
     1
 93
        1
176
     1
 44
0.0
176
     1
173
     0
176
     1
  0
VISUALSTYLE
  5
32
102
{ACAD_REACTORS
330
2A
102
}
330
2A
100
AcDbVisualStyle
  2
Basic
 70
     7
177
     2
291
     1
 71
     1
176
     1
 72
     0
176
     1
 73
     1
176
     1
 90
        0
176
     1
 40
-0.6
176
     1
 41
-30.0
176
     1
 62
     5
 63
     7
421
 16777215
176
     1
 74
     0
176
     1
 91
        4
176
     1
 64
     7
176
     1
 65
   257
176
     1
 75
     1
176
     1
175
     1
176
     1
 42
1.0
176
     1
 92
        8
176
     1
 66
     7
176
     1
 43
1.0
176
     1
 76
     1
176
     1
 77
     6
176
     1
 78
     2
176
     1
 67
     7
176
     1
 79
     5
176
     1
170
     0
176
     1
171
     0
176
     1
290
     0
176
     1
 93
        1
176
     1
 44
0.0
176
     1
173
     0
176
     1
  0
VISUALSTYLE
  5
36
102
{ACAD_REACTORS
330
2A
102
}
330
2A
100
AcDbVisualStyle
  2
Brighten
 70
    12
177
     2
291
     1
 71
     2
176
     1
 72
     2
176
     1
 73
     0
176
     1
 90
        0
176
     1
 40
-0.6
176
     1
 41
-30.0
176
     1
 62
     5
 63
     7
421
 16777215
176
     1
 74
     1
176
     1
 91
        4
176
     1
 64
     7
176
     1
 65
   257
176
     1
 75
     1
176
     1
175
     1
176
     1
 42
1.0
176
     1
 92
        8
176
     1
 66
     7
176
     1
 43
1.0
176
     1
 76
     1
176
     1
 77
     6
176
     1
 78
     2
176
     1
 67
     7
176
     1
 79
     5
176
     1
170
     0
176
     1
171
     0
176
     1
290
     0
176
     1
 93
        1
176
     1
 44
50.0
176
     1
173
     0
176
     1
  0
VISUALSTYLE
  5
3A
102
{ACAD_REACTORS
330
2A
102
}
330
2A
100
AcDbVisualStyle
  2
ColorChange
 70
    16
177
     2
291
     1
 71
     2
176
     1
 72
     2
176
     1
 73
     3
176
     1
 90
        0
176
     1
 40
-0.6
176
     1
 41
-30.0
176
     1
 62
     5
 63
     8
421
  8421504
176
     1
 74
     1
176
     1
 91
        4
176
     1
 64
     7
176
     1
 65
   257
176
     1
 75
     1
176
     1
175
     1
176
     1
 42
1.0
176
     1
 92
        8
176
     1
 66
     8
424
  8421504
176
     1
 43
1.0
176
     1
 76
     1
176
     1
 77
     6
176
     1
 78
     2
176
     1
 67
     7
176
     1
 79
     5
176
     1
170
     0
176
     1
171
     0
176
     1
290
     0
176
     1
 93
        1
176
     1
 44
0.0
176
     1
173
     0
176
     1
  0
VISUALSTYLE
  5
34
102
{ACAD_REACTORS
330
2A
102
}
330
2A
100
AcDbVisualStyle
  2
Conceptual
 70
     9
177
     2
291
     0
 71
     3
176
     1
 72
     2
176
     1
 73
     0
176
     1
 90
        0
176
     1
 40
-0.6
176
     1
 41
-30.0
176
     1
 62
     5
 63
     7
421
 16777215
176
     1
 74
     2
176
     1
 91
        2
176
     1
 64
     7
176
     1
 65
   257
176
     1
 75
     1
176
     1
175
     1
176
     1
 42
40.0
176
     1
 92
        8
176
     1
 66
     7
176
     1
 43
1.0
176
     1
 76
     1
176
     1
 77
     6
176
     1
 78
     2
176
     1
 67
     7
176
     1
 79
     3
176
     1
170
     0
176
     1
171
     0
176
     1
290
     0
176
     1
 93
        1
176
     1
 44
0.0
176
     1
173
     0
176
     1
  0
VISUALSTYLE
  5
35
102
{ACAD_REACTORS
330
2A
102
}
330
2A
100
AcDbVisualStyle
  2
Dim
 70
    11
177
     2
291
     1
 71
     2
176
     1
 72
     2
176
     1
 73
     0
176
     1
 90
        0
176
     1
 40
-0.6
176
     1
 41
-30.0
176
     1
 62
     5
 63
     7
421
 16777215
176
     1
 74
     1
176
     1
 91
        4
176
     1
 64
     7
176
     1
 65
   257
176
     1
 75
     1
176
     1
175
     1
176
     1
 42
1.0
176
     1
 92
        8
176
     1
 66
     7
176
     1
 43
1.0
176
     1
 76
     1
176
     1
 77
     6
176
     1
 78
     2
176
     1
 67
     7
176
     1
 79
     5
176
     1
170
     0
176
     1
171
     0
176
     1
290
     0
176
     1
 93
        1
176
     1
 44
-50.0
176
     1
173
     0
176
     1
  0
VISUALSTYLE
  5
39
102
{ACAD_REACTORS
330
2A
102
}
330
2A
100
AcDbVisualStyle
  2
Facepattern
 70
    15
177
     2
291
     1
 71
     2
176
     1
 72
     2
176
     1
 73
     0
176
     1
 90
        0
176
     1
 40
-0.6
176
     1
 41
-30.0
176
     1
 62
     5
 63
     7
421
 16777215
176
     1
 74
     1
176
     1
 91
        4
176
     1
 64
     7
176
     1
 65
   257
176
     1
 75
     1
176
     1
175
     1
176
     1
 42
1.0
176
     1
 92
        8
176
     1
 66
     7
176
     1
 43
1.0
176
     1
 76
     1
176
     1
 77
     6
176
     1
 78
     2
176
     1
 67
     7
176
     1
 79
     5
176
     1
170
     0
176
     1
171
     0
176
     1
290
     0
176
     1
 93
        1
176
     1
 44
0.0
176
     1
173
     0
176
     1
  0
VISUALSTYLE
  5
2B
102
{ACAD_REACTORS
330
2A
102
}
330
2A
100
AcDbVisualStyle
  2
Flat
 70
     0
177
     2
291
     1
 71
     2
176
     1
 72
     1
176
     1
 73
     1
176
     1
 90
        2
176
     1
 40
-0.6
176
     1
 41
30.0
176
     1
 62
     5
 63
     7
421
 16777215
176
     1
 74
     0
176
     1
 91
        4
176
     1
 64
     7
176
     1
 65
   257
176
     1
 75
     1
176
     1
175
     1
176
     1
 42
1.0
176
     1
 92
        8
176
     1
 66
     7
176
     1
 43
1.0
176
     1
 76
     1
176
     1
 77
     6
176
     1
 78
     2
176
     1
 67
     7
176
     1
 79
     5
176
     1
170
     0
176
     1
171
     0
176
     1
290
     0
176
     1
 93
       13
176
     1
 44
0.0
176
     1
173
     0
176
     1
  0
VISUALSTYLE
  5
2C
102
{ACAD_REACTORS
330
2A
102
}
330
2A
100
AcDbVisualStyle
  2
FlatWithEdges
 70
     1
177
     2
291
     1
 71
     2
176
     1
 72
     1
176
     1
 73
     1
176
     1
 90
        2
176
     1
 40
-0.6
176
     1
 41
30.0
176
     1
 62
     5
 63
     7
421
 16777215
176
     1
 74
     1
176
     1
 91
        4
176
     1
 64
     7
176
     1
 65
   257
176
     1
 75
     1
176
     1
175
     1
176
     1
 42
1.0
176
     1
 92
        0
176
     1
 66
   257
176
     1
 43
1.0
176
     1
 76
     1
176
     1
 77
     6
176
     1
 78
     2
176
     1
 67
     7
176
     1
 79
     5
176
     1
170
     0
176
     1
171
     0
176
     1
290
     0
176
     1
 93
       13
176
     1
 44
0.0
176
     1
173
     0
176
     1
  0
VISUALSTYLE
  5
2D
102
{ACAD_REACTORS
330
2A
102
}
330
2A
100
AcDbVisualStyle
  2
Gouraud
 70
     2
177
     2
291
     1
 71
     2
176
     1
 72
     2
176
     1
 73
     1
176
     1
 90
        2
176
     1
 40
-0.6
176
     1
 41
30.0
176
     1
 62
     5
 63
     7
421
 16777215
176
     1
 74
     0
176
     1
 91
        4
176
     1
 64
     7
176
     1
 65
   257
176
     1
 75
     1
176
     1
175
     1
176
     1
 42
1.0
176
     1
 92
        0
176
     1
 66
     7
176
     1
 43
1.0
176
     1
 76
     1
176
     1
 77
     6
176
     1
 78
     2
176
     1
 67
     7
176
     1
 79
     5
176
     1
170
     0
176
     1
171
     0
176
     1
290
     0
176
     1
 93
       13
176
     1
 44
0.0
176
     1
173
     0
176
     1
  0
VISUALSTYLE
  5
2E
102
{ACAD_REACTORS
330
2A
102
}
330
2A
100
AcDbVisualStyle
  2
GouraudWithEdges
 70
     3
177
     2
291
     1
 71
     2
176
     1
 72
     2
176
     1
 73
     1
176
     1
 90
        2
176
     1
 40
-0.6
176
     1
 41
30.0
176
     1
 62
     5
 63
     7
421
 16777215
176
     1
 74
     1
176
     1
 91
        4
176
     1
 64
     7
176
     1
 65
   257
176
     1
 75
     1
176
     1
175
     1
176
     1
 42
1.0
176
     1
 92
        0
176
     1
 66
   257
176
     1
 43
1.0
176
     1
 76
     1
176
     1
 77
     6
176
     1
 78
     2
176
     1
 67
     7
176
     1
 79
     5
176
     1
170
     0
176
     1
171
     0
176
     1
290
     0
176
     1
 93
       13
176
     1
 44
0.0
176
     1
173
     0
176
     1
  0
VISUALSTYLE
  5
38
102
{ACAD_REACTORS
330
2A
102
}
330
2A
100
AcDbVisualStyle
  2
Linepattern
 70
    14
177
     2
291
     1
 71
     2
176
     1
 72
     2
176
     1
 73
     0
176
     1
 90
        0
176
     1
 40
-0.6
176
     1
 41
-30.0
176
     1
 62
     5
 63
     7
421
 16777215
176
     1
 74
     1
176
     1
 91
        4
176
     1
 64
     7
176
     1
 65
   257
176
     1
 75
     7
176
     1
175
     7
176
     1
 42
1.0
176
     1
 92
        8
176
     1
 66
     7
176
     1
 43
1.0
176
     1
 76
     1
176
     1
 77
     6
176
     1
 78
     2
176
     1
 67
     7
176
     1
 79
     5
176
     1
170
     0
176
     1
171
     0
176
     1
290
     0
176
     1
 93
        1
176
     1
 44
0.0
176
     1
173
     0
176
     1
  0
VISUALSTYLE
  5
33
102
{ACAD_REACTORS
330
2A
102
}
330
2A
100
AcDbVisualStyle
  2
Realistic
 70
     8
177
     2
291
     0
 71
     2
176
     1
 72
     2
176
     1
 73
     0
176
     1
 90
        0
176
     1
 40
-0.6
176
     1
 41
-30.0
176
     1
 62
     5
 63
     7
421
 16777215
176
     1
 74
     1
176
     1
 91
        0
176
     1
 64
     7
176
     1
 65
   257
176
     1
 75
     1
176
     1
175
     1
176
     1
 42
1.0
176
     1
 92
        8
176
     1
 66
     8
424
  7895160
176
     1
 43
1.0
176
     1
 76
     1
176
     1
 77
     6
176
     1
 78
     2
176
     1
 67
     7
176
     1
 79
     5
176
     1
170
     0
176
     1
171
     0
176
     1
290
     0
176
     1
 93
       13
176
     1
 44
0.0
176
     1
173
     0
176
     1
  0
VISUALSTYLE
  5
37
102
{ACAD_REACTORS
330
2A
102
}
330
2A
100
AcDbVisualStyle
  2
Thicken
 70
    13
177
     2
291
     1
 71
     2
176
     1
 72
     2
176
     1
 73
     0
176
     1
 90
        0
176
     1
 40
-0.6
176
     1
 41
-30.0
176
     1
 62
     5
 63
     7
421
 16777215
176
     1
 74
     1
176
     1
 91
        4
176
     1
 64
     7
176
     1
 65
   257
176
     1
 75
     1
176
     1
175
     1
176
     1
 42
1.0
176
     1
 92
       12
176
     1
 66
     7
176
     1
 43
1.0
176
     1
 76
     1
176
     1
 77
     6
176
     1
 78
     2
176
     1
 67
     7
176
     1
 79
     5
176
     1
170
     0
176
     1
171
     0
176
     1
290
     0
176
     1
 93
        1
176
     1
 44
0.0
176
     1
173
     0
176
     1
  0
ENDSEC
  0
EOF
