  0
SECTION
  2
HEADER
  9
$ACADVER
  1
AC1024
  9
$ACADMAINTVER
 70
     6
  9
$DWGCODEPAGE
  3
UNDEFINED
  9
$INSBASE
 10
0.0
 20
0.0
 30
0.0
  9
$EXTMIN
 10
1.000000000000000E+20
 20
1.000000000000000E+20
 30
1.000000000000000E+20
  9
$EXTMAX
 10
-1.000000000000000E+20
 20
-1.000000000000000E+20
 30
-1.000000000000000E+20
  9
$LIMMIN
 10
0.0
 20
0.0
  9
$LIMMAX
 10
12.0
 20
9.0
  9
$ORTHOMODE
 70
     0
  9
$REGENMODE
 70
     1
  9
$FILLMODE
 70
     1
  9
$QTEXTMODE
 70
     0
  9
$MIRRTEXT
 70
     1
  9
$LTSCALE
 40
1.0
  9
$ATTMODE
 70
     1
  9
$TEXTSIZE
 40
0.2
  9
$TRACEWID
 40
0.05
  9
$TEXTSTYLE
  7
Standard
  9
$CLAYER
  8
0
  9
$CELTYPE
  6
ByLayer
  9
$CECOLOR
 62
   256
  9
$CELTSCALE
 40
1.0
  9
$DISPSILH
 70
     0
  9
$DIMSCALE
 40
1.0
  9
$DIMASZ
 40
0.18
  9
$DIMEXO
 40
0.0625
  9
$DIMDLI
 40
0.38
  9
$DIMRND
 40
0.0
  9
$DIMDLE
 40
0.0
  9
$DIMEXE
 40
0.18
  9
$DIMTP
 40
0.0
  9
$DIMTM
 40
0.0
  9
$DIMTXT
 40
0.18
  9
$DIMCEN
 40
0.09
  9
$DIMTSZ
 40
0.0
  9
$DIMTOL
 70
     0
  9
$DIMLIM
 70
     0
  9
$DIMTIH
 70
     1
  9
$DIMTOH
 70
     1
  9
$DIMSE1
 70
     0
  9
$DIMSE2
 70
     0
  9
$DIMTAD
 70
     0
  9
$DIMZIN
 70
     0
  9
$DIMBLK
  1

  9
$DIMASO
 70
     1
  9
$DIMSHO
 70
     1
  9
$DIMPOST
  1

  9
$DIMAPOST
  1

  9
$DIMALT
 70
     0
  9
$DIMALTD
 70
     2
  9
$DIMALTF
 40
25.4
  9
$DIMLFAC
 40
1.0
  9
$DIMTOFL
 70
     0
  9
$DIMTVP
 40
0.0
  9
$DIMTIX
 70
     0
  9
$DIMSOXD
 70
     0
  9
$DIMSAH
 70
     0
  9
$DIMBLK1
  1

  9
$DIMBLK2
  1

  9
$DIMSTYLE
  2
Standard
  9
$DIMCLRD
 70
     0
  9
$DIMCLRE
 70
     0
  9
$DIMCLRT
 70
     0
  9
$DIMTFAC
 40
1.0
  9
$DIMGAP
 40
0.09
  9
$DIMJUST
 70
     0
  9
$DIMSD1
 70
     0
  9
$DIMSD2
 70
     0
  9
$DIMTOLJ
 70
     1
  9
$DIMTZIN
 70
     0
  9
$DIMALTZ
 70
     0
  9
$DIMALTTZ
 70
     0
  9
$DIMUPT
 70
     0
  9
$DIMDEC
 70
     4
  9
$DIMTDEC
 70
     4
  9
$DIMALTU
 70
     2
  9
$DIMALTTD
 70
     2
  9
$DIMTXSTY
  7
Standard
  9
$DIMAUNIT
 70
     0
  9
$DIMADEC
 70
     0
  9
$DIMALTRND
 40
0.0
  9
$DIMAZIN
 70
     0
  9
$DIMDSEP
 70
    46
  9
$DIMATFIT
 70
     3
  9
$DIMFRAC
 70
     0
  9
$DIMLDRBLK
  1

  9
$DIMLUNIT
 70
     2
  9
$DIMLWD
 70
    -2
  9
$DIMLWE
 70
    -2
  9
$DIMTMOVE
 70
     0
  9
$DIMFXL
 40
1.0
  9
$DIMFXLON
 70
     0
  9
$DIMJOGANG
 40
0.7853981633974483
  9
$DIMTFILL
 70
     0
  9
$DIMTFILLCLR
 70
     0
  9
$DIMARCSYM
 70
     0
  9
$DIMLTYPE
  6

  9
$DIMLTEX1
  6

  9
$DIMLTEX2
  6

  9
$DIMTXTDIRECTION
 70
     0
  9
$LUNITS
 70
     2
  9
$LUPREC
 70
     4
  9
$SKETCHINC
 40
0.1
  9
$FILLETRAD
 40
0.5
  9
$AUNITS
 70
     0
  9
$AUPREC
 70
     0
  9
$MENU
  1
.
  9
$ELEVATION
 40
0.0
  9
$PELEVATION
 40
0.0
  9
$THICKNESS
 40
0.0
  9
$LIMCHECK
 70
     0
  9
$CHAMFERA
 40
0.5
  9
$CHAMFERB
 40
0.5
  9
$CHAMFERC
 40
1.0
  9
$CHAMFERD
 40
0.0
  9
$SKPOLY
 70
     0
  9
$TDCREATE
 40
2457917.587025463
  9
$TDUCREATE
 40
2457917.212025463
  9
$TDUPDATE
 40
2457917.587025463
  9
$TDUUPDATE
 40
2457917.212025463
  9
$TDINDWG
 40
0.0000000116
  9
$TDUSRTIMER
 40
0.0000000116
  9
$USRTIMER
 70
     1
  9
$ANGBASE
 50
0.0
  9
$ANGDIR
 70
     0
  9
$PDMODE
 70
     0
  9
$PDSIZE
 40
0.0
  9
$PLINEWID
 40
0.0
  9
$SPLFRAME
 70
     0
  9
$SPLINETYPE
 70
     6
  9
$SPLINESEGS
 70
     8
  9
$HANDSEED
  5
10E
  9
$SURFTAB1
 70
     6
  9
$SURFTAB2
 70
     6
  9
$SURFTYPE
 70
     6
  9
$SURFU
 70
     6
  9
$SURFV
 70
     6
  9
$UCSBASE
  2

  9
$UCSNAME
  2

  9
$UCSORG
 10
0.0
 20
0.0
 30
0.0
  9
$UCSXDIR
 10
1.0
 20
0.0
 30
0.0
  9
$UCSYDIR
 10
0.0
 20
1.0
 30
0.0
  9
$UCSORTHOREF
  2

  9
$UCSORTHOVIEW
 70
     0
  9
$UCSORGTOP
 10
0.0
 20
0.0
 30
0.0
  9
$UCSORGBOTTOM
 10
0.0
 20
0.0
 30
0.0
  9
$UCSORGLEFT
 10
0.0
 20
0.0
 30
0.0
  9
$UCSORGRIGHT
 10
0.0
 20
0.0
 30
0.0
  9
$UCSORGFRONT
 10
0.0
 20
0.0
 30
0.0
  9
$UCSORGBACK
 10
0.0
 20
0.0
 30
0.0
  9
$PUCSBASE
  2

  9
$PUCSNAME
  2

  9
$PUCSORG
 10
0.0
 20
0.0
 30
0.0
  9
$PUCSXDIR
 10
1.0
 20
0.0
 30
0.0
  9
$PUCSYDIR
 10
0.0
 20
1.0
 30
0.0
  9
$PUCSORTHOREF
  2

  9
$PUCSORTHOVIEW
 70
     0
  9
$PUCSORGTOP
 10
0.0
 20
0.0
 30
0.0
  9
$PUCSORGBOTTOM
 10
0.0
 20
0.0
 30
0.0
  9
$PUCSORGLEFT
 10
0.0
 20
0.0
 30
0.0
  9
$PUCSORGRIGHT
 10
0.0
 20
0.0
 30
0.0
  9
$PUCSORGFRONT
 10
0.0
 20
0.0
 30
0.0
  9
$PUCSORGBACK
 10
0.0
 20
0.0
 30
0.0
  9
$USERI1
 70
     0
  9
$USERI2
 70
     0
  9
$USERI3
 70
     0
  9
$USERI4
 70
     0
  9
$USERI5
 70
     0
  9
$USERR1
 40
0.0
  9
$USERR2
 40
0.0
  9
$USERR3
 40
0.0
  9
$USERR4
 40
0.0
  9
$USERR5
 40
0.0
  9
$WORLDVIEW
 70
     1
  9
$SHADEDGE
 70
     3
  9
$SHADEDIF
 70
    70
  9
$TILEMODE
 70
     1
  9
$MAXACTVP
 70
    64
  9
$PINSBASE
 10
0.0
 20
0.0
 30
0.0
  9
$PLIMCHECK
 70
     0
  9
$PEXTMIN
 10
1.000000000000000E+20
 20
1.000000000000000E+20
 30
1.000000000000000E+20
  9
$PEXTMAX
 10
-1.000000000000000E+20
 20
-1.000000000000000E+20
 30
-1.000000000000000E+20
  9
$PLIMMIN
 10
0.0
 20
0.0
  9
$PLIMMAX
 10
12.0
 20
9.0
  9
$UNITMODE
 70
     0
  9
$VISRETAIN
 70
     1
  9
$PLINEGEN
 70
     0
  9
$PSLTSCALE
 70
     1
  9
$TREEDEPTH
 70
  3020
  9
$CMLSTYLE
  2
Standard
  9
$CMLJUST
 70
     0
  9
$CMLSCALE
 40
1.0
  9
$PROXYGRAPHICS
 70
     1
  9
$MEASUREMENT
 70
     0
  9
$CELWEIGHT
370
    -1
  9
$ENDCAPS
280
     0
  9
$JOINSTYLE
280
     0
  9
$LWDISPLAY
290
     1
  9
$INSUNITS
 70
     1
  9
$HYPERLINKBASE
  1

  9
$STYLESHEET
  1

  9
$XEDIT
290
     1
  9
$CEPSNTYPE
380
     0
  9
$PSTYLEMODE
290
     1
  9
$FINGERPRINTGUID
  2
{4CC65E2E-E917-BB7F-2410-7791A1283320}
  9
$VERSIONGUID
  2
{FAEB1C32-E019-11D5-929B-00C0DF256EC4}
  9
$EXTNAMES
290
     1
  9
$PSVPSCALE
 40
0.0
  9
$OLESTARTUP
290
     0
  9
$SORTENTS
280
   127
  9
$INDEXCTL
280
     0
  9
$HIDETEXT
280
     1
  9
$XCLIPFRAME
280
     2
  9
$HALOGAP
280
     0
  9
$OBSCOLOR
 70
   257
  9
$OBSLTYPE
280
     0
  9
$INTERSECTIONDISPLAY
280
     0
  9
$INTERSECTIONCOLOR
 70
   257
  9
$DIMASSOC
280
     2
  9
$PROJECTNAME
  1

  9
$CAMERADISPLAY
290
     0
  9
$LENSLENGTH
 40
50.0
  9
$CAMERAHEIGHT
 40
0.0
  9
$STEPSPERSEC
 40
2.0
  9
$STEPSIZE
 40
6.0
  9
$3DDWFPREC
 40
2.0
  9
$PSOLWIDTH
 40
0.25
  9
$PSOLHEIGHT
 40
4.0
  9
$LOFTANG1
 40
1.570796326794897
  9
$LOFTANG2
 40
1.570796326794897
  9
$LOFTMAG1
 40
0.0
  9
$LOFTMAG2
 40
0.0
  9
$LOFTPARAM
 70
     7
  9
$LOFTNORMALS
280
     1
  9
$LATITUDE
 40
37.795
  9
$LONGITUDE
 40
-122.394
  9
$NORTHDIRECTION
 40
0.0
  9
$TIMEZONE
 70
 -8000
  9
$LIGHTGLYPHDISPLAY
280
     1
  9
$TILEMODELIGHTSYNCH
280
     1
  9
$CMATERIAL
347
3C
  9
$SOLIDHIST
280
     1
  9
$SHOWHIST
280
     1
  9
$DWFFRAME
280
     2
  9
$DGNFRAME
280
     2
  9
$REALWORLDSCALE
290
     1
  9
$INTERFERECOLOR
 62
   256
  9
$CSHADOW
280
     0
  9
$SHADOWPLANELOCATION
 40
0.0
  0
ENDSEC
  0
SECTION
  2
CLASSES
  0
CLASS
  1
ACDBDICTIONARYWDFLT
  2
AcDbDictionaryWithDefault
  3
ObjectDBX Classes
 90
        0
 91
        4
280
     0
281
     0
  0
CLASS
  1
VISUALSTYLE
  2
AcDbVisualStyle
  3
ObjectDBX Classes
 90
     4095
 91
        4
280
     0
281
     0
  0
CLASS
  1
MATERIAL
  2
AcDbMaterial
  3
ObjectDBX Classes
 90
     1153
 91
        4
280
     0
281
     0
  0
CLASS
  1
SUN
  2
AcDbSun
  3
SCENEOE
 90
     1024
 91
        4
280
     0
281
     0
  0
ENDSEC
  0
SECTION
  2
TABLES
  0
TABLE
  2
VPORT
  5
8
330
0
100
AcDbSymbolTable
 70
     1
  0
VPORT
  5
29
330
8
100
AcDbSymbolTableRecord
100
AcDbViewportTableRecord
  2
*Active
 70
     0
 10
0.0
 20
0.0
 11
1.0
 21
1.0
 12
0.0
 22
0.0
 13
0.0
 23
0.0
 14
0.5
 24
0.5
 15
0.5
 25
0.5
 16
0.0
 26
0.0
 36
1.0
 17
105.0008280156501
 27
-148.4999710739862
 37
0.0
 40
296.9999421479724
 41
0.7070764206636528
 42
50.0
 43
0.0
 44
0.0
 50
0.0
 51
0.0
 71
     0
 72
   100
 73
     1
 74
     3
 75
     0
 76
     0
 77
     0
 78
     0
281
     0
 65
     1
110
0.0
120
0.0
130
0.0
111
1.0
121
0.0
131
0.0
112
0.0
122
1.0
132
0.0
 79
     0
146
0.0
 60
     3
 61
     5
292
     1
282
     1
141
0.0
142
0.0
 63
   250
361
3F
  0
ENDTAB
  0
TABLE
  2
LTYPE
  5
5
330
0
100
AcDbSymbolTable
 70
     1
  0
LTYPE
  5
14
330
5
100
AcDbSymbolTableRecord
100
AcDbLinetypeTableRecord
  2
ByBlock
 70
     0
  3

 72
    65
 73
     0
 40
0.0
  0
LTYPE
  5
15
330
5
100
AcDbSymbolTableRecord
100
AcDbLinetypeTableRecord
  2
ByLayer
 70
     0
  3

 72
    65
 73
     0
 40
0.0
  0
LTYPE
  5
16
330
5
100
AcDbSymbolTableRecord
100
AcDbLinetypeTableRecord
  2
Continuous
 70
     0
  3
Solid line
 72
    65
 73
     0
 40
0.0
  0
ENDTAB
  0
TABLE
  2
LAYER
  5
2
330
0
100
AcDbSymbolTable
 70
     2
  0
LAYER
  5
10
330
2
100
AcDbSymbolTableRecord
100
AcDbLayerTableRecord
  2
0
 70
     0
 62
     7
  6
Continuous
370
    -3
390
F
347
3E
  0
LAYER
  5
40
330
2
100
AcDbSymbolTableRecord
100
AcDbLayerTableRecord
  2
_U+30EC_U+30A4_U+30E4_U+30FC 1
 70
     0
 62
     7
  6
Continuous
370
    -3
390
F
347
3E
  0
ENDTAB
  0
TABLE
  2
STYLE
  5
3
330
0
100
AcDbSymbolTable
 70
     1
  0
STYLE
  5
11
330
3
100
AcDbSymbolTableRecord
100
AcDbTextStyleTableRecord
  2
Standard
 70
     0
 40
0.0
 41
1.0
 50
0.0
 71
     0
 42
0.2
  3
txt
  4

  0
ENDTAB
  0
TABLE
  2
VIEW
  5
6
330
0
100
AcDbSymbolTable
 70
     0
  0
ENDTAB
  0
TABLE
  2
UCS
  5
7
330
0
100
AcDbSymbolTable
 70
     0
  0
ENDTAB
  0
TABLE
  2
APPID
  5
9
330
0
100
AcDbSymbolTable
 70
     1
  0
APPID
  5
12
330
9
100
AcDbSymbolTableRecord
100
AcDbRegAppTableRecord
  2
ACAD
 70
     0
  0
ENDTAB
  0
TABLE
  2
DIMSTYLE
  5
A
330
0
100
AcDbSymbolTable
 70
     1
100
AcDbDimStyleTable
  0
DIMSTYLE
105
27
330
A
100
AcDbSymbolTableRecord
100
AcDbDimStyleTableRecord
  2
Standard
 70
     0
178
     0
340
11
  0
ENDTAB
  0
TABLE
  2
BLOCK_RECORD
  5
1
330
0
100
AcDbSymbolTable
 70
     7
  0
BLOCK_RECORD
  5
1F
330
1
100
AcDbSymbolTableRecord
100
AcDbBlockTableRecord
  2
*Model_Space
340
22
 70
     0
280
     1
281
     0
  0
BLOCK_RECORD
  5
1B
330
1
100
AcDbSymbolTableRecord
100
AcDbBlockTableRecord
  2
*Paper_Space
340
1E
 70
     0
280
     1
281
     0
  0
BLOCK_RECORD
  5
23
330
1
100
AcDbSymbolTableRecord
100
AcDbBlockTableRecord
  2
*Paper_Space0
340
26
 70
     0
280
     1
281
     0
  0
BLOCK_RECORD
  5
93
330
1
100
AcDbSymbolTableRecord
100
AcDbBlockTableRecord
  2
block 2
340
0
102
{BLKREFS
331
94
102
}
 70
     0
280
     1
281
     0
  0
BLOCK_RECORD
  5
A9
330
1
100
AcDbSymbolTableRecord
100
AcDbBlockTableRecord
  2
block 3
340
0
102
{BLKREFS
331
AA
102
}
 70
     0
280
     1
281
     0
  0
BLOCK_RECORD
  5
C6
330
1
100
AcDbSymbolTableRecord
100
AcDbBlockTableRecord
  2
block 4
340
0
102
{BLKREFS
331
C7
102
}
 70
     0
280
     1
281
     0
  0
BLOCK_RECORD
  5
D7
330
1
100
AcDbSymbolTableRecord
100
AcDbBlockTableRecord
  2
block 5
340
0
102
{BLKREFS
331
D8
102
}
 70
     0
280
     1
281
     0
  0
BLOCK_RECORD
  5
F4
330
1
100
AcDbSymbolTableRecord
100
AcDbBlockTableRecord
  2
block 6
340
0
102
{BLKREFS
331
F5
102
}
 70
     0
280
     1
281
     0
  0
BLOCK_RECORD
  5
104
330
1
100
AcDbSymbolTableRecord
100
AcDbBlockTableRecord
  2
block 7
340
0
102
{BLKREFS
331
105
102
}
 70
     0
280
     1
281
     0
  0
ENDTAB
  0
ENDSEC
  0
SECTION
  2
BLOCKS
  0
BLOCK
  5
20
330
1F
100
AcDbEntity
  8
0
100
AcDbBlockBegin
  2
*Model_Space
 70
     0
 10
0.0
 20
0.0
 30
0.0
  3
*Model_Space
  1

  0
ENDBLK
  5
21
330
1F
100
AcDbEntity
  8
0
100
AcDbBlockEnd
  0
BLOCK
  5
1C
330
1B
100
AcDbEntity
 67
     1
  8
0
100
AcDbBlockBegin
  2
*Paper_Space
 70
     0
 10
0.0
 20
0.0
 30
0.0
  3
*Paper_Space
  1

  0
ENDBLK
  5
1D
330
1B
100
AcDbEntity
 67
     1
  8
0
100
AcDbBlockEnd
  0
BLOCK
  5
24
330
23
100
AcDbEntity
  8
0
100
AcDbBlockBegin
  2
*Paper_Space0
 70
     0
 10
0.0
 20
0.0
 30
0.0
  3
*Paper_Space0
  1

  0
ENDBLK
  5
25
330
23
100
AcDbEntity
  8
0
100
AcDbBlockEnd
  0
BLOCK
  5
95
330
93
100
AcDbEntity
  8
0
100
AcDbBlockBegin
  2
block 2
 70
     0
 10
0.0
 20
0.0
 30
0.0
  3
block 2
  1

  0
SPLINE
  5
97
330
93
100
AcDbEntity
  8
_U+30EC_U+30A4_U+30E4_U+30FC 1
370
     0
100
AcDbSpline
210
0.0
220
0.0
230
1.0
 70
    11
 71
     3
 72
    26
 73
    22
 74
     0
 42
0.0000000001
 43
0.0000000001
 12
1.0
 22
0.0
 32
0.0
 13
1.0
 23
0.0
 33
0.0
 40
0.0
 40
0.0
 40
0.0
 40
0.0
 40
1.0
 40
1.0
 40
1.0
 40
2.0
 40
2.0
 40
2.0
 40
3.0
 40
3.0
 40
3.0
 40
4.0
 40
4.0
 40
4.0
 40
5.0
 40
5.0
 40
5.0
 40
6.0
 40
6.0
 40
6.0
 40
7.0
 40
7.0
 40
7.0
 40
7.0
 10
121.3541774870226
 20
-142.3315361514831
 30
0.0
 10
121.3541774870226
 20
-142.3315361514831
 30
0.0
 10
120.250024384
 20
-142.3315361514831
 30
0.0
 10
120.250024384
 20
-142.3315361514831
 30
0.0
 10
120.250024384
 20
-142.3315361514831
 30
0.0
 10
120.250024384
 20
-142.6843139291727
 30
0.0
 10
120.250024384
 20
-142.6843139291727
 30
0.0
 10
120.250024384
 20
-142.6843139291727
 30
0.0
 10
120.1018852781343
 20
-142.6843139291727
 30
0.0
 10
120.1018852781343
 20
-142.6843139291727
 30
0.0
 10
120.0870713675477
 20
-142.3292968394177
 30
0.0
 10
119.9241183510954
 20
-142.2795152096558
 30
0.0
 10
119.8097411809851
 20
-142.2479925859658
 30
0.0
 10
119.8097411809851
 20
-142.2479925859658
 30
0.0
 10
119.8097411809851
 20
-142.091929760484
 30
0.0
 10
119.8097411809851
 20
-142.091929760484
 30
0.0
 10
119.8097411809851
 20
-142.091929760484
 30
0.0
 10
121.3541774870226
 20
-142.091929760484
 30
0.0
 10
121.3541774870226
 20
-142.091929760484
 30
0.0
 10
121.3541774870226
 20
-142.091929760484
 30
0.0
 10
121.3541774870226
 20
-142.3315361514831
 30
0.0
 10
121.3541774870226
 20
-142.3315361514831
 30
0.0
  0
HATCH
  5
98
330
93
100
AcDbEntity
  8
_U+30EC_U+30A4_U+30E4_U+30FC 1
 62
   179
420
  2234388
100
AcDbHatch
 10
0.0
 20
0.0
 30
0.0
210
0.0
220
0.0
230
1.0
  2
SOLID
 70
     1
 71
     0
 91
        1
 92
        1
 93
        1
 72
     4
 94
        3
 73
     0
 74
     1
 95
       26
 96
       22
 40
0.0
 40
0.0
 40
0.0
 40
0.0
 40
1.0
 40
1.0
 40
1.0
 40
2.0
 40
2.0
 40
2.0
 40
3.0
 40
3.0
 40
3.0
 40
4.0
 40
4.0
 40
4.0
 40
5.0
 40
5.0
 40
5.0
 40
6.0
 40
6.0
 40
6.0
 40
7.0
 40
7.0
 40
7.0
 40
7.0
 10
121.3541774870226
 20
-142.3315361514831
 10
121.3541774870226
 20
-142.3315361514831
 10
120.250024384
 20
-142.3315361514831
 10
120.250024384
 20
-142.3315361514831
 10
120.250024384
 20
-142.3315361514831
 10
120.250024384
 20
-142.6843139291727
 10
120.250024384
 20
-142.6843139291727
 10
120.250024384
 20
-142.6843139291727
 10
120.1018852781343
 20
-142.6843139291727
 10
120.1018852781343
 20
-142.6843139291727
 10
120.0870713675477
 20
-142.3292968394177
 10
119.9241183510954
 20
-142.2795152096558
 10
119.8097411809851
 20
-142.2479925859658
 10
119.8097411809851
 20
-142.2479925859658
 10
119.8097411809851
 20
-142.091929760484
 10
119.8097411809851
 20
-142.091929760484
 10
119.8097411809851
 20
-142.091929760484
 10
121.3541774870226
 20
-142.091929760484
 10
121.3541774870226
 20
-142.091929760484
 10
121.3541774870226
 20
-142.091929760484
 10
121.3541774870226
 20
-142.3315361514831
 10
121.3541774870226
 20
-142.3315361514831
 97
        0
 97
        0
 75
     2
 76
     1
 98
        0
  0
ENDBLK
  5
96
330
93
100
AcDbEntity
  8
0
100
AcDbBlockEnd
  0
BLOCK
  5
AB
330
A9
100
AcDbEntity
  8
0
100
AcDbBlockBegin
  2
block 3
 70
     0
 10
0.0
 20
0.0
 30
0.0
  3
block 3
  1

  0
SPLINE
  5
AD
330
A9
100
AcDbEntity
  8
_U+30EC_U+30A4_U+30E4_U+30FC 1
370
     0
100
AcDbSpline
210
0.0
220
0.0
230
1.0
 70
    11
 71
     3
 72
    29
 73
    25
 74
     0
 42
0.0000000001
 43
0.0000000001
 12
1.0
 22
0.0
 32
0.0
 13
1.0
 23
0.0
 33
0.0
 40
0.0
 40
0.0
 40
0.0
 40
0.0
 40
1.0
 40
1.0
 40
1.0
 40
2.0
 40
2.0
 40
2.0
 40
3.0
 40
3.0
 40
3.0
 40
4.0
 40
4.0
 40
4.0
 40
5.0
 40
5.0
 40
5.0
 40
6.0
 40
6.0
 40
6.0
 40
7.0
 40
7.0
 40
7.0
 40
8.0
 40
8.0
 40
8.0
 40
8.0
 10
107.1758870174769
 20
-150.1710231829434
 30
0.0
 10
107.3853488229801
 20
-150.2864338816992
 30
0.0
 10
107.4042968481489
 20
-150.4717800188057
 30
0.0
 10
107.4042968481489
 20
-150.5961479658232
 30
0.0
 10
107.4042968481489
 20
-150.7677137209886
 30
0.0
 10
107.3577880590981
 20
-150.9192979223396
 30
0.0
 10
107.1758870174769
 20
-151.0209282391545
 30
0.0
 10
106.9812391225603
 20
-151.1318603137796
 30
0.0
 10
106.7445610627236
 20
-151.1521863771425
 30
0.0
 10
106.5816080462713
 20
-151.1521863771425
 30
0.0
 10
106.4376030549878
 20
-151.1521863771425
 30
0.0
 10
106.1857665750161
 20
-151.1342718806192
 30
0.0
 10
105.9869845655171
 20
-151.0209282391545
 30
0.0
 10
105.7840684414359
 20
-150.9058620499472
 30
0.0
 10
105.7606417921362
 20
-150.7339517852332
 30
0.0
 10
105.7606417921362
 20
-150.5961479658232
 30
0.0
 10
105.7606417921362
 20
-150.4263047584004
 30
0.0
 10
105.805083523896
 20
-150.2726534997582
 30
0.0
 10
105.9869845655171
 20
-150.1710231829434
 30
0.0
 10
106.1795654031426
 20
-150.0645697324491
 30
0.0
 10
106.4079752338147
 20
-150.0397650449553
 30
0.0
 10
106.5816080462713
 20
-150.0397650449553
 30
0.0
 10
106.7528292918882
 20
-150.0397650449553
 30
0.0
 10
106.9833061798514
 20
-150.062502675158
 30
0.0
 10
107.1758870174769
 20
-150.1710231829434
 30
0.0
  0
SPLINE
  5
AE
330
A9
100
AcDbEntity
  8
_U+30EC_U+30A4_U+30E4_U+30FC 1
370
     0
100
AcDbSpline
210
0.0
220
0.0
230
1.0
 70
    11
 71
     3
 72
    17
 73
    13
 74
     0
 42
0.0000000001
 43
0.0000000001
 12
1.0
 22
0.0
 32
0.0
 13
1.0
 23
0.0
 33
0.0
 40
0.0
 40
0.0
 40
0.0
 40
0.0
 40
1.0
 40
1.0
 40
1.0
 40
2.0
 40
2.0
 40
2.0
 40
3.0
 40
3.0
 40
3.0
 40
4.0
 40
4.0
 40
4.0
 40
4.0
 10
105.9532226297617
 20
-150.5961479658232
 30
0.0
 10
105.9532226297617
 20
-150.8627983563815
 30
0.0
 10
106.2367539881978
 20
-150.9124077313691
 30
0.0
 10
106.5816080462713
 20
-150.9124077313691
 30
0.0
 10
106.9009683977539
 20
-150.9124077313691
 30
0.0
 10
107.2096489532323
 20
-150.8741671714829
 30
0.0
 10
107.2096489532323
 20
-150.5961479658232
 30
0.0
 10
107.2096489532323
 20
-150.331564632556
 30
0.0
 10
106.9285291616359
 20
-150.2795436907287
 30
0.0
 10
106.5816080462713
 20
-150.2795436907287
 30
0.0
 10
106.2619031852401
 20
-150.2795436907287
 30
0.0
 10
105.9532226297617
 20
-150.3201958174547
 30
0.0
 10
105.9532226297617
 20
-150.5961479658232
 30
0.0
  0
HATCH
  5
AF
330
A9
100
AcDbEntity
  8
_U+30EC_U+30A4_U+30E4_U+30FC 1
 62
   179
420
  2234388
100
AcDbHatch
 10
0.0
 20
0.0
 30
0.0
210
0.0
220
0.0
230
1.0
  2
SOLID
 70
     1
 71
     0
 91
        2
 92
        1
 93
        1
 72
     4
 94
        3
 73
     0
 74
     1
 95
       29
 96
       25
 40
0.0
 40
0.0
 40
0.0
 40
0.0
 40
1.0
 40
1.0
 40
1.0
 40
2.0
 40
2.0
 40
2.0
 40
3.0
 40
3.0
 40
3.0
 40
4.0
 40
4.0
 40
4.0
 40
5.0
 40
5.0
 40
5.0
 40
6.0
 40
6.0
 40
6.0
 40
7.0
 40
7.0
 40
7.0
 40
8.0
 40
8.0
 40
8.0
 40
8.0
 10
107.1758870174769
 20
-150.1710231829434
 10
107.3853488229801
 20
-150.2864338816992
 10
107.4042968481489
 20
-150.4717800188057
 10
107.4042968481489
 20
-150.5961479658232
 10
107.4042968481489
 20
-150.7677137209886
 10
107.3577880590981
 20
-150.9192979223396
 10
107.1758870174769
 20
-151.0209282391545
 10
106.9812391225603
 20
-151.1318603137796
 10
106.7445610627236
 20
-151.1521863771425
 10
106.5816080462713
 20
-151.1521863771425
 10
106.4376030549878
 20
-151.1521863771425
 10
106.1857665750161
 20
-151.1342718806192
 10
105.9869845655171
 20
-151.0209282391545
 10
105.7840684414359
 20
-150.9058620499472
 10
105.7606417921362
 20
-150.7339517852332
 10
105.7606417921362
 20
-150.5961479658232
 10
105.7606417921362
 20
-150.4263047584004
 10
105.805083523896
 20
-150.2726534997582
 10
105.9869845655171
 20
-150.1710231829434
 10
106.1795654031426
 20
-150.0645697324491
 10
106.4079752338147
 20
-150.0397650449553
 10
106.5816080462713
 20
-150.0397650449553
 10
106.7528292918882
 20
-150.0397650449553
 10
106.9833061798514
 20
-150.062502675158
 10
107.1758870174769
 20
-150.1710231829434
 97
        0
 97
        0
 92
        1
 93
        1
 72
     4
 94
        3
 73
     0
 74
     1
 95
       17
 96
       13
 40
0.0
 40
0.0
 40
0.0
 40
0.0
 40
1.0
 40
1.0
 40
1.0
 40
2.0
 40
2.0
 40
2.0
 40
3.0
 40
3.0
 40
3.0
 40
4.0
 40
4.0
 40
4.0
 40
4.0
 10
105.9532226297617
 20
-150.5961479658232
 10
105.9532226297617
 20
-150.8627983563815
 10
106.2367539881978
 20
-150.9124077313691
 10
106.5816080462713
 20
-150.9124077313691
 10
106.9009683977539
 20
-150.9124077313691
 10
107.2096489532323
 20
-150.8741671714829
 10
107.2096489532323
 20
-150.5961479658232
 10
107.2096489532323
 20
-150.331564632556
 10
106.9285291616359
 20
-150.2795436907287
 10
106.5816080462713
 20
-150.2795436907287
 10
106.2619031852401
 20
-150.2795436907287
 10
105.9532226297617
 20
-150.3201958174547
 10
105.9532226297617
 20
-150.5961479658232
 97
        0
 97
        0
 75
     2
 76
     1
 98
        0
  0
POLYLINE
  5
B0
330
A9
100
AcDbEntity
  8
_U+30EC_U+30A4_U+30E4_U+30FC 1
370
     0
100
AcDb2dPolyline
 66
     1
 10
0.0
 20
0.0
 30
0.0
  0
VERTEX
  5
B1
330
B0
100
AcDbEntity
  8
_U+30EC_U+30A4_U+30E4_U+30FC 1
370
     0
100
AcDbVertex
100
AcDb2dVertex
 10
107.3536539445158
 20
-149.8085991378951
 30
0.0
  0
VERTEX
  5
B2
330
B0
100
AcDbEntity
  8
_U+30EC_U+30A4_U+30E4_U+30FC 1
370
     0
100
AcDbVertex
100
AcDb2dVertex
 10
107.101817464544
 20
-149.8085991378951
 30
0.0
  0
VERTEX
  5
B3
330
B0
100
AcDbEntity
  8
_U+30EC_U+30A4_U+30E4_U+30FC 1
370
     0
100
AcDbVertex
100
AcDb2dVertex
 10
107.101817464544
 20
-149.5395371804971
 30
0.0
  0
VERTEX
  5
B4
330
B0
100
AcDbEntity
  8
_U+30EC_U+30A4_U+30E4_U+30FC 1
370
     0
100
AcDbVertex
100
AcDb2dVertex
 10
107.3536539445158
 20
-149.5395371804971
 30
0.0
  0
VERTEX
  5
B5
330
B0
100
AcDbEntity
  8
_U+30EC_U+30A4_U+30E4_U+30FC 1
370
     0
100
AcDbVertex
100
AcDb2dVertex
 10
107.3536539445158
 20
-149.8085991378951
 30
0.0
  0
SEQEND
  5
B6
330
B0
100
AcDbEntity
  8
_U+30EC_U+30A4_U+30E4_U+30FC 1
370
     0
  0
HATCH
  5
B7
330
A9
100
AcDbEntity
  8
_U+30EC_U+30A4_U+30E4_U+30FC 1
 62
   179
420
  2234388
100
AcDbHatch
 10
0.0
 20
0.0
 30
0.0
210
0.0
220
0.0
230
1.0
  2
SOLID
 70
     1
 71
     0
 91
        1
 92
        1
 93
        4
 72
     1
 10
107.3536539445158
 20
-149.8085991378951
 11
107.101817464544
 21
-149.8085991378951
 72
     1
 10
107.101817464544
 20
-149.8085991378951
 11
107.101817464544
 21
-149.5395371804971
 72
     1
 10
107.101817464544
 20
-149.5395371804971
 11
107.3536539445158
 21
-149.5395371804971
 72
     1
 10
107.3536539445158
 20
-149.5395371804971
 11
107.3536539445158
 21
-149.8085991378951
 97
        0
 75
     2
 76
     1
 98
        0
  0
SPLINE
  5
B8
330
A9
100
AcDbEntity
  8
_U+30EC_U+30A4_U+30E4_U+30FC 1
370
     0
100
AcDbSpline
210
0.0
220
0.0
230
1.0
 70
    11
 71
     3
 72
    62
 73
    58
 74
     0
 42
0.0000000001
 43
0.0000000001
 12
1.0
 22
0.0
 32
0.0
 13
1.0
 23
0.0
 33
0.0
 40
0.0
 40
0.0
 40
0.0
 40
0.0
 40
1.0
 40
1.0
 40
1.0
 40
2.0
 40
2.0
 40
2.0
 40
3.0
 40
3.0
 40
3.0
 40
4.0
 40
4.0
 40
4.0
 40
5.0
 40
5.0
 40
5.0
 40
6.0
 40
6.0
 40
6.0
 40
7.0
 40
7.0
 40
7.0
 40
8.0
 40
8.0
 40
8.0
 40
9.0
 40
9.0
 40
9.0
 40
10.0
 40
10.0
 40
10.0
 40
11.0
 40
11.0
 40
11.0
 40
12.0
 40
12.0
 40
12.0
 40
13.0
 40
13.0
 40
13.0
 40
14.0
 40
14.0
 40
14.0
 40
15.0
 40
15.0
 40
15.0
 40
16.0
 40
16.0
 40
16.0
 40
17.0
 40
17.0
 40
17.0
 40
18.0
 40
18.0
 40
18.0
 40
19.0
 40
19.0
 40
19.0
 40
19.0
 10
107.4042968481489
 20
-148.7612901103791
 30
0.0
 10
107.4042968481489
 20
-148.862920427194
 30
0.0
 10
107.3832817656889
 20
-149.0958088819969
 30
0.0
 10
107.1972466094854
 20
-149.2291340772761
 30
0.0
 10
107.0849364966663
 20
-149.3083712734368
 30
0.0
 10
106.9857177466911
 20
-149.3128498975676
 30
0.0
 10
106.9009683977539
 20
-149.3173285216984
 30
0.0
 10
106.9009683977539
 20
-149.3173285216984
 30
0.0
 10
106.9009683977539
 20
-149.0823730096044
 30
0.0
 10
106.9009683977539
 20
-149.0823730096044
 30
0.0
 10
106.9750379506868
 20
-149.0799614427647
 30
0.0
 10
107.2096489532323
 20
-149.0685926276634
 30
0.0
 10
107.2096489532323
 20
-148.7657687345099
 30
0.0
 10
107.2096489532323
 20
-148.6186631572898
 30
0.0
 10
107.1400580244303
 20
-148.456054650386
 30
0.0
 10
106.9116481937582
 20
-148.456054650386
 30
0.0
 10
106.7952039663568
 20
-148.456054650386
 30
0.0
 10
106.7466281200147
 20
-148.4967067771119
 30
0.0
 10
106.7149332415504
 20
-148.5304687128674
 30
0.0
 10
106.6408636886176
 20
-148.6097059090281
 30
0.0
 10
106.6281168353221
 20
-148.7340738560457
 30
0.0
 10
106.6281168353221
 20
-148.7929849888434
 30
0.0
 10
106.6281168353221
 20
-148.8133110522064
 30
0.0
 10
106.6301838926133
 20
-148.8515516120927
 30
0.0
 10
106.6343180071956
 20
-148.8811794332658
 30
0.0
 10
106.6343180071956
 20
-148.8811794332658
 30
0.0
 10
106.439670112279
 20
-148.8811794332658
 30
0.0
 10
106.439670112279
 20
-148.8811794332658
 30
0.0
 10
106.446215793701
 20
-148.8405273065399
 30
0.0
 10
106.4482828509921
 20
-148.7950520461346
 30
0.0
 10
106.4482828509921
 20
-148.7885063647126
 30
0.0
 10
106.4482828509921
 20
-148.7182264168135
 30
0.0
 10
106.4269232589835
 20
-148.5056640253736
 30
0.0
 10
106.1902451991469
 20
-148.5056640253736
 30
0.0
 10
106.012478272108
 20
-148.5056640253736
 30
0.0
 10
105.957356744344
 20
-148.6458794116233
 30
0.0
 10
105.957356744344
 20
-148.7633571676703
 30
0.0
 10
105.957356744344
 20
-149.0461995070093
 30
0.0
 10
106.1902451991469
 20
-149.0551567552709
 30
0.0
 10
106.2619031852401
 20
-149.0596353794018
 30
0.0
 10
106.2619031852401
 20
-149.0596353794018
 30
0.0
 10
106.2619031852401
 20
-149.2766763949725
 30
0.0
 10
106.2619031852401
 20
-149.2766763949725
 30
0.0
 10
106.137190728674
 20
-149.2677191467108
 30
0.0
 10
105.7606417921362
 20
-149.2384358350862
 30
0.0
 10
105.7606417921362
 20
-148.7499212952778
 30
0.0
 10
105.7606417921362
 20
-148.5101426495044
 30
0.0
 10
105.887765815542
 20
-148.2524495072077
 30
0.0
 10
106.1836995177249
 20
-148.2524495072077
 30
0.0
 10
106.3700791834769
 20
-148.2524495072077
 30
0.0
 10
106.4524169655744
 20
-148.3544243335711
 30
0.0
 10
106.5137396652118
 20
-148.4605332745168
 30
0.0
 10
106.5413004290939
 20
-148.3950764602971
 30
0.0
 10
106.6215711539002
 20
-148.2004285653805
 30
0.0
 10
106.8989013404628
 20
-148.2004285653805
 30
0.0
 10
107.2372097171143
 20
-148.2004285653805
 30
0.0
 10
107.4042968481489
 20
-148.4650118986476
 30
0.0
 10
107.4042968481489
 20
-148.7612901103791
 30
0.0
  0
HATCH
  5
B9
330
A9
100
AcDbEntity
  8
_U+30EC_U+30A4_U+30E4_U+30FC 1
 62
   179
420
  2234388
100
AcDbHatch
 10
0.0
 20
0.0
 30
0.0
210
0.0
220
0.0
230
1.0
  2
SOLID
 70
     1
 71
     0
 91
        1
 92
        1
 93
        1
 72
     4
 94
        3
 73
     0
 74
     1
 95
       62
 96
       58
 40
0.0
 40
0.0
 40
0.0
 40
0.0
 40
1.0
 40
1.0
 40
1.0
 40
2.0
 40
2.0
 40
2.0
 40
3.0
 40
3.0
 40
3.0
 40
4.0
 40
4.0
 40
4.0
 40
5.0
 40
5.0
 40
5.0
 40
6.0
 40
6.0
 40
6.0
 40
7.0
 40
7.0
 40
7.0
 40
8.0
 40
8.0
 40
8.0
 40
9.0
 40
9.0
 40
9.0
 40
10.0
 40
10.0
 40
10.0
 40
11.0
 40
11.0
 40
11.0
 40
12.0
 40
12.0
 40
12.0
 40
13.0
 40
13.0
 40
13.0
 40
14.0
 40
14.0
 40
14.0
 40
15.0
 40
15.0
 40
15.0
 40
16.0
 40
16.0
 40
16.0
 40
17.0
 40
17.0
 40
17.0
 40
18.0
 40
18.0
 40
18.0
 40
19.0
 40
19.0
 40
19.0
 40
19.0
 10
107.4042968481489
 20
-148.7612901103791
 10
107.4042968481489
 20
-148.862920427194
 10
107.3832817656889
 20
-149.0958088819969
 10
107.1972466094854
 20
-149.2291340772761
 10
107.0849364966663
 20
-149.3083712734368
 10
106.9857177466911
 20
-149.3128498975676
 10
106.9009683977539
 20
-149.3173285216984
 10
106.9009683977539
 20
-149.3173285216984
 10
106.9009683977539
 20
-149.0823730096044
 10
106.9009683977539
 20
-149.0823730096044
 10
106.9750379506868
 20
-149.0799614427647
 10
107.2096489532323
 20
-149.0685926276634
 10
107.2096489532323
 20
-148.7657687345099
 10
107.2096489532323
 20
-148.6186631572898
 10
107.1400580244303
 20
-148.456054650386
 10
106.9116481937582
 20
-148.456054650386
 10
106.7952039663568
 20
-148.456054650386
 10
106.7466281200147
 20
-148.4967067771119
 10
106.7149332415504
 20
-148.5304687128674
 10
106.6408636886176
 20
-148.6097059090281
 10
106.6281168353221
 20
-148.7340738560457
 10
106.6281168353221
 20
-148.7929849888434
 10
106.6281168353221
 20
-148.8133110522064
 10
106.6301838926133
 20
-148.8515516120927
 10
106.6343180071956
 20
-148.8811794332658
 10
106.6343180071956
 20
-148.8811794332658
 10
106.439670112279
 20
-148.8811794332658
 10
106.439670112279
 20
-148.8811794332658
 10
106.446215793701
 20
-148.8405273065399
 10
106.4482828509921
 20
-148.7950520461346
 10
106.4482828509921
 20
-148.7885063647126
 10
106.4482828509921
 20
-148.7182264168135
 10
106.4269232589835
 20
-148.5056640253736
 10
106.1902451991469
 20
-148.5056640253736
 10
106.012478272108
 20
-148.5056640253736
 10
105.957356744344
 20
-148.6458794116233
 10
105.957356744344
 20
-148.7633571676703
 10
105.957356744344
 20
-149.0461995070093
 10
106.1902451991469
 20
-149.0551567552709
 10
106.2619031852401
 20
-149.0596353794018
 10
106.2619031852401
 20
-149.0596353794018
 10
106.2619031852401
 20
-149.2766763949725
 10
106.2619031852401
 20
-149.2766763949725
 10
106.137190728674
 20
-149.2677191467108
 10
105.7606417921362
 20
-149.2384358350862
 10
105.7606417921362
 20
-148.7499212952778
 10
105.7606417921362
 20
-148.5101426495044
 10
105.887765815542
 20
-148.2524495072077
 10
106.1836995177249
 20
-148.2524495072077
 10
106.3700791834769
 20
-148.2524495072077
 10
106.4524169655744
 20
-148.3544243335711
 10
106.5137396652118
 20
-148.4605332745168
 10
106.5413004290939
 20
-148.3950764602971
 10
106.6215711539002
 20
-148.2004285653805
 10
106.8989013404628
 20
-148.2004285653805
 10
107.2372097171143
 20
-148.2004285653805
 10
107.4042968481489
 20
-148.4650118986476
 10
107.4042968481489
 20
-148.7612901103791
 97
        0
 97
        0
 75
     2
 76
     1
 98
        0
  0
ENDBLK
  5
AC
330
A9
100
AcDbEntity
  8
0
100
AcDbBlockEnd
  0
BLOCK
  5
C8
330
C6
100
AcDbEntity
  8
0
100
AcDbBlockBegin
  2
block 4
 70
     0
 10
0.0
 20
0.0
 30
0.0
  3
block 4
  1

  0
SPLINE
  5
CA
330
C6
100
AcDbEntity
  8
_U+30EC_U+30A4_U+30E4_U+30FC 1
370
     0
100
AcDbSpline
210
0.0
220
0.0
230
1.0
 70
    11
 71
     3
 72
    26
 73
    22
 74
     0
 42
0.0000000001
 43
0.0000000001
 12
1.0
 22
0.0
 32
0.0
 13
1.0
 23
0.0
 33
0.0
 40
0.0
 40
0.0
 40
0.0
 40
0.0
 40
1.0
 40
1.0
 40
1.0
 40
2.0
 40
2.0
 40
2.0
 40
3.0
 40
3.0
 40
3.0
 40
4.0
 40
4.0
 40
4.0
 40
5.0
 40
5.0
 40
5.0
 40
6.0
 40
6.0
 40
6.0
 40
7.0
 40
7.0
 40
7.0
 40
7.0
 10
98.97966034851898
 20
-156.5196451431618
 30
0.0
 10
98.97966034851898
 20
-156.5196451431618
 30
0.0
 10
98.97966034851898
 20
-155.4154920401392
 30
0.0
 10
98.97966034851898
 20
-155.4154920401392
 30
0.0
 10
98.97966034851898
 20
-155.4154920401392
 30
0.0
 10
98.62722708037792
 20
-155.4154920401392
 30
0.0
 10
98.62722708037792
 20
-155.4154920401392
 30
0.0
 10
98.62722708037792
 20
-155.4154920401392
 30
0.0
 10
98.62722708037792
 20
-155.2673529342734
 30
0.0
 10
98.62722708037792
 20
-155.2673529342734
 30
0.0
 10
98.98207191535866
 20
-155.2525390236869
 30
0.0
 10
99.03168129034626
 20
-155.0895860072345
 30
0.0
 10
99.06337616881055
 20
-154.9752088371243
 30
0.0
 10
99.06337616881055
 20
-154.9752088371243
 30
0.0
 10
99.21943899429236
 20
-154.9752088371243
 30
0.0
 10
99.21943899429236
 20
-154.9752088371243
 30
0.0
 10
99.21943899429236
 20
-154.9752088371243
 30
0.0
 10
99.21943899429236
 20
-156.5196451431618
 30
0.0
 10
99.21943899429236
 20
-156.5196451431618
 30
0.0
 10
99.21943899429236
 20
-156.5196451431618
 30
0.0
 10
98.97966034851898
 20
-156.5196451431618
 30
0.0
 10
98.97966034851898
 20
-156.5196451431618
 30
0.0
  0
HATCH
  5
CB
330
C6
100
AcDbEntity
  8
_U+30EC_U+30A4_U+30E4_U+30FC 1
 62
   179
420
  2234388
100
AcDbHatch
 10
0.0
 20
0.0
 30
0.0
210
0.0
220
0.0
230
1.0
  2
SOLID
 70
     1
 71
     0
 91
        1
 92
        1
 93
        1
 72
     4
 94
        3
 73
     0
 74
     1
 95
       26
 96
       22
 40
0.0
 40
0.0
 40
0.0
 40
0.0
 40
1.0
 40
1.0
 40
1.0
 40
2.0
 40
2.0
 40
2.0
 40
3.0
 40
3.0
 40
3.0
 40
4.0
 40
4.0
 40
4.0
 40
5.0
 40
5.0
 40
5.0
 40
6.0
 40
6.0
 40
6.0
 40
7.0
 40
7.0
 40
7.0
 40
7.0
 10
98.97966034851898
 20
-156.5196451431618
 10
98.97966034851898
 20
-156.5196451431618
 10
98.97966034851898
 20
-155.4154920401392
 10
98.97966034851898
 20
-155.4154920401392
 10
98.97966034851898
 20
-155.4154920401392
 10
98.62722708037792
 20
-155.4154920401392
 10
98.62722708037792
 20
-155.4154920401392
 10
98.62722708037792
 20
-155.4154920401392
 10
98.62722708037792
 20
-155.2673529342734
 10
98.62722708037792
 20
-155.2673529342734
 10
98.98207191535866
 20
-155.2525390236869
 10
99.03168129034626
 20
-155.0895860072345
 10
99.06337616881055
 20
-154.9752088371243
 10
99.06337616881055
 20
-154.9752088371243
 10
99.21943899429236
 20
-154.9752088371243
 10
99.21943899429236
 20
-154.9752088371243
 10
99.21943899429236
 20
-154.9752088371243
 10
99.21943899429236
 20
-156.5196451431618
 10
99.21943899429236
 20
-156.5196451431618
 10
99.21943899429236
 20
-156.5196451431618
 10
98.97966034851898
 20
-156.5196451431618
 10
98.97966034851898
 20
-156.5196451431618
 97
        0
 97
        0
 75
     2
 76
     1
 98
        0
  0
SPLINE
  5
CC
330
C6
100
AcDbEntity
  8
_U+30EC_U+30A4_U+30E4_U+30FC 1
370
     0
100
AcDbSpline
210
0.0
220
0.0
230
1.0
 70
    11
 71
     3
 72
    29
 73
    25
 74
     0
 42
0.0000000001
 43
0.0000000001
 12
1.0
 22
0.0
 32
0.0
 13
1.0
 23
0.0
 33
0.0
 40
0.0
 40
0.0
 40
0.0
 40
0.0
 40
1.0
 40
1.0
 40
1.0
 40
2.0
 40
2.0
 40
2.0
 40
3.0
 40
3.0
 40
3.0
 40
4.0
 40
4.0
 40
4.0
 40
5.0
 40
5.0
 40
5.0
 40
6.0
 40
6.0
 40
6.0
 40
7.0
 40
7.0
 40
7.0
 40
8.0
 40
8.0
 40
8.0
 40
8.0
 10
100.7146104348908
 20
-156.3418782161229
 30
0.0
 10
100.5991997361349
 20
-156.5513400216261
 30
0.0
 10
100.4138535990285
 20
-156.5702880467949
 30
0.0
 10
100.289485652011
 20
-156.5702880467949
 30
0.0
 10
100.1179198968455
 20
-156.5702880467949
 30
0.0
 10
99.96633569549454
 20
-156.5237792577441
 30
0.0
 10
99.86470537867966
 20
-156.3418782161229
 30
0.0
 10
99.75377330405462
 20
-156.1472303212063
 30
0.0
 10
99.73344724069165
 20
-155.9105522613696
 30
0.0
 10
99.73344724069165
 20
-155.7475992449173
 30
0.0
 10
99.73344724069165
 20
-155.6035942536338
 30
0.0
 10
99.75170624676346
 20
-155.3517577736621
 30
0.0
 10
99.86470537867966
 20
-155.1529757641632
 30
0.0
 10
99.979771567887
 20
-154.9500596400819
 30
0.0
 10
100.151681832601
 20
-154.9266329907822
 30
0.0
 10
100.289485652011
 20
-154.9266329907822
 30
0.0
 10
100.4593288594338
 20
-154.9266329907822
 30
0.0
 10
100.6129801180759
 20
-154.971074722542
 30
0.0
 10
100.7146104348908
 20
-155.1529757641632
 30
0.0
 10
100.821063885385
 20
-155.3455566017886
 30
0.0
 10
100.8458685728788
 20
-155.5739664324607
 30
0.0
 10
100.8458685728788
 20
-155.7475992449173
 30
0.0
 10
100.8458685728788
 20
-155.9188204905342
 30
0.0
 10
100.8231309426762
 20
-156.1492973784974
 30
0.0
 10
100.7146104348908
 20
-156.3418782161229
 30
0.0
  0
SPLINE
  5
CD
330
C6
100
AcDbEntity
  8
_U+30EC_U+30A4_U+30E4_U+30FC 1
370
     0
100
AcDbSpline
210
0.0
220
0.0
230
1.0
 70
    11
 71
     3
 72
    17
 73
    13
 74
     0
 42
0.0000000001
 43
0.0000000001
 12
1.0
 22
0.0
 32
0.0
 13
1.0
 23
0.0
 33
0.0
 40
0.0
 40
0.0
 40
0.0
 40
0.0
 40
1.0
 40
1.0
 40
1.0
 40
2.0
 40
2.0
 40
2.0
 40
3.0
 40
3.0
 40
3.0
 40
4.0
 40
4.0
 40
4.0
 40
4.0
 10
100.289485652011
 20
-155.1192138284077
 30
0.0
 10
100.0228352614526
 20
-155.1192138284077
 30
0.0
 10
99.97322588646503
 20
-155.4027451868438
 30
0.0
 10
99.97322588646503
 20
-155.7475992449173
 30
0.0
 10
99.97322588646503
 20
-156.0669595963999
 30
0.0
 10
100.0114664463513
 20
-156.3756401518783
 30
0.0
 10
100.289485652011
 20
-156.3756401518783
 30
0.0
 10
100.5540689852781
 20
-156.3756401518783
 30
0.0
 10
100.6060899271054
 20
-156.0945203602819
 30
0.0
 10
100.6060899271054
 20
-155.7475992449173
 30
0.0
 10
100.6060899271054
 20
-155.4278943838861
 30
0.0
 10
100.5654378003795
 20
-155.1192138284077
 30
0.0
 10
100.289485652011
 20
-155.1192138284077
 30
0.0
  0
HATCH
  5
CE
330
C6
100
AcDbEntity
  8
_U+30EC_U+30A4_U+30E4_U+30FC 1
 62
   179
420
  2234388
100
AcDbHatch
 10
0.0
 20
0.0
 30
0.0
210
0.0
220
0.0
230
1.0
  2
SOLID
 70
     1
 71
     0
 91
        2
 92
        1
 93
        1
 72
     4
 94
        3
 73
     0
 74
     1
 95
       29
 96
       25
 40
0.0
 40
0.0
 40
0.0
 40
0.0
 40
1.0
 40
1.0
 40
1.0
 40
2.0
 40
2.0
 40
2.0
 40
3.0
 40
3.0
 40
3.0
 40
4.0
 40
4.0
 40
4.0
 40
5.0
 40
5.0
 40
5.0
 40
6.0
 40
6.0
 40
6.0
 40
7.0
 40
7.0
 40
7.0
 40
8.0
 40
8.0
 40
8.0
 40
8.0
 10
100.7146104348908
 20
-156.3418782161229
 10
100.5991997361349
 20
-156.5513400216261
 10
100.4138535990285
 20
-156.5702880467949
 10
100.289485652011
 20
-156.5702880467949
 10
100.1179198968455
 20
-156.5702880467949
 10
99.96633569549454
 20
-156.5237792577441
 10
99.86470537867966
 20
-156.3418782161229
 10
99.75377330405462
 20
-156.1472303212063
 10
99.73344724069165
 20
-155.9105522613696
 10
99.73344724069165
 20
-155.7475992449173
 10
99.73344724069165
 20
-155.6035942536338
 10
99.75170624676346
 20
-155.3517577736621
 10
99.86470537867966
 20
-155.1529757641632
 10
99.979771567887
 20
-154.9500596400819
 10
100.151681832601
 20
-154.9266329907822
 10
100.289485652011
 20
-154.9266329907822
 10
100.4593288594338
 20
-154.9266329907822
 10
100.6129801180759
 20
-154.971074722542
 10
100.7146104348908
 20
-155.1529757641632
 10
100.821063885385
 20
-155.3455566017886
 10
100.8458685728788
 20
-155.5739664324607
 10
100.8458685728788
 20
-155.7475992449173
 10
100.8458685728788
 20
-155.9188204905342
 10
100.8231309426762
 20
-156.1492973784974
 10
100.7146104348908
 20
-156.3418782161229
 97
        0
 97
        0
 92
        1
 93
        1
 72
     4
 94
        3
 73
     0
 74
     1
 95
       17
 96
       13
 40
0.0
 40
0.0
 40
0.0
 40
0.0
 40
1.0
 40
1.0
 40
1.0
 40
2.0
 40
2.0
 40
2.0
 40
3.0
 40
3.0
 40
3.0
 40
4.0
 40
4.0
 40
4.0
 40
4.0
 10
100.289485652011
 20
-155.1192138284077
 10
100.0228352614526
 20
-155.1192138284077
 10
99.97322588646503
 20
-155.4027451868438
 10
99.97322588646503
 20
-155.7475992449173
 10
99.97322588646503
 20
-156.0669595963999
 10
100.0114664463513
 20
-156.3756401518783
 10
100.289485652011
 20
-156.3756401518783
 10
100.5540689852781
 20
-156.3756401518783
 10
100.6060899271054
 20
-156.0945203602819
 10
100.6060899271054
 20
-155.7475992449173
 10
100.6060899271054
 20
-155.4278943838861
 10
100.5654378003795
 20
-155.1192138284077
 10
100.289485652011
 20
-155.1192138284077
 97
        0
 97
        0
 75
     2
 76
     1
 98
        0
  0
ENDBLK
  5
C9
330
C6
100
AcDbEntity
  8
0
100
AcDbBlockEnd
  0
BLOCK
  5
D9
330
D7
100
AcDbEntity
  8
0
100
AcDbBlockBegin
  2
block 5
 70
     0
 10
0.0
 20
0.0
 30
0.0
  3
block 5
  1

  0
SPLINE
  5
DB
330
D7
100
AcDbEntity
  8
_U+30EC_U+30A4_U+30E4_U+30FC 1
370
     0
100
AcDbSpline
210
0.0
220
0.0
230
1.0
 70
    11
 71
     3
 72
    32
 73
    28
 74
     0
 42
0.0000000001
 43
0.0000000001
 12
1.0
 22
0.0
 32
0.0
 13
1.0
 23
0.0
 33
0.0
 40
0.0
 40
0.0
 40
0.0
 40
0.0
 40
1.0
 40
1.0
 40
1.0
 40
2.0
 40
2.0
 40
2.0
 40
3.0
 40
3.0
 40
3.0
 40
4.0
 40
4.0
 40
4.0
 40
5.0
 40
5.0
 40
5.0
 40
6.0
 40
6.0
 40
6.0
 40
7.0
 40
7.0
 40
7.0
 40
8.0
 40
8.0
 40
8.0
 40
9.0
 40
9.0
 40
9.0
 40
9.0
 10
121.4048203906557
 20
-150.3418999190118
 30
0.0
 10
121.4048203906557
 20
-150.8934597062002
 30
0.0
 10
120.8508490366276
 20
-150.9024169544619
 30
0.0
 10
120.6369086069936
 20
-150.9024169544619
 30
0.0
 10
120.4064317190303
 20
-150.9024169544619
 30
0.0
 10
119.7590982773519
 20
-150.8820908910989
 30
0.0
 10
119.7590982773519
 20
-150.3009032827373
 30
0.0
 10
119.7590982773519
 20
-150.1155571456308
 30
0.0
 10
119.8290337157025
 20
-149.8533853792033
 30
0.0
 10
120.1611409204805
 20
-149.8127332524774
 30
0.0
 10
120.1611409204805
 20
-149.8127332524774
 30
0.0
 10
120.1611409204805
 20
-150.0411430831494
 30
0.0
 10
120.1611409204805
 20
-150.0411430831494
 30
0.0
 10
120.1039523354254
 20
-150.0525118982508
 30
0.0
 10
119.9558132295597
 20
-150.0862738340062
 30
0.0
 10
119.9558132295597
 20
-150.303314849577
 30
0.0
 10
119.9558132295597
 20
-150.6154405005406
 30
0.0
 10
120.2837863197554
 20
-150.6581596845577
 30
0.0
 10
120.4887695011278
 20
-150.6719400664987
 30
0.0
 10
120.4105658336126
 20
-150.572376806975
 30
0.0
 10
120.3513101912664
 20
-150.5000298017847
 30
0.0
 10
120.3513101912664
 20
-150.3053819068681
 30
0.0
 10
120.3513101912664
 20
-150.1134900883397
 30
0.0
 10
120.4594861895032
 20
-149.7899956222747
 30
0.0
 10
120.8656629472141
 20
-149.7899956222747
 30
0.0
 10
121.1850232986968
 20
-149.7899956222747
 30
0.0
 10
121.4048203906557
 20
-150.0025580137146
 30
0.0
 10
121.4048203906557
 20
-150.3418999190118
 30
0.0
  0
SPLINE
  5
DC
330
D7
100
AcDbEntity
  8
_U+30EC_U+30A4_U+30E4_U+30FC 1
370
     0
100
AcDbSpline
210
0.0
220
0.0
230
1.0
 70
    11
 71
     3
 72
    17
 73
    13
 74
     0
 42
0.0000000001
 43
0.0000000001
 12
1.0
 22
0.0
 32
0.0
 13
1.0
 23
0.0
 33
0.0
 40
0.0
 40
0.0
 40
0.0
 40
0.0
 40
1.0
 40
1.0
 40
1.0
 40
2.0
 40
2.0
 40
2.0
 40
3.0
 40
3.0
 40
3.0
 40
4.0
 40
4.0
 40
4.0
 40
4.0
 10
120.545958086183
 20
-150.3236409129399
 30
0.0
 10
120.545958086183
 20
-150.6040716854393
 30
0.0
 10
120.7574869489773
 20
-150.6447238121652
 30
0.0
 10
120.8739311763787
 20
-150.6447238121652
 30
0.0
 10
121.0496310461265
 20
-150.6447238121652
 30
0.0
 10
121.2125840625788
 20
-150.5430934953503
 30
0.0
 10
121.2125840625788
 20
-150.3463785431426
 30
0.0
 10
121.2125840625788
 20
-150.2175319719942
 30
0.0
 10
121.1533284202325
 20
-150.0297742680481
 30
0.0
 10
120.8677300045053
 20
-150.0297742680481
 30
0.0
 10
120.6434542884155
 20
-150.0297742680481
 30
0.0
 10
120.545958086183
 20
-150.1789469025594
 30
0.0
 10
120.545958086183
 20
-150.3236409129399
 30
0.0
  0
HATCH
  5
DD
330
D7
100
AcDbEntity
  8
_U+30EC_U+30A4_U+30E4_U+30FC 1
 62
   179
420
  2234388
100
AcDbHatch
 10
0.0
 20
0.0
 30
0.0
210
0.0
220
0.0
230
1.0
  2
SOLID
 70
     1
 71
     0
 91
        2
 92
        1
 93
        1
 72
     4
 94
        3
 73
     0
 74
     1
 95
       32
 96
       28
 40
0.0
 40
0.0
 40
0.0
 40
0.0
 40
1.0
 40
1.0
 40
1.0
 40
2.0
 40
2.0
 40
2.0
 40
3.0
 40
3.0
 40
3.0
 40
4.0
 40
4.0
 40
4.0
 40
5.0
 40
5.0
 40
5.0
 40
6.0
 40
6.0
 40
6.0
 40
7.0
 40
7.0
 40
7.0
 40
8.0
 40
8.0
 40
8.0
 40
9.0
 40
9.0
 40
9.0
 40
9.0
 10
121.4048203906557
 20
-150.3418999190118
 10
121.4048203906557
 20
-150.8934597062002
 10
120.8508490366276
 20
-150.9024169544619
 10
120.6369086069936
 20
-150.9024169544619
 10
120.4064317190303
 20
-150.9024169544619
 10
119.7590982773519
 20
-150.8820908910989
 10
119.7590982773519
 20
-150.3009032827373
 10
119.7590982773519
 20
-150.1155571456308
 10
119.8290337157025
 20
-149.8533853792033
 10
120.1611409204805
 20
-149.8127332524774
 10
120.1611409204805
 20
-149.8127332524774
 10
120.1611409204805
 20
-150.0411430831494
 10
120.1611409204805
 20
-150.0411430831494
 10
120.1039523354254
 20
-150.0525118982508
 10
119.9558132295597
 20
-150.0862738340062
 10
119.9558132295597
 20
-150.303314849577
 10
119.9558132295597
 20
-150.6154405005406
 10
120.2837863197554
 20
-150.6581596845577
 10
120.4887695011278
 20
-150.6719400664987
 10
120.4105658336126
 20
-150.572376806975
 10
120.3513101912664
 20
-150.5000298017847
 10
120.3513101912664
 20
-150.3053819068681
 10
120.3513101912664
 20
-150.1134900883397
 10
120.4594861895032
 20
-149.7899956222747
 10
120.8656629472141
 20
-149.7899956222747
 10
121.1850232986968
 20
-149.7899956222747
 10
121.4048203906557
 20
-150.0025580137146
 10
121.4048203906557
 20
-150.3418999190118
 97
        0
 97
        0
 92
        1
 93
        1
 72
     4
 94
        3
 73
     0
 74
     1
 95
       17
 96
       13
 40
0.0
 40
0.0
 40
0.0
 40
0.0
 40
1.0
 40
1.0
 40
1.0
 40
2.0
 40
2.0
 40
2.0
 40
3.0
 40
3.0
 40
3.0
 40
4.0
 40
4.0
 40
4.0
 40
4.0
 10
120.545958086183
 20
-150.3236409129399
 10
120.545958086183
 20
-150.6040716854393
 10
120.7574869489773
 20
-150.6447238121652
 10
120.8739311763787
 20
-150.6447238121652
 10
121.0496310461265
 20
-150.6447238121652
 10
121.2125840625788
 20
-150.5430934953503
 10
121.2125840625788
 20
-150.3463785431426
 10
121.2125840625788
 20
-150.2175319719942
 10
121.1533284202325
 20
-150.0297742680481
 10
120.8677300045053
 20
-150.0297742680481
 10
120.6434542884155
 20
-150.0297742680481
 10
120.545958086183
 20
-150.1789469025594
 10
120.545958086183
 20
-150.3236409129399
 97
        0
 97
        0
 75
     2
 76
     1
 98
        0
  0
POLYLINE
  5
DE
330
D7
100
AcDbEntity
  8
_U+30EC_U+30A4_U+30E4_U+30FC 1
370
     0
100
AcDb2dPolyline
 66
     1
 10
0.0
 20
0.0
 30
0.0
  0
VERTEX
  5
DF
330
DE
100
AcDbEntity
  8
_U+30EC_U+30A4_U+30E4_U+30FC 1
370
     0
100
AcDbVertex
100
AcDb2dVertex
 10
121.3541774870226
 20
-149.5588297152145
 30
0.0
  0
VERTEX
  5
E0
330
DE
100
AcDbEntity
  8
_U+30EC_U+30A4_U+30E4_U+30FC 1
370
     0
100
AcDbVertex
100
AcDb2dVertex
 10
121.1023410070508
 20
-149.5588297152145
 30
0.0
  0
VERTEX
  5
E1
330
DE
100
AcDbEntity
  8
_U+30EC_U+30A4_U+30E4_U+30FC 1
370
     0
100
AcDbVertex
100
AcDb2dVertex
 10
121.1023410070508
 20
-149.2897677578165
 30
0.0
  0
VERTEX
  5
E2
330
DE
100
AcDbEntity
  8
_U+30EC_U+30A4_U+30E4_U+30FC 1
370
     0
100
AcDbVertex
100
AcDb2dVertex
 10
121.3541774870226
 20
-149.2897677578165
 30
0.0
  0
VERTEX
  5
E3
330
DE
100
AcDbEntity
  8
_U+30EC_U+30A4_U+30E4_U+30FC 1
370
     0
100
AcDbVertex
100
AcDb2dVertex
 10
121.3541774870226
 20
-149.5588297152145
 30
0.0
  0
SEQEND
  5
E4
330
DE
100
AcDbEntity
  8
_U+30EC_U+30A4_U+30E4_U+30FC 1
370
     0
  0
HATCH
  5
E5
330
D7
100
AcDbEntity
  8
_U+30EC_U+30A4_U+30E4_U+30FC 1
 62
   179
420
  2234388
100
AcDbHatch
 10
0.0
 20
0.0
 30
0.0
210
0.0
220
0.0
230
1.0
  2
SOLID
 70
     1
 71
     0
 91
        1
 92
        1
 93
        4
 72
     1
 10
121.3541774870226
 20
-149.5588297152145
 11
121.1023410070508
 21
-149.5588297152145
 72
     1
 10
121.1023410070508
 20
-149.5588297152145
 11
121.1023410070508
 21
-149.2897677578165
 72
     1
 10
121.1023410070508
 20
-149.2897677578165
 11
121.3541774870226
 21
-149.2897677578165
 72
     1
 10
121.3541774870226
 20
-149.2897677578165
 11
121.3541774870226
 21
-149.5588297152145
 97
        0
 75
     2
 76
     1
 98
        0
  0
SPLINE
  5
E6
330
D7
100
AcDbEntity
  8
_U+30EC_U+30A4_U+30E4_U+30FC 1
370
     0
100
AcDbSpline
210
0.0
220
0.0
230
1.0
 70
    11
 71
     3
 72
    53
 73
    49
 74
     0
 42
0.0000000001
 43
0.0000000001
 12
1.0
 22
0.0
 32
0.0
 13
1.0
 23
0.0
 33
0.0
 40
0.0
 40
0.0
 40
0.0
 40
0.0
 40
1.0
 40
1.0
 40
1.0
 40
2.0
 40
2.0
 40
2.0
 40
3.0
 40
3.0
 40
3.0
 40
4.0
 40
4.0
 40
4.0
 40
5.0
 40
5.0
 40
5.0
 40
6.0
 40
6.0
 40
6.0
 40
7.0
 40
7.0
 40
7.0
 40
8.0
 40
8.0
 40
8.0
 40
9.0
 40
9.0
 40
9.0
 40
10.0
 40
10.0
 40
10.0
 40
11.0
 40
11.0
 40
11.0
 40
12.0
 40
12.0
 40
12.0
 40
13.0
 40
13.0
 40
13.0
 40
14.0
 40
14.0
 40
14.0
 40
15.0
 40
15.0
 40
15.0
 40
16.0
 40
16.0
 40
16.0
 40
16.0
 10
121.4048203906557
 20
-148.5228895027998
 30
0.0
 10
121.4048203906557
 20
-148.6062608135429
 30
0.0
 10
121.387939422778
 20
-148.7151258308768
 30
0.0
 10
121.3245496658494
 20
-148.8233018291136
 30
0.0
 10
121.21465111987
 20
-149.0089924757686
 30
0.0
 10
121.0833929818819
 20
-149.0313855964227
 30
0.0
 10
120.9755614931936
 20
-149.0517116597857
 30
0.0
 10
120.9755614931936
 20
-149.0517116597857
 30
0.0
 10
120.9755614931936
 20
-148.814344580852
 30
0.0
 10
120.9755614931936
 20
-148.814344580852
 30
0.0
 10
121.1743435026925
 20
-148.7557779576027
 30
0.0
 10
121.2039713238657
 20
-148.6200411954839
 30
0.0
 10
121.2039713238657
 20
-148.5204779359602
 30
0.0
 10
121.2039713238657
 20
-148.3713053014488
 30
0.0
 10
121.104408064342
 20
-148.2086967945451
 30
0.0
 10
120.8718641190876
 20
-148.2086967945451
 30
0.0
 10
120.6158935245335
 20
-148.2086967945451
 30
0.0
 10
120.545958086183
 20
-148.4005886130735
 30
0.0
 10
120.545958086183
 20
-148.5294351842218
 30
0.0
 10
120.545958086183
 20
-148.5635416295258
 30
0.0
 10
120.545958086183
 20
-148.7151258308768
 30
0.0
 10
120.6751491668798
 20
-148.8098659567212
 30
0.0
 10
120.6751491668798
 20
-148.8098659567212
 30
0.0
 10
120.656201141711
 20
-148.9976236606673
 30
0.0
 10
120.656201141711
 20
-148.9976236606673
 30
0.0
 10
120.656201141711
 20
-148.9976236606673
 30
0.0
 10
119.8097411809851
 20
-148.8687770895189
 30
0.0
 10
119.8097411809851
 20
-148.8687770895189
 30
0.0
 10
119.8097411809851
 20
-148.8687770895189
 30
0.0
 10
119.8097411809851
 20
-148.0367865298311
 30
0.0
 10
119.8097411809851
 20
-148.0367865298311
 30
0.0
 10
119.8097411809851
 20
-148.0367865298311
 30
0.0
 10
120.0043890759017
 20
-148.0367865298311
 30
0.0
 10
120.0043890759017
 20
-148.0367865298311
 30
0.0
 10
120.0043890759017
 20
-148.0367865298311
 30
0.0
 10
120.0043890759017
 20
-148.6944552579653
 30
0.0
 10
120.0043890759017
 20
-148.6944552579653
 30
0.0
 10
120.0043890759017
 20
-148.6944552579653
 30
0.0
 10
120.4274468014904
 20
-148.7647352058644
 30
0.0
 10
120.4274468014904
 20
-148.7647352058644
 30
0.0
 10
120.3936848657349
 20
-148.6992783916446
 30
0.0
 10
120.3533772485575
 20
-148.6110839472222
 30
0.0
 10
120.3533772485575
 20
-148.4843044333651
 30
0.0
 10
120.3533772485575
 20
-148.2131754186759
 30
0.0
 10
120.5397569143095
 20
-147.95996090051
 30
0.0
 10
120.8529160939187
 20
-147.95996090051
 30
0.0
 10
121.1702093881102
 20
-147.95996090051
 30
0.0
 10
121.4048203906557
 20
-148.1993950367349
 30
0.0
 10
121.4048203906557
 20
-148.5228895027998
 30
0.0
  0
HATCH
  5
E7
330
D7
100
AcDbEntity
  8
_U+30EC_U+30A4_U+30E4_U+30FC 1
 62
   179
420
  2234388
100
AcDbHatch
 10
0.0
 20
0.0
 30
0.0
210
0.0
220
0.0
230
1.0
  2
SOLID
 70
     1
 71
     0
 91
        1
 92
        1
 93
        1
 72
     4
 94
        3
 73
     0
 74
     1
 95
       53
 96
       49
 40
0.0
 40
0.0
 40
0.0
 40
0.0
 40
1.0
 40
1.0
 40
1.0
 40
2.0
 40
2.0
 40
2.0
 40
3.0
 40
3.0
 40
3.0
 40
4.0
 40
4.0
 40
4.0
 40
5.0
 40
5.0
 40
5.0
 40
6.0
 40
6.0
 40
6.0
 40
7.0
 40
7.0
 40
7.0
 40
8.0
 40
8.0
 40
8.0
 40
9.0
 40
9.0
 40
9.0
 40
10.0
 40
10.0
 40
10.0
 40
11.0
 40
11.0
 40
11.0
 40
12.0
 40
12.0
 40
12.0
 40
13.0
 40
13.0
 40
13.0
 40
14.0
 40
14.0
 40
14.0
 40
15.0
 40
15.0
 40
15.0
 40
16.0
 40
16.0
 40
16.0
 40
16.0
 10
121.4048203906557
 20
-148.5228895027998
 10
121.4048203906557
 20
-148.6062608135429
 10
121.387939422778
 20
-148.7151258308768
 10
121.3245496658494
 20
-148.8233018291136
 10
121.21465111987
 20
-149.0089924757686
 10
121.0833929818819
 20
-149.0313855964227
 10
120.9755614931936
 20
-149.0517116597857
 10
120.9755614931936
 20
-149.0517116597857
 10
120.9755614931936
 20
-148.814344580852
 10
120.9755614931936
 20
-148.814344580852
 10
121.1743435026925
 20
-148.7557779576027
 10
121.2039713238657
 20
-148.6200411954839
 10
121.2039713238657
 20
-148.5204779359602
 10
121.2039713238657
 20
-148.3713053014488
 10
121.104408064342
 20
-148.2086967945451
 10
120.8718641190876
 20
-148.2086967945451
 10
120.6158935245335
 20
-148.2086967945451
 10
120.545958086183
 20
-148.4005886130735
 10
120.545958086183
 20
-148.5294351842218
 10
120.545958086183
 20
-148.5635416295258
 10
120.545958086183
 20
-148.7151258308768
 10
120.6751491668798
 20
-148.8098659567212
 10
120.6751491668798
 20
-148.8098659567212
 10
120.656201141711
 20
-148.9976236606673
 10
120.656201141711
 20
-148.9976236606673
 10
120.656201141711
 20
-148.9976236606673
 10
119.8097411809851
 20
-148.8687770895189
 10
119.8097411809851
 20
-148.8687770895189
 10
119.8097411809851
 20
-148.8687770895189
 10
119.8097411809851
 20
-148.0367865298311
 10
119.8097411809851
 20
-148.0367865298311
 10
119.8097411809851
 20
-148.0367865298311
 10
120.0043890759017
 20
-148.0367865298311
 10
120.0043890759017
 20
-148.0367865298311
 10
120.0043890759017
 20
-148.0367865298311
 10
120.0043890759017
 20
-148.6944552579653
 10
120.0043890759017
 20
-148.6944552579653
 10
120.0043890759017
 20
-148.6944552579653
 10
120.4274468014904
 20
-148.7647352058644
 10
120.4274468014904
 20
-148.7647352058644
 10
120.3936848657349
 20
-148.6992783916446
 10
120.3533772485575
 20
-148.6110839472222
 10
120.3533772485575
 20
-148.4843044333651
 10
120.3533772485575
 20
-148.2131754186759
 10
120.5397569143095
 20
-147.95996090051
 10
120.8529160939187
 20
-147.95996090051
 10
121.1702093881102
 20
-147.95996090051
 10
121.4048203906557
 20
-148.1993950367349
 10
121.4048203906557
 20
-148.5228895027998
 97
        0
 97
        0
 75
     2
 76
     1
 98
        0
  0
ENDBLK
  5
DA
330
D7
100
AcDbEntity
  8
0
100
AcDbBlockEnd
  0
BLOCK
  5
F6
330
F4
100
AcDbEntity
  8
0
100
AcDbBlockBegin
  2
block 6
 70
     0
 10
0.0
 20
0.0
 30
0.0
  3
block 6
  1

  0
SPLINE
  5
F8
330
F4
100
AcDbEntity
  8
_U+30EC_U+30A4_U+30E4_U+30FC 1
370
     0
100
AcDbSpline
210
0.0
220
0.0
230
1.0
 70
    11
 71
     3
 72
    62
 73
    58
 74
     0
 42
0.0000000001
 43
0.0000000001
 12
1.0
 22
0.0
 32
0.0
 13
1.0
 23
0.0
 33
0.0
 40
0.0
 40
0.0
 40
0.0
 40
0.0
 40
1.0
 40
1.0
 40
1.0
 40
2.0
 40
2.0
 40
2.0
 40
3.0
 40
3.0
 40
3.0
 40
4.0
 40
4.0
 40
4.0
 40
5.0
 40
5.0
 40
5.0
 40
6.0
 40
6.0
 40
6.0
 40
7.0
 40
7.0
 40
7.0
 40
8.0
 40
8.0
 40
8.0
 40
9.0
 40
9.0
 40
9.0
 40
10.0
 40
10.0
 40
10.0
 40
11.0
 40
11.0
 40
11.0
 40
12.0
 40
12.0
 40
12.0
 40
13.0
 40
13.0
 40
13.0
 40
14.0
 40
14.0
 40
14.0
 40
15.0
 40
15.0
 40
15.0
 40
16.0
 40
16.0
 40
16.0
 40
17.0
 40
17.0
 40
17.0
 40
18.0
 40
18.0
 40
18.0
 40
19.0
 40
19.0
 40
19.0
 40
19.0
 10
102.0227131906402
 20
-140.0703477297394
 30
0.0
 10
101.9210828738253
 20
-140.0703477297394
 30
0.0
 10
101.6881944190224
 20
-140.0493326472793
 30
0.0
 10
101.5548692237432
 20
-139.8632974910759
 30
0.0
 10
101.4756320275825
 20
-139.7509873782567
 30
0.0
 10
101.4711534034517
 20
-139.6517686282815
 30
0.0
 10
101.4666747793208
 20
-139.5670192793444
 30
0.0
 10
101.4666747793208
 20
-139.5670192793444
 30
0.0
 10
101.7016302914149
 20
-139.5670192793444
 30
0.0
 10
101.7016302914149
 20
-139.5670192793444
 30
0.0
 10
101.7040418582546
 20
-139.6410888322772
 30
0.0
 10
101.7154106733559
 20
-139.8756998348227
 30
0.0
 10
102.0182345665093
 20
-139.8756998348227
 30
0.0
 10
102.1653401437295
 20
-139.8756998348227
 30
0.0
 10
102.3279486506333
 20
-139.8061089060207
 30
0.0
 10
102.3279486506333
 20
-139.5776990753486
 30
0.0
 10
102.3279486506333
 20
-139.4612548479472
 30
0.0
 10
102.2872965239073
 20
-139.4126790016052
 30
0.0
 10
102.2535345881519
 20
-139.3809841231409
 30
0.0
 10
102.1742973919911
 20
-139.306914570208
 30
0.0
 10
102.0499294449736
 20
-139.2941677169126
 30
0.0
 10
101.9910183121759
 20
-139.2941677169126
 30
0.0
 10
101.9706922488129
 20
-139.2941677169126
 30
0.0
 10
101.9324516889266
 20
-139.2962347742037
 30
0.0
 10
101.9028238677535
 20
-139.300368888786
 30
0.0
 10
101.9028238677535
 20
-139.300368888786
 30
0.0
 10
101.9028238677535
 20
-139.1057209938694
 30
0.0
 10
101.9028238677535
 20
-139.1057209938694
 30
0.0
 10
101.9434759944794
 20
-139.1122666752914
 30
0.0
 10
101.9889512548847
 20
-139.1143337325825
 30
0.0
 10
101.9954969363067
 20
-139.1143337325825
 30
0.0
 10
102.0657768842058
 20
-139.1143337325825
 30
0.0
 10
102.2783392756457
 20
-139.092974140574
 30
0.0
 10
102.2783392756457
 20
-138.8562960807373
 30
0.0
 10
102.2783392756457
 20
-138.6785291536984
 30
0.0
 10
102.138123889396
 20
-138.6234076259344
 30
0.0
 10
102.020646133349
 20
-138.6234076259344
 30
0.0
 10
101.73780379401
 20
-138.6234076259344
 30
0.0
 10
101.7288465457484
 20
-138.8562960807373
 30
0.0
 10
101.7243679216175
 20
-138.9279540668305
 30
0.0
 10
101.7243679216175
 20
-138.9279540668305
 30
0.0
 10
101.5073269060468
 20
-138.9279540668305
 30
0.0
 10
101.5073269060468
 20
-138.9279540668305
 30
0.0
 10
101.5162841543084
 20
-138.8032416102645
 30
0.0
 10
101.5455674659331
 20
-138.4266926737267
 30
0.0
 10
102.0340820057415
 20
-138.4266926737267
 30
0.0
 10
102.2738606515149
 20
-138.4266926737267
 30
0.0
 10
102.5315537938116
 20
-138.5538166971324
 30
0.0
 10
102.5315537938116
 20
-138.8497503993154
 30
0.0
 10
102.5315537938116
 20
-139.0361300650674
 30
0.0
 10
102.4295789674482
 20
-139.1184678471648
 30
0.0
 10
102.3234700265025
 20
-139.1797905468023
 30
0.0
 10
102.3889268407222
 20
-139.2073513106843
 30
0.0
 10
102.5835747356388
 20
-139.2876220354906
 30
0.0
 10
102.5835747356388
 20
-139.5649522220532
 30
0.0
 10
102.5835747356388
 20
-139.9032605987047
 30
0.0
 10
102.3189914023717
 20
-140.0703477297394
 30
0.0
 10
102.0227131906402
 20
-140.0703477297394
 30
0.0
  0
HATCH
  5
F9
330
F4
100
AcDbEntity
  8
_U+30EC_U+30A4_U+30E4_U+30FC 1
 62
   179
420
  2234388
100
AcDbHatch
 10
0.0
 20
0.0
 30
0.0
210
0.0
220
0.0
230
1.0
  2
SOLID
 70
     1
 71
     0
 91
        1
 92
        1
 93
        1
 72
     4
 94
        3
 73
     0
 74
     1
 95
       62
 96
       58
 40
0.0
 40
0.0
 40
0.0
 40
0.0
 40
1.0
 40
1.0
 40
1.0
 40
2.0
 40
2.0
 40
2.0
 40
3.0
 40
3.0
 40
3.0
 40
4.0
 40
4.0
 40
4.0
 40
5.0
 40
5.0
 40
5.0
 40
6.0
 40
6.0
 40
6.0
 40
7.0
 40
7.0
 40
7.0
 40
8.0
 40
8.0
 40
8.0
 40
9.0
 40
9.0
 40
9.0
 40
10.0
 40
10.0
 40
10.0
 40
11.0
 40
11.0
 40
11.0
 40
12.0
 40
12.0
 40
12.0
 40
13.0
 40
13.0
 40
13.0
 40
14.0
 40
14.0
 40
14.0
 40
15.0
 40
15.0
 40
15.0
 40
16.0
 40
16.0
 40
16.0
 40
17.0
 40
17.0
 40
17.0
 40
18.0
 40
18.0
 40
18.0
 40
19.0
 40
19.0
 40
19.0
 40
19.0
 10
102.0227131906402
 20
-140.0703477297394
 10
101.9210828738253
 20
-140.0703477297394
 10
101.6881944190224
 20
-140.0493326472793
 10
101.5548692237432
 20
-139.8632974910759
 10
101.4756320275825
 20
-139.7509873782567
 10
101.4711534034517
 20
-139.6517686282815
 10
101.4666747793208
 20
-139.5670192793444
 10
101.4666747793208
 20
-139.5670192793444
 10
101.7016302914149
 20
-139.5670192793444
 10
101.7016302914149
 20
-139.5670192793444
 10
101.7040418582546
 20
-139.6410888322772
 10
101.7154106733559
 20
-139.8756998348227
 10
102.0182345665093
 20
-139.8756998348227
 10
102.1653401437295
 20
-139.8756998348227
 10
102.3279486506333
 20
-139.8061089060207
 10
102.3279486506333
 20
-139.5776990753486
 10
102.3279486506333
 20
-139.4612548479472
 10
102.2872965239073
 20
-139.4126790016052
 10
102.2535345881519
 20
-139.3809841231409
 10
102.1742973919911
 20
-139.306914570208
 10
102.0499294449736
 20
-139.2941677169126
 10
101.9910183121759
 20
-139.2941677169126
 10
101.9706922488129
 20
-139.2941677169126
 10
101.9324516889266
 20
-139.2962347742037
 10
101.9028238677535
 20
-139.300368888786
 10
101.9028238677535
 20
-139.300368888786
 10
101.9028238677535
 20
-139.1057209938694
 10
101.9028238677535
 20
-139.1057209938694
 10
101.9434759944794
 20
-139.1122666752914
 10
101.9889512548847
 20
-139.1143337325825
 10
101.9954969363067
 20
-139.1143337325825
 10
102.0657768842058
 20
-139.1143337325825
 10
102.2783392756457
 20
-139.092974140574
 10
102.2783392756457
 20
-138.8562960807373
 10
102.2783392756457
 20
-138.6785291536984
 10
102.138123889396
 20
-138.6234076259344
 10
102.020646133349
 20
-138.6234076259344
 10
101.73780379401
 20
-138.6234076259344
 10
101.7288465457484
 20
-138.8562960807373
 10
101.7243679216175
 20
-138.9279540668305
 10
101.7243679216175
 20
-138.9279540668305
 10
101.5073269060468
 20
-138.9279540668305
 10
101.5073269060468
 20
-138.9279540668305
 10
101.5162841543084
 20
-138.8032416102645
 10
101.5455674659331
 20
-138.4266926737267
 10
102.0340820057415
 20
-138.4266926737267
 10
102.2738606515149
 20
-138.4266926737267
 10
102.5315537938116
 20
-138.5538166971324
 10
102.5315537938116
 20
-138.8497503993154
 10
102.5315537938116
 20
-139.0361300650674
 10
102.4295789674482
 20
-139.1184678471648
 10
102.3234700265025
 20
-139.1797905468023
 10
102.3889268407222
 20
-139.2073513106843
 10
102.5835747356388
 20
-139.2876220354906
 10
102.5835747356388
 20
-139.5649522220532
 10
102.5835747356388
 20
-139.9032605987047
 10
102.3189914023717
 20
-140.0703477297394
 10
102.0227131906402
 20
-140.0703477297394
 97
        0
 97
        0
 75
     2
 76
     1
 98
        0
  0
SPLINE
  5
FA
330
F4
100
AcDbEntity
  8
_U+30EC_U+30A4_U+30E4_U+30FC 1
370
     0
100
AcDbSpline
210
0.0
220
0.0
230
1.0
 70
    11
 71
     3
 72
    44
 73
    40
 74
     0
 42
0.0000000001
 43
0.0000000001
 12
1.0
 22
0.0
 32
0.0
 13
1.0
 23
0.0
 33
0.0
 40
0.0
 40
0.0
 40
0.0
 40
0.0
 40
1.0
 40
1.0
 40
1.0
 40
2.0
 40
2.0
 40
2.0
 40
3.0
 40
3.0
 40
3.0
 40
4.0
 40
4.0
 40
4.0
 40
5.0
 40
5.0
 40
5.0
 40
6.0
 40
6.0
 40
6.0
 40
7.0
 40
7.0
 40
7.0
 40
8.0
 40
8.0
 40
8.0
 40
9.0
 40
9.0
 40
9.0
 40
10.0
 40
10.0
 40
10.0
 40
11.0
 40
11.0
 40
11.0
 40
12.0
 40
12.0
 40
12.0
 40
13.0
 40
13.0
 40
13.0
 40
13.0
 10
103.3890380600902
 20
-139.4378281986475
 30
0.0
 10
103.1561496052874
 20
-139.5966471005175
 30
0.0
 10
103.0565863457636
 20
-139.6707166534504
 30
0.0
 10
103.0045654039364
 20
-139.8143771351853
 30
0.0
 10
103.0045654039364
 20
-139.8143771351853
 30
0.0
 10
103.8369004731727
 20
-139.8143771351853
 30
0.0
 10
103.8369004731727
 20
-139.8143771351853
 30
0.0
 10
103.8369004731727
 20
-139.8143771351853
 30
0.0
 10
103.8369004731727
 20
-140.0197048261062
 30
0.0
 10
103.8369004731727
 20
-140.0197048261062
 30
0.0
 10
103.8369004731727
 20
-140.0197048261062
 30
0.0
 10
102.737915013378
 20
-140.0197048261062
 30
0.0
 10
102.737915013378
 20
-140.0197048261062
 30
0.0
 10
102.772021458682
 20
-139.6621039147373
 30
0.0
 10
102.8419568970326
 20
-139.5839002472221
 30
0.0
 10
103.2533012979714
 20
-139.2855549781995
 30
0.0
 10
103.5268418795002
 20
-139.0867729687005
 30
0.0
 10
103.5971218273993
 20
-139.0189045876411
 30
0.0
 10
103.5971218273993
 20
-138.8814452777796
 30
0.0
 10
103.5971218273993
 20
-138.762933993087
 30
0.0
 10
103.5202961980783
 20
-138.6320203646476
 30
0.0
 10
103.3098008639295
 20
-138.6320203646476
 30
0.0
 10
103.0317816582698
 20
-138.6320203646476
 30
0.0
 10
103.0228244100082
 20
-138.8624972526108
 30
0.0
 10
103.0183457858774
 20
-138.9789414800122
 30
0.0
 10
103.0183457858774
 20
-138.9789414800122
 30
0.0
 10
102.778567140104
 20
-138.9789414800122
 30
0.0
 10
102.778567140104
 20
-138.9789414800122
 30
0.0
 10
102.7875243883656
 20
-138.8518174566065
 30
0.0
 10
102.7988932034669
 20
-138.7398518533359
 30
0.0
 10
102.8850205905982
 20
-138.6213405686433
 30
0.0
 10
103.0024983466452
 20
-138.4604546094821
 30
0.0
 10
103.2012803561441
 20
-138.4266926737267
 30
0.0
 10
103.3256483031616
 20
-138.4266926737267
 30
0.0
 10
103.6219265148931
 20
-138.4266926737267
 30
0.0
 10
103.8434461545947
 20
-138.610660772639
 30
0.0
 10
103.8434461545947
 20
-138.8835123350708
 30
0.0
 10
103.8434461545947
 20
-139.1122666752914
 30
0.0
 10
103.7190782075772
 20
-139.2114854252666
 30
0.0
 10
103.3890380600902
 20
-139.4378281986475
 30
0.0
  0
HATCH
  5
FB
330
F4
100
AcDbEntity
  8
_U+30EC_U+30A4_U+30E4_U+30FC 1
 62
   179
420
  2234388
100
AcDbHatch
 10
0.0
 20
0.0
 30
0.0
210
0.0
220
0.0
230
1.0
  2
SOLID
 70
     1
 71
     0
 91
        1
 92
        1
 93
        1
 72
     4
 94
        3
 73
     0
 74
     1
 95
       44
 96
       40
 40
0.0
 40
0.0
 40
0.0
 40
0.0
 40
1.0
 40
1.0
 40
1.0
 40
2.0
 40
2.0
 40
2.0
 40
3.0
 40
3.0
 40
3.0
 40
4.0
 40
4.0
 40
4.0
 40
5.0
 40
5.0
 40
5.0
 40
6.0
 40
6.0
 40
6.0
 40
7.0
 40
7.0
 40
7.0
 40
8.0
 40
8.0
 40
8.0
 40
9.0
 40
9.0
 40
9.0
 40
10.0
 40
10.0
 40
10.0
 40
11.0
 40
11.0
 40
11.0
 40
12.0
 40
12.0
 40
12.0
 40
13.0
 40
13.0
 40
13.0
 40
13.0
 10
103.3890380600902
 20
-139.4378281986475
 10
103.1561496052874
 20
-139.5966471005175
 10
103.0565863457636
 20
-139.6707166534504
 10
103.0045654039364
 20
-139.8143771351853
 10
103.0045654039364
 20
-139.8143771351853
 10
103.8369004731727
 20
-139.8143771351853
 10
103.8369004731727
 20
-139.8143771351853
 10
103.8369004731727
 20
-139.8143771351853
 10
103.8369004731727
 20
-140.0197048261062
 10
103.8369004731727
 20
-140.0197048261062
 10
103.8369004731727
 20
-140.0197048261062
 10
102.737915013378
 20
-140.0197048261062
 10
102.737915013378
 20
-140.0197048261062
 10
102.772021458682
 20
-139.6621039147373
 10
102.8419568970326
 20
-139.5839002472221
 10
103.2533012979714
 20
-139.2855549781995
 10
103.5268418795002
 20
-139.0867729687005
 10
103.5971218273993
 20
-139.0189045876411
 10
103.5971218273993
 20
-138.8814452777796
 10
103.5971218273993
 20
-138.762933993087
 10
103.5202961980783
 20
-138.6320203646476
 10
103.3098008639295
 20
-138.6320203646476
 10
103.0317816582698
 20
-138.6320203646476
 10
103.0228244100082
 20
-138.8624972526108
 10
103.0183457858774
 20
-138.9789414800122
 10
103.0183457858774
 20
-138.9789414800122
 10
102.778567140104
 20
-138.9789414800122
 10
102.778567140104
 20
-138.9789414800122
 10
102.7875243883656
 20
-138.8518174566065
 10
102.7988932034669
 20
-138.7398518533359
 10
102.8850205905982
 20
-138.6213405686433
 10
103.0024983466452
 20
-138.4604546094821
 10
103.2012803561441
 20
-138.4266926737267
 10
103.3256483031616
 20
-138.4266926737267
 10
103.6219265148931
 20
-138.4266926737267
 10
103.8434461545947
 20
-138.610660772639
 10
103.8434461545947
 20
-138.8835123350708
 10
103.8434461545947
 20
-139.1122666752914
 10
103.7190782075772
 20
-139.2114854252666
 10
103.3890380600902
 20
-139.4378281986475
 97
        0
 97
        0
 75
     2
 76
     1
 98
        0
  0
ENDBLK
  5
F7
330
F4
100
AcDbEntity
  8
0
100
AcDbBlockEnd
  0
BLOCK
  5
106
330
104
100
AcDbEntity
  8
0
100
AcDbBlockBegin
  2
block 7
 70
     0
 10
0.0
 20
0.0
 30
0.0
  3
block 7
  1

  0
SPLINE
  5
108
330
104
100
AcDbEntity
  8
_U+30EC_U+30A4_U+30E4_U+30FC 1
370
     0
100
AcDbSpline
210
0.0
220
0.0
230
1.0
 70
    11
 71
     3
 72
    29
 73
    25
 74
     0
 42
0.0000000001
 43
0.0000000001
 12
1.0
 22
0.0
 32
0.0
 13
1.0
 23
0.0
 33
0.0
 40
0.0
 40
0.0
 40
0.0
 40
0.0
 40
1.0
 40
1.0
 40
1.0
 40
2.0
 40
2.0
 40
2.0
 40
3.0
 40
3.0
 40
3.0
 40
4.0
 40
4.0
 40
4.0
 40
5.0
 40
5.0
 40
5.0
 40
6.0
 40
6.0
 40
6.0
 40
7.0
 40
7.0
 40
7.0
 40
8.0
 40
8.0
 40
8.0
 40
8.0
 10
90.69851207584968
 20
-156.570977065892
 30
0.0
 10
90.41360267921952
 20
-156.570977065892
 30
0.0
 10
90.1423014097561
 20
-156.4335177560305
 30
0.0
 10
90.1423014097561
 20
-156.0845295833747
 30
0.0
 10
90.1423014097561
 20
-155.8285589888206
 30
0.0
 10
90.29371335633283
 20
-155.7334743534277
 30
0.0
 10
90.40688474302328
 20
-155.6721516537903
 30
0.0
 10
90.27338729296986
 20
-155.612896011444
 30
0.0
 10
90.19208303951795
 20
-155.4985188413337
 30
0.0
 10
90.19208303951795
 20
-155.3376328821726
 30
0.0
 10
90.19208303951795
 20
-155.0627142624496
 30
0.0
 10
90.40447317618361
 20
-154.9273220098793
 30
0.0
 10
90.69851207584968
 20
-154.9273220098793
 30
0.0
 10
91.0015082237774
 20
-154.9273220098793
 30
0.0
 10
91.2049411121814
 20
-155.0713270011627
 30
0.0
 10
91.2049411121814
 20
-155.3376328821726
 30
0.0
 10
91.2049411121814
 20
-155.4985188413337
 30
0.0
 10
91.12122529188984
 20
-155.612896011444
 30
0.0
 10
90.98790009661067
 20
-155.6721516537903
 30
0.0
 10
91.0828124772293
 20
-155.7227945574235
 30
0.0
 10
91.2523111751036
 20
-155.8178791928164
 30
0.0
 10
91.2523111751036
 20
-156.0803954687924
 30
0.0
 10
91.2523111751036
 20
-156.4548773480391
 30
0.0
 10
90.95396590608095
 20
-156.570977065892
 30
0.0
 10
90.69851207584968
 20
-156.570977065892
 30
0.0
  0
SPLINE
  5
109
330
104
100
AcDbEntity
  8
_U+30EC_U+30A4_U+30E4_U+30FC 1
370
     0
100
AcDbSpline
210
0.0
220
0.0
230
1.0
 70
    11
 71
     3
 72
    17
 73
    13
 74
     0
 42
0.0000000001
 43
0.0000000001
 12
1.0
 22
0.0
 32
0.0
 13
1.0
 23
0.0
 33
0.0
 40
0.0
 40
0.0
 40
0.0
 40
0.0
 40
1.0
 40
1.0
 40
1.0
 40
2.0
 40
2.0
 40
2.0
 40
3.0
 40
3.0
 40
3.0
 40
4.0
 40
4.0
 40
4.0
 40
4.0
 10
90.69851207584968
 20
-155.7799831424786
 30
0.0
 10
90.54468856243328
 20
-155.7799831424786
 30
0.0
 10
90.38190780075522
 20
-155.8667995487069
 30
0.0
 10
90.38190780075522
 20
-156.0697156727881
 30
0.0
 10
90.38190780075522
 20
-156.275043363709
 30
0.0
 10
90.51764456287407
 20
-156.3763291709754
 30
0.0
 10
90.69851207584968
 20
-156.3763291709754
 30
0.0
 10
90.89746634012286
 20
-156.3763291709754
 30
0.0
 10
91.01494409616988
 20
-156.2536837717005
 30
0.0
 10
91.01494409616988
 20
-156.0759168446616
 30
0.0
 10
91.01494409616988
 20
-155.8540526954115
 30
0.0
 10
90.84096677416477
 20
-155.7799831424786
 30
0.0
 10
90.69851207584968
 20
-155.7799831424786
 30
0.0
  0
SPLINE
  5
10A
330
104
100
AcDbEntity
  8
_U+30EC_U+30A4_U+30E4_U+30FC 1
370
     0
100
AcDbSpline
210
0.0
220
0.0
230
1.0
 70
    11
 71
     3
 72
    17
 73
    13
 74
     0
 42
0.0000000001
 43
0.0000000001
 12
1.0
 22
0.0
 32
0.0
 13
1.0
 23
0.0
 33
0.0
 40
0.0
 40
0.0
 40
0.0
 40
0.0
 40
1.0
 40
1.0
 40
1.0
 40
2.0
 40
2.0
 40
2.0
 40
3.0
 40
3.0
 40
3.0
 40
4.0
 40
4.0
 40
4.0
 40
4.0
 10
90.69851207584968
 20
-155.1199028475048
 30
0.0
 10
90.5221231870049
 20
-155.1199028475048
 30
0.0
 10
90.43168943051708
 20
-155.2149874828976
 30
0.0
 10
90.43168943051708
 20
-155.350379735468
 30
0.0
 10
90.43168943051708
 20
-155.4730251347429
 30
0.0
 10
90.50851505983815
 20
-155.5915364194354
 30
0.0
 10
90.69851207584968
 20
-155.5915364194354
 30
0.0
 10
90.88833683708695
 20
-155.5915364194354
 30
0.0
 10
90.96533472118229
 20
-155.4730251347429
 30
0.0
 10
90.96533472118229
 20
-155.350379735468
 30
0.0
 10
90.96533472118229
 20
-155.2149874828976
 30
0.0
 10
90.87248939785479
 20
-155.1199028475048
 30
0.0
 10
90.69851207584968
 20
-155.1199028475048
 30
0.0
  0
HATCH
  5
10B
330
104
100
AcDbEntity
  8
_U+30EC_U+30A4_U+30E4_U+30FC 1
 62
   179
420
  2234388
100
AcDbHatch
 10
0.0
 20
0.0
 30
0.0
210
0.0
220
0.0
230
1.0
  2
SOLID
 70
     1
 71
     0
 91
        3
 92
        1
 93
        1
 72
     4
 94
        3
 73
     0
 74
     1
 95
       29
 96
       25
 40
0.0
 40
0.0
 40
0.0
 40
0.0
 40
1.0
 40
1.0
 40
1.0
 40
2.0
 40
2.0
 40
2.0
 40
3.0
 40
3.0
 40
3.0
 40
4.0
 40
4.0
 40
4.0
 40
5.0
 40
5.0
 40
5.0
 40
6.0
 40
6.0
 40
6.0
 40
7.0
 40
7.0
 40
7.0
 40
8.0
 40
8.0
 40
8.0
 40
8.0
 10
90.69851207584968
 20
-156.570977065892
 10
90.41360267921952
 20
-156.570977065892
 10
90.1423014097561
 20
-156.4335177560305
 10
90.1423014097561
 20
-156.0845295833747
 10
90.1423014097561
 20
-155.8285589888206
 10
90.29371335633283
 20
-155.7334743534277
 10
90.40688474302328
 20
-155.6721516537903
 10
90.27338729296986
 20
-155.612896011444
 10
90.19208303951795
 20
-155.4985188413337
 10
90.19208303951795
 20
-155.3376328821726
 10
90.19208303951795
 20
-155.0627142624496
 10
90.40447317618361
 20
-154.9273220098793
 10
90.69851207584968
 20
-154.9273220098793
 10
91.0015082237774
 20
-154.9273220098793
 10
91.2049411121814
 20
-155.0713270011627
 10
91.2049411121814
 20
-155.3376328821726
 10
91.2049411121814
 20
-155.4985188413337
 10
91.12122529188984
 20
-155.612896011444
 10
90.98790009661067
 20
-155.6721516537903
 10
91.0828124772293
 20
-155.7227945574235
 10
91.2523111751036
 20
-155.8178791928164
 10
91.2523111751036
 20
-156.0803954687924
 10
91.2523111751036
 20
-156.4548773480391
 10
90.95396590608095
 20
-156.570977065892
 10
90.69851207584968
 20
-156.570977065892
 97
        0
 97
        0
 92
        1
 93
        1
 72
     4
 94
        3
 73
     0
 74
     1
 95
       17
 96
       13
 40
0.0
 40
0.0
 40
0.0
 40
0.0
 40
1.0
 40
1.0
 40
1.0
 40
2.0
 40
2.0
 40
2.0
 40
3.0
 40
3.0
 40
3.0
 40
4.0
 40
4.0
 40
4.0
 40
4.0
 10
90.69851207584968
 20
-155.7799831424786
 10
90.54468856243328
 20
-155.7799831424786
 10
90.38190780075522
 20
-155.8667995487069
 10
90.38190780075522
 20
-156.0697156727881
 10
90.38190780075522
 20
-156.275043363709
 10
90.51764456287407
 20
-156.3763291709754
 10
90.69851207584968
 20
-156.3763291709754
 10
90.89746634012286
 20
-156.3763291709754
 10
91.01494409616988
 20
-156.2536837717005
 10
91.01494409616988
 20
-156.0759168446616
 10
91.01494409616988
 20
-155.8540526954115
 10
90.84096677416477
 20
-155.7799831424786
 10
90.69851207584968
 20
-155.7799831424786
 97
        0
 97
        0
 92
        1
 93
        1
 72
     4
 94
        3
 73
     0
 74
     1
 95
       17
 96
       13
 40
0.0
 40
0.0
 40
0.0
 40
0.0
 40
1.0
 40
1.0
 40
1.0
 40
2.0
 40
2.0
 40
2.0
 40
3.0
 40
3.0
 40
3.0
 40
4.0
 40
4.0
 40
4.0
 40
4.0
 10
90.69851207584968
 20
-155.1199028475048
 10
90.5221231870049
 20
-155.1199028475048
 10
90.43168943051708
 20
-155.2149874828976
 10
90.43168943051708
 20
-155.350379735468
 10
90.43168943051708
 20
-155.4730251347429
 10
90.50851505983815
 20
-155.5915364194354
 10
90.69851207584968
 20
-155.5915364194354
 10
90.88833683708695
 20
-155.5915364194354
 10
90.96533472118229
 20
-155.4730251347429
 10
90.96533472118229
 20
-155.350379735468
 10
90.96533472118229
 20
-155.2149874828976
 10
90.87248939785479
 20
-155.1199028475048
 10
90.69851207584968
 20
-155.1199028475048
 97
        0
 97
        0
 75
     2
 76
     1
 98
        0
  0
ENDBLK
  5
107
330
104
100
AcDbEntity
  8
0
100
AcDbBlockEnd
  0
ENDSEC
  0
SECTION
  2
ENTITIES
  0
POLYLINE
  5
41
330
1F
100
AcDbEntity
  8
_U+30EC_U+30A4_U+30E4_U+30FC 1
 62
   179
420
  2234388
370
    25
100
AcDb2dPolyline
 66
     1
 10
0.0
 20
0.0
 30
0.0
  0
VERTEX
  5
42
330
41
100
AcDbEntity
  8
_U+30EC_U+30A4_U+30E4_U+30FC 1
 62
   179
420
  2234388
370
    25
100
AcDbVertex
100
AcDb2dVertex
 10
86.65619001143864
 20
-145.3223957970027
 30
0.0
  0
VERTEX
  5
43
330
41
100
AcDbEntity
  8
_U+30EC_U+30A4_U+30E4_U+30FC 1
 62
   179
420
  2234388
370
    25
100
AcDbVertex
100
AcDb2dVertex
 10
95.65618589294073
 20
-145.3223957970027
 30
0.0
  0
SEQEND
  5
44
330
41
100
AcDbEntity
  8
_U+30EC_U+30A4_U+30E4_U+30FC 1
 62
   179
420
  2234388
370
    25
  0
POLYLINE
  5
45
330
1F
100
AcDbEntity
  8
_U+30EC_U+30A4_U+30E4_U+30FC 1
 62
   179
420
  2234388
370
    25
100
AcDb2dPolyline
 66
     1
 10
0.0
 20
0.0
 30
0.0
  0
VERTEX
  5
46
330
45
100
AcDbEntity
  8
_U+30EC_U+30A4_U+30E4_U+30FC 1
 62
   179
420
  2234388
370
    25
100
AcDbVertex
100
AcDb2dVertex
 10
97.65604778636444
 20
-146.322168018975
 30
0.0
  0
VERTEX
  5
47
330
45
100
AcDbEntity
  8
_U+30EC_U+30A4_U+30E4_U+30FC 1
 62
   179
420
  2234388
370
    25
100
AcDbVertex
100
AcDb2dVertex
 10
118.6559911395001
 20
-146.322168018975
 30
0.0
  0
SEQEND
  5
48
330
45
100
AcDbEntity
  8
_U+30EC_U+30A4_U+30E4_U+30FC 1
 62
   179
420
  2234388
370
    25
  0
POLYLINE
  5
49
330
1F
100
AcDbEntity
  8
_U+30EC_U+30A4_U+30E4_U+30FC 1
 62
   179
420
  2234388
370
    25
100
AcDb2dPolyline
 66
     1
 10
0.0
 20
0.0
 30
0.0
  0
VERTEX
  5
4A
330
49
100
AcDbEntity
  8
_U+30EC_U+30A4_U+30E4_U+30FC 1
 62
   179
420
  2234388
370
    25
100
AcDbVertex
100
AcDb2dVertex
 10
94.65606091845603
 20
-146.322168018975
 30
0.0
  0
VERTEX
  5
4B
330
49
100
AcDbEntity
  8
_U+30EC_U+30A4_U+30E4_U+30FC 1
 62
   179
420
  2234388
370
    25
100
AcDbVertex
100
AcDb2dVertex
 10
94.65606091845603
 20
-153.8221530171002
 30
0.0
  0
SEQEND
  5
4C
330
49
100
AcDbEntity
  8
_U+30EC_U+30A4_U+30E4_U+30FC 1
 62
   179
420
  2234388
370
    25
  0
POLYLINE
  5
4D
330
1F
100
AcDbEntity
  8
_U+30EC_U+30A4_U+30E4_U+30FC 1
 62
   179
420
  2234388
370
    25
100
AcDb2dPolyline
 66
     1
 10
0.0
 20
0.0
 30
0.0
  0
VERTEX
  5
4E
330
4D
100
AcDbEntity
  8
_U+30EC_U+30A4_U+30E4_U+30FC 1
 62
   179
420
  2234388
370
    25
100
AcDbVertex
100
AcDb2dVertex
 10
104.6561464966659
 20
-152.8223807951277
 30
0.0
  0
VERTEX
  5
4F
330
4D
100
AcDbEntity
  8
_U+30EC_U+30A4_U+30E4_U+30FC 1
 62
   179
420
  2234388
370
    25
100
AcDbVertex
100
AcDb2dVertex
 10
104.6561464966659
 20
-153.1221007950526
 30
0.0
  0
SEQEND
  5
50
330
4D
100
AcDbEntity
  8
_U+30EC_U+30A4_U+30E4_U+30FC 1
 62
   179
420
  2234388
370
    25
  0
POLYLINE
  5
51
330
1F
100
AcDbEntity
  8
_U+30EC_U+30A4_U+30E4_U+30FC 1
 62
   179
420
  2234388
370
    25
100
AcDb2dPolyline
 66
     1
 10
0.0
 20
0.0
 30
0.0
  0
VERTEX
  5
52
330
51
100
AcDbEntity
  8
_U+30EC_U+30A4_U+30E4_U+30FC 1
 62
   179
420
  2234388
370
    25
100
AcDbVertex
100
AcDb2dVertex
 10
97.65604778636444
 20
-152.8223807951277
 30
0.0
  0
VERTEX
  5
53
330
51
100
AcDbEntity
  8
_U+30EC_U+30A4_U+30E4_U+30FC 1
 62
   179
420
  2234388
370
    25
100
AcDbVertex
100
AcDb2dVertex
 10
104.6561464966659
 20
-152.8223807951277
 30
0.0
  0
SEQEND
  5
54
330
51
100
AcDbEntity
  8
_U+30EC_U+30A4_U+30E4_U+30FC 1
 62
   179
420
  2234388
370
    25
  0
POLYLINE
  5
55
330
1F
100
AcDbEntity
  8
_U+30EC_U+30A4_U+30E4_U+30FC 1
 62
   179
420
  2234388
370
    25
100
AcDb2dPolyline
 66
     1
 10
0.0
 20
0.0
 30
0.0
  0
VERTEX
  5
56
330
55
100
AcDbEntity
  8
_U+30EC_U+30A4_U+30E4_U+30FC 1
 62
   179
420
  2234388
370
    25
100
AcDbVertex
100
AcDb2dVertex
 10
96.65595808965662
 20
-145.3223957970027
 30
0.0
  0
VERTEX
  5
57
330
55
100
AcDbEntity
  8
_U+30EC_U+30A4_U+30E4_U+30FC 1
 62
   179
420
  2234388
370
    25
100
AcDbVertex
100
AcDb2dVertex
 10
118.6559911395001
 20
-145.3223957970027
 30
0.0
  0
SEQEND
  5
58
330
55
100
AcDbEntity
  8
_U+30EC_U+30A4_U+30E4_U+30FC 1
 62
   179
420
  2234388
370
    25
  0
POLYLINE
  5
59
330
1F
100
AcDbEntity
  8
_U+30EC_U+30A4_U+30E4_U+30FC 1
 62
   179
420
  2234388
370
    25
100
AcDb2dPolyline
 66
     1
 10
0.0
 20
0.0
 30
0.0
  0
VERTEX
  5
5A
330
59
100
AcDbEntity
  8
_U+30EC_U+30A4_U+30E4_U+30FC 1
 62
   179
420
  2234388
370
    25
100
AcDbVertex
100
AcDb2dVertex
 10
95.65618589294073
 20
-145.3223957970027
 30
0.0
  0
VERTEX
  5
5B
330
59
100
AcDbEntity
  8
_U+30EC_U+30A4_U+30E4_U+30FC 1
 62
   179
420
  2234388
370
    25
100
AcDbVertex
100
AcDb2dVertex
 10
95.65618589294073
 20
-152.8223807951277
 30
0.0
  0
SEQEND
  5
5C
330
59
100
AcDbEntity
  8
_U+30EC_U+30A4_U+30E4_U+30FC 1
 62
   179
420
  2234388
370
    25
  0
POLYLINE
  5
5D
330
1F
100
AcDbEntity
  8
_U+30EC_U+30A4_U+30E4_U+30FC 1
 62
   179
420
  2234388
370
    25
100
AcDb2dPolyline
 66
     1
 10
0.0
 20
0.0
 30
0.0
  0
VERTEX
  5
5E
330
5D
100
AcDbEntity
  8
_U+30EC_U+30A4_U+30E4_U+30FC 1
 62
   179
420
  2234388
370
    25
100
AcDbVertex
100
AcDb2dVertex
 10
96.65595808965662
 20
-145.3223957970027
 30
0.0
  0
VERTEX
  5
5F
330
5D
100
AcDbEntity
  8
_U+30EC_U+30A4_U+30E4_U+30FC 1
 62
   179
420
  2234388
370
    25
100
AcDbVertex
100
AcDb2dVertex
 10
96.65595808965662
 20
-152.8223807951277
 30
0.0
  0
SEQEND
  5
60
330
5D
100
AcDbEntity
  8
_U+30EC_U+30A4_U+30E4_U+30FC 1
 62
   179
420
  2234388
370
    25
  0
POLYLINE
  5
61
330
1F
100
AcDbEntity
  8
_U+30EC_U+30A4_U+30E4_U+30FC 1
 62
   179
420
  2234388
370
    25
100
AcDb2dPolyline
 66
     1
 10
0.0
 20
0.0
 30
0.0
  0
VERTEX
  5
62
330
61
100
AcDbEntity
  8
_U+30EC_U+30A4_U+30E4_U+30FC 1
 62
   179
420
  2234388
370
    25
100
AcDbVertex
100
AcDb2dVertex
 10
97.65604778636444
 20
-146.322168018975
 30
0.0
  0
VERTEX
  5
63
330
61
100
AcDbEntity
  8
_U+30EC_U+30A4_U+30E4_U+30FC 1
 62
   179
420
  2234388
370
    25
100
AcDbVertex
100
AcDb2dVertex
 10
97.65604778636444
 20
-152.8223807951277
 30
0.0
  0
SEQEND
  5
64
330
61
100
AcDbEntity
  8
_U+30EC_U+30A4_U+30E4_U+30FC 1
 62
   179
420
  2234388
370
    25
  0
POLYLINE
  5
65
330
1F
100
AcDbEntity
  8
_U+30EC_U+30A4_U+30E4_U+30FC 1
 62
   179
420
  2234388
370
    25
100
AcDb2dPolyline
 66
     1
 10
0.0
 20
0.0
 30
0.0
  0
VERTEX
  5
66
330
65
100
AcDbEntity
  8
_U+30EC_U+30A4_U+30E4_U+30FC 1
 62
   179
420
  2234388
370
    25
100
AcDbVertex
100
AcDb2dVertex
 10
95.65618589294073
 20
-152.8223807951277
 30
0.0
  0
VERTEX
  5
67
330
65
100
AcDbEntity
  8
_U+30EC_U+30A4_U+30E4_U+30FC 1
 62
   179
420
  2234388
370
    25
100
AcDbVertex
100
AcDb2dVertex
 10
96.65595808965662
 20
-152.8223807951277
 30
0.0
  0
SEQEND
  5
68
330
65
100
AcDbEntity
  8
_U+30EC_U+30A4_U+30E4_U+30FC 1
 62
   179
420
  2234388
370
    25
  0
POLYLINE
  5
69
330
1F
100
AcDbEntity
  8
_U+30EC_U+30A4_U+30E4_U+30FC 1
 62
   179
420
  2234388
370
    25
100
AcDb2dPolyline
 66
     1
 10
0.0
 20
0.0
 30
0.0
  0
VERTEX
  5
6A
330
69
100
AcDbEntity
  8
_U+30EC_U+30A4_U+30E4_U+30FC 1
 62
   179
420
  2234388
370
    25
100
AcDbVertex
100
AcDb2dVertex
 10
94.65606091845603
 20
-153.8221530171002
 30
0.0
  0
VERTEX
  5
6B
330
69
100
AcDbEntity
  8
_U+30EC_U+30A4_U+30E4_U+30FC 1
 62
   179
420
  2234388
370
    25
100
AcDbVertex
100
AcDb2dVertex
 10
104.6561464966659
 20
-153.1221007950526
 30
0.0
  0
SEQEND
  5
6C
330
69
100
AcDbEntity
  8
_U+30EC_U+30A4_U+30E4_U+30FC 1
 62
   179
420
  2234388
370
    25
  0
POLYLINE
  5
6D
330
1F
100
AcDbEntity
  8
_U+30EC_U+30A4_U+30E4_U+30FC 1
 62
   179
420
  2234388
370
    25
100
AcDb2dPolyline
 66
     1
 10
0.0
 20
0.0
 30
0.0
  0
VERTEX
  5
6E
330
6D
100
AcDbEntity
  8
_U+30EC_U+30A4_U+30E4_U+30FC 1
 62
   179
420
  2234388
370
    25
100
AcDbVertex
100
AcDb2dVertex
 10
118.6559911395001
 20
-145.3223957970027
 30
0.0
  0
VERTEX
  5
6F
330
6D
100
AcDbEntity
  8
_U+30EC_U+30A4_U+30E4_U+30FC 1
 62
   179
420
  2234388
370
    25
100
AcDbVertex
100
AcDb2dVertex
 10
118.6559911395001
 20
-146.322168018975
 30
0.0
  0
SEQEND
  5
70
330
6D
100
AcDbEntity
  8
_U+30EC_U+30A4_U+30E4_U+30FC 1
 62
   179
420
  2234388
370
    25
  0
POLYLINE
  5
71
330
1F
100
AcDbEntity
  8
_U+30EC_U+30A4_U+30E4_U+30FC 1
 62
   179
420
  2234388
370
    25
100
AcDb2dPolyline
 66
     1
 10
0.0
 20
0.0
 30
0.0
  0
VERTEX
  5
72
330
71
100
AcDbEntity
  8
_U+30EC_U+30A4_U+30E4_U+30FC 1
 62
   179
420
  2234388
370
    25
100
AcDbVertex
100
AcDb2dVertex
 10
86.65619001143864
 20
-146.322168018975
 30
0.0
  0
VERTEX
  5
73
330
71
100
AcDbEntity
  8
_U+30EC_U+30A4_U+30E4_U+30FC 1
 62
   179
420
  2234388
370
    25
100
AcDbVertex
100
AcDb2dVertex
 10
94.65606091845603
 20
-146.322168018975
 30
0.0
  0
SEQEND
  5
74
330
71
100
AcDbEntity
  8
_U+30EC_U+30A4_U+30E4_U+30FC 1
 62
   179
420
  2234388
370
    25
  0
POLYLINE
  5
75
330
1F
100
AcDbEntity
  8
_U+30EC_U+30A4_U+30E4_U+30FC 1
 62
   179
420
  2234388
370
    25
100
AcDb2dPolyline
 66
     1
 10
0.0
 20
0.0
 30
0.0
  0
VERTEX
  5
76
330
75
100
AcDbEntity
  8
_U+30EC_U+30A4_U+30E4_U+30FC 1
 62
   179
420
  2234388
370
    25
100
AcDbVertex
100
AcDb2dVertex
 10
86.65619001143864
 20
-145.3223957970027
 30
0.0
  0
VERTEX
  5
77
330
75
100
AcDbEntity
  8
_U+30EC_U+30A4_U+30E4_U+30FC 1
 62
   179
420
  2234388
370
    25
100
AcDbVertex
100
AcDb2dVertex
 10
86.65619001143864
 20
-146.322168018975
 30
0.0
  0
SEQEND
  5
78
330
75
100
AcDbEntity
  8
_U+30EC_U+30A4_U+30E4_U+30FC 1
 62
   179
420
  2234388
370
    25
  0
SPLINE
  5
79
330
1F
100
AcDbEntity
  8
_U+30EC_U+30A4_U+30E4_U+30FC 1
 62
   179
420
  2234388
370
     9
100
AcDbSpline
210
0.0
220
0.0
230
1.0
 70
    11
 71
     3
 72
    17
 73
    13
 74
     0
 42
0.0000000001
 43
0.0000000001
 12
1.0
 22
0.0
 32
0.0
 13
1.0
 23
0.0
 33
0.0
 40
0.0
 40
0.0
 40
0.0
 40
0.0
 40
1.0
 40
1.0
 40
1.0
 40
2.0
 40
2.0
 40
2.0
 40
3.0
 40
3.0
 40
3.0
 40
4.0
 40
4.0
 40
4.0
 40
4.0
 10
122.7559743682342
 20
-145.3223957970027
 30
0.0
 10
122.7559743682342
 20
-145.2665863525723
 30
0.0
 10
122.7112068693763
 20
-145.2217835748056
 30
0.0
 10
122.6560677041164
 20
-145.2217835748056
 30
0.0
 10
122.6009638166333
 20
-145.2217835748056
 30
0.0
 10
122.5561610399985
 20
-145.2665863525723
 30
0.0
 10
122.5561610399985
 20
-145.3223957970027
 30
0.0
 10
122.5561610399985
 20
-145.3775349636555
 30
0.0
 10
122.6009638166333
 20
-145.4223024636444
 30
0.0
 10
122.6560677041164
 20
-145.4223024636444
 30
0.0
 10
122.7112068693763
 20
-145.4223024636444
 30
0.0
 10
122.7559743682342
 20
-145.3775349636555
 30
0.0
 10
122.7559743682342
 20
-145.3223957970027
 30
0.0
  0
SPLINE
  5
7A
330
1F
100
AcDbEntity
  8
_U+30EC_U+30A4_U+30E4_U+30FC 1
 62
   179
420
  2234388
370
     9
100
AcDbSpline
210
0.0
220
0.0
230
1.0
 70
    11
 71
     3
 72
    17
 73
    13
 74
     0
 42
0.0000000001
 43
0.0000000001
 12
1.0
 22
0.0
 32
0.0
 13
1.0
 23
0.0
 33
0.0
 40
0.0
 40
0.0
 40
0.0
 40
0.0
 40
1.0
 40
1.0
 40
1.0
 40
2.0
 40
2.0
 40
2.0
 40
3.0
 40
3.0
 40
3.0
 40
4.0
 40
4.0
 40
4.0
 40
4.0
 10
122.7559743682342
 20
-146.322168018975
 30
0.0
 10
122.7559743682342
 20
-146.2670288523222
 30
0.0
 10
122.7112068693763
 20
-146.2222613523333
 30
0.0
 10
122.6560677041164
 20
-146.2222613523333
 30
0.0
 10
122.6009638166333
 20
-146.2222613523333
 30
0.0
 10
122.5561610399985
 20
-146.2670288523222
 30
0.0
 10
122.5561610399985
 20
-146.322168018975
 30
0.0
 10
122.5561610399985
 20
-146.3772719078502
 30
0.0
 10
122.6009638166333
 20
-146.4220746856166
 30
0.0
 10
122.6560677041164
 20
-146.4220746856166
 30
0.0
 10
122.7112068693763
 20
-146.4220746856166
 30
0.0
 10
122.7559743682342
 20
-146.3772719078502
 30
0.0
 10
122.7559743682342
 20
-146.322168018975
 30
0.0
  0
SPLINE
  5
7B
330
1F
100
AcDbEntity
  8
_U+30EC_U+30A4_U+30E4_U+30FC 1
 62
   179
420
  2234388
370
     9
100
AcDbSpline
210
0.0
220
0.0
230
1.0
 70
    11
 71
     3
 72
    17
 73
    13
 74
     0
 42
0.0000000001
 43
0.0000000001
 12
1.0
 22
0.0
 32
0.0
 13
1.0
 23
0.0
 33
0.0
 40
0.0
 40
0.0
 40
0.0
 40
0.0
 40
1.0
 40
1.0
 40
1.0
 40
2.0
 40
2.0
 40
2.0
 40
3.0
 40
3.0
 40
3.0
 40
4.0
 40
4.0
 40
4.0
 40
4.0
 10
104.7560531607838
 20
-157.821876904989
 30
0.0
 10
104.7560531607838
 20
-157.766773016114
 30
0.0
 10
104.711250384149
 20
-157.7219702383473
 30
0.0
 10
104.6561464966659
 20
-157.7219702383473
 30
0.0
 10
104.601007331406
 20
-157.7219702383473
 30
0.0
 10
104.5562398325481
 20
-157.766773016114
 30
0.0
 10
104.5562398325481
 20
-157.821876904989
 30
0.0
 10
104.5562398325481
 20
-157.877016071642
 30
0.0
 10
104.601007331406
 20
-157.9217835716306
 30
0.0
 10
104.6561464966659
 20
-157.9217835716306
 30
0.0
 10
104.711250384149
 20
-157.9217835716306
 30
0.0
 10
104.7560531607838
 20
-157.877016071642
 30
0.0
 10
104.7560531607838
 20
-157.821876904989
 30
0.0
  0
SPLINE
  5
7C
330
1F
100
AcDbEntity
  8
_U+30EC_U+30A4_U+30E4_U+30FC 1
 62
   179
420
  2234388
370
     9
100
AcDbSpline
210
0.0
220
0.0
230
1.0
 70
    11
 71
     3
 72
    17
 73
    13
 74
     0
 42
0.0000000001
 43
0.0000000001
 12
1.0
 22
0.0
 32
0.0
 13
1.0
 23
0.0
 33
0.0
 40
0.0
 40
0.0
 40
0.0
 40
0.0
 40
1.0
 40
1.0
 40
1.0
 40
2.0
 40
2.0
 40
2.0
 40
3.0
 40
3.0
 40
3.0
 40
4.0
 40
4.0
 40
4.0
 40
4.0
 10
94.75596758257387
 20
-157.821876904989
 30
0.0
 10
94.75596758257387
 20
-157.766773016114
 30
0.0
 10
94.71120008371598
 20
-157.7219702383473
 30
0.0
 10
94.65606091845603
 20
-157.7219702383473
 30
0.0
 10
94.60060425320418
 20
-157.7219702383473
 30
0.0
 10
94.55580147656941
 20
-157.766773016114
 30
0.0
 10
94.55580147656941
 20
-157.821876904989
 30
0.0
 10
94.55580147656941
 20
-157.877016071642
 30
0.0
 10
94.60060425320418
 20
-157.9217835716306
 30
0.0
 10
94.65606091845603
 20
-157.9217835716306
 30
0.0
 10
94.71120008371598
 20
-157.9217835716306
 30
0.0
 10
94.75596758257387
 20
-157.877016071642
 30
0.0
 10
94.75596758257387
 20
-157.821876904989
 30
0.0
  0
SPLINE
  5
7D
330
1F
100
AcDbEntity
  8
_U+30EC_U+30A4_U+30E4_U+30FC 1
 62
   179
420
  2234388
370
     9
100
AcDbSpline
210
0.0
220
0.0
230
1.0
 70
    11
 71
     3
 72
    17
 73
    13
 74
     0
 42
0.0000000001
 43
0.0000000001
 12
1.0
 22
0.0
 32
0.0
 13
1.0
 23
0.0
 33
0.0
 40
0.0
 40
0.0
 40
0.0
 40
0.0
 40
1.0
 40
1.0
 40
1.0
 40
2.0
 40
2.0
 40
2.0
 40
3.0
 40
3.0
 40
3.0
 40
4.0
 40
4.0
 40
4.0
 40
4.0
 10
108.7558122254081
 20
-152.8223807951277
 30
0.0
 10
108.7558122254081
 20
-152.7665713506972
 30
0.0
 10
108.7110094487733
 20
-152.7217685729305
 30
0.0
 10
108.6559083061694
 20
-152.7217685729305
 30
0.0
 10
108.6007663960303
 20
-152.7217685729305
 30
0.0
 10
108.5559988971724
 20
-152.7665713506972
 30
0.0
 10
108.5559988971724
 20
-152.8223807951277
 30
0.0
 10
108.5559988971724
 20
-152.8774846840026
 30
0.0
 10
108.6007663960303
 20
-152.9222874617693
 30
0.0
 10
108.6559083061694
 20
-152.9222874617693
 30
0.0
 10
108.7110094487733
 20
-152.9222874617693
 30
0.0
 10
108.7558122254081
 20
-152.8774846840026
 30
0.0
 10
108.7558122254081
 20
-152.8223807951277
 30
0.0
  0
SPLINE
  5
7E
330
1F
100
AcDbEntity
  8
_U+30EC_U+30A4_U+30E4_U+30FC 1
 62
   179
420
  2234388
370
     9
100
AcDbSpline
210
0.0
220
0.0
230
1.0
 70
    11
 71
     3
 72
    17
 73
    13
 74
     0
 42
0.0000000001
 43
0.0000000001
 12
1.0
 22
0.0
 32
0.0
 13
1.0
 23
0.0
 33
0.0
 40
0.0
 40
0.0
 40
0.0
 40
0.0
 40
1.0
 40
1.0
 40
1.0
 40
2.0
 40
2.0
 40
2.0
 40
3.0
 40
3.0
 40
3.0
 40
4.0
 40
4.0
 40
4.0
 40
4.0
 10
108.7558122254081
 20
-153.1221007950526
 30
0.0
 10
108.7558122254081
 20
-153.0669616284002
 30
0.0
 10
108.7110094487733
 20
-153.0221941284109
 30
0.0
 10
108.6559083061694
 20
-153.0221941284109
 30
0.0
 10
108.6007663960303
 20
-153.0221941284109
 30
0.0
 10
108.5559988971724
 20
-153.0669616284002
 30
0.0
 10
108.5559988971724
 20
-153.1221007950526
 30
0.0
 10
108.5559988971724
 20
-153.1772046839282
 30
0.0
 10
108.6007663960303
 20
-153.2220074616942
 30
0.0
 10
108.6559083061694
 20
-153.2220074616942
 30
0.0
 10
108.7110094487733
 20
-153.2220074616942
 30
0.0
 10
108.7558122254081
 20
-153.1772046839282
 30
0.0
 10
108.7558122254081
 20
-153.1221007950526
 30
0.0
  0
SPLINE
  5
7F
330
1F
100
AcDbEntity
  8
_U+30EC_U+30A4_U+30E4_U+30FC 1
 62
   179
420
  2234388
370
     9
100
AcDbSpline
210
0.0
220
0.0
230
1.0
 70
    11
 71
     3
 72
    17
 73
    13
 74
     0
 42
0.0000000001
 43
0.0000000001
 12
1.0
 22
0.0
 32
0.0
 13
1.0
 23
0.0
 33
0.0
 40
0.0
 40
0.0
 40
0.0
 40
0.0
 40
1.0
 40
1.0
 40
1.0
 40
2.0
 40
2.0
 40
2.0
 40
3.0
 40
3.0
 40
3.0
 40
4.0
 40
4.0
 40
4.0
 40
4.0
 10
122.7559743682342
 20
-152.8223807951277
 30
0.0
 10
122.7559743682342
 20
-152.7665713506972
 30
0.0
 10
122.7112068693763
 20
-152.7217685729305
 30
0.0
 10
122.6560677041164
 20
-152.7217685729305
 30
0.0
 10
122.6009638166333
 20
-152.7217685729305
 30
0.0
 10
122.5561610399985
 20
-152.7665713506972
 30
0.0
 10
122.5561610399985
 20
-152.8223807951277
 30
0.0
 10
122.5561610399985
 20
-152.8774846840026
 30
0.0
 10
122.6009638166333
 20
-152.9222874617693
 30
0.0
 10
122.6560677041164
 20
-152.9222874617693
 30
0.0
 10
122.7112068693763
 20
-152.9222874617693
 30
0.0
 10
122.7559743682342
 20
-152.8774846840026
 30
0.0
 10
122.7559743682342
 20
-152.8223807951277
 30
0.0
  0
SPLINE
  5
80
330
1F
100
AcDbEntity
  8
_U+30EC_U+30A4_U+30E4_U+30FC 1
 62
   179
420
  2234388
370
     9
100
AcDbSpline
210
0.0
220
0.0
230
1.0
 70
    11
 71
     3
 72
    17
 73
    13
 74
     0
 42
0.0000000001
 43
0.0000000001
 12
1.0
 22
0.0
 32
0.0
 13
1.0
 23
0.0
 33
0.0
 40
0.0
 40
0.0
 40
0.0
 40
0.0
 40
1.0
 40
1.0
 40
1.0
 40
2.0
 40
2.0
 40
2.0
 40
3.0
 40
3.0
 40
3.0
 40
4.0
 40
4.0
 40
4.0
 40
4.0
 10
118.755897803618
 20
-141.3219663535585
 30
0.0
 10
118.755897803618
 20
-141.2668271869054
 30
0.0
 10
118.711447804752
 20
-141.2220596869169
 30
0.0
 10
118.6559911395001
 20
-141.2220596869169
 30
0.0
 10
118.6008519742402
 20
-141.2220596869169
 30
0.0
 10
118.5560844753823
 20
-141.2668271869054
 30
0.0
 10
118.5560844753823
 20
-141.3219663535585
 30
0.0
 10
118.5560844753823
 20
-141.3770702424334
 30
0.0
 10
118.6008519742402
 20
-141.4218730202001
 30
0.0
 10
118.6559911395001
 20
-141.4218730202001
 30
0.0
 10
118.711447804752
 20
-141.4218730202001
 30
0.0
 10
118.755897803618
 20
-141.3770702424334
 30
0.0
 10
118.755897803618
 20
-141.3219663535585
 30
0.0
  0
SPLINE
  5
81
330
1F
100
AcDbEntity
  8
_U+30EC_U+30A4_U+30E4_U+30FC 1
 62
   179
420
  2234388
370
     9
100
AcDbSpline
210
0.0
220
0.0
230
1.0
 70
    11
 71
     3
 72
    17
 73
    13
 74
     0
 42
0.0000000001
 43
0.0000000001
 12
1.0
 22
0.0
 32
0.0
 13
1.0
 23
0.0
 33
0.0
 40
0.0
 40
0.0
 40
0.0
 40
0.0
 40
1.0
 40
1.0
 40
1.0
 40
2.0
 40
2.0
 40
2.0
 40
3.0
 40
3.0
 40
3.0
 40
4.0
 40
4.0
 40
4.0
 40
4.0
 10
86.75613195333335
 20
-141.3219663535585
 30
0.0
 10
86.75613195333335
 20
-141.2668271869054
 30
0.0
 10
86.71132917669858
 20
-141.2220596869169
 30
0.0
 10
86.65619001143864
 20
-141.2220596869169
 30
0.0
 10
86.60073334618679
 20
-141.2220596869169
 30
0.0
 10
86.55596584732889
 20
-141.2668271869054
 30
0.0
 10
86.55596584732889
 20
-141.3219663535585
 30
0.0
 10
86.55596584732889
 20
-141.3770702424334
 30
0.0
 10
86.60073334618679
 20
-141.4218730202001
 30
0.0
 10
86.65619001143864
 20
-141.4218730202001
 30
0.0
 10
86.71132917669858
 20
-141.4218730202001
 30
0.0
 10
86.75613195333335
 20
-141.3770702424334
 30
0.0
 10
86.75613195333335
 20
-141.3219663535585
 30
0.0
  0
SPLINE
  5
82
330
1F
100
AcDbEntity
  8
_U+30EC_U+30A4_U+30E4_U+30FC 1
 62
   179
420
  2234388
370
     9
100
AcDbSpline
210
0.0
220
0.0
230
1.0
 70
    11
 71
     3
 72
    17
 73
    13
 74
     0
 42
0.0000000001
 43
0.0000000001
 12
1.0
 22
0.0
 32
0.0
 13
1.0
 23
0.0
 33
0.0
 40
0.0
 40
0.0
 40
0.0
 40
0.0
 40
1.0
 40
1.0
 40
1.0
 40
2.0
 40
2.0
 40
2.0
 40
3.0
 40
3.0
 40
3.0
 40
4.0
 40
4.0
 40
4.0
 40
4.0
 10
86.75613195333335
 20
-157.821876904989
 30
0.0
 10
86.75613195333335
 20
-157.766773016114
 30
0.0
 10
86.71132917669858
 20
-157.7219702383473
 30
0.0
 10
86.65619001143864
 20
-157.7219702383473
 30
0.0
 10
86.60073334618679
 20
-157.7219702383473
 30
0.0
 10
86.55596584732889
 20
-157.766773016114
 30
0.0
 10
86.55596584732889
 20
-157.821876904989
 30
0.0
 10
86.55596584732889
 20
-157.877016071642
 30
0.0
 10
86.60073334618679
 20
-157.9217835716306
 30
0.0
 10
86.65619001143864
 20
-157.9217835716306
 30
0.0
 10
86.71132917669858
 20
-157.9217835716306
 30
0.0
 10
86.75613195333335
 20
-157.877016071642
 30
0.0
 10
86.75613195333335
 20
-157.821876904989
 30
0.0
  0
POLYLINE
  5
83
330
1F
100
AcDbEntity
  8
_U+30EC_U+30A4_U+30E4_U+30FC 1
 62
   179
420
  2234388
370
     9
100
AcDb2dPolyline
 66
     1
 10
0.0
 20
0.0
 30
0.0
  0
VERTEX
  5
84
330
83
100
AcDbEntity
  8
_U+30EC_U+30A4_U+30E4_U+30FC 1
 62
   179
420
  2234388
370
     9
100
AcDbVertex
100
AcDb2dVertex
 10
122.6560677041164
 20
-145.3223957970027
 30
0.0
  0
VERTEX
  5
85
330
83
100
AcDbEntity
  8
_U+30EC_U+30A4_U+30E4_U+30FC 1
 62
   179
420
  2234388
370
     9
100
AcDbVertex
100
AcDb2dVertex
 10
122.6560677041164
 20
-141.5520832979453
 30
0.0
  0
SEQEND
  5
86
330
83
100
AcDbEntity
  8
_U+30EC_U+30A4_U+30E4_U+30FC 1
 62
   179
420
  2234388
370
     9
  0
POLYLINE
  5
87
330
1F
100
AcDbEntity
  8
_U+30EC_U+30A4_U+30E4_U+30FC 1
 62
   179
420
  2234388
370
     9
100
AcDb2dPolyline
 66
     1
 10
0.0
 20
0.0
 30
0.0
  0
VERTEX
  5
88
330
87
100
AcDbEntity
  8
_U+30EC_U+30A4_U+30E4_U+30FC 1
 62
   179
420
  2234388
370
     9
100
AcDbVertex
100
AcDb2dVertex
 10
122.6560677041164
 20
-145.3223957970027
 30
0.0
  0
VERTEX
  5
89
330
87
100
AcDbEntity
  8
_U+30EC_U+30A4_U+30E4_U+30FC 1
 62
   179
420
  2234388
370
     9
100
AcDbVertex
100
AcDb2dVertex
 10
122.6560677041164
 20
-146.322168018975
 30
0.0
  0
SEQEND
  5
8A
330
87
100
AcDbEntity
  8
_U+30EC_U+30A4_U+30E4_U+30FC 1
 62
   179
420
  2234388
370
     9
  0
POLYLINE
  5
8B
330
1F
100
AcDbEntity
  8
_U+30EC_U+30A4_U+30E4_U+30FC 1
 62
   179
420
  2234388
370
     9
100
AcDb2dPolyline
 66
     1
 10
0.0
 20
0.0
 30
0.0
  0
VERTEX
  5
8C
330
8B
100
AcDbEntity
  8
_U+30EC_U+30A4_U+30E4_U+30FC 1
 62
   179
420
  2234388
370
     9
100
AcDbVertex
100
AcDb2dVertex
 10
121.1960616302531
 20
-145.3223957970027
 30
0.0
  0
VERTEX
  5
8D
330
8B
100
AcDbEntity
  8
_U+30EC_U+30A4_U+30E4_U+30FC 1
 62
   179
420
  2234388
370
     9
100
AcDbVertex
100
AcDb2dVertex
 10
123.656192678601
 20
-145.3223957970027
 30
0.0
  0
SEQEND
  5
8E
330
8B
100
AcDbEntity
  8
_U+30EC_U+30A4_U+30E4_U+30FC 1
 62
   179
420
  2234388
370
     9
  0
POLYLINE
  5
8F
330
1F
100
AcDbEntity
  8
_U+30EC_U+30A4_U+30E4_U+30FC 1
 62
   179
420
  2234388
370
     9
100
AcDb2dPolyline
 66
     1
 10
0.0
 20
0.0
 30
0.0
  0
VERTEX
  5
90
330
8F
100
AcDbEntity
  8
_U+30EC_U+30A4_U+30E4_U+30FC 1
 62
   179
420
  2234388
370
     9
100
AcDbVertex
100
AcDb2dVertex
 10
121.1960616302531
 20
-146.322168018975
 30
0.0
  0
VERTEX
  5
91
330
8F
100
AcDbEntity
  8
_U+30EC_U+30A4_U+30E4_U+30FC 1
 62
   179
420
  2234388
370
     9
100
AcDbVertex
100
AcDb2dVertex
 10
123.656192678601
 20
-146.322168018975
 30
0.0
  0
SEQEND
  5
92
330
8F
100
AcDbEntity
  8
_U+30EC_U+30A4_U+30E4_U+30FC 1
 62
   179
420
  2234388
370
     9
  0
INSERT
  5
94
330
1F
100
AcDbEntity
  8
_U+30EC_U+30A4_U+30E4_U+30FC 1
100
AcDbBlockReference
  2
block 2
 10
0.0
 20
0.0
 30
0.0
  0
POLYLINE
  5
99
330
1F
100
AcDbEntity
  8
_U+30EC_U+30A4_U+30E4_U+30FC 1
 62
   179
420
  2234388
370
     9
100
AcDb2dPolyline
 66
     1
 10
0.0
 20
0.0
 30
0.0
  0
VERTEX
  5
9A
330
99
100
AcDbEntity
  8
_U+30EC_U+30A4_U+30E4_U+30FC 1
 62
   179
420
  2234388
370
     9
100
AcDbVertex
100
AcDb2dVertex
 10
108.6559083061694
 20
-152.8223807951277
 30
0.0
  0
VERTEX
  5
9B
330
99
100
AcDbEntity
  8
_U+30EC_U+30A4_U+30E4_U+30FC 1
 62
   179
420
  2234388
370
     9
100
AcDbVertex
100
AcDb2dVertex
 10
108.6559083061694
 20
-147.5644749631088
 30
0.0
  0
SEQEND
  5
9C
330
99
100
AcDbEntity
  8
_U+30EC_U+30A4_U+30E4_U+30FC 1
 62
   179
420
  2234388
370
     9
  0
POLYLINE
  5
9D
330
1F
100
AcDbEntity
  8
_U+30EC_U+30A4_U+30E4_U+30FC 1
 62
   179
420
  2234388
370
     9
100
AcDb2dPolyline
 66
     1
 10
0.0
 20
0.0
 30
0.0
  0
VERTEX
  5
9E
330
9D
100
AcDbEntity
  8
_U+30EC_U+30A4_U+30E4_U+30FC 1
 62
   179
420
  2234388
370
     9
100
AcDbVertex
100
AcDb2dVertex
 10
108.6559083061694
 20
-152.8223807951277
 30
0.0
  0
VERTEX
  5
9F
330
9D
100
AcDbEntity
  8
_U+30EC_U+30A4_U+30E4_U+30FC 1
 62
   179
420
  2234388
370
     9
100
AcDbVertex
100
AcDb2dVertex
 10
108.6559083061694
 20
-154.1218730170251
 30
0.0
  0
SEQEND
  5
A0
330
9D
100
AcDbEntity
  8
_U+30EC_U+30A4_U+30E4_U+30FC 1
 62
   179
420
  2234388
370
     9
  0
POLYLINE
  5
A1
330
1F
100
AcDbEntity
  8
_U+30EC_U+30A4_U+30E4_U+30FC 1
 62
   179
420
  2234388
370
     9
100
AcDb2dPolyline
 66
     1
 10
0.0
 20
0.0
 30
0.0
  0
VERTEX
  5
A2
330
A1
100
AcDbEntity
  8
_U+30EC_U+30A4_U+30E4_U+30FC 1
 62
   179
420
  2234388
370
     9
100
AcDbVertex
100
AcDb2dVertex
 10
107.1958642096501
 20
-152.8223807951277
 30
0.0
  0
VERTEX
  5
A3
330
A1
100
AcDbEntity
  8
_U+30EC_U+30A4_U+30E4_U+30FC 1
 62
   179
420
  2234388
370
     9
100
AcDbVertex
100
AcDb2dVertex
 10
109.655995257998
 20
-152.8223807951277
 30
0.0
  0
SEQEND
  5
A4
330
A1
100
AcDbEntity
  8
_U+30EC_U+30A4_U+30E4_U+30FC 1
 62
   179
420
  2234388
370
     9
  0
POLYLINE
  5
A5
330
1F
100
AcDbEntity
  8
_U+30EC_U+30A4_U+30E4_U+30FC 1
 62
   179
420
  2234388
370
     9
100
AcDb2dPolyline
 66
     1
 10
0.0
 20
0.0
 30
0.0
  0
VERTEX
  5
A6
330
A5
100
AcDbEntity
  8
_U+30EC_U+30A4_U+30E4_U+30FC 1
 62
   179
420
  2234388
370
     9
100
AcDbVertex
100
AcDb2dVertex
 10
107.1958642096501
 20
-153.1221007950526
 30
0.0
  0
VERTEX
  5
A7
330
A5
100
AcDbEntity
  8
_U+30EC_U+30A4_U+30E4_U+30FC 1
 62
   179
420
  2234388
370
     9
100
AcDbVertex
100
AcDb2dVertex
 10
109.655995257998
 20
-153.1221007950526
 30
0.0
  0
SEQEND
  5
A8
330
A5
100
AcDbEntity
  8
_U+30EC_U+30A4_U+30E4_U+30FC 1
 62
   179
420
  2234388
370
     9
  0
INSERT
  5
AA
330
1F
100
AcDbEntity
  8
_U+30EC_U+30A4_U+30E4_U+30FC 1
100
AcDbBlockReference
  2
block 3
 10
0.0
 20
0.0
 30
0.0
  0
POLYLINE
  5
BA
330
1F
100
AcDbEntity
  8
_U+30EC_U+30A4_U+30E4_U+30FC 1
 62
   179
420
  2234388
370
     9
100
AcDb2dPolyline
 66
     1
 10
0.0
 20
0.0
 30
0.0
  0
VERTEX
  5
BB
330
BA
100
AcDbEntity
  8
_U+30EC_U+30A4_U+30E4_U+30FC 1
 62
   179
420
  2234388
370
     9
100
AcDbVertex
100
AcDb2dVertex
 10
94.65606091845603
 20
-157.821876904989
 30
0.0
  0
VERTEX
  5
BC
330
BA
100
AcDbEntity
  8
_U+30EC_U+30A4_U+30E4_U+30FC 1
 62
   179
420
  2234388
370
     9
100
AcDbVertex
100
AcDb2dVertex
 10
104.6561464966659
 20
-157.821876904989
 30
0.0
  0
SEQEND
  5
BD
330
BA
100
AcDbEntity
  8
_U+30EC_U+30A4_U+30E4_U+30FC 1
 62
   179
420
  2234388
370
     9
  0
POLYLINE
  5
BE
330
1F
100
AcDbEntity
  8
_U+30EC_U+30A4_U+30E4_U+30FC 1
 62
   179
420
  2234388
370
     9
100
AcDb2dPolyline
 66
     1
 10
0.0
 20
0.0
 30
0.0
  0
VERTEX
  5
BF
330
BE
100
AcDbEntity
  8
_U+30EC_U+30A4_U+30E4_U+30FC 1
 62
   179
420
  2234388
370
     9
100
AcDbVertex
100
AcDb2dVertex
 10
94.65606091845603
 20
-156.3618707942427
 30
0.0
  0
VERTEX
  5
C0
330
BE
100
AcDbEntity
  8
_U+30EC_U+30A4_U+30E4_U+30FC 1
 62
   179
420
  2234388
370
     9
100
AcDbVertex
100
AcDb2dVertex
 10
94.65606091845603
 20
-158.8223546825164
 30
0.0
  0
SEQEND
  5
C1
330
BE
100
AcDbEntity
  8
_U+30EC_U+30A4_U+30E4_U+30FC 1
 62
   179
420
  2234388
370
     9
  0
POLYLINE
  5
C2
330
1F
100
AcDbEntity
  8
_U+30EC_U+30A4_U+30E4_U+30FC 1
 62
   179
420
  2234388
370
     9
100
AcDb2dPolyline
 66
     1
 10
0.0
 20
0.0
 30
0.0
  0
VERTEX
  5
C3
330
C2
100
AcDbEntity
  8
_U+30EC_U+30A4_U+30E4_U+30FC 1
 62
   179
420
  2234388
370
     9
100
AcDbVertex
100
AcDb2dVertex
 10
104.6561464966659
 20
-155.6618185721958
 30
0.0
  0
VERTEX
  5
C4
330
C2
100
AcDbEntity
  8
_U+30EC_U+30A4_U+30E4_U+30FC 1
 62
   179
420
  2234388
370
     9
100
AcDbVertex
100
AcDb2dVertex
 10
104.6561464966659
 20
-158.8223546825164
 30
0.0
  0
SEQEND
  5
C5
330
C2
100
AcDbEntity
  8
_U+30EC_U+30A4_U+30E4_U+30FC 1
 62
   179
420
  2234388
370
     9
  0
INSERT
  5
C7
330
1F
100
AcDbEntity
  8
_U+30EC_U+30A4_U+30E4_U+30FC 1
100
AcDbBlockReference
  2
block 4
 10
0.0
 20
0.0
 30
0.0
  0
POLYLINE
  5
CF
330
1F
100
AcDbEntity
  8
_U+30EC_U+30A4_U+30E4_U+30FC 1
 62
   179
420
  2234388
370
     9
100
AcDb2dPolyline
 66
     1
 10
0.0
 20
0.0
 30
0.0
  0
VERTEX
  5
D0
330
CF
100
AcDbEntity
  8
_U+30EC_U+30A4_U+30E4_U+30FC 1
 62
   179
420
  2234388
370
     9
100
AcDbVertex
100
AcDb2dVertex
 10
122.6560677041164
 20
-152.8223807951277
 30
0.0
  0
VERTEX
  5
D1
330
CF
100
AcDbEntity
  8
_U+30EC_U+30A4_U+30E4_U+30FC 1
 62
   179
420
  2234388
370
     9
100
AcDbVertex
100
AcDb2dVertex
 10
122.6560677041164
 20
-146.322168018975
 30
0.0
  0
SEQEND
  5
D2
330
CF
100
AcDbEntity
  8
_U+30EC_U+30A4_U+30E4_U+30FC 1
 62
   179
420
  2234388
370
     9
  0
POLYLINE
  5
D3
330
1F
100
AcDbEntity
  8
_U+30EC_U+30A4_U+30E4_U+30FC 1
 62
   179
420
  2234388
370
     9
100
AcDb2dPolyline
 66
     1
 10
0.0
 20
0.0
 30
0.0
  0
VERTEX
  5
D4
330
D3
100
AcDbEntity
  8
_U+30EC_U+30A4_U+30E4_U+30FC 1
 62
   179
420
  2234388
370
     9
100
AcDbVertex
100
AcDb2dVertex
 10
107.1958642096501
 20
-152.8223807951277
 30
0.0
  0
VERTEX
  5
D5
330
D3
100
AcDbEntity
  8
_U+30EC_U+30A4_U+30E4_U+30FC 1
 62
   179
420
  2234388
370
     9
100
AcDbVertex
100
AcDb2dVertex
 10
123.656192678601
 20
-152.8223807951277
 30
0.0
  0
SEQEND
  5
D6
330
D3
100
AcDbEntity
  8
_U+30EC_U+30A4_U+30E4_U+30FC 1
 62
   179
420
  2234388
370
     9
  0
INSERT
  5
D8
330
1F
100
AcDbEntity
  8
_U+30EC_U+30A4_U+30E4_U+30FC 1
100
AcDbBlockReference
  2
block 5
 10
0.0
 20
0.0
 30
0.0
  0
POLYLINE
  5
E8
330
1F
100
AcDbEntity
  8
_U+30EC_U+30A4_U+30E4_U+30FC 1
 62
   179
420
  2234388
370
     9
100
AcDb2dPolyline
 66
     1
 10
0.0
 20
0.0
 30
0.0
  0
VERTEX
  5
E9
330
E8
100
AcDbEntity
  8
_U+30EC_U+30A4_U+30E4_U+30FC 1
 62
   179
420
  2234388
370
     9
100
AcDbVertex
100
AcDb2dVertex
 10
118.6559911395001
 20
-141.3219663535585
 30
0.0
  0
VERTEX
  5
EA
330
E8
100
AcDbEntity
  8
_U+30EC_U+30A4_U+30E4_U+30FC 1
 62
   179
420
  2234388
370
     9
100
AcDbVertex
100
AcDb2dVertex
 10
86.65619001143864
 20
-141.3219663535585
 30
0.0
  0
SEQEND
  5
EB
330
E8
100
AcDbEntity
  8
_U+30EC_U+30A4_U+30E4_U+30FC 1
 62
   179
420
  2234388
370
     9
  0
POLYLINE
  5
EC
330
1F
100
AcDbEntity
  8
_U+30EC_U+30A4_U+30E4_U+30FC 1
 62
   179
420
  2234388
370
     9
100
AcDb2dPolyline
 66
     1
 10
0.0
 20
0.0
 30
0.0
  0
VERTEX
  5
ED
330
EC
100
AcDbEntity
  8
_U+30EC_U+30A4_U+30E4_U+30FC 1
 62
   179
420
  2234388
370
     9
100
AcDbVertex
100
AcDb2dVertex
 10
118.6559911395001
 20
-142.7819724643047
 30
0.0
  0
VERTEX
  5
EE
330
EC
100
AcDbEntity
  8
_U+30EC_U+30A4_U+30E4_U+30FC 1
 62
   179
420
  2234388
370
     9
100
AcDbVertex
100
AcDb2dVertex
 10
118.6559911395001
 20
-140.3221941315863
 30
0.0
  0
SEQEND
  5
EF
330
EC
100
AcDbEntity
  8
_U+30EC_U+30A4_U+30E4_U+30FC 1
 62
   179
420
  2234388
370
     9
  0
POLYLINE
  5
F0
330
1F
100
AcDbEntity
  8
_U+30EC_U+30A4_U+30E4_U+30FC 1
 62
   179
420
  2234388
370
     9
100
AcDb2dPolyline
 66
     1
 10
0.0
 20
0.0
 30
0.0
  0
VERTEX
  5
F1
330
F0
100
AcDbEntity
  8
_U+30EC_U+30A4_U+30E4_U+30FC 1
 62
   179
420
  2234388
370
     9
100
AcDbVertex
100
AcDb2dVertex
 10
86.65619001143864
 20
-142.7819724643047
 30
0.0
  0
VERTEX
  5
F2
330
F0
100
AcDbEntity
  8
_U+30EC_U+30A4_U+30E4_U+30FC 1
 62
   179
420
  2234388
370
     9
100
AcDbVertex
100
AcDb2dVertex
 10
86.65619001143864
 20
-140.3221941315863
 30
0.0
  0
SEQEND
  5
F3
330
F0
100
AcDbEntity
  8
_U+30EC_U+30A4_U+30E4_U+30FC 1
 62
   179
420
  2234388
370
     9
  0
INSERT
  5
F5
330
1F
100
AcDbEntity
  8
_U+30EC_U+30A4_U+30E4_U+30FC 1
100
AcDbBlockReference
  2
block 6
 10
0.0
 20
0.0
 30
0.0
  0
POLYLINE
  5
FC
330
1F
100
AcDbEntity
  8
_U+30EC_U+30A4_U+30E4_U+30FC 1
 62
   179
420
  2234388
370
     9
100
AcDb2dPolyline
 66
     1
 10
0.0
 20
0.0
 30
0.0
  0
VERTEX
  5
FD
330
FC
100
AcDbEntity
  8
_U+30EC_U+30A4_U+30E4_U+30FC 1
 62
   179
420
  2234388
370
     9
100
AcDbVertex
100
AcDb2dVertex
 10
94.65606091845603
 20
-157.821876904989
 30
0.0
  0
VERTEX
  5
FE
330
FC
100
AcDbEntity
  8
_U+30EC_U+30A4_U+30E4_U+30FC 1
 62
   179
420
  2234388
370
     9
100
AcDbVertex
100
AcDb2dVertex
 10
86.65619001143864
 20
-157.821876904989
 30
0.0
  0
SEQEND
  5
FF
330
FC
100
AcDbEntity
  8
_U+30EC_U+30A4_U+30E4_U+30FC 1
 62
   179
420
  2234388
370
     9
  0
POLYLINE
  5
100
330
1F
100
AcDbEntity
  8
_U+30EC_U+30A4_U+30E4_U+30FC 1
 62
   179
420
  2234388
370
     9
100
AcDb2dPolyline
 66
     1
 10
0.0
 20
0.0
 30
0.0
  0
VERTEX
  5
101
330
100
100
AcDbEntity
  8
_U+30EC_U+30A4_U+30E4_U+30FC 1
 62
   179
420
  2234388
370
     9
100
AcDbVertex
100
AcDb2dVertex
 10
86.65619001143864
 20
-148.8618857961178
 30
0.0
  0
VERTEX
  5
102
330
100
100
AcDbEntity
  8
_U+30EC_U+30A4_U+30E4_U+30FC 1
 62
   179
420
  2234388
370
     9
100
AcDbVertex
100
AcDb2dVertex
 10
86.65619001143864
 20
-158.8223546825164
 30
0.0
  0
SEQEND
  5
103
330
100
100
AcDbEntity
  8
_U+30EC_U+30A4_U+30E4_U+30FC 1
 62
   179
420
  2234388
370
     9
  0
INSERT
  5
105
330
1F
100
AcDbEntity
  8
_U+30EC_U+30A4_U+30E4_U+30FC 1
100
AcDbBlockReference
  2
block 7
 10
0.0
 20
0.0
 30
0.0
  0
ENDSEC
  0
SECTION
  2
OBJECTS
  0
DICTIONARY
  5
C
330
0
100
AcDbDictionary
281
     1
  3
ACAD_GROUP
350
D
  3
ACAD_LAYOUT
350
1A
  3
ACAD_MATERIAL
350
3B
  3
ACAD_MLEADERSTYLE
350
10D
  3
ACAD_MLINESTYLE
350
17
  3
ACAD_PLOTSETTINGS
350
19
  3
ACAD_PLOTSTYLENAME
350
E
  3
ACAD_TABLESTYLE
350
10C
  3
ACAD_VISUALSTYLE
350
2A
  0
SUN
  5
3F
330
29
100
AcDbSun
 90
        1
290
     0
 63
     7
421
 16777215
 40
1.0
291
     1
 91
  2455826
 92
 54000000
292
     0
 70
     2
 71
   256
280
     1
  0
DICTIONARY
  5
D
102
{ACAD_REACTORS
330
C
102
}
330
C
100
AcDbDictionary
281
     1
  0
DICTIONARY
  5
1A
102
{ACAD_REACTORS
330
C
102
}
330
C
100
AcDbDictionary
281
     1
  3
Layout1
350
1E
  3
Layout2
350
26
  3
Model
350
22
  0
DICTIONARY
  5
3B
102
{ACAD_REACTORS
330
C
102
}
330
C
100
AcDbDictionary
281
     1
  3
ByBlock
350
3D
  3
ByLayer
350
3C
  3
Global
350
3E
  0
DICTIONARY
  5
10D
102
{ACAD_REACTORS
330
C
102
}
330
C
100
AcDbDictionary
281
     1
  0
DICTIONARY
  5
17
102
{ACAD_REACTORS
330
C
102
}
330
C
100
AcDbDictionary
281
     1
  3
Standard
350
18
  0
DICTIONARY
  5
19
102
{ACAD_REACTORS
330
C
102
}
330
C
100
AcDbDictionary
281
     1
  0
ACDBDICTIONARYWDFLT
  5
E
102
{ACAD_REACTORS
330
C
102
}
330
C
100
AcDbDictionary
281
     1
  3
Normal
350
F
100
AcDbDictionaryWithDefault
340
F
  0
DICTIONARY
  5
10C
102
{ACAD_REACTORS
330
C
102
}
330
C
100
AcDbDictionary
281
     1
  0
DICTIONARY
  5
2A
102
{ACAD_REACTORS
330
C
102
}
330
C
100
AcDbDictionary
281
     1
  3
2dWireframe
350
2F
  3
3D Hidden
350
31
  3
3dWireframe
350
30
  3
Basic
350
32
  3
Brighten
350
36
  3
ColorChange
350
3A
  3
Conceptual
350
34
  3
Dim
350
35
  3
Facepattern
350
39
  3
Flat
350
2B
  3
FlatWithEdges
350
2C
  3
Gouraud
350
2D
  3
GouraudWithEdges
350
2E
  3
Linepattern
350
38
  3
Realistic
350
33
  3
Thicken
350
37
  0
LAYOUT
  5
1E
102
{ACAD_REACTORS
330
1A
102
}
330
1A
100
AcDbPlotSettings
  1

  2
none_device
  4

  6

 40
0.0
 41
0.0
 42
0.0
 43
0.0
 44
0.0
 45
0.0
 46
0.0
 47
0.0
 48
0.0
 49
0.0
140
0.0
141
0.0
142
1.0
143
1.0
 70
   688
 72
     0
 73
     0
 74
     5
  7

 75
    16
 76
     0
 77
     2
 78
   300
147
1.0
148
0.0
149
0.0
100
AcDbLayout
  1
Layout1
 70
     1
 71
     1
 10
0.0
 20
0.0
 11
12.0
 21
9.0
 12
0.0
 22
0.0
 32
0.0
 14
1.000000000000000E+20
 24
1.000000000000000E+20
 34
1.000000000000000E+20
 15
-1.000000000000000E+20
 25
-1.000000000000000E+20
 35
-1.000000000000000E+20
146
0.0
 13
0.0
 23
0.0
 33
0.0
 16
1.0
 26
0.0
 36
0.0
 17
0.0
 27
1.0
 37
0.0
 76
     0
330
1B
  0
LAYOUT
  5
26
102
{ACAD_REACTORS
330
1A
102
}
330
1A
100
AcDbPlotSettings
  1

  2
none_device
  4

  6

 40
0.0
 41
0.0
 42
0.0
 43
0.0
 44
0.0
 45
0.0
 46
0.0
 47
0.0
 48
0.0
 49
0.0
140
0.0
141
0.0
142
1.0
143
1.0
 70
   688
 72
     0
 73
     0
 74
     5
  7

 75
    16
 76
     0
 77
     2
 78
   300
147
1.0
148
0.0
149
0.0
100
AcDbLayout
  1
Layout2
 70
     1
 71
     2
 10
0.0
 20
0.0
 11
0.0
 21
0.0
 12
0.0
 22
0.0
 32
0.0
 14
0.0
 24
0.0
 34
0.0
 15
0.0
 25
0.0
 35
0.0
146
0.0
 13
0.0
 23
0.0
 33
0.0
 16
1.0
 26
0.0
 36
0.0
 17
0.0
 27
1.0
 37
0.0
 76
     0
330
23
  0
LAYOUT
  5
22
102
{ACAD_REACTORS
330
1A
102
}
330
1A
100
AcDbPlotSettings
  1

  2
none_device
  4

  6

 40
0.0
 41
0.0
 42
0.0
 43
0.0
 44
0.0
 45
0.0
 46
0.0
 47
0.0
 48
0.0
 49
0.0
140
0.0
141
0.0
142
1.0
143
1.0
 70
  1712
 72
     0
 73
     0
 74
     0
  7

 75
     0
 76
     0
 77
     2
 78
   300
147
1.0
148
0.0
149
0.0
100
AcDbLayout
  1
Model
 70
     1
 71
     0
 10
0.0
 20
0.0
 11
12.0
 21
9.0
 12
0.0
 22
0.0
 32
0.0
 14
1.000000000000000E+20
 24
1.000000000000000E+20
 34
1.000000000000000E+20
 15
-1.000000000000000E+20
 25
-1.000000000000000E+20
 35
-1.000000000000000E+20
146
0.0
 13
0.0
 23
0.0
 33
0.0
 16
1.0
 26
0.0
 36
0.0
 17
0.0
 27
1.0
 37
0.0
 76
     0
330
1F
331
29
  0
MATERIAL
  5
3D
102
{ACAD_REACTORS
330
3B
102
}
330
3B
100
AcDbMaterial
  1
ByBlock
 72
     1
 94
      127
  0
MATERIAL
  5
3C
102
{ACAD_REACTORS
330
3B
102
}
330
3B
100
AcDbMaterial
  1
ByLayer
 72
     1
 94
      127
  0
MATERIAL
  5
3E
102
{ACAD_REACTORS
330
3B
102
}
330
3B
100
AcDbMaterial
  1
Global
 72
     1
 94
      127
  0
MLINESTYLE
  5
18
102
{ACAD_REACTORS
330
17
102
}
330
17
100
AcDbMlineStyle
  2
Standard
 70
     0
  3

 62
   256
 51
90.0
 52
90.0
 71
     2
 49
0.5
 62
   256
  6
BYLAYER
 49
-0.5
 62
   256
  6
BYLAYER
  0
ACDBPLACEHOLDER
  5
F
102
{ACAD_REACTORS
330
E
102
}
330
E
  0
VISUALSTYLE
  5
2F
102
{ACAD_REACTORS
330
2A
102
}
330
2A
100
AcDbVisualStyle
  2
2dWireframe
 70
     4
177
     2
291
     0
 71
     0
176
     1
 72
     2
176
     1
 73
     0
176
     1
 90
        0
176
     1
 40
-0.6
176
     1
 41
-30.0
176
     1
 62
     5
 63
     7
421
 16777215
176
     1
 74
     1
176
     1
 91
        4
176
     1
 64
     7
176
     1
 65
   257
176
     1
 75
     1
176
     1
175
     1
176
     1
 42
1.0
176
     1
 92
        0
176
     1
 66
   257
176
     1
 43
1.0
176
     1
 76
     1
176
     1
 77
     6
176
     1
 78
     2
176
     1
 67
     7
176
     1
 79
     5
176
     1
170
     0
176
     1
171
     0
176
     1
290
     0
176
     1
 93
        1
176
     1
 44
0.0
176
     1
173
     0
176
     1
  0
VISUALSTYLE
  5
31
102
{ACAD_REACTORS
330
2A
102
}
330
2A
100
AcDbVisualStyle
  2
3D Hidden
 70
     6
177
     2
291
     0
 71
     1
176
     1
 72
     2
176
     1
 73
     2
176
     1
 90
        0
176
     1
 40
-0.6
176
     1
 41
-30.0
176
     1
 62
     5
 63
     7
421
 16777215
176
     1
 74
     2
176
     1
 91
        2
176
     1
 64
     7
176
     1
 65
   257
176
     1
 75
     2
176
     1
175
     1
176
     1
 42
40.0
176
     1
 92
        0
176
     1
 66
   257
176
     1
 43
1.0
176
     1
 76
     1
176
     1
 77
     6
176
     1
 78
     2
176
     1
 67
     7
176
     1
 79
     3
176
     1
170
     0
176
     1
171
     0
176
     1
290
     0
176
     1
 93
        1
176
     1
 44
0.0
176
     1
173
     0
176
     1
  0
VISUALSTYLE
  5
30
102
{ACAD_REACTORS
330
2A
102
}
330
2A
100
AcDbVisualStyle
  2
3dWireframe
 70
     5
177
     2
291
     0
 71
     0
176
     1
 72
     2
176
     1
 73
     0
176
     1
 90
        0
176
     1
 40
-0.6
176
     1
 41
-30.0
176
     1
 62
     5
 63
     7
421
 16777215
176
     1
 74
     1
176
     1
 91
        4
176
     1
 64
     7
176
     1
 65
   257
176
     1
 75
     1
176
     1
175
     1
176
     1
 42
1.0
176
     1
 92
        0
176
     1
 66
   257
176
     1
 43
1.0
176
     1
 76
     1
176
     1
 77
     6
176
     1
 78
     2
176
     1
 67
     7
176
     1
 79
     5
176
     1
170
     0
176
     1
171
     0
176
     1
290
     0
176
     1
 93
        1
176
     1
 44
0.0
176
     1
173
     0
176
     1
  0
VISUALSTYLE
  5
32
102
{ACAD_REACTORS
330
2A
102
}
330
2A
100
AcDbVisualStyle
  2
Basic
 70
     7
177
     2
291
     1
 71
     1
176
     1
 72
     0
176
     1
 73
     1
176
     1
 90
        0
176
     1
 40
-0.6
176
     1
 41
-30.0
176
     1
 62
     5
 63
     7
421
 16777215
176
     1
 74
     0
176
     1
 91
        4
176
     1
 64
     7
176
     1
 65
   257
176
     1
 75
     1
176
     1
175
     1
176
     1
 42
1.0
176
     1
 92
        8
176
     1
 66
     7
176
     1
 43
1.0
176
     1
 76
     1
176
     1
 77
     6
176
     1
 78
     2
176
     1
 67
     7
176
     1
 79
     5
176
     1
170
     0
176
     1
171
     0
176
     1
290
     0
176
     1
 93
        1
176
     1
 44
0.0
176
     1
173
     0
176
     1
  0
VISUALSTYLE
  5
36
102
{ACAD_REACTORS
330
2A
102
}
330
2A
100
AcDbVisualStyle
  2
Brighten
 70
    12
177
     2
291
     1
 71
     2
176
     1
 72
     2
176
     1
 73
     0
176
     1
 90
        0
176
     1
 40
-0.6
176
     1
 41
-30.0
176
     1
 62
     5
 63
     7
421
 16777215
176
     1
 74
     1
176
     1
 91
        4
176
     1
 64
     7
176
     1
 65
   257
176
     1
 75
     1
176
     1
175
     1
176
     1
 42
1.0
176
     1
 92
        8
176
     1
 66
     7
176
     1
 43
1.0
176
     1
 76
     1
176
     1
 77
     6
176
     1
 78
     2
176
     1
 67
     7
176
     1
 79
     5
176
     1
170
     0
176
     1
171
     0
176
     1
290
     0
176
     1
 93
        1
176
     1
 44
50.0
176
     1
173
     0
176
     1
  0
VISUALSTYLE
  5
3A
102
{ACAD_REACTORS
330
2A
102
}
330
2A
100
AcDbVisualStyle
  2
ColorChange
 70
    16
177
     2
291
     1
 71
     2
176
     1
 72
     2
176
     1
 73
     3
176
     1
 90
        0
176
     1
 40
-0.6
176
     1
 41
-30.0
176
     1
 62
     5
 63
     8
421
  8421504
176
     1
 74
     1
176
     1
 91
        4
176
     1
 64
     7
176
     1
 65
   257
176
     1
 75
     1
176
     1
175
     1
176
     1
 42
1.0
176
     1
 92
        8
176
     1
 66
     8
424
  8421504
176
     1
 43
1.0
176
     1
 76
     1
176
     1
 77
     6
176
     1
 78
     2
176
     1
 67
     7
176
     1
 79
     5
176
     1
170
     0
176
     1
171
     0
176
     1
290
     0
176
     1
 93
        1
176
     1
 44
0.0
176
     1
173
     0
176
     1
  0
VISUALSTYLE
  5
34
102
{ACAD_REACTORS
330
2A
102
}
330
2A
100
AcDbVisualStyle
  2
Conceptual
 70
     9
177
     2
291
     0
 71
     3
176
     1
 72
     2
176
     1
 73
     0
176
     1
 90
        0
176
     1
 40
-0.6
176
     1
 41
-30.0
176
     1
 62
     5
 63
     7
421
 16777215
176
     1
 74
     2
176
     1
 91
        2
176
     1
 64
     7
176
     1
 65
   257
176
     1
 75
     1
176
     1
175
     1
176
     1
 42
40.0
176
     1
 92
        8
176
     1
 66
     7
176
     1
 43
1.0
176
     1
 76
     1
176
     1
 77
     6
176
     1
 78
     2
176
     1
 67
     7
176
     1
 79
     3
176
     1
170
     0
176
     1
171
     0
176
     1
290
     0
176
     1
 93
        1
176
     1
 44
0.0
176
     1
173
     0
176
     1
  0
VISUALSTYLE
  5
35
102
{ACAD_REACTORS
330
2A
102
}
330
2A
100
AcDbVisualStyle
  2
Dim
 70
    11
177
     2
291
     1
 71
     2
176
     1
 72
     2
176
     1
 73
     0
176
     1
 90
        0
176
     1
 40
-0.6
176
     1
 41
-30.0
176
     1
 62
     5
 63
     7
421
 16777215
176
     1
 74
     1
176
     1
 91
        4
176
     1
 64
     7
176
     1
 65
   257
176
     1
 75
     1
176
     1
175
     1
176
     1
 42
1.0
176
     1
 92
        8
176
     1
 66
     7
176
     1
 43
1.0
176
     1
 76
     1
176
     1
 77
     6
176
     1
 78
     2
176
     1
 67
     7
176
     1
 79
     5
176
     1
170
     0
176
     1
171
     0
176
     1
290
     0
176
     1
 93
        1
176
     1
 44
-50.0
176
     1
173
     0
176
     1
  0
VISUALSTYLE
  5
39
102
{ACAD_REACTORS
330
2A
102
}
330
2A
100
AcDbVisualStyle
  2
Facepattern
 70
    15
177
     2
291
     1
 71
     2
176
     1
 72
     2
176
     1
 73
     0
176
     1
 90
        0
176
     1
 40
-0.6
176
     1
 41
-30.0
176
     1
 62
     5
 63
     7
421
 16777215
176
     1
 74
     1
176
     1
 91
        4
176
     1
 64
     7
176
     1
 65
   257
176
     1
 75
     1
176
     1
175
     1
176
     1
 42
1.0
176
     1
 92
        8
176
     1
 66
     7
176
     1
 43
1.0
176
     1
 76
     1
176
     1
 77
     6
176
     1
 78
     2
176
     1
 67
     7
176
     1
 79
     5
176
     1
170
     0
176
     1
171
     0
176
     1
290
     0
176
     1
 93
        1
176
     1
 44
0.0
176
     1
173
     0
176
     1
  0
VISUALSTYLE
  5
2B
102
{ACAD_REACTORS
330
2A
102
}
330
2A
100
AcDbVisualStyle
  2
Flat
 70
     0
177
     2
291
     1
 71
     2
176
     1
 72
     1
176
     1
 73
     1
176
     1
 90
        2
176
     1
 40
-0.6
176
     1
 41
30.0
176
     1
 62
     5
 63
     7
421
 16777215
176
     1
 74
     0
176
     1
 91
        4
176
     1
 64
     7
176
     1
 65
   257
176
     1
 75
     1
176
     1
175
     1
176
     1
 42
1.0
176
     1
 92
        8
176
     1
 66
     7
176
     1
 43
1.0
176
     1
 76
     1
176
     1
 77
     6
176
     1
 78
     2
176
     1
 67
     7
176
     1
 79
     5
176
     1
170
     0
176
     1
171
     0
176
     1
290
     0
176
     1
 93
       13
176
     1
 44
0.0
176
     1
173
     0
176
     1
  0
VISUALSTYLE
  5
2C
102
{ACAD_REACTORS
330
2A
102
}
330
2A
100
AcDbVisualStyle
  2
FlatWithEdges
 70
     1
177
     2
291
     1
 71
     2
176
     1
 72
     1
176
     1
 73
     1
176
     1
 90
        2
176
     1
 40
-0.6
176
     1
 41
30.0
176
     1
 62
     5
 63
     7
421
 16777215
176
     1
 74
     1
176
     1
 91
        4
176
     1
 64
     7
176
     1
 65
   257
176
     1
 75
     1
176
     1
175
     1
176
     1
 42
1.0
176
     1
 92
        0
176
     1
 66
   257
176
     1
 43
1.0
176
     1
 76
     1
176
     1
 77
     6
176
     1
 78
     2
176
     1
 67
     7
176
     1
 79
     5
176
     1
170
     0
176
     1
171
     0
176
     1
290
     0
176
     1
 93
       13
176
     1
 44
0.0
176
     1
173
     0
176
     1
  0
VISUALSTYLE
  5
2D
102
{ACAD_REACTORS
330
2A
102
}
330
2A
100
AcDbVisualStyle
  2
Gouraud
 70
     2
177
     2
291
     1
 71
     2
176
     1
 72
     2
176
     1
 73
     1
176
     1
 90
        2
176
     1
 40
-0.6
176
     1
 41
30.0
176
     1
 62
     5
 63
     7
421
 16777215
176
     1
 74
     0
176
     1
 91
        4
176
     1
 64
     7
176
     1
 65
   257
176
     1
 75
     1
176
     1
175
     1
176
     1
 42
1.0
176
     1
 92
        0
176
     1
 66
     7
176
     1
 43
1.0
176
     1
 76
     1
176
     1
 77
     6
176
     1
 78
     2
176
     1
 67
     7
176
     1
 79
     5
176
     1
170
     0
176
     1
171
     0
176
     1
290
     0
176
     1
 93
       13
176
     1
 44
0.0
176
     1
173
     0
176
     1
  0
VISUALSTYLE
  5
2E
102
{ACAD_REACTORS
330
2A
102
}
330
2A
100
AcDbVisualStyle
  2
GouraudWithEdges
 70
     3
177
     2
291
     1
 71
     2
176
     1
 72
     2
176
     1
 73
     1
176
     1
 90
        2
176
     1
 40
-0.6
176
     1
 41
30.0
176
     1
 62
     5
 63
     7
421
 16777215
176
     1
 74
     1
176
     1
 91
        4
176
     1
 64
     7
176
     1
 65
   257
176
     1
 75
     1
176
     1
175
     1
176
     1
 42
1.0
176
     1
 92
        0
176
     1
 66
   257
176
     1
 43
1.0
176
     1
 76
     1
176
     1
 77
     6
176
     1
 78
     2
176
     1
 67
     7
176
     1
 79
     5
176
     1
170
     0
176
     1
171
     0
176
     1
290
     0
176
     1
 93
       13
176
     1
 44
0.0
176
     1
173
     0
176
     1
  0
VISUALSTYLE
  5
38
102
{ACAD_REACTORS
330
2A
102
}
330
2A
100
AcDbVisualStyle
  2
Linepattern
 70
    14
177
     2
291
     1
 71
     2
176
     1
 72
     2
176
     1
 73
     0
176
     1
 90
        0
176
     1
 40
-0.6
176
     1
 41
-30.0
176
     1
 62
     5
 63
     7
421
 16777215
176
     1
 74
     1
176
     1
 91
        4
176
     1
 64
     7
176
     1
 65
   257
176
     1
 75
     7
176
     1
175
     7
176
     1
 42
1.0
176
     1
 92
        8
176
     1
 66
     7
176
     1
 43
1.0
176
     1
 76
     1
176
     1
 77
     6
176
     1
 78
     2
176
     1
 67
     7
176
     1
 79
     5
176
     1
170
     0
176
     1
171
     0
176
     1
290
     0
176
     1
 93
        1
176
     1
 44
0.0
176
     1
173
     0
176
     1
  0
VISUALSTYLE
  5
33
102
{ACAD_REACTORS
330
2A
102
}
330
2A
100
AcDbVisualStyle
  2
Realistic
 70
     8
177
     2
291
     0
 71
     2
176
     1
 72
     2
176
     1
 73
     0
176
     1
 90
        0
176
     1
 40
-0.6
176
     1
 41
-30.0
176
     1
 62
     5
 63
     7
421
 16777215
176
     1
 74
     1
176
     1
 91
        0
176
     1
 64
     7
176
     1
 65
   257
176
     1
 75
     1
176
     1
175
     1
176
     1
 42
1.0
176
     1
 92
        8
176
     1
 66
     8
424
  7895160
176
     1
 43
1.0
176
     1
 76
     1
176
     1
 77
     6
176
     1
 78
     2
176
     1
 67
     7
176
     1
 79
     5
176
     1
170
     0
176
     1
171
     0
176
     1
290
     0
176
     1
 93
       13
176
     1
 44
0.0
176
     1
173
     0
176
     1
  0
VISUALSTYLE
  5
37
102
{ACAD_REACTORS
330
2A
102
}
330
2A
100
AcDbVisualStyle
  2
Thicken
 70
    13
177
     2
291
     1
 71
     2
176
     1
 72
     2
176
     1
 73
     0
176
     1
 90
        0
176
     1
 40
-0.6
176
     1
 41
-30.0
176
     1
 62
     5
 63
     7
421
 16777215
176
     1
 74
     1
176
     1
 91
        4
176
     1
 64
     7
176
     1
 65
   257
176
     1
 75
     1
176
     1
175
     1
176
     1
 42
1.0
176
     1
 92
       12
176
     1
 66
     7
176
     1
 43
1.0
176
     1
 76
     1
176
     1
 77
     6
176
     1
 78
     2
176
     1
 67
     7
176
     1
 79
     5
176
     1
170
     0
176
     1
171
     0
176
     1
290
     0
176
     1
 93
        1
176
     1
 44
0.0
176
     1
173
     0
176
     1
  0
ENDSEC
  0
EOF
