  0
SECTION
  2
HEADER
  9
$ACADVER
  1
AC1024
  9
$ACADMAINTVER
 70
     6
  9
$DWGCODEPAGE
  3
UNDEFINED
  9
$INSBASE
 10
0.0
 20
0.0
 30
0.0
  9
$EXTMIN
 10
1.000000000000000E+20
 20
1.000000000000000E+20
 30
1.000000000000000E+20
  9
$EXTMAX
 10
-1.000000000000000E+20
 20
-1.000000000000000E+20
 30
-1.000000000000000E+20
  9
$LIMMIN
 10
0.0
 20
0.0
  9
$LIMMAX
 10
12.0
 20
9.0
  9
$ORTHOMODE
 70
     0
  9
$REGENMODE
 70
     1
  9
$FILLMODE
 70
     1
  9
$QTEXTMODE
 70
     0
  9
$MIRRTEXT
 70
     1
  9
$LTSCALE
 40
1.0
  9
$ATTMODE
 70
     1
  9
$TEXTSIZE
 40
0.2
  9
$TRACEWID
 40
0.05
  9
$TEXTSTYLE
  7
Standard
  9
$CLAYER
  8
0
  9
$CELTYPE
  6
ByLayer
  9
$CECOLOR
 62
   256
  9
$CELTSCALE
 40
1.0
  9
$DISPSILH
 70
     0
  9
$DIMSCALE
 40
1.0
  9
$DIMASZ
 40
0.18
  9
$DIMEXO
 40
0.0625
  9
$DIMDLI
 40
0.38
  9
$DIMRND
 40
0.0
  9
$DIMDLE
 40
0.0
  9
$DIMEXE
 40
0.18
  9
$DIMTP
 40
0.0
  9
$DIMTM
 40
0.0
  9
$DIMTXT
 40
0.18
  9
$DIMCEN
 40
0.09
  9
$DIMTSZ
 40
0.0
  9
$DIMTOL
 70
     0
  9
$DIMLIM
 70
     0
  9
$DIMTIH
 70
     1
  9
$DIMTOH
 70
     1
  9
$DIMSE1
 70
     0
  9
$DIMSE2
 70
     0
  9
$DIMTAD
 70
     0
  9
$DIMZIN
 70
     0
  9
$DIMBLK
  1

  9
$DIMASO
 70
     1
  9
$DIMSHO
 70
     1
  9
$DIMPOST
  1

  9
$DIMAPOST
  1

  9
$DIMALT
 70
     0
  9
$DIMALTD
 70
     2
  9
$DIMALTF
 40
25.4
  9
$DIMLFAC
 40
1.0
  9
$DIMTOFL
 70
     0
  9
$DIMTVP
 40
0.0
  9
$DIMTIX
 70
     0
  9
$DIMSOXD
 70
     0
  9
$DIMSAH
 70
     0
  9
$DIMBLK1
  1

  9
$DIMBLK2
  1

  9
$DIMSTYLE
  2
Standard
  9
$DIMCLRD
 70
     0
  9
$DIMCLRE
 70
     0
  9
$DIMCLRT
 70
     0
  9
$DIMTFAC
 40
1.0
  9
$DIMGAP
 40
0.09
  9
$DIMJUST
 70
     0
  9
$DIMSD1
 70
     0
  9
$DIMSD2
 70
     0
  9
$DIMTOLJ
 70
     1
  9
$DIMTZIN
 70
     0
  9
$DIMALTZ
 70
     0
  9
$DIMALTTZ
 70
     0
  9
$DIMUPT
 70
     0
  9
$DIMDEC
 70
     4
  9
$DIMTDEC
 70
     4
  9
$DIMALTU
 70
     2
  9
$DIMALTTD
 70
     2
  9
$DIMTXSTY
  7
Standard
  9
$DIMAUNIT
 70
     0
  9
$DIMADEC
 70
     0
  9
$DIMALTRND
 40
0.0
  9
$DIMAZIN
 70
     0
  9
$DIMDSEP
 70
    46
  9
$DIMATFIT
 70
     3
  9
$DIMFRAC
 70
     0
  9
$DIMLDRBLK
  1

  9
$DIMLUNIT
 70
     2
  9
$DIMLWD
 70
    -2
  9
$DIMLWE
 70
    -2
  9
$DIMTMOVE
 70
     0
  9
$DIMFXL
 40
1.0
  9
$DIMFXLON
 70
     0
  9
$DIMJOGANG
 40
0.7853981633974483
  9
$DIMTFILL
 70
     0
  9
$DIMTFILLCLR
 70
     0
  9
$DIMARCSYM
 70
     0
  9
$DIMLTYPE
  6

  9
$DIMLTEX1
  6

  9
$DIMLTEX2
  6

  9
$DIMTXTDIRECTION
 70
     0
  9
$LUNITS
 70
     2
  9
$LUPREC
 70
     4
  9
$SKETCHINC
 40
0.1
  9
$FILLETRAD
 40
0.5
  9
$AUNITS
 70
     0
  9
$AUPREC
 70
     0
  9
$MENU
  1
.
  9
$ELEVATION
 40
0.0
  9
$PELEVATION
 40
0.0
  9
$THICKNESS
 40
0.0
  9
$LIMCHECK
 70
     0
  9
$CHAMFERA
 40
0.5
  9
$CHAMFERB
 40
0.5
  9
$CHAMFERC
 40
1.0
  9
$CHAMFERD
 40
0.0
  9
$SKPOLY
 70
     0
  9
$TDCREATE
 40
2457917.586990729
  9
$TDUCREATE
 40
2457917.211990741
  9
$TDUPDATE
 40
2457917.586990729
  9
$TDUUPDATE
 40
2457917.211990741
  9
$TDINDWG
 40
0.0000000116
  9
$TDUSRTIMER
 40
0.0000000116
  9
$USRTIMER
 70
     1
  9
$ANGBASE
 50
0.0
  9
$ANGDIR
 70
     0
  9
$PDMODE
 70
     0
  9
$PDSIZE
 40
0.0
  9
$PLINEWID
 40
0.0
  9
$SPLFRAME
 70
     0
  9
$SPLINETYPE
 70
     6
  9
$SPLINESEGS
 70
     8
  9
$HANDSEED
  5
107
  9
$SURFTAB1
 70
     6
  9
$SURFTAB2
 70
     6
  9
$SURFTYPE
 70
     6
  9
$SURFU
 70
     6
  9
$SURFV
 70
     6
  9
$UCSBASE
  2

  9
$UCSNAME
  2

  9
$UCSORG
 10
0.0
 20
0.0
 30
0.0
  9
$UCSXDIR
 10
1.0
 20
0.0
 30
0.0
  9
$UCSYDIR
 10
0.0
 20
1.0
 30
0.0
  9
$UCSORTHOREF
  2

  9
$UCSORTHOVIEW
 70
     0
  9
$UCSORGTOP
 10
0.0
 20
0.0
 30
0.0
  9
$UCSORGBOTTOM
 10
0.0
 20
0.0
 30
0.0
  9
$UCSORGLEFT
 10
0.0
 20
0.0
 30
0.0
  9
$UCSORGRIGHT
 10
0.0
 20
0.0
 30
0.0
  9
$UCSORGFRONT
 10
0.0
 20
0.0
 30
0.0
  9
$UCSORGBACK
 10
0.0
 20
0.0
 30
0.0
  9
$PUCSBASE
  2

  9
$PUCSNAME
  2

  9
$PUCSORG
 10
0.0
 20
0.0
 30
0.0
  9
$PUCSXDIR
 10
1.0
 20
0.0
 30
0.0
  9
$PUCSYDIR
 10
0.0
 20
1.0
 30
0.0
  9
$PUCSORTHOREF
  2

  9
$PUCSORTHOVIEW
 70
     0
  9
$PUCSORGTOP
 10
0.0
 20
0.0
 30
0.0
  9
$PUCSORGBOTTOM
 10
0.0
 20
0.0
 30
0.0
  9
$PUCSORGLEFT
 10
0.0
 20
0.0
 30
0.0
  9
$PUCSORGRIGHT
 10
0.0
 20
0.0
 30
0.0
  9
$PUCSORGFRONT
 10
0.0
 20
0.0
 30
0.0
  9
$PUCSORGBACK
 10
0.0
 20
0.0
 30
0.0
  9
$USERI1
 70
     0
  9
$USERI2
 70
     0
  9
$USERI3
 70
     0
  9
$USERI4
 70
     0
  9
$USERI5
 70
     0
  9
$USERR1
 40
0.0
  9
$USERR2
 40
0.0
  9
$USERR3
 40
0.0
  9
$USERR4
 40
0.0
  9
$USERR5
 40
0.0
  9
$WORLDVIEW
 70
     1
  9
$SHADEDGE
 70
     3
  9
$SHADEDIF
 70
    70
  9
$TILEMODE
 70
     1
  9
$MAXACTVP
 70
    64
  9
$PINSBASE
 10
0.0
 20
0.0
 30
0.0
  9
$PLIMCHECK
 70
     0
  9
$PEXTMIN
 10
1.000000000000000E+20
 20
1.000000000000000E+20
 30
1.000000000000000E+20
  9
$PEXTMAX
 10
-1.000000000000000E+20
 20
-1.000000000000000E+20
 30
-1.000000000000000E+20
  9
$PLIMMIN
 10
0.0
 20
0.0
  9
$PLIMMAX
 10
12.0
 20
9.0
  9
$UNITMODE
 70
     0
  9
$VISRETAIN
 70
     1
  9
$PLINEGEN
 70
     0
  9
$PSLTSCALE
 70
     1
  9
$TREEDEPTH
 70
  3020
  9
$CMLSTYLE
  2
Standard
  9
$CMLJUST
 70
     0
  9
$CMLSCALE
 40
1.0
  9
$PROXYGRAPHICS
 70
     1
  9
$MEASUREMENT
 70
     0
  9
$CELWEIGHT
370
    -1
  9
$ENDCAPS
280
     0
  9
$JOINSTYLE
280
     0
  9
$LWDISPLAY
290
     1
  9
$INSUNITS
 70
     1
  9
$HYPERLINKBASE
  1

  9
$STYLESHEET
  1

  9
$XEDIT
290
     1
  9
$CEPSNTYPE
380
     0
  9
$PSTYLEMODE
290
     1
  9
$FINGERPRINTGUID
  2
{DDED27F3-1BFB-A5EF-C2F9-5F4CC95D95EB}
  9
$VERSIONGUID
  2
{FAEB1C32-E019-11D5-929B-00C0DF256EC4}
  9
$EXTNAMES
290
     1
  9
$PSVPSCALE
 40
0.0
  9
$OLESTARTUP
290
     0
  9
$SORTENTS
280
   127
  9
$INDEXCTL
280
     0
  9
$HIDETEXT
280
     1
  9
$XCLIPFRAME
280
     2
  9
$HALOGAP
280
     0
  9
$OBSCOLOR
 70
   257
  9
$OBSLTYPE
280
     0
  9
$INTERSECTIONDISPLAY
280
     0
  9
$INTERSECTIONCOLOR
 70
   257
  9
$DIMASSOC
280
     2
  9
$PROJECTNAME
  1

  9
$CAMERADISPLAY
290
     0
  9
$LENSLENGTH
 40
50.0
  9
$CAMERAHEIGHT
 40
0.0
  9
$STEPSPERSEC
 40
2.0
  9
$STEPSIZE
 40
6.0
  9
$3DDWFPREC
 40
2.0
  9
$PSOLWIDTH
 40
0.25
  9
$PSOLHEIGHT
 40
4.0
  9
$LOFTANG1
 40
1.570796326794897
  9
$LOFTANG2
 40
1.570796326794897
  9
$LOFTMAG1
 40
0.0
  9
$LOFTMAG2
 40
0.0
  9
$LOFTPARAM
 70
     7
  9
$LOFTNORMALS
280
     1
  9
$LATITUDE
 40
37.795
  9
$LONGITUDE
 40
-122.394
  9
$NORTHDIRECTION
 40
0.0
  9
$TIMEZONE
 70
 -8000
  9
$LIGHTGLYPHDISPLAY
280
     1
  9
$TILEMODELIGHTSYNCH
280
     1
  9
$CMATERIAL
347
3C
  9
$SOLIDHIST
280
     1
  9
$SHOWHIST
280
     1
  9
$DWFFRAME
280
     2
  9
$DGNFRAME
280
     2
  9
$REALWORLDSCALE
290
     1
  9
$INTERFERECOLOR
 62
   256
  9
$CSHADOW
280
     0
  9
$SHADOWPLANELOCATION
 40
0.0
  0
ENDSEC
  0
SECTION
  2
CLASSES
  0
CLASS
  1
ACDBDICTIONARYWDFLT
  2
AcDbDictionaryWithDefault
  3
ObjectDBX Classes
 90
        0
 91
        4
280
     0
281
     0
  0
CLASS
  1
VISUALSTYLE
  2
AcDbVisualStyle
  3
ObjectDBX Classes
 90
     4095
 91
        4
280
     0
281
     0
  0
CLASS
  1
MATERIAL
  2
AcDbMaterial
  3
ObjectDBX Classes
 90
     1153
 91
        4
280
     0
281
     0
  0
CLASS
  1
SUN
  2
AcDbSun
  3
SCENEOE
 90
     1024
 91
        4
280
     0
281
     0
  0
ENDSEC
  0
SECTION
  2
TABLES
  0
TABLE
  2
VPORT
  5
8
330
0
100
AcDbSymbolTable
 70
     1
  0
VPORT
  5
29
330
8
100
AcDbSymbolTableRecord
100
AcDbViewportTableRecord
  2
*Active
 70
     0
 10
0.0
 20
0.0
 11
1.0
 21
1.0
 12
0.0
 22
0.0
 13
0.0
 23
0.0
 14
0.5
 24
0.5
 15
0.5
 25
0.5
 16
0.0
 26
0.0
 36
1.0
 17
105.0008280156501
 27
-148.4999710739862
 37
0.0
 40
296.9999421479724
 41
0.7070764206636528
 42
50.0
 43
0.0
 44
0.0
 50
0.0
 51
0.0
 71
     0
 72
   100
 73
     1
 74
     3
 75
     0
 76
     0
 77
     0
 78
     0
281
     0
 65
     1
110
0.0
120
0.0
130
0.0
111
1.0
121
0.0
131
0.0
112
0.0
122
1.0
132
0.0
 79
     0
146
0.0
 60
     3
 61
     5
292
     1
282
     1
141
0.0
142
0.0
 63
   250
361
3F
  0
ENDTAB
  0
TABLE
  2
LTYPE
  5
5
330
0
100
AcDbSymbolTable
 70
     1
  0
LTYPE
  5
14
330
5
100
AcDbSymbolTableRecord
100
AcDbLinetypeTableRecord
  2
ByBlock
 70
     0
  3

 72
    65
 73
     0
 40
0.0
  0
LTYPE
  5
15
330
5
100
AcDbSymbolTableRecord
100
AcDbLinetypeTableRecord
  2
ByLayer
 70
     0
  3

 72
    65
 73
     0
 40
0.0
  0
LTYPE
  5
16
330
5
100
AcDbSymbolTableRecord
100
AcDbLinetypeTableRecord
  2
Continuous
 70
     0
  3
Solid line
 72
    65
 73
     0
 40
0.0
  0
ENDTAB
  0
TABLE
  2
LAYER
  5
2
330
0
100
AcDbSymbolTable
 70
     2
  0
LAYER
  5
10
330
2
100
AcDbSymbolTableRecord
100
AcDbLayerTableRecord
  2
0
 70
     0
 62
     7
  6
Continuous
370
    -3
390
F
347
3E
  0
LAYER
  5
40
330
2
100
AcDbSymbolTableRecord
100
AcDbLayerTableRecord
  2
_U+30EC_U+30A4_U+30E4_U+30FC 1
 70
     0
 62
     7
  6
Continuous
370
    -3
390
F
347
3E
  0
ENDTAB
  0
TABLE
  2
STYLE
  5
3
330
0
100
AcDbSymbolTable
 70
     1
  0
STYLE
  5
11
330
3
100
AcDbSymbolTableRecord
100
AcDbTextStyleTableRecord
  2
Standard
 70
     0
 40
0.0
 41
1.0
 50
0.0
 71
     0
 42
0.2
  3
txt
  4

  0
ENDTAB
  0
TABLE
  2
VIEW
  5
6
330
0
100
AcDbSymbolTable
 70
     0
  0
ENDTAB
  0
TABLE
  2
UCS
  5
7
330
0
100
AcDbSymbolTable
 70
     0
  0
ENDTAB
  0
TABLE
  2
APPID
  5
9
330
0
100
AcDbSymbolTable
 70
     1
  0
APPID
  5
12
330
9
100
AcDbSymbolTableRecord
100
AcDbRegAppTableRecord
  2
ACAD
 70
     0
  0
ENDTAB
  0
TABLE
  2
DIMSTYLE
  5
A
330
0
100
AcDbSymbolTable
 70
     1
100
AcDbDimStyleTable
  0
DIMSTYLE
105
27
330
A
100
AcDbSymbolTableRecord
100
AcDbDimStyleTableRecord
  2
Standard
 70
     0
178
     0
340
11
  0
ENDTAB
  0
TABLE
  2
BLOCK_RECORD
  5
1
330
0
100
AcDbSymbolTable
 70
     7
  0
BLOCK_RECORD
  5
1F
330
1
100
AcDbSymbolTableRecord
100
AcDbBlockTableRecord
  2
*Model_Space
340
22
 70
     0
280
     1
281
     0
  0
BLOCK_RECORD
  5
1B
330
1
100
AcDbSymbolTableRecord
100
AcDbBlockTableRecord
  2
*Paper_Space
340
1E
 70
     0
280
     1
281
     0
  0
BLOCK_RECORD
  5
23
330
1
100
AcDbSymbolTableRecord
100
AcDbBlockTableRecord
  2
*Paper_Space0
340
26
 70
     0
280
     1
281
     0
  0
BLOCK_RECORD
  5
93
330
1
100
AcDbSymbolTableRecord
100
AcDbBlockTableRecord
  2
block 2
340
0
102
{BLKREFS
331
94
102
}
 70
     0
280
     1
281
     0
  0
BLOCK_RECORD
  5
A1
330
1
100
AcDbSymbolTableRecord
100
AcDbBlockTableRecord
  2
block 3
340
0
102
{BLKREFS
331
A2
102
}
 70
     0
280
     1
281
     0
  0
BLOCK_RECORD
  5
BA
330
1
100
AcDbSymbolTableRecord
100
AcDbBlockTableRecord
  2
block 4
340
0
102
{BLKREFS
331
BB
102
}
 70
     0
280
     1
281
     0
  0
BLOCK_RECORD
  5
D7
330
1
100
AcDbSymbolTableRecord
100
AcDbBlockTableRecord
  2
block 5
340
0
102
{BLKREFS
331
D8
102
}
 70
     0
280
     1
281
     0
  0
BLOCK_RECORD
  5
EC
330
1
100
AcDbSymbolTableRecord
100
AcDbBlockTableRecord
  2
block 6
340
0
102
{BLKREFS
331
ED
102
}
 70
     0
280
     1
281
     0
  0
BLOCK_RECORD
  5
FC
330
1
100
AcDbSymbolTableRecord
100
AcDbBlockTableRecord
  2
block 7
340
0
102
{BLKREFS
331
FD
102
}
 70
     0
280
     1
281
     0
  0
ENDTAB
  0
ENDSEC
  0
SECTION
  2
BLOCKS
  0
BLOCK
  5
20
330
1F
100
AcDbEntity
  8
0
100
AcDbBlockBegin
  2
*Model_Space
 70
     0
 10
0.0
 20
0.0
 30
0.0
  3
*Model_Space
  1

  0
ENDBLK
  5
21
330
1F
100
AcDbEntity
  8
0
100
AcDbBlockEnd
  0
BLOCK
  5
1C
330
1B
100
AcDbEntity
 67
     1
  8
0
100
AcDbBlockBegin
  2
*Paper_Space
 70
     0
 10
0.0
 20
0.0
 30
0.0
  3
*Paper_Space
  1

  0
ENDBLK
  5
1D
330
1B
100
AcDbEntity
 67
     1
  8
0
100
AcDbBlockEnd
  0
BLOCK
  5
24
330
23
100
AcDbEntity
  8
0
100
AcDbBlockBegin
  2
*Paper_Space0
 70
     0
 10
0.0
 20
0.0
 30
0.0
  3
*Paper_Space0
  1

  0
ENDBLK
  5
25
330
23
100
AcDbEntity
  8
0
100
AcDbBlockEnd
  0
BLOCK
  5
95
330
93
100
AcDbEntity
  8
0
100
AcDbBlockBegin
  2
block 2
 70
     0
 10
0.0
 20
0.0
 30
0.0
  3
block 2
  1

  0
SPLINE
  5
97
330
93
100
AcDbEntity
  8
_U+30EC_U+30A4_U+30E4_U+30FC 1
370
     0
100
AcDbSpline
210
0.0
220
0.0
230
1.0
 70
    11
 71
     3
 72
    26
 73
    22
 74
     0
 42
0.0000000001
 43
0.0000000001
 12
1.0
 22
0.0
 32
0.0
 13
1.0
 23
0.0
 33
0.0
 40
0.0
 40
0.0
 40
0.0
 40
0.0
 40
1.0
 40
1.0
 40
1.0
 40
2.0
 40
2.0
 40
2.0
 40
3.0
 40
3.0
 40
3.0
 40
4.0
 40
4.0
 40
4.0
 40
5.0
 40
5.0
 40
5.0
 40
6.0
 40
6.0
 40
6.0
 40
7.0
 40
7.0
 40
7.0
 40
7.0
 10
122.8679524432414
 20
-140.7137193116098
 30
0.0
 10
122.8679524432414
 20
-140.7137193116098
 30
0.0
 10
121.7637993402188
 20
-140.7137193116098
 30
0.0
 10
121.7637993402188
 20
-140.7137193116098
 30
0.0
 10
121.7637993402188
 20
-140.7137193116098
 30
0.0
 10
121.7637993402188
 20
-141.0664970892994
 30
0.0
 10
121.7637993402188
 20
-141.0664970892994
 30
0.0
 10
121.7637993402188
 20
-141.0664970892994
 30
0.0
 10
121.615660234353
 20
-141.0664970892994
 30
0.0
 10
121.615660234353
 20
-141.0664970892994
 30
0.0
 10
121.6008463237665
 20
-140.7114799995444
 30
0.0
 10
121.4378933073141
 20
-140.6616983697825
 30
0.0
 10
121.3235161372039
 20
-140.6301757460925
 30
0.0
 10
121.3235161372039
 20
-140.6301757460925
 30
0.0
 10
121.3235161372039
 20
-140.4741129206107
 30
0.0
 10
121.3235161372039
 20
-140.4741129206107
 30
0.0
 10
121.3235161372039
 20
-140.4741129206107
 30
0.0
 10
122.8679524432414
 20
-140.4741129206107
 30
0.0
 10
122.8679524432414
 20
-140.4741129206107
 30
0.0
 10
122.8679524432414
 20
-140.4741129206107
 30
0.0
 10
122.8679524432414
 20
-140.7137193116098
 30
0.0
 10
122.8679524432414
 20
-140.7137193116098
 30
0.0
  0
HATCH
  5
98
330
93
100
AcDbEntity
  8
_U+30EC_U+30A4_U+30E4_U+30FC 1
 62
   179
420
  2234388
100
AcDbHatch
 10
0.0
 20
0.0
 30
0.0
210
0.0
220
0.0
230
1.0
  2
SOLID
 70
     1
 71
     0
 91
        1
 92
        1
 93
        1
 72
     4
 94
        3
 73
     0
 74
     1
 95
       26
 96
       22
 40
0.0
 40
0.0
 40
0.0
 40
0.0
 40
1.0
 40
1.0
 40
1.0
 40
2.0
 40
2.0
 40
2.0
 40
3.0
 40
3.0
 40
3.0
 40
4.0
 40
4.0
 40
4.0
 40
5.0
 40
5.0
 40
5.0
 40
6.0
 40
6.0
 40
6.0
 40
7.0
 40
7.0
 40
7.0
 40
7.0
 10
122.8679524432414
 20
-140.7137193116098
 10
122.8679524432414
 20
-140.7137193116098
 10
121.7637993402188
 20
-140.7137193116098
 10
121.7637993402188
 20
-140.7137193116098
 10
121.7637993402188
 20
-140.7137193116098
 10
121.7637993402188
 20
-141.0664970892994
 10
121.7637993402188
 20
-141.0664970892994
 10
121.7637993402188
 20
-141.0664970892994
 10
121.615660234353
 20
-141.0664970892994
 10
121.615660234353
 20
-141.0664970892994
 10
121.6008463237665
 20
-140.7114799995444
 10
121.4378933073141
 20
-140.6616983697825
 10
121.3235161372039
 20
-140.6301757460925
 10
121.3235161372039
 20
-140.6301757460925
 10
121.3235161372039
 20
-140.4741129206107
 10
121.3235161372039
 20
-140.4741129206107
 10
121.3235161372039
 20
-140.4741129206107
 10
122.8679524432414
 20
-140.4741129206107
 10
122.8679524432414
 20
-140.4741129206107
 10
122.8679524432414
 20
-140.4741129206107
 10
122.8679524432414
 20
-140.7137193116098
 10
122.8679524432414
 20
-140.7137193116098
 97
        0
 97
        0
 75
     2
 76
     1
 98
        0
  0
ENDBLK
  5
96
330
93
100
AcDbEntity
  8
0
100
AcDbBlockEnd
  0
BLOCK
  5
A3
330
A1
100
AcDbEntity
  8
0
100
AcDbBlockBegin
  2
block 3
 70
     0
 10
0.0
 20
0.0
 30
0.0
  3
block 3
  1

  0
SPLINE
  5
A5
330
A1
100
AcDbEntity
  8
_U+30EC_U+30A4_U+30E4_U+30FC 1
370
     0
100
AcDbSpline
210
0.0
220
0.0
230
1.0
 70
    11
 71
     3
 72
    26
 73
    22
 74
     0
 42
0.0000000001
 43
0.0000000001
 12
1.0
 22
0.0
 32
0.0
 13
1.0
 23
0.0
 33
0.0
 40
0.0
 40
0.0
 40
0.0
 40
0.0
 40
1.0
 40
1.0
 40
1.0
 40
2.0
 40
2.0
 40
2.0
 40
3.0
 40
3.0
 40
3.0
 40
4.0
 40
4.0
 40
4.0
 40
5.0
 40
5.0
 40
5.0
 40
6.0
 40
6.0
 40
6.0
 40
7.0
 40
7.0
 40
7.0
 40
7.0
 10
122.8679524432414
 20
-150.3818630266406
 30
0.0
 10
122.8679524432414
 20
-150.3818630266406
 30
0.0
 10
121.7637993402188
 20
-150.3818630266406
 30
0.0
 10
121.7637993402188
 20
-150.3818630266406
 30
0.0
 10
121.7637993402188
 20
-150.3818630266406
 30
0.0
 10
121.7637993402188
 20
-150.7342962947817
 30
0.0
 10
121.7637993402188
 20
-150.7342962947817
 30
0.0
 10
121.7637993402188
 20
-150.7342962947817
 30
0.0
 10
121.615660234353
 20
-150.7342962947817
 30
0.0
 10
121.615660234353
 20
-150.7342962947817
 30
0.0
 10
121.6008463237665
 20
-150.379451459801
 30
0.0
 10
121.4378933073141
 20
-150.3298420848134
 30
0.0
 10
121.3235161372039
 20
-150.2981472063491
 30
0.0
 10
121.3235161372039
 20
-150.2981472063491
 30
0.0
 10
121.3235161372039
 20
-150.1420843808673
 30
0.0
 10
121.3235161372039
 20
-150.1420843808673
 30
0.0
 10
121.3235161372039
 20
-150.1420843808673
 30
0.0
 10
122.8679524432414
 20
-150.1420843808673
 30
0.0
 10
122.8679524432414
 20
-150.1420843808673
 30
0.0
 10
122.8679524432414
 20
-150.1420843808673
 30
0.0
 10
122.8679524432414
 20
-150.3818630266406
 30
0.0
 10
122.8679524432414
 20
-150.3818630266406
 30
0.0
  0
HATCH
  5
A6
330
A1
100
AcDbEntity
  8
_U+30EC_U+30A4_U+30E4_U+30FC 1
 62
   179
420
  2234388
100
AcDbHatch
 10
0.0
 20
0.0
 30
0.0
210
0.0
220
0.0
230
1.0
  2
SOLID
 70
     1
 71
     0
 91
        1
 92
        1
 93
        1
 72
     4
 94
        3
 73
     0
 74
     1
 95
       26
 96
       22
 40
0.0
 40
0.0
 40
0.0
 40
0.0
 40
1.0
 40
1.0
 40
1.0
 40
2.0
 40
2.0
 40
2.0
 40
3.0
 40
3.0
 40
3.0
 40
4.0
 40
4.0
 40
4.0
 40
5.0
 40
5.0
 40
5.0
 40
6.0
 40
6.0
 40
6.0
 40
7.0
 40
7.0
 40
7.0
 40
7.0
 10
122.8679524432414
 20
-150.3818630266406
 10
122.8679524432414
 20
-150.3818630266406
 10
121.7637993402188
 20
-150.3818630266406
 10
121.7637993402188
 20
-150.3818630266406
 10
121.7637993402188
 20
-150.3818630266406
 10
121.7637993402188
 20
-150.7342962947817
 10
121.7637993402188
 20
-150.7342962947817
 10
121.7637993402188
 20
-150.7342962947817
 10
121.615660234353
 20
-150.7342962947817
 10
121.615660234353
 20
-150.7342962947817
 10
121.6008463237665
 20
-150.379451459801
 10
121.4378933073141
 20
-150.3298420848134
 10
121.3235161372039
 20
-150.2981472063491
 10
121.3235161372039
 20
-150.2981472063491
 10
121.3235161372039
 20
-150.1420843808673
 10
121.3235161372039
 20
-150.1420843808673
 10
121.3235161372039
 20
-150.1420843808673
 10
122.8679524432414
 20
-150.1420843808673
 10
122.8679524432414
 20
-150.1420843808673
 10
122.8679524432414
 20
-150.1420843808673
 10
122.8679524432414
 20
-150.3818630266406
 10
122.8679524432414
 20
-150.3818630266406
 97
        0
 97
        0
 75
     2
 76
     1
 98
        0
  0
SPLINE
  5
A7
330
A1
100
AcDbEntity
  8
_U+30EC_U+30A4_U+30E4_U+30FC 1
370
     0
100
AcDbSpline
210
0.0
220
0.0
230
1.0
 70
    11
 71
     3
 72
    29
 73
    25
 74
     0
 42
0.0000000001
 43
0.0000000001
 12
1.0
 22
0.0
 32
0.0
 13
1.0
 23
0.0
 33
0.0
 40
0.0
 40
0.0
 40
0.0
 40
0.0
 40
1.0
 40
1.0
 40
1.0
 40
2.0
 40
2.0
 40
2.0
 40
3.0
 40
3.0
 40
3.0
 40
4.0
 40
4.0
 40
4.0
 40
5.0
 40
5.0
 40
5.0
 40
6.0
 40
6.0
 40
6.0
 40
7.0
 40
7.0
 40
7.0
 40
8.0
 40
8.0
 40
8.0
 40
8.0
 10
122.6901855162025
 20
-148.6469129402688
 30
0.0
 10
122.8996473217056
 20
-148.7623236390247
 30
0.0
 10
122.9185953468745
 20
-148.9476697761311
 30
0.0
 10
122.9185953468745
 20
-149.0720377231487
 30
0.0
 10
122.9185953468745
 20
-149.2436034783141
 30
0.0
 10
122.8720865578236
 20
-149.3951876796651
 30
0.0
 10
122.6901855162025
 20
-149.49681799648
 30
0.0
 10
122.4955376212858
 20
-149.607750071105
 30
0.0
 10
122.2585150519007
 20
-149.628076134468
 30
0.0
 10
122.0959065449969
 20
-149.628076134468
 30
0.0
 10
121.9519015537134
 20
-149.628076134468
 30
0.0
 10
121.7000650737417
 20
-149.6101616379447
 30
0.0
 10
121.5012830642427
 20
-149.49681799648
 30
0.0
 10
121.2983669401615
 20
-149.3817518072726
 30
0.0
 10
121.2749402908618
 20
-149.2098415425586
 30
0.0
 10
121.2749402908618
 20
-149.0720377231487
 30
0.0
 10
121.2749402908618
 20
-148.9021945157259
 30
0.0
 10
121.3193820226216
 20
-148.7485432570837
 30
0.0
 10
121.5012830642427
 20
-148.6469129402688
 30
0.0
 10
121.6938639018682
 20
-148.5404594897746
 30
0.0
 10
121.9222737325403
 20
-148.5156548022808
 30
0.0
 10
122.0959065449969
 20
-148.5156548022808
 30
0.0
 10
122.2671277906138
 20
-148.5156548022808
 30
0.0
 10
122.497604678577
 20
-148.5383924324835
 30
0.0
 10
122.6901855162025
 20
-148.6469129402688
 30
0.0
  0
SPLINE
  5
A8
330
A1
100
AcDbEntity
  8
_U+30EC_U+30A4_U+30E4_U+30FC 1
370
     0
100
AcDbSpline
210
0.0
220
0.0
230
1.0
 70
    11
 71
     3
 72
    17
 73
    13
 74
     0
 42
0.0000000001
 43
0.0000000001
 12
1.0
 22
0.0
 32
0.0
 13
1.0
 23
0.0
 33
0.0
 40
0.0
 40
0.0
 40
0.0
 40
0.0
 40
1.0
 40
1.0
 40
1.0
 40
2.0
 40
2.0
 40
2.0
 40
3.0
 40
3.0
 40
3.0
 40
4.0
 40
4.0
 40
4.0
 40
4.0
 10
121.4675211284873
 20
-149.0720377231487
 30
0.0
 10
121.4675211284873
 20
-149.338688113707
 30
0.0
 10
121.7510524869234
 20
-149.3882974886946
 30
0.0
 10
122.0959065449969
 20
-149.3882974886946
 30
0.0
 10
122.4152668964795
 20
-149.3882974886946
 30
0.0
 10
122.7239474519579
 20
-149.3500569288083
 30
0.0
 10
122.7239474519579
 20
-149.0720377231487
 30
0.0
 10
122.7239474519579
 20
-148.8074543898815
 30
0.0
 10
122.4428276603615
 20
-148.7554334480542
 30
0.0
 10
122.0959065449969
 20
-148.7554334480542
 30
0.0
 10
121.7762016839657
 20
-148.7554334480542
 30
0.0
 10
121.4675211284873
 20
-148.7960855747802
 30
0.0
 10
121.4675211284873
 20
-149.0720377231487
 30
0.0
  0
HATCH
  5
A9
330
A1
100
AcDbEntity
  8
_U+30EC_U+30A4_U+30E4_U+30FC 1
 62
   179
420
  2234388
100
AcDbHatch
 10
0.0
 20
0.0
 30
0.0
210
0.0
220
0.0
230
1.0
  2
SOLID
 70
     1
 71
     0
 91
        2
 92
        1
 93
        1
 72
     4
 94
        3
 73
     0
 74
     1
 95
       29
 96
       25
 40
0.0
 40
0.0
 40
0.0
 40
0.0
 40
1.0
 40
1.0
 40
1.0
 40
2.0
 40
2.0
 40
2.0
 40
3.0
 40
3.0
 40
3.0
 40
4.0
 40
4.0
 40
4.0
 40
5.0
 40
5.0
 40
5.0
 40
6.0
 40
6.0
 40
6.0
 40
7.0
 40
7.0
 40
7.0
 40
8.0
 40
8.0
 40
8.0
 40
8.0
 10
122.6901855162025
 20
-148.6469129402688
 10
122.8996473217056
 20
-148.7623236390247
 10
122.9185953468745
 20
-148.9476697761311
 10
122.9185953468745
 20
-149.0720377231487
 10
122.9185953468745
 20
-149.2436034783141
 10
122.8720865578236
 20
-149.3951876796651
 10
122.6901855162025
 20
-149.49681799648
 10
122.4955376212858
 20
-149.607750071105
 10
122.2585150519007
 20
-149.628076134468
 10
122.0959065449969
 20
-149.628076134468
 10
121.9519015537134
 20
-149.628076134468
 10
121.7000650737417
 20
-149.6101616379447
 10
121.5012830642427
 20
-149.49681799648
 10
121.2983669401615
 20
-149.3817518072726
 10
121.2749402908618
 20
-149.2098415425586
 10
121.2749402908618
 20
-149.0720377231487
 10
121.2749402908618
 20
-148.9021945157259
 10
121.3193820226216
 20
-148.7485432570837
 10
121.5012830642427
 20
-148.6469129402688
 10
121.6938639018682
 20
-148.5404594897746
 10
121.9222737325403
 20
-148.5156548022808
 10
122.0959065449969
 20
-148.5156548022808
 10
122.2671277906138
 20
-148.5156548022808
 10
122.497604678577
 20
-148.5383924324835
 10
122.6901855162025
 20
-148.6469129402688
 97
        0
 97
        0
 92
        1
 93
        1
 72
     4
 94
        3
 73
     0
 74
     1
 95
       17
 96
       13
 40
0.0
 40
0.0
 40
0.0
 40
0.0
 40
1.0
 40
1.0
 40
1.0
 40
2.0
 40
2.0
 40
2.0
 40
3.0
 40
3.0
 40
3.0
 40
4.0
 40
4.0
 40
4.0
 40
4.0
 10
121.4675211284873
 20
-149.0720377231487
 10
121.4675211284873
 20
-149.338688113707
 10
121.7510524869234
 20
-149.3882974886946
 10
122.0959065449969
 20
-149.3882974886946
 10
122.4152668964795
 20
-149.3882974886946
 10
122.7239474519579
 20
-149.3500569288083
 10
122.7239474519579
 20
-149.0720377231487
 10
122.7239474519579
 20
-148.8074543898815
 10
122.4428276603615
 20
-148.7554334480542
 10
122.0959065449969
 20
-148.7554334480542
 10
121.7762016839657
 20
-148.7554334480542
 10
121.4675211284873
 20
-148.7960855747802
 10
121.4675211284873
 20
-149.0720377231487
 97
        0
 97
        0
 75
     2
 76
     1
 98
        0
  0
ENDBLK
  5
A4
330
A1
100
AcDbEntity
  8
0
100
AcDbBlockEnd
  0
BLOCK
  5
BC
330
BA
100
AcDbEntity
  8
0
100
AcDbBlockBegin
  2
block 4
 70
     0
 10
0.0
 20
0.0
 30
0.0
  3
block 4
  1

  0
SPLINE
  5
BE
330
BA
100
AcDbEntity
  8
_U+30EC_U+30A4_U+30E4_U+30FC 1
370
     0
100
AcDbSpline
210
0.0
220
0.0
230
1.0
 70
    11
 71
     3
 72
    29
 73
    25
 74
     0
 42
0.0000000001
 43
0.0000000001
 12
1.0
 22
0.0
 32
0.0
 13
1.0
 23
0.0
 33
0.0
 40
0.0
 40
0.0
 40
0.0
 40
0.0
 40
1.0
 40
1.0
 40
1.0
 40
2.0
 40
2.0
 40
2.0
 40
3.0
 40
3.0
 40
3.0
 40
4.0
 40
4.0
 40
4.0
 40
5.0
 40
5.0
 40
5.0
 40
6.0
 40
6.0
 40
6.0
 40
7.0
 40
7.0
 40
7.0
 40
8.0
 40
8.0
 40
8.0
 40
8.0
 10
107.6898952638761
 20
-152.054801394278
 30
0.0
 10
107.8993570693793
 20
-152.1702120930339
 30
0.0
 10
107.9183050945482
 20
-152.3555582301403
 30
0.0
 10
107.9183050945482
 20
-152.4799261771578
 30
0.0
 10
107.9183050945482
 20
-152.6514919323232
 30
0.0
 10
107.8717963054973
 20
-152.8030761336742
 30
0.0
 10
107.6898952638761
 20
-152.9047064504891
 30
0.0
 10
107.4952473689595
 20
-153.0156385251142
 30
0.0
 10
107.2585693091229
 20
-153.0359645884771
 30
0.0
 10
107.0956162926705
 20
-153.0359645884771
 30
0.0
 10
106.9516113013871
 20
-153.0359645884771
 30
0.0
 10
106.6997748214153
 20
-153.0180500919538
 30
0.0
 10
106.5009928119164
 20
-152.9047064504891
 30
0.0
 10
106.2980766878352
 20
-152.7896402612818
 30
0.0
 10
106.2746500385355
 20
-152.6177299965678
 30
0.0
 10
106.2746500385355
 20
-152.4799261771578
 30
0.0
 10
106.2746500385355
 20
-152.310082969735
 30
0.0
 10
106.3190917702952
 20
-152.1564317110928
 30
0.0
 10
106.5009928119164
 20
-152.054801394278
 30
0.0
 10
106.6935736495419
 20
-151.9483479437837
 30
0.0
 10
106.921983480214
 20
-151.9235432562899
 30
0.0
 10
107.0956162926705
 20
-151.9235432562899
 30
0.0
 10
107.2668375382875
 20
-151.9235432562899
 30
0.0
 10
107.4973144262507
 20
-151.9462808864926
 30
0.0
 10
107.6898952638761
 20
-152.054801394278
 30
0.0
  0
SPLINE
  5
BF
330
BA
100
AcDbEntity
  8
_U+30EC_U+30A4_U+30E4_U+30FC 1
370
     0
100
AcDbSpline
210
0.0
220
0.0
230
1.0
 70
    11
 71
     3
 72
    17
 73
    13
 74
     0
 42
0.0000000001
 43
0.0000000001
 12
1.0
 22
0.0
 32
0.0
 13
1.0
 23
0.0
 33
0.0
 40
0.0
 40
0.0
 40
0.0
 40
0.0
 40
1.0
 40
1.0
 40
1.0
 40
2.0
 40
2.0
 40
2.0
 40
3.0
 40
3.0
 40
3.0
 40
4.0
 40
4.0
 40
4.0
 40
4.0
 10
106.467230876161
 20
-152.4799261771578
 30
0.0
 10
106.467230876161
 20
-152.7465765677161
 30
0.0
 10
106.750762234597
 20
-152.7961859427037
 30
0.0
 10
107.0956162926705
 20
-152.7961859427037
 30
0.0
 10
107.4149766441532
 20
-152.7961859427037
 30
0.0
 10
107.7236571996316
 20
-152.7579453828175
 30
0.0
 10
107.7236571996316
 20
-152.4799261771578
 30
0.0
 10
107.7236571996316
 20
-152.2153428438906
 30
0.0
 10
107.4425374080352
 20
-152.1633219020633
 30
0.0
 10
107.0956162926705
 20
-152.1633219020633
 30
0.0
 10
106.7759114316394
 20
-152.1633219020633
 30
0.0
 10
106.467230876161
 20
-152.2039740287893
 30
0.0
 10
106.467230876161
 20
-152.4799261771578
 30
0.0
  0
HATCH
  5
C0
330
BA
100
AcDbEntity
  8
_U+30EC_U+30A4_U+30E4_U+30FC 1
 62
   179
420
  2234388
100
AcDbHatch
 10
0.0
 20
0.0
 30
0.0
210
0.0
220
0.0
230
1.0
  2
SOLID
 70
     1
 71
     0
 91
        2
 92
        1
 93
        1
 72
     4
 94
        3
 73
     0
 74
     1
 95
       29
 96
       25
 40
0.0
 40
0.0
 40
0.0
 40
0.0
 40
1.0
 40
1.0
 40
1.0
 40
2.0
 40
2.0
 40
2.0
 40
3.0
 40
3.0
 40
3.0
 40
4.0
 40
4.0
 40
4.0
 40
5.0
 40
5.0
 40
5.0
 40
6.0
 40
6.0
 40
6.0
 40
7.0
 40
7.0
 40
7.0
 40
8.0
 40
8.0
 40
8.0
 40
8.0
 10
107.6898952638761
 20
-152.054801394278
 10
107.8993570693793
 20
-152.1702120930339
 10
107.9183050945482
 20
-152.3555582301403
 10
107.9183050945482
 20
-152.4799261771578
 10
107.9183050945482
 20
-152.6514919323232
 10
107.8717963054973
 20
-152.8030761336742
 10
107.6898952638761
 20
-152.9047064504891
 10
107.4952473689595
 20
-153.0156385251142
 10
107.2585693091229
 20
-153.0359645884771
 10
107.0956162926705
 20
-153.0359645884771
 10
106.9516113013871
 20
-153.0359645884771
 10
106.6997748214153
 20
-153.0180500919538
 10
106.5009928119164
 20
-152.9047064504891
 10
106.2980766878352
 20
-152.7896402612818
 10
106.2746500385355
 20
-152.6177299965678
 10
106.2746500385355
 20
-152.4799261771578
 10
106.2746500385355
 20
-152.310082969735
 10
106.3190917702952
 20
-152.1564317110928
 10
106.5009928119164
 20
-152.054801394278
 10
106.6935736495419
 20
-151.9483479437837
 10
106.921983480214
 20
-151.9235432562899
 10
107.0956162926705
 20
-151.9235432562899
 10
107.2668375382875
 20
-151.9235432562899
 10
107.4973144262507
 20
-151.9462808864926
 10
107.6898952638761
 20
-152.054801394278
 97
        0
 97
        0
 92
        1
 93
        1
 72
     4
 94
        3
 73
     0
 74
     1
 95
       17
 96
       13
 40
0.0
 40
0.0
 40
0.0
 40
0.0
 40
1.0
 40
1.0
 40
1.0
 40
2.0
 40
2.0
 40
2.0
 40
3.0
 40
3.0
 40
3.0
 40
4.0
 40
4.0
 40
4.0
 40
4.0
 10
106.467230876161
 20
-152.4799261771578
 10
106.467230876161
 20
-152.7465765677161
 10
106.750762234597
 20
-152.7961859427037
 10
107.0956162926705
 20
-152.7961859427037
 10
107.4149766441532
 20
-152.7961859427037
 10
107.7236571996316
 20
-152.7579453828175
 10
107.7236571996316
 20
-152.4799261771578
 10
107.7236571996316
 20
-152.2153428438906
 10
107.4425374080352
 20
-152.1633219020633
 10
107.0956162926705
 20
-152.1633219020633
 10
106.7759114316394
 20
-152.1633219020633
 10
106.467230876161
 20
-152.2039740287893
 10
106.467230876161
 20
-152.4799261771578
 97
        0
 97
        0
 75
     2
 76
     1
 98
        0
  0
POLYLINE
  5
C1
330
BA
100
AcDbEntity
  8
_U+30EC_U+30A4_U+30E4_U+30FC 1
370
     0
100
AcDb2dPolyline
 66
     1
 10
0.0
 20
0.0
 30
0.0
  0
VERTEX
  5
C2
330
C1
100
AcDbEntity
  8
_U+30EC_U+30A4_U+30E4_U+30FC 1
370
     0
100
AcDbVertex
100
AcDb2dVertex
 10
107.867662190915
 20
-151.6923773492297
 30
0.0
  0
VERTEX
  5
C3
330
C1
100
AcDbEntity
  8
_U+30EC_U+30A4_U+30E4_U+30FC 1
370
     0
100
AcDbVertex
100
AcDb2dVertex
 10
107.6158257109433
 20
-151.6923773492297
 30
0.0
  0
VERTEX
  5
C4
330
C1
100
AcDbEntity
  8
_U+30EC_U+30A4_U+30E4_U+30FC 1
370
     0
100
AcDbVertex
100
AcDb2dVertex
 10
107.6158257109433
 20
-151.4233153918317
 30
0.0
  0
VERTEX
  5
C5
330
C1
100
AcDbEntity
  8
_U+30EC_U+30A4_U+30E4_U+30FC 1
370
     0
100
AcDbVertex
100
AcDb2dVertex
 10
107.867662190915
 20
-151.4233153918317
 30
0.0
  0
VERTEX
  5
C6
330
C1
100
AcDbEntity
  8
_U+30EC_U+30A4_U+30E4_U+30FC 1
370
     0
100
AcDbVertex
100
AcDb2dVertex
 10
107.867662190915
 20
-151.6923773492297
 30
0.0
  0
SEQEND
  5
C7
330
C1
100
AcDbEntity
  8
_U+30EC_U+30A4_U+30E4_U+30FC 1
370
     0
  0
HATCH
  5
C8
330
BA
100
AcDbEntity
  8
_U+30EC_U+30A4_U+30E4_U+30FC 1
 62
   179
420
  2234388
100
AcDbHatch
 10
0.0
 20
0.0
 30
0.0
210
0.0
220
0.0
230
1.0
  2
SOLID
 70
     1
 71
     0
 91
        1
 92
        1
 93
        4
 72
     1
 10
107.867662190915
 20
-151.6923773492297
 11
107.6158257109433
 21
-151.6923773492297
 72
     1
 10
107.6158257109433
 20
-151.6923773492297
 11
107.6158257109433
 21
-151.4233153918317
 72
     1
 10
107.6158257109433
 20
-151.4233153918317
 11
107.867662190915
 21
-151.4233153918317
 72
     1
 10
107.867662190915
 20
-151.4233153918317
 11
107.867662190915
 21
-151.6923773492297
 97
        0
 75
     2
 76
     1
 98
        0
  0
SPLINE
  5
C9
330
BA
100
AcDbEntity
  8
_U+30EC_U+30A4_U+30E4_U+30FC 1
370
     0
100
AcDbSpline
210
0.0
220
0.0
230
1.0
 70
    11
 71
     3
 72
    53
 73
    49
 74
     0
 42
0.0000000001
 43
0.0000000001
 12
1.0
 22
0.0
 32
0.0
 13
1.0
 23
0.0
 33
0.0
 40
0.0
 40
0.0
 40
0.0
 40
0.0
 40
1.0
 40
1.0
 40
1.0
 40
2.0
 40
2.0
 40
2.0
 40
3.0
 40
3.0
 40
3.0
 40
4.0
 40
4.0
 40
4.0
 40
5.0
 40
5.0
 40
5.0
 40
6.0
 40
6.0
 40
6.0
 40
7.0
 40
7.0
 40
7.0
 40
8.0
 40
8.0
 40
8.0
 40
9.0
 40
9.0
 40
9.0
 40
10.0
 40
10.0
 40
10.0
 40
11.0
 40
11.0
 40
11.0
 40
12.0
 40
12.0
 40
12.0
 40
13.0
 40
13.0
 40
13.0
 40
14.0
 40
14.0
 40
14.0
 40
15.0
 40
15.0
 40
15.0
 40
16.0
 40
16.0
 40
16.0
 40
16.0
 10
107.9183050945482
 20
-150.6564371368151
 30
0.0
 10
107.9183050945482
 20
-150.7401529571066
 30
0.0
 10
107.9014241266705
 20
-150.8483289553435
 30
0.0
 10
107.8380343697419
 20
-150.9571939726774
 30
0.0
 10
107.7281358237624
 20
-151.1425401097838
 30
0.0
 10
107.5968776857744
 20
-151.164933230438
 30
0.0
 10
107.4890461970861
 20
-151.1852592938009
 30
0.0
 10
107.4890461970861
 20
-151.1852592938009
 30
0.0
 10
107.4890461970861
 20
-150.9478922148672
 30
0.0
 10
107.4890461970861
 20
-150.9478922148672
 30
0.0
 10
107.687828206585
 20
-150.889325591618
 30
0.0
 10
107.7174560277581
 20
-150.7535888294991
 30
0.0
 10
107.7174560277581
 20
-150.6540255699754
 30
0.0
 10
107.7174560277581
 20
-150.5048529354641
 30
0.0
 10
107.6178927682344
 20
-150.3418999190118
 30
0.0
 10
107.3853488229801
 20
-150.3418999190118
 30
0.0
 10
107.129378228426
 20
-150.3418999190118
 30
0.0
 10
107.0594427900754
 20
-150.5341362470887
 30
0.0
 10
107.0594427900754
 20
-150.662982818237
 30
0.0
 10
107.0594427900754
 20
-150.697089263541
 30
0.0
 10
107.0594427900754
 20
-150.8483289553435
 30
0.0
 10
107.1886338707723
 20
-150.9434135907364
 30
0.0
 10
107.1886338707723
 20
-150.9434135907364
 30
0.0
 10
107.1696858456034
 20
-151.1311712946825
 30
0.0
 10
107.1696858456034
 20
-151.1311712946825
 30
0.0
 10
107.1696858456034
 20
-151.1311712946825
 30
0.0
 10
106.3232258848775
 20
-151.0023247235341
 30
0.0
 10
106.3232258848775
 20
-151.0023247235341
 30
0.0
 10
106.3232258848775
 20
-151.0023247235341
 30
0.0
 10
106.3232258848775
 20
-150.1703341638463
 30
0.0
 10
106.3232258848775
 20
-150.1703341638463
 30
0.0
 10
106.3232258848775
 20
-150.1703341638463
 30
0.0
 10
106.5178737797941
 20
-150.1703341638463
 30
0.0
 10
106.5178737797941
 20
-150.1703341638463
 30
0.0
 10
106.5178737797941
 20
-150.1703341638463
 30
0.0
 10
106.5178737797941
 20
-150.8280028919805
 30
0.0
 10
106.5178737797941
 20
-150.8280028919805
 30
0.0
 10
106.5178737797941
 20
-150.8280028919805
 30
0.0
 10
106.9409315053828
 20
-150.8982828398796
 30
0.0
 10
106.9409315053828
 20
-150.8982828398796
 30
0.0
 10
106.9071695696274
 20
-150.8328260256599
 30
0.0
 10
106.86686195245
 20
-150.7446315812375
 30
0.0
 10
106.86686195245
 20
-150.6178520673803
 30
0.0
 10
106.86686195245
 20
-150.3467230526911
 30
0.0
 10
107.053241618202
 20
-150.0935085345252
 30
0.0
 10
107.3664007978112
 20
-150.0935085345252
 30
0.0
 10
107.6836940920027
 20
-150.0935085345252
 30
0.0
 10
107.9183050945482
 20
-150.3329426707501
 30
0.0
 10
107.9183050945482
 20
-150.6564371368151
 30
0.0
  0
HATCH
  5
CA
330
BA
100
AcDbEntity
  8
_U+30EC_U+30A4_U+30E4_U+30FC 1
 62
   179
420
  2234388
100
AcDbHatch
 10
0.0
 20
0.0
 30
0.0
210
0.0
220
0.0
230
1.0
  2
SOLID
 70
     1
 71
     0
 91
        1
 92
        1
 93
        1
 72
     4
 94
        3
 73
     0
 74
     1
 95
       53
 96
       49
 40
0.0
 40
0.0
 40
0.0
 40
0.0
 40
1.0
 40
1.0
 40
1.0
 40
2.0
 40
2.0
 40
2.0
 40
3.0
 40
3.0
 40
3.0
 40
4.0
 40
4.0
 40
4.0
 40
5.0
 40
5.0
 40
5.0
 40
6.0
 40
6.0
 40
6.0
 40
7.0
 40
7.0
 40
7.0
 40
8.0
 40
8.0
 40
8.0
 40
9.0
 40
9.0
 40
9.0
 40
10.0
 40
10.0
 40
10.0
 40
11.0
 40
11.0
 40
11.0
 40
12.0
 40
12.0
 40
12.0
 40
13.0
 40
13.0
 40
13.0
 40
14.0
 40
14.0
 40
14.0
 40
15.0
 40
15.0
 40
15.0
 40
16.0
 40
16.0
 40
16.0
 40
16.0
 10
107.9183050945482
 20
-150.6564371368151
 10
107.9183050945482
 20
-150.7401529571066
 10
107.9014241266705
 20
-150.8483289553435
 10
107.8380343697419
 20
-150.9571939726774
 10
107.7281358237624
 20
-151.1425401097838
 10
107.5968776857744
 20
-151.164933230438
 10
107.4890461970861
 20
-151.1852592938009
 10
107.4890461970861
 20
-151.1852592938009
 10
107.4890461970861
 20
-150.9478922148672
 10
107.4890461970861
 20
-150.9478922148672
 10
107.687828206585
 20
-150.889325591618
 10
107.7174560277581
 20
-150.7535888294991
 10
107.7174560277581
 20
-150.6540255699754
 10
107.7174560277581
 20
-150.5048529354641
 10
107.6178927682344
 20
-150.3418999190118
 10
107.3853488229801
 20
-150.3418999190118
 10
107.129378228426
 20
-150.3418999190118
 10
107.0594427900754
 20
-150.5341362470887
 10
107.0594427900754
 20
-150.662982818237
 10
107.0594427900754
 20
-150.697089263541
 10
107.0594427900754
 20
-150.8483289553435
 10
107.1886338707723
 20
-150.9434135907364
 10
107.1886338707723
 20
-150.9434135907364
 10
107.1696858456034
 20
-151.1311712946825
 10
107.1696858456034
 20
-151.1311712946825
 10
107.1696858456034
 20
-151.1311712946825
 10
106.3232258848775
 20
-151.0023247235341
 10
106.3232258848775
 20
-151.0023247235341
 10
106.3232258848775
 20
-151.0023247235341
 10
106.3232258848775
 20
-150.1703341638463
 10
106.3232258848775
 20
-150.1703341638463
 10
106.3232258848775
 20
-150.1703341638463
 10
106.5178737797941
 20
-150.1703341638463
 10
106.5178737797941
 20
-150.1703341638463
 10
106.5178737797941
 20
-150.1703341638463
 10
106.5178737797941
 20
-150.8280028919805
 10
106.5178737797941
 20
-150.8280028919805
 10
106.5178737797941
 20
-150.8280028919805
 10
106.9409315053828
 20
-150.8982828398796
 10
106.9409315053828
 20
-150.8982828398796
 10
106.9071695696274
 20
-150.8328260256599
 10
106.86686195245
 20
-150.7446315812375
 10
106.86686195245
 20
-150.6178520673803
 10
106.86686195245
 20
-150.3467230526911
 10
107.053241618202
 20
-150.0935085345252
 10
107.3664007978112
 20
-150.0935085345252
 10
107.6836940920027
 20
-150.0935085345252
 10
107.9183050945482
 20
-150.3329426707501
 10
107.9183050945482
 20
-150.6564371368151
 97
        0
 97
        0
 75
     2
 76
     1
 98
        0
  0
ENDBLK
  5
BD
330
BA
100
AcDbEntity
  8
0
100
AcDbBlockEnd
  0
BLOCK
  5
D9
330
D7
100
AcDbEntity
  8
0
100
AcDbBlockBegin
  2
block 5
 70
     0
 10
0.0
 20
0.0
 30
0.0
  3
block 5
  1

  0
SPLINE
  5
DB
330
D7
100
AcDbEntity
  8
_U+30EC_U+30A4_U+30E4_U+30FC 1
370
     0
100
AcDbSpline
210
0.0
220
0.0
230
1.0
 70
    11
 71
     3
 72
    26
 73
    22
 74
     0
 42
0.0000000001
 43
0.0000000001
 12
1.0
 22
0.0
 32
0.0
 13
1.0
 23
0.0
 33
0.0
 40
0.0
 40
0.0
 40
0.0
 40
0.0
 40
1.0
 40
1.0
 40
1.0
 40
2.0
 40
2.0
 40
2.0
 40
3.0
 40
3.0
 40
3.0
 40
4.0
 40
4.0
 40
4.0
 40
5.0
 40
5.0
 40
5.0
 40
6.0
 40
6.0
 40
6.0
 40
7.0
 40
7.0
 40
7.0
 40
7.0
 10
99.49349634014399
 20
-158.6032388926409
 30
0.0
 10
99.49349634014399
 20
-158.6032388926409
 30
0.0
 10
99.49349634014399
 20
-157.4990857896183
 30
0.0
 10
99.49349634014399
 20
-157.4990857896183
 30
0.0
 10
99.49349634014399
 20
-157.4990857896183
 30
0.0
 10
99.14106307200294
 20
-157.4990857896183
 30
0.0
 10
99.14106307200294
 20
-157.4990857896183
 30
0.0
 10
99.14106307200294
 20
-157.4990857896183
 30
0.0
 10
99.14106307200294
 20
-157.3509466837525
 30
0.0
 10
99.14106307200294
 20
-157.3509466837525
 30
0.0
 10
99.49590790698366
 20
-157.336132773166
 30
0.0
 10
99.54551728197126
 20
-157.1731797567137
 30
0.0
 10
99.57721216043556
 20
-157.0588025866033
 30
0.0
 10
99.57721216043556
 20
-157.0588025866033
 30
0.0
 10
99.73327498591738
 20
-157.0588025866033
 30
0.0
 10
99.73327498591738
 20
-157.0588025866033
 30
0.0
 10
99.73327498591738
 20
-157.0588025866033
 30
0.0
 10
99.73327498591738
 20
-158.6032388926409
 30
0.0
 10
99.73327498591738
 20
-158.6032388926409
 30
0.0
 10
99.73327498591738
 20
-158.6032388926409
 30
0.0
 10
99.49349634014399
 20
-158.6032388926409
 30
0.0
 10
99.49349634014399
 20
-158.6032388926409
 30
0.0
  0
HATCH
  5
DC
330
D7
100
AcDbEntity
  8
_U+30EC_U+30A4_U+30E4_U+30FC 1
 62
   179
420
  2234388
100
AcDbHatch
 10
0.0
 20
0.0
 30
0.0
210
0.0
220
0.0
230
1.0
  2
SOLID
 70
     1
 71
     0
 91
        1
 92
        1
 93
        1
 72
     4
 94
        3
 73
     0
 74
     1
 95
       26
 96
       22
 40
0.0
 40
0.0
 40
0.0
 40
0.0
 40
1.0
 40
1.0
 40
1.0
 40
2.0
 40
2.0
 40
2.0
 40
3.0
 40
3.0
 40
3.0
 40
4.0
 40
4.0
 40
4.0
 40
5.0
 40
5.0
 40
5.0
 40
6.0
 40
6.0
 40
6.0
 40
7.0
 40
7.0
 40
7.0
 40
7.0
 10
99.49349634014399
 20
-158.6032388926409
 10
99.49349634014399
 20
-158.6032388926409
 10
99.49349634014399
 20
-157.4990857896183
 10
99.49349634014399
 20
-157.4990857896183
 10
99.49349634014399
 20
-157.4990857896183
 10
99.14106307200294
 20
-157.4990857896183
 10
99.14106307200294
 20
-157.4990857896183
 10
99.14106307200294
 20
-157.4990857896183
 10
99.14106307200294
 20
-157.3509466837525
 10
99.14106307200294
 20
-157.3509466837525
 10
99.49590790698366
 20
-157.336132773166
 10
99.54551728197126
 20
-157.1731797567137
 10
99.57721216043556
 20
-157.0588025866033
 10
99.57721216043556
 20
-157.0588025866033
 10
99.73327498591738
 20
-157.0588025866033
 10
99.73327498591738
 20
-157.0588025866033
 10
99.73327498591738
 20
-157.0588025866033
 10
99.73327498591738
 20
-158.6032388926409
 10
99.73327498591738
 20
-158.6032388926409
 10
99.73327498591738
 20
-158.6032388926409
 10
99.49349634014399
 20
-158.6032388926409
 10
99.49349634014399
 20
-158.6032388926409
 97
        0
 97
        0
 75
     2
 76
     1
 98
        0
  0
SPLINE
  5
DD
330
D7
100
AcDbEntity
  8
_U+30EC_U+30A4_U+30E4_U+30FC 1
370
     0
100
AcDbSpline
210
0.0
220
0.0
230
1.0
 70
    11
 71
     3
 72
    29
 73
    25
 74
     0
 42
0.0000000001
 43
0.0000000001
 12
1.0
 22
0.0
 32
0.0
 13
1.0
 23
0.0
 33
0.0
 40
0.0
 40
0.0
 40
0.0
 40
0.0
 40
1.0
 40
1.0
 40
1.0
 40
2.0
 40
2.0
 40
2.0
 40
3.0
 40
3.0
 40
3.0
 40
4.0
 40
4.0
 40
4.0
 40
5.0
 40
5.0
 40
5.0
 40
6.0
 40
6.0
 40
6.0
 40
7.0
 40
7.0
 40
7.0
 40
8.0
 40
8.0
 40
8.0
 40
8.0
 10
101.2284464265158
 20
-158.425471965602
 30
0.0
 10
101.1130357277599
 20
-158.6349337711052
 30
0.0
 10
100.9276895906535
 20
-158.653881796274
 30
0.0
 10
100.803321643636
 20
-158.653881796274
 30
0.0
 10
100.6317558884705
 20
-158.653881796274
 30
0.0
 10
100.4801716871196
 20
-158.6073730072232
 30
0.0
 10
100.3785413703047
 20
-158.425471965602
 30
0.0
 10
100.2676092956796
 20
-158.2308240706853
 30
0.0
 10
100.2472832323167
 20
-157.9941460108487
 30
0.0
 10
100.2472832323167
 20
-157.8311929943964
 30
0.0
 10
100.2472832323167
 20
-157.6871880031129
 30
0.0
 10
100.2655422383885
 20
-157.4353515231412
 30
0.0
 10
100.3785413703047
 20
-157.2365695136423
 30
0.0
 10
100.493607559512
 20
-157.033653389561
 30
0.0
 10
100.665517824226
 20
-157.0102267402613
 30
0.0
 10
100.803321643636
 20
-157.0102267402613
 30
0.0
 10
100.9731648510588
 20
-157.0102267402613
 30
0.0
 10
101.1268161097009
 20
-157.0546684720211
 30
0.0
 10
101.2284464265158
 20
-157.2365695136423
 30
0.0
 10
101.33489987701
 20
-157.4291503512677
 30
0.0
 10
101.3597045645038
 20
-157.6575601819398
 30
0.0
 10
101.3597045645038
 20
-157.8311929943964
 30
0.0
 10
101.3597045645038
 20
-158.0024142400133
 30
0.0
 10
101.3369669343012
 20
-158.2328911279765
 30
0.0
 10
101.2284464265158
 20
-158.425471965602
 30
0.0
  0
SPLINE
  5
DE
330
D7
100
AcDbEntity
  8
_U+30EC_U+30A4_U+30E4_U+30FC 1
370
     0
100
AcDbSpline
210
0.0
220
0.0
230
1.0
 70
    11
 71
     3
 72
    17
 73
    13
 74
     0
 42
0.0000000001
 43
0.0000000001
 12
1.0
 22
0.0
 32
0.0
 13
1.0
 23
0.0
 33
0.0
 40
0.0
 40
0.0
 40
0.0
 40
0.0
 40
1.0
 40
1.0
 40
1.0
 40
2.0
 40
2.0
 40
2.0
 40
3.0
 40
3.0
 40
3.0
 40
4.0
 40
4.0
 40
4.0
 40
4.0
 10
100.803321643636
 20
-157.2028075778868
 30
0.0
 10
100.5366712530776
 20
-157.2028075778868
 30
0.0
 10
100.48706187809
 20
-157.4863389363229
 30
0.0
 10
100.48706187809
 20
-157.8311929943964
 30
0.0
 10
100.48706187809
 20
-158.150553345879
 30
0.0
 10
100.5253024379763
 20
-158.4592339013574
 30
0.0
 10
100.803321643636
 20
-158.4592339013574
 30
0.0
 10
101.0679049769032
 20
-158.4592339013574
 30
0.0
 10
101.1199259187304
 20
-158.178114109761
 30
0.0
 10
101.1199259187304
 20
-157.8311929943964
 30
0.0
 10
101.1199259187304
 20
-157.5114881333652
 30
0.0
 10
101.0792737920045
 20
-157.2028075778868
 30
0.0
 10
100.803321643636
 20
-157.2028075778868
 30
0.0
  0
HATCH
  5
DF
330
D7
100
AcDbEntity
  8
_U+30EC_U+30A4_U+30E4_U+30FC 1
 62
   179
420
  2234388
100
AcDbHatch
 10
0.0
 20
0.0
 30
0.0
210
0.0
220
0.0
230
1.0
  2
SOLID
 70
     1
 71
     0
 91
        2
 92
        1
 93
        1
 72
     4
 94
        3
 73
     0
 74
     1
 95
       29
 96
       25
 40
0.0
 40
0.0
 40
0.0
 40
0.0
 40
1.0
 40
1.0
 40
1.0
 40
2.0
 40
2.0
 40
2.0
 40
3.0
 40
3.0
 40
3.0
 40
4.0
 40
4.0
 40
4.0
 40
5.0
 40
5.0
 40
5.0
 40
6.0
 40
6.0
 40
6.0
 40
7.0
 40
7.0
 40
7.0
 40
8.0
 40
8.0
 40
8.0
 40
8.0
 10
101.2284464265158
 20
-158.425471965602
 10
101.1130357277599
 20
-158.6349337711052
 10
100.9276895906535
 20
-158.653881796274
 10
100.803321643636
 20
-158.653881796274
 10
100.6317558884705
 20
-158.653881796274
 10
100.4801716871196
 20
-158.6073730072232
 10
100.3785413703047
 20
-158.425471965602
 10
100.2676092956796
 20
-158.2308240706853
 10
100.2472832323167
 20
-157.9941460108487
 10
100.2472832323167
 20
-157.8311929943964
 10
100.2472832323167
 20
-157.6871880031129
 10
100.2655422383885
 20
-157.4353515231412
 10
100.3785413703047
 20
-157.2365695136423
 10
100.493607559512
 20
-157.033653389561
 10
100.665517824226
 20
-157.0102267402613
 10
100.803321643636
 20
-157.0102267402613
 10
100.9731648510588
 20
-157.0102267402613
 10
101.1268161097009
 20
-157.0546684720211
 10
101.2284464265158
 20
-157.2365695136423
 10
101.33489987701
 20
-157.4291503512677
 10
101.3597045645038
 20
-157.6575601819398
 10
101.3597045645038
 20
-157.8311929943964
 10
101.3597045645038
 20
-158.0024142400133
 10
101.3369669343012
 20
-158.2328911279765
 10
101.2284464265158
 20
-158.425471965602
 97
        0
 97
        0
 92
        1
 93
        1
 72
     4
 94
        3
 73
     0
 74
     1
 95
       17
 96
       13
 40
0.0
 40
0.0
 40
0.0
 40
0.0
 40
1.0
 40
1.0
 40
1.0
 40
2.0
 40
2.0
 40
2.0
 40
3.0
 40
3.0
 40
3.0
 40
4.0
 40
4.0
 40
4.0
 40
4.0
 10
100.803321643636
 20
-157.2028075778868
 10
100.5366712530776
 20
-157.2028075778868
 10
100.48706187809
 20
-157.4863389363229
 10
100.48706187809
 20
-157.8311929943964
 10
100.48706187809
 20
-158.150553345879
 10
100.5253024379763
 20
-158.4592339013574
 10
100.803321643636
 20
-158.4592339013574
 10
101.0679049769032
 20
-158.4592339013574
 10
101.1199259187304
 20
-158.178114109761
 10
101.1199259187304
 20
-157.8311929943964
 10
101.1199259187304
 20
-157.5114881333652
 10
101.0792737920045
 20
-157.2028075778868
 10
100.803321643636
 20
-157.2028075778868
 97
        0
 97
        0
 75
     2
 76
     1
 98
        0
  0
ENDBLK
  5
DA
330
D7
100
AcDbEntity
  8
0
100
AcDbBlockEnd
  0
BLOCK
  5
EE
330
EC
100
AcDbEntity
  8
0
100
AcDbBlockBegin
  2
block 6
 70
     0
 10
0.0
 20
0.0
 30
0.0
  3
block 6
  1

  0
SPLINE
  5
F0
330
EC
100
AcDbEntity
  8
_U+30EC_U+30A4_U+30E4_U+30FC 1
370
     0
100
AcDbSpline
210
0.0
220
0.0
230
1.0
 70
    11
 71
     3
 72
    62
 73
    58
 74
     0
 42
0.0000000001
 43
0.0000000001
 12
1.0
 22
0.0
 32
0.0
 13
1.0
 23
0.0
 33
0.0
 40
0.0
 40
0.0
 40
0.0
 40
0.0
 40
1.0
 40
1.0
 40
1.0
 40
2.0
 40
2.0
 40
2.0
 40
3.0
 40
3.0
 40
3.0
 40
4.0
 40
4.0
 40
4.0
 40
5.0
 40
5.0
 40
5.0
 40
6.0
 40
6.0
 40
6.0
 40
7.0
 40
7.0
 40
7.0
 40
8.0
 40
8.0
 40
8.0
 40
9.0
 40
9.0
 40
9.0
 40
10.0
 40
10.0
 40
10.0
 40
11.0
 40
11.0
 40
11.0
 40
12.0
 40
12.0
 40
12.0
 40
13.0
 40
13.0
 40
13.0
 40
14.0
 40
14.0
 40
14.0
 40
15.0
 40
15.0
 40
15.0
 40
16.0
 40
16.0
 40
16.0
 40
17.0
 40
17.0
 40
17.0
 40
18.0
 40
18.0
 40
18.0
 40
19.0
 40
19.0
 40
19.0
 40
19.0
 10
102.0366658273554
 20
-138.4535644185116
 30
0.0
 10
101.9350355105406
 20
-138.4535644185116
 30
0.0
 10
101.7021470557377
 20
-138.4325493360516
 30
0.0
 10
101.5688218604585
 20
-138.2463419250738
 30
0.0
 10
101.4895846642978
 20
-138.1342040670289
 30
0.0
 10
101.4851060401669
 20
-138.0348130622795
 30
0.0
 10
101.4806274160361
 20
-137.9502359681166
 30
0.0
 10
101.4806274160361
 20
-137.9502359681166
 30
0.0
 10
101.7155829281301
 20
-137.9502359681166
 30
0.0
 10
101.7155829281301
 20
-137.9502359681166
 30
0.0
 10
101.7179944949698
 20
-138.0243055210495
 30
0.0
 10
101.7293633100711
 20
-138.2590887783693
 30
0.0
 10
102.0321872032246
 20
-138.2590887783693
 30
0.0
 10
102.1792927804448
 20
-138.2590887783693
 30
0.0
 10
102.3419012873486
 20
-138.189325594793
 30
0.0
 10
102.3419012873486
 20
-137.9607435093466
 30
0.0
 10
102.3419012873486
 20
-137.8444715367195
 30
0.0
 10
102.3012491606226
 20
-137.7957234356032
 30
0.0
 10
102.2671427153186
 20
-137.7640285571389
 30
0.0
 10
102.1882500287064
 20
-137.689959004206
 30
0.0
 10
102.0638820816889
 20
-137.6773844056848
 30
0.0
 10
102.0049709488911
 20
-137.6773844056848
 30
0.0
 10
101.9846448855282
 20
-137.6773844056848
 30
0.0
 10
101.9464043256419
 20
-137.679451462976
 30
0.0
 10
101.9167765044687
 20
-137.6835855775583
 30
0.0
 10
101.9167765044687
 20
-137.6835855775583
 30
0.0
 10
101.9167765044687
 20
-137.4889376826416
 30
0.0
 10
101.9167765044687
 20
-137.4889376826416
 30
0.0
 10
101.9574286311947
 20
-137.4953111092894
 30
0.0
 10
102.0029038916
 20
-137.4975504213548
 30
0.0
 10
102.009449573022
 20
-137.4975504213548
 30
0.0
 10
102.079729520921
 20
-137.4975504213548
 30
0.0
 10
102.292291912361
 20
-137.4763630841205
 30
0.0
 10
102.292291912361
 20
-137.2393405147353
 30
0.0
 10
102.292291912361
 20
-137.0617458424707
 30
0.0
 10
102.1520765261113
 20
-137.0066243147067
 30
0.0
 10
102.0345987700643
 20
-137.0066243147067
 30
0.0
 10
101.7517564307253
 20
-137.0066243147067
 30
0.0
 10
101.7427991824636
 20
-137.2393405147353
 30
0.0
 10
101.7383205583328
 20
-137.311343010377
 30
0.0
 10
101.7383205583328
 20
-137.311343010377
 30
0.0
 10
101.521279542762
 20
-137.311343010377
 30
0.0
 10
101.521279542762
 20
-137.311343010377
 30
0.0
 10
101.5302367910237
 20
-137.1864582990367
 30
0.0
 10
101.5595201026483
 20
-136.8099093624989
 30
0.0
 10
102.0480346424567
 20
-136.8099093624989
 30
0.0
 10
102.2878132882301
 20
-136.8099093624989
 30
0.0
 10
102.5455064305268
 20
-136.9368611311304
 30
0.0
 10
102.5455064305268
 20
-137.2329670880876
 30
0.0
 10
102.5455064305268
 20
-137.4191744990653
 30
0.0
 10
102.4435316041634
 20
-137.5016845359371
 30
0.0
 10
102.3374226632177
 20
-137.5630072355745
 30
0.0
 10
102.4028794774375
 20
-137.5905679994565
 30
0.0
 10
102.5975273723541
 20
-137.6710109790371
 30
0.0
 10
102.5975273723541
 20
-137.9481689108255
 30
0.0
 10
102.5975273723541
 20
-138.2866495422513
 30
0.0
 10
102.3329440390869
 20
-138.4535644185116
 30
0.0
 10
102.0366658273554
 20
-138.4535644185116
 30
0.0
  0
HATCH
  5
F1
330
EC
100
AcDbEntity
  8
_U+30EC_U+30A4_U+30E4_U+30FC 1
 62
   179
420
  2234388
100
AcDbHatch
 10
0.0
 20
0.0
 30
0.0
210
0.0
220
0.0
230
1.0
  2
SOLID
 70
     1
 71
     0
 91
        1
 92
        1
 93
        1
 72
     4
 94
        3
 73
     0
 74
     1
 95
       62
 96
       58
 40
0.0
 40
0.0
 40
0.0
 40
0.0
 40
1.0
 40
1.0
 40
1.0
 40
2.0
 40
2.0
 40
2.0
 40
3.0
 40
3.0
 40
3.0
 40
4.0
 40
4.0
 40
4.0
 40
5.0
 40
5.0
 40
5.0
 40
6.0
 40
6.0
 40
6.0
 40
7.0
 40
7.0
 40
7.0
 40
8.0
 40
8.0
 40
8.0
 40
9.0
 40
9.0
 40
9.0
 40
10.0
 40
10.0
 40
10.0
 40
11.0
 40
11.0
 40
11.0
 40
12.0
 40
12.0
 40
12.0
 40
13.0
 40
13.0
 40
13.0
 40
14.0
 40
14.0
 40
14.0
 40
15.0
 40
15.0
 40
15.0
 40
16.0
 40
16.0
 40
16.0
 40
17.0
 40
17.0
 40
17.0
 40
18.0
 40
18.0
 40
18.0
 40
19.0
 40
19.0
 40
19.0
 40
19.0
 10
102.0366658273554
 20
-138.4535644185116
 10
101.9350355105406
 20
-138.4535644185116
 10
101.7021470557377
 20
-138.4325493360516
 10
101.5688218604585
 20
-138.2463419250738
 10
101.4895846642978
 20
-138.1342040670289
 10
101.4851060401669
 20
-138.0348130622795
 10
101.4806274160361
 20
-137.9502359681166
 10
101.4806274160361
 20
-137.9502359681166
 10
101.7155829281301
 20
-137.9502359681166
 10
101.7155829281301
 20
-137.9502359681166
 10
101.7179944949698
 20
-138.0243055210495
 10
101.7293633100711
 20
-138.2590887783693
 10
102.0321872032246
 20
-138.2590887783693
 10
102.1792927804448
 20
-138.2590887783693
 10
102.3419012873486
 20
-138.189325594793
 10
102.3419012873486
 20
-137.9607435093466
 10
102.3419012873486
 20
-137.8444715367195
 10
102.3012491606226
 20
-137.7957234356032
 10
102.2671427153186
 20
-137.7640285571389
 10
102.1882500287064
 20
-137.689959004206
 10
102.0638820816889
 20
-137.6773844056848
 10
102.0049709488911
 20
-137.6773844056848
 10
101.9846448855282
 20
-137.6773844056848
 10
101.9464043256419
 20
-137.679451462976
 10
101.9167765044687
 20
-137.6835855775583
 10
101.9167765044687
 20
-137.6835855775583
 10
101.9167765044687
 20
-137.4889376826416
 10
101.9167765044687
 20
-137.4889376826416
 10
101.9574286311947
 20
-137.4953111092894
 10
102.0029038916
 20
-137.4975504213548
 10
102.009449573022
 20
-137.4975504213548
 10
102.079729520921
 20
-137.4975504213548
 10
102.292291912361
 20
-137.4763630841205
 10
102.292291912361
 20
-137.2393405147353
 10
102.292291912361
 20
-137.0617458424707
 10
102.1520765261113
 20
-137.0066243147067
 10
102.0345987700643
 20
-137.0066243147067
 10
101.7517564307253
 20
-137.0066243147067
 10
101.7427991824636
 20
-137.2393405147353
 10
101.7383205583328
 20
-137.311343010377
 10
101.7383205583328
 20
-137.311343010377
 10
101.521279542762
 20
-137.311343010377
 10
101.521279542762
 20
-137.311343010377
 10
101.5302367910237
 20
-137.1864582990367
 10
101.5595201026483
 20
-136.8099093624989
 10
102.0480346424567
 20
-136.8099093624989
 10
102.2878132882301
 20
-136.8099093624989
 10
102.5455064305268
 20
-136.9368611311304
 10
102.5455064305268
 20
-137.2329670880876
 10
102.5455064305268
 20
-137.4191744990653
 10
102.4435316041634
 20
-137.5016845359371
 10
102.3374226632177
 20
-137.5630072355745
 10
102.4028794774375
 20
-137.5905679994565
 10
102.5975273723541
 20
-137.6710109790371
 10
102.5975273723541
 20
-137.9481689108255
 10
102.5975273723541
 20
-138.2866495422513
 10
102.3329440390869
 20
-138.4535644185116
 10
102.0366658273554
 20
-138.4535644185116
 97
        0
 97
        0
 75
     2
 76
     1
 98
        0
  0
SPLINE
  5
F2
330
EC
100
AcDbEntity
  8
_U+30EC_U+30A4_U+30E4_U+30FC 1
370
     0
100
AcDbSpline
210
0.0
220
0.0
230
1.0
 70
    11
 71
     3
 72
    53
 73
    49
 74
     0
 42
0.0000000001
 43
0.0000000001
 12
1.0
 22
0.0
 32
0.0
 13
1.0
 23
0.0
 33
0.0
 40
0.0
 40
0.0
 40
0.0
 40
0.0
 40
1.0
 40
1.0
 40
1.0
 40
2.0
 40
2.0
 40
2.0
 40
3.0
 40
3.0
 40
3.0
 40
4.0
 40
4.0
 40
4.0
 40
5.0
 40
5.0
 40
5.0
 40
6.0
 40
6.0
 40
6.0
 40
7.0
 40
7.0
 40
7.0
 40
8.0
 40
8.0
 40
8.0
 40
9.0
 40
9.0
 40
9.0
 40
10.0
 40
10.0
 40
10.0
 40
11.0
 40
11.0
 40
11.0
 40
12.0
 40
12.0
 40
12.0
 40
13.0
 40
13.0
 40
13.0
 40
14.0
 40
14.0
 40
14.0
 40
15.0
 40
15.0
 40
15.0
 40
16.0
 40
16.0
 40
16.0
 40
16.0
 10
103.2831013739188
 20
-138.4535644185116
 30
0.0
 10
103.1993855536272
 20
-138.4535644185116
 30
0.0
 10
103.0912095553904
 20
-138.4366834506339
 30
0.0
 10
102.9823445380565
 20
-138.3732936937053
 30
0.0
 10
102.7969984009501
 20
-138.2632228929516
 30
0.0
 10
102.7746052802959
 20
-138.1321370097378
 30
0.0
 10
102.754279216933
 20
-138.0243055210495
 30
0.0
 10
102.754279216933
 20
-138.0243055210495
 30
0.0
 10
102.9916462958667
 20
-138.0243055210495
 30
0.0
 10
102.9916462958667
 20
-138.0243055210495
 30
0.0
 10
103.0502129191159
 20
-138.2230875305484
 30
0.0
 10
103.1859496812348
 20
-138.2527153517215
 30
0.0
 10
103.2855129407585
 20
-138.2527153517215
 30
0.0
 10
103.4346855752698
 20
-138.2527153517215
 30
0.0
 10
103.5976385917221
 20
-138.1533243469721
 30
0.0
 10
103.5976385917221
 20
-137.9206081469435
 30
0.0
 10
103.5976385917221
 20
-137.6646375523894
 30
0.0
 10
103.4054022636452
 20
-137.5948743688131
 30
0.0
 10
103.2765556924968
 20
-137.5948743688131
 30
0.0
 10
103.2424492471929
 20
-137.5948743688131
 30
0.0
 10
103.0912095553904
 20
-137.5948743688131
 30
0.0
 10
102.9961249199975
 20
-137.7238931947357
 30
0.0
 10
102.9961249199975
 20
-137.7238931947357
 30
0.0
 10
102.8083672160514
 20
-137.7047729147926
 30
0.0
 10
102.8083672160514
 20
-137.7047729147926
 30
0.0
 10
102.8083672160514
 20
-137.7047729147926
 30
0.0
 10
102.9372137871997
 20
-136.8586574636152
 30
0.0
 10
102.9372137871997
 20
-136.8586574636152
 30
0.0
 10
102.9372137871997
 20
-136.8586574636152
 30
0.0
 10
103.7692043468876
 20
-136.8586574636152
 30
0.0
 10
103.7692043468876
 20
-136.8586574636152
 30
0.0
 10
103.7692043468876
 20
-136.8586574636152
 30
0.0
 10
103.7692043468876
 20
-137.0533053585318
 30
0.0
 10
103.7692043468876
 20
-137.0533053585318
 30
0.0
 10
103.7692043468876
 20
-137.0533053585318
 30
0.0
 10
103.1115356187534
 20
-137.0533053585318
 30
0.0
 10
103.1115356187534
 20
-137.0533053585318
 30
0.0
 10
103.1115356187534
 20
-137.0533053585318
 30
0.0
 10
103.0412556708543
 20
-137.4763630841205
 30
0.0
 10
103.0412556708543
 20
-137.4763630841205
 30
0.0
 10
103.106712485074
 20
-137.4424288935908
 30
0.0
 10
103.1949069294964
 20
-137.4022935311876
 30
0.0
 10
103.3216864433536
 20
-137.4022935311876
 30
0.0
 10
103.5928154580428
 20
-137.4022935311876
 30
0.0
 10
103.8460299762086
 20
-137.5885009421654
 30
0.0
 10
103.8460299762086
 20
-137.9014878670003
 30
0.0
 10
103.8460299762086
 20
-138.2189534159661
 30
0.0
 10
103.6065958399838
 20
-138.4535644185116
 30
0.0
 10
103.2831013739188
 20
-138.4535644185116
 30
0.0
  0
HATCH
  5
F3
330
EC
100
AcDbEntity
  8
_U+30EC_U+30A4_U+30E4_U+30FC 1
 62
   179
420
  2234388
100
AcDbHatch
 10
0.0
 20
0.0
 30
0.0
210
0.0
220
0.0
230
1.0
  2
SOLID
 70
     1
 71
     0
 91
        1
 92
        1
 93
        1
 72
     4
 94
        3
 73
     0
 74
     1
 95
       53
 96
       49
 40
0.0
 40
0.0
 40
0.0
 40
0.0
 40
1.0
 40
1.0
 40
1.0
 40
2.0
 40
2.0
 40
2.0
 40
3.0
 40
3.0
 40
3.0
 40
4.0
 40
4.0
 40
4.0
 40
5.0
 40
5.0
 40
5.0
 40
6.0
 40
6.0
 40
6.0
 40
7.0
 40
7.0
 40
7.0
 40
8.0
 40
8.0
 40
8.0
 40
9.0
 40
9.0
 40
9.0
 40
10.0
 40
10.0
 40
10.0
 40
11.0
 40
11.0
 40
11.0
 40
12.0
 40
12.0
 40
12.0
 40
13.0
 40
13.0
 40
13.0
 40
14.0
 40
14.0
 40
14.0
 40
15.0
 40
15.0
 40
15.0
 40
16.0
 40
16.0
 40
16.0
 40
16.0
 10
103.2831013739188
 20
-138.4535644185116
 10
103.1993855536272
 20
-138.4535644185116
 10
103.0912095553904
 20
-138.4366834506339
 10
102.9823445380565
 20
-138.3732936937053
 10
102.7969984009501
 20
-138.2632228929516
 10
102.7746052802959
 20
-138.1321370097378
 10
102.754279216933
 20
-138.0243055210495
 10
102.754279216933
 20
-138.0243055210495
 10
102.9916462958667
 20
-138.0243055210495
 10
102.9916462958667
 20
-138.0243055210495
 10
103.0502129191159
 20
-138.2230875305484
 10
103.1859496812348
 20
-138.2527153517215
 10
103.2855129407585
 20
-138.2527153517215
 10
103.4346855752698
 20
-138.2527153517215
 10
103.5976385917221
 20
-138.1533243469721
 10
103.5976385917221
 20
-137.9206081469435
 10
103.5976385917221
 20
-137.6646375523894
 10
103.4054022636452
 20
-137.5948743688131
 10
103.2765556924968
 20
-137.5948743688131
 10
103.2424492471929
 20
-137.5948743688131
 10
103.0912095553904
 20
-137.5948743688131
 10
102.9961249199975
 20
-137.7238931947357
 10
102.9961249199975
 20
-137.7238931947357
 10
102.8083672160514
 20
-137.7047729147926
 10
102.8083672160514
 20
-137.7047729147926
 10
102.8083672160514
 20
-137.7047729147926
 10
102.9372137871997
 20
-136.8586574636152
 10
102.9372137871997
 20
-136.8586574636152
 10
102.9372137871997
 20
-136.8586574636152
 10
103.7692043468876
 20
-136.8586574636152
 10
103.7692043468876
 20
-136.8586574636152
 10
103.7692043468876
 20
-136.8586574636152
 10
103.7692043468876
 20
-137.0533053585318
 10
103.7692043468876
 20
-137.0533053585318
 10
103.7692043468876
 20
-137.0533053585318
 10
103.1115356187534
 20
-137.0533053585318
 10
103.1115356187534
 20
-137.0533053585318
 10
103.1115356187534
 20
-137.0533053585318
 10
103.0412556708543
 20
-137.4763630841205
 10
103.0412556708543
 20
-137.4763630841205
 10
103.106712485074
 20
-137.4424288935908
 10
103.1949069294964
 20
-137.4022935311876
 10
103.3216864433536
 20
-137.4022935311876
 10
103.5928154580428
 20
-137.4022935311876
 10
103.8460299762086
 20
-137.5885009421654
 10
103.8460299762086
 20
-137.9014878670003
 10
103.8460299762086
 20
-138.2189534159661
 10
103.6065958399838
 20
-138.4535644185116
 10
103.2831013739188
 20
-138.4535644185116
 97
        0
 97
        0
 75
     2
 76
     1
 98
        0
  0
ENDBLK
  5
EF
330
EC
100
AcDbEntity
  8
0
100
AcDbBlockEnd
  0
BLOCK
  5
FE
330
FC
100
AcDbEntity
  8
0
100
AcDbBlockBegin
  2
block 7
 70
     0
 10
0.0
 20
0.0
 30
0.0
  3
block 7
  1

  0
SPLINE
  5
100
330
FC
100
AcDbEntity
  8
_U+30EC_U+30A4_U+30E4_U+30FC 1
370
     0
100
AcDbSpline
210
0.0
220
0.0
230
1.0
 70
    11
 71
     3
 72
    26
 73
    22
 74
     0
 42
0.0000000001
 43
0.0000000001
 12
1.0
 22
0.0
 32
0.0
 13
1.0
 23
0.0
 33
0.0
 40
0.0
 40
0.0
 40
0.0
 40
0.0
 40
1.0
 40
1.0
 40
1.0
 40
2.0
 40
2.0
 40
2.0
 40
3.0
 40
3.0
 40
3.0
 40
4.0
 40
4.0
 40
4.0
 40
5.0
 40
5.0
 40
5.0
 40
6.0
 40
6.0
 40
6.0
 40
7.0
 40
7.0
 40
7.0
 40
7.0
 10
89.49376218465781
 20
-158.6032388926409
 30
0.0
 10
89.49376218465781
 20
-158.6032388926409
 30
0.0
 10
89.49376218465781
 20
-157.4990857896183
 30
0.0
 10
89.49376218465781
 20
-157.4990857896183
 30
0.0
 10
89.49376218465781
 20
-157.4990857896183
 30
0.0
 10
89.14098440696823
 20
-157.4990857896183
 30
0.0
 10
89.14098440696823
 20
-157.4990857896183
 30
0.0
 10
89.14098440696823
 20
-157.4990857896183
 30
0.0
 10
89.14098440696823
 20
-157.3509466837525
 30
0.0
 10
89.14098440696823
 20
-157.3509466837525
 30
0.0
 10
89.49600149672322
 20
-157.336132773166
 30
0.0
 10
89.54578312648509
 20
-157.1731797567137
 30
0.0
 10
89.57747800494938
 20
-157.0588025866033
 30
0.0
 10
89.57747800494938
 20
-157.0588025866033
 30
0.0
 10
89.73336857565694
 20
-157.0588025866033
 30
0.0
 10
89.73336857565694
 20
-157.0588025866033
 30
0.0
 10
89.73336857565694
 20
-157.0588025866033
 30
0.0
 10
89.73336857565694
 20
-158.6032388926409
 30
0.0
 10
89.73336857565694
 20
-158.6032388926409
 30
0.0
 10
89.73336857565694
 20
-158.6032388926409
 30
0.0
 10
89.49376218465781
 20
-158.6032388926409
 30
0.0
 10
89.49376218465781
 20
-158.6032388926409
 30
0.0
  0
HATCH
  5
101
330
FC
100
AcDbEntity
  8
_U+30EC_U+30A4_U+30E4_U+30FC 1
 62
   179
420
  2234388
100
AcDbHatch
 10
0.0
 20
0.0
 30
0.0
210
0.0
220
0.0
230
1.0
  2
SOLID
 70
     1
 71
     0
 91
        1
 92
        1
 93
        1
 72
     4
 94
        3
 73
     0
 74
     1
 95
       26
 96
       22
 40
0.0
 40
0.0
 40
0.0
 40
0.0
 40
1.0
 40
1.0
 40
1.0
 40
2.0
 40
2.0
 40
2.0
 40
3.0
 40
3.0
 40
3.0
 40
4.0
 40
4.0
 40
4.0
 40
5.0
 40
5.0
 40
5.0
 40
6.0
 40
6.0
 40
6.0
 40
7.0
 40
7.0
 40
7.0
 40
7.0
 10
89.49376218465781
 20
-158.6032388926409
 10
89.49376218465781
 20
-158.6032388926409
 10
89.49376218465781
 20
-157.4990857896183
 10
89.49376218465781
 20
-157.4990857896183
 10
89.49376218465781
 20
-157.4990857896183
 10
89.14098440696823
 20
-157.4990857896183
 10
89.14098440696823
 20
-157.4990857896183
 10
89.14098440696823
 20
-157.4990857896183
 10
89.14098440696823
 20
-157.3509466837525
 10
89.14098440696823
 20
-157.3509466837525
 10
89.49600149672322
 20
-157.336132773166
 10
89.54578312648509
 20
-157.1731797567137
 10
89.57747800494938
 20
-157.0588025866033
 10
89.57747800494938
 20
-157.0588025866033
 10
89.73336857565694
 20
-157.0588025866033
 10
89.73336857565694
 20
-157.0588025866033
 10
89.73336857565694
 20
-157.0588025866033
 10
89.73336857565694
 20
-158.6032388926409
 10
89.73336857565694
 20
-158.6032388926409
 10
89.73336857565694
 20
-158.6032388926409
 10
89.49376218465781
 20
-158.6032388926409
 10
89.49376218465781
 20
-158.6032388926409
 97
        0
 97
        0
 75
     2
 76
     1
 98
        0
  0
SPLINE
  5
102
330
FC
100
AcDbEntity
  8
_U+30EC_U+30A4_U+30E4_U+30FC 1
370
     0
100
AcDbSpline
210
0.0
220
0.0
230
1.0
 70
    11
 71
     3
 72
    29
 73
    25
 74
     0
 42
0.0000000001
 43
0.0000000001
 12
1.0
 22
0.0
 32
0.0
 13
1.0
 23
0.0
 33
0.0
 40
0.0
 40
0.0
 40
0.0
 40
0.0
 40
1.0
 40
1.0
 40
1.0
 40
2.0
 40
2.0
 40
2.0
 40
3.0
 40
3.0
 40
3.0
 40
4.0
 40
4.0
 40
4.0
 40
5.0
 40
5.0
 40
5.0
 40
6.0
 40
6.0
 40
6.0
 40
7.0
 40
7.0
 40
7.0
 40
8.0
 40
8.0
 40
8.0
 40
8.0
 10
91.22854001625537
 20
-158.425471965602
 30
0.0
 10
91.11330157227376
 20
-158.6349337711052
 30
0.0
 10
90.92795543516732
 20
-158.653881796274
 30
0.0
 10
90.8035874881498
 20
-158.653881796274
 30
0.0
 10
90.63167722343583
 20
-158.653881796274
 30
0.0
 10
90.4802652768591
 20
-158.6073730072232
 30
0.0
 10
90.37846270526997
 20
-158.425471965602
 30
0.0
 10
90.26770288541918
 20
-158.2308240706853
 30
0.0
 10
90.24737682205621
 20
-157.9941460108487
 30
0.0
 10
90.24737682205621
 20
-157.8311929943964
 30
0.0
 10
90.24737682205621
 20
-157.6871880031129
 30
0.0
 10
90.26546357335377
 20
-157.4353515231412
 30
0.0
 10
90.37846270526997
 20
-157.2365695136423
 30
0.0
 10
90.49387340402585
 20
-157.033653389561
 30
0.0
 10
90.66561141396555
 20
-157.0102267402613
 30
0.0
 10
90.8035874881498
 20
-157.0102267402613
 30
0.0
 10
90.97308618602409
 20
-157.0102267402613
 30
0.0
 10
91.1269096994405
 20
-157.0546684720211
 30
0.0
 10
91.22854001625537
 20
-157.2365695136423
 30
0.0
 10
91.33482121197532
 20
-157.4291503512677
 30
0.0
 10
91.35962589946912
 20
-157.6575601819398
 30
0.0
 10
91.35962589946912
 20
-157.8311929943964
 30
0.0
 10
91.35962589946912
 20
-158.0024142400133
 30
0.0
 10
91.33706052404074
 20
-158.2328911279765
 30
0.0
 10
91.22854001625537
 20
-158.425471965602
 30
0.0
  0
SPLINE
  5
103
330
FC
100
AcDbEntity
  8
_U+30EC_U+30A4_U+30E4_U+30FC 1
370
     0
100
AcDbSpline
210
0.0
220
0.0
230
1.0
 70
    11
 71
     3
 72
    17
 73
    13
 74
     0
 42
0.0000000001
 43
0.0000000001
 12
1.0
 22
0.0
 32
0.0
 13
1.0
 23
0.0
 33
0.0
 40
0.0
 40
0.0
 40
0.0
 40
0.0
 40
1.0
 40
1.0
 40
1.0
 40
2.0
 40
2.0
 40
2.0
 40
3.0
 40
3.0
 40
3.0
 40
4.0
 40
4.0
 40
4.0
 40
4.0
 10
90.8035874881498
 20
-157.2028075778868
 30
0.0
 10
90.5367648428172
 20
-157.2028075778868
 30
0.0
 10
90.48698321305534
 20
-157.4863389363229
 30
0.0
 10
90.48698321305534
 20
-157.8311929943964
 30
0.0
 10
90.48698321305534
 20
-158.150553345879
 30
0.0
 10
90.52539602771587
 20
-158.4592339013574
 30
0.0
 10
90.8035874881498
 20
-158.4592339013574
 30
0.0
 10
91.06799856664273
 20
-158.4592339013574
 30
0.0
 10
91.12001950847
 20
-158.178114109761
 30
0.0
 10
91.12001950847
 20
-157.8311929943964
 30
0.0
 10
91.12001950847
 20
-157.5114881333652
 30
0.0
 10
91.07936738174405
 20
-157.2028075778868
 30
0.0
 10
90.8035874881498
 20
-157.2028075778868
 30
0.0
  0
HATCH
  5
104
330
FC
100
AcDbEntity
  8
_U+30EC_U+30A4_U+30E4_U+30FC 1
 62
   179
420
  2234388
100
AcDbHatch
 10
0.0
 20
0.0
 30
0.0
210
0.0
220
0.0
230
1.0
  2
SOLID
 70
     1
 71
     0
 91
        2
 92
        1
 93
        1
 72
     4
 94
        3
 73
     0
 74
     1
 95
       29
 96
       25
 40
0.0
 40
0.0
 40
0.0
 40
0.0
 40
1.0
 40
1.0
 40
1.0
 40
2.0
 40
2.0
 40
2.0
 40
3.0
 40
3.0
 40
3.0
 40
4.0
 40
4.0
 40
4.0
 40
5.0
 40
5.0
 40
5.0
 40
6.0
 40
6.0
 40
6.0
 40
7.0
 40
7.0
 40
7.0
 40
8.0
 40
8.0
 40
8.0
 40
8.0
 10
91.22854001625537
 20
-158.425471965602
 10
91.11330157227376
 20
-158.6349337711052
 10
90.92795543516732
 20
-158.653881796274
 10
90.8035874881498
 20
-158.653881796274
 10
90.63167722343583
 20
-158.653881796274
 10
90.4802652768591
 20
-158.6073730072232
 10
90.37846270526997
 20
-158.425471965602
 10
90.26770288541918
 20
-158.2308240706853
 10
90.24737682205621
 20
-157.9941460108487
 10
90.24737682205621
 20
-157.8311929943964
 10
90.24737682205621
 20
-157.6871880031129
 10
90.26546357335377
 20
-157.4353515231412
 10
90.37846270526997
 20
-157.2365695136423
 10
90.49387340402585
 20
-157.033653389561
 10
90.66561141396555
 20
-157.0102267402613
 10
90.8035874881498
 20
-157.0102267402613
 10
90.97308618602409
 20
-157.0102267402613
 10
91.1269096994405
 20
-157.0546684720211
 10
91.22854001625537
 20
-157.2365695136423
 10
91.33482121197532
 20
-157.4291503512677
 10
91.35962589946912
 20
-157.6575601819398
 10
91.35962589946912
 20
-157.8311929943964
 10
91.35962589946912
 20
-158.0024142400133
 10
91.33706052404074
 20
-158.2328911279765
 10
91.22854001625537
 20
-158.425471965602
 97
        0
 97
        0
 92
        1
 93
        1
 72
     4
 94
        3
 73
     0
 74
     1
 95
       17
 96
       13
 40
0.0
 40
0.0
 40
0.0
 40
0.0
 40
1.0
 40
1.0
 40
1.0
 40
2.0
 40
2.0
 40
2.0
 40
3.0
 40
3.0
 40
3.0
 40
4.0
 40
4.0
 40
4.0
 40
4.0
 10
90.8035874881498
 20
-157.2028075778868
 10
90.5367648428172
 20
-157.2028075778868
 10
90.48698321305534
 20
-157.4863389363229
 10
90.48698321305534
 20
-157.8311929943964
 10
90.48698321305534
 20
-158.150553345879
 10
90.52539602771587
 20
-158.4592339013574
 10
90.8035874881498
 20
-158.4592339013574
 10
91.06799856664273
 20
-158.4592339013574
 10
91.12001950847
 20
-158.178114109761
 10
91.12001950847
 20
-157.8311929943964
 10
91.12001950847
 20
-157.5114881333652
 10
91.07936738174405
 20
-157.2028075778868
 10
90.8035874881498
 20
-157.2028075778868
 97
        0
 97
        0
 75
     2
 76
     1
 98
        0
  0
ENDBLK
  5
FF
330
FC
100
AcDbEntity
  8
0
100
AcDbBlockEnd
  0
ENDSEC
  0
SECTION
  2
ENTITIES
  0
POLYLINE
  5
41
330
1F
100
AcDbEntity
  8
_U+30EC_U+30A4_U+30E4_U+30FC 1
 62
   179
420
  2234388
370
    25
100
AcDb2dPolyline
 66
     1
 10
0.0
 20
0.0
 30
0.0
  0
VERTEX
  5
42
330
41
100
AcDbEntity
  8
_U+30EC_U+30A4_U+30E4_U+30FC 1
 62
   179
420
  2234388
370
    25
100
AcDbVertex
100
AcDb2dVertex
 10
85.1696550493633
 20
-143.7047685751849
 30
0.0
  0
VERTEX
  5
43
330
41
100
AcDbEntity
  8
_U+30EC_U+30A4_U+30E4_U+30FC 1
 62
   179
420
  2234388
370
    25
100
AcDbVertex
100
AcDb2dVertex
 10
96.16983032428101
 20
-143.7047685751849
 30
0.0
  0
SEQEND
  5
44
330
41
100
AcDbEntity
  8
_U+30EC_U+30A4_U+30E4_U+30FC 1
 62
   179
420
  2234388
370
    25
  0
POLYLINE
  5
45
330
1F
100
AcDbEntity
  8
_U+30EC_U+30A4_U+30E4_U+30FC 1
 62
   179
420
  2234388
370
    25
100
AcDb2dPolyline
 66
     1
 10
0.0
 20
0.0
 30
0.0
  0
VERTEX
  5
46
330
45
100
AcDbEntity
  8
_U+30EC_U+30A4_U+30E4_U+30FC 1
 62
   179
420
  2234388
370
    25
100
AcDbVertex
100
AcDb2dVertex
 10
120.1697605453251
 20
-143.7047685751849
 30
0.0
  0
VERTEX
  5
47
330
45
100
AcDbEntity
  8
_U+30EC_U+30A4_U+30E4_U+30FC 1
 62
   179
420
  2234388
370
    25
100
AcDbVertex
100
AcDb2dVertex
 10
120.1697605453251
 20
-144.7045055193793
 30
0.0
  0
SEQEND
  5
48
330
45
100
AcDbEntity
  8
_U+30EC_U+30A4_U+30E4_U+30FC 1
 62
   179
420
  2234388
370
    25
  0
POLYLINE
  5
49
330
1F
100
AcDbEntity
  8
_U+30EC_U+30A4_U+30E4_U+30FC 1
 62
   179
420
  2234388
370
    25
100
AcDb2dPolyline
 66
     1
 10
0.0
 20
0.0
 30
0.0
  0
VERTEX
  5
4A
330
49
100
AcDbEntity
  8
_U+30EC_U+30A4_U+30E4_U+30FC 1
 62
   179
420
  2234388
370
    25
100
AcDbVertex
100
AcDb2dVertex
 10
98.1700449954735
 20
-144.7045055193793
 30
0.0
  0
VERTEX
  5
4B
330
49
100
AcDbEntity
  8
_U+30EC_U+30A4_U+30E4_U+30FC 1
 62
   179
420
  2234388
370
    25
100
AcDbVertex
100
AcDb2dVertex
 10
120.1697605453251
 20
-144.7045055193793
 30
0.0
  0
SEQEND
  5
4C
330
49
100
AcDbEntity
  8
_U+30EC_U+30A4_U+30E4_U+30FC 1
 62
   179
420
  2234388
370
    25
  0
POLYLINE
  5
4D
330
1F
100
AcDbEntity
  8
_U+30EC_U+30A4_U+30E4_U+30FC 1
 62
   179
420
  2234388
370
    25
100
AcDb2dPolyline
 66
     1
 10
0.0
 20
0.0
 30
0.0
  0
VERTEX
  5
4E
330
4D
100
AcDbEntity
  8
_U+30EC_U+30A4_U+30E4_U+30FC 1
 62
   179
420
  2234388
370
    25
100
AcDbVertex
100
AcDb2dVertex
 10
95.1700581275651
 20
-144.7045055193793
 30
0.0
  0
VERTEX
  5
4F
330
4D
100
AcDbEntity
  8
_U+30EC_U+30A4_U+30E4_U+30FC 1
 62
   179
420
  2234388
370
    25
100
AcDbVertex
100
AcDb2dVertex
 10
95.1700581275651
 20
-155.9050235721347
 30
0.0
  0
SEQEND
  5
50
330
4D
100
AcDbEntity
  8
_U+30EC_U+30A4_U+30E4_U+30FC 1
 62
   179
420
  2234388
370
    25
  0
POLYLINE
  5
51
330
1F
100
AcDbEntity
  8
_U+30EC_U+30A4_U+30E4_U+30FC 1
 62
   179
420
  2234388
370
    25
100
AcDb2dPolyline
 66
     1
 10
0.0
 20
0.0
 30
0.0
  0
VERTEX
  5
52
330
51
100
AcDbEntity
  8
_U+30EC_U+30A4_U+30E4_U+30FC 1
 62
   179
420
  2234388
370
    25
100
AcDbVertex
100
AcDb2dVertex
 10
105.1697909280062
 20
-154.7054732946571
 30
0.0
  0
VERTEX
  5
53
330
51
100
AcDbEntity
  8
_U+30EC_U+30A4_U+30E4_U+30FC 1
 62
   179
420
  2234388
370
    25
100
AcDbVertex
100
AcDb2dVertex
 10
105.1697909280062
 20
-155.2050066278653
 30
0.0
  0
SEQEND
  5
54
330
51
100
AcDbEntity
  8
_U+30EC_U+30A4_U+30E4_U+30FC 1
 62
   179
420
  2234388
370
    25
  0
POLYLINE
  5
55
330
1F
100
AcDbEntity
  8
_U+30EC_U+30A4_U+30E4_U+30FC 1
 62
   179
420
  2234388
370
    25
100
AcDb2dPolyline
 66
     1
 10
0.0
 20
0.0
 30
0.0
  0
VERTEX
  5
56
330
55
100
AcDbEntity
  8
_U+30EC_U+30A4_U+30E4_U+30FC 1
 62
   179
420
  2234388
370
    25
100
AcDbVertex
100
AcDb2dVertex
 10
98.1700449954735
 20
-154.7054732946571
 30
0.0
  0
VERTEX
  5
57
330
55
100
AcDbEntity
  8
_U+30EC_U+30A4_U+30E4_U+30FC 1
 62
   179
420
  2234388
370
    25
100
AcDbVertex
100
AcDb2dVertex
 10
105.1697909280062
 20
-154.7054732946571
 30
0.0
  0
SEQEND
  5
58
330
55
100
AcDbEntity
  8
_U+30EC_U+30A4_U+30E4_U+30FC 1
 62
   179
420
  2234388
370
    25
  0
POLYLINE
  5
59
330
1F
100
AcDbEntity
  8
_U+30EC_U+30A4_U+30E4_U+30FC 1
 62
   179
420
  2234388
370
    25
100
AcDb2dPolyline
 66
     1
 10
0.0
 20
0.0
 30
0.0
  0
VERTEX
  5
5A
330
59
100
AcDbEntity
  8
_U+30EC_U+30A4_U+30E4_U+30FC 1
 62
   179
420
  2234388
370
    25
100
AcDbVertex
100
AcDb2dVertex
 10
97.16960252099692
 20
-143.7047685751849
 30
0.0
  0
VERTEX
  5
5B
330
59
100
AcDbEntity
  8
_U+30EC_U+30A4_U+30E4_U+30FC 1
 62
   179
420
  2234388
370
    25
100
AcDbVertex
100
AcDb2dVertex
 10
120.1697605453251
 20
-143.7047685751849
 30
0.0
  0
SEQEND
  5
5C
330
59
100
AcDbEntity
  8
_U+30EC_U+30A4_U+30E4_U+30FC 1
 62
   179
420
  2234388
370
    25
  0
POLYLINE
  5
5D
330
1F
100
AcDbEntity
  8
_U+30EC_U+30A4_U+30E4_U+30FC 1
 62
   179
420
  2234388
370
    25
100
AcDb2dPolyline
 66
     1
 10
0.0
 20
0.0
 30
0.0
  0
VERTEX
  5
5E
330
5D
100
AcDbEntity
  8
_U+30EC_U+30A4_U+30E4_U+30FC 1
 62
   179
420
  2234388
370
    25
100
AcDbVertex
100
AcDb2dVertex
 10
96.16983032428101
 20
-143.7047685751849
 30
0.0
  0
VERTEX
  5
5F
330
5D
100
AcDbEntity
  8
_U+30EC_U+30A4_U+30E4_U+30FC 1
 62
   179
420
  2234388
370
    25
100
AcDbVertex
100
AcDb2dVertex
 10
96.16983032428101
 20
-154.7054732946571
 30
0.0
  0
SEQEND
  5
60
330
5D
100
AcDbEntity
  8
_U+30EC_U+30A4_U+30E4_U+30FC 1
 62
   179
420
  2234388
370
    25
  0
POLYLINE
  5
61
330
1F
100
AcDbEntity
  8
_U+30EC_U+30A4_U+30E4_U+30FC 1
 62
   179
420
  2234388
370
    25
100
AcDb2dPolyline
 66
     1
 10
0.0
 20
0.0
 30
0.0
  0
VERTEX
  5
62
330
61
100
AcDbEntity
  8
_U+30EC_U+30A4_U+30E4_U+30FC 1
 62
   179
420
  2234388
370
    25
100
AcDbVertex
100
AcDb2dVertex
 10
97.16960252099692
 20
-143.7047685751849
 30
0.0
  0
VERTEX
  5
63
330
61
100
AcDbEntity
  8
_U+30EC_U+30A4_U+30E4_U+30FC 1
 62
   179
420
  2234388
370
    25
100
AcDbVertex
100
AcDb2dVertex
 10
97.16960252099692
 20
-154.7054732946571
 30
0.0
  0
SEQEND
  5
64
330
61
100
AcDbEntity
  8
_U+30EC_U+30A4_U+30E4_U+30FC 1
 62
   179
420
  2234388
370
    25
  0
POLYLINE
  5
65
330
1F
100
AcDbEntity
  8
_U+30EC_U+30A4_U+30E4_U+30FC 1
 62
   179
420
  2234388
370
    25
100
AcDb2dPolyline
 66
     1
 10
0.0
 20
0.0
 30
0.0
  0
VERTEX
  5
66
330
65
100
AcDbEntity
  8
_U+30EC_U+30A4_U+30E4_U+30FC 1
 62
   179
420
  2234388
370
    25
100
AcDbVertex
100
AcDb2dVertex
 10
98.1700449954735
 20
-144.7045055193793
 30
0.0
  0
VERTEX
  5
67
330
65
100
AcDbEntity
  8
_U+30EC_U+30A4_U+30E4_U+30FC 1
 62
   179
420
  2234388
370
    25
100
AcDbVertex
100
AcDb2dVertex
 10
98.1700449954735
 20
-154.7054732946571
 30
0.0
  0
SEQEND
  5
68
330
65
100
AcDbEntity
  8
_U+30EC_U+30A4_U+30E4_U+30FC 1
 62
   179
420
  2234388
370
    25
  0
POLYLINE
  5
69
330
1F
100
AcDbEntity
  8
_U+30EC_U+30A4_U+30E4_U+30FC 1
 62
   179
420
  2234388
370
    25
100
AcDb2dPolyline
 66
     1
 10
0.0
 20
0.0
 30
0.0
  0
VERTEX
  5
6A
330
69
100
AcDbEntity
  8
_U+30EC_U+30A4_U+30E4_U+30FC 1
 62
   179
420
  2234388
370
    25
100
AcDbVertex
100
AcDb2dVertex
 10
96.16983032428101
 20
-154.7054732946571
 30
0.0
  0
VERTEX
  5
6B
330
69
100
AcDbEntity
  8
_U+30EC_U+30A4_U+30E4_U+30FC 1
 62
   179
420
  2234388
370
    25
100
AcDbVertex
100
AcDb2dVertex
 10
97.16960252099692
 20
-154.7054732946571
 30
0.0
  0
SEQEND
  5
6C
330
69
100
AcDbEntity
  8
_U+30EC_U+30A4_U+30E4_U+30FC 1
 62
   179
420
  2234388
370
    25
  0
POLYLINE
  5
6D
330
1F
100
AcDbEntity
  8
_U+30EC_U+30A4_U+30E4_U+30FC 1
 62
   179
420
  2234388
370
    25
100
AcDb2dPolyline
 66
     1
 10
0.0
 20
0.0
 30
0.0
  0
VERTEX
  5
6E
330
6D
100
AcDbEntity
  8
_U+30EC_U+30A4_U+30E4_U+30FC 1
 62
   179
420
  2234388
370
    25
100
AcDbVertex
100
AcDb2dVertex
 10
95.1700581275651
 20
-155.9050235721347
 30
0.0
  0
VERTEX
  5
6F
330
6D
100
AcDbEntity
  8
_U+30EC_U+30A4_U+30E4_U+30FC 1
 62
   179
420
  2234388
370
    25
100
AcDbVertex
100
AcDb2dVertex
 10
105.1697909280062
 20
-155.2050066278653
 30
0.0
  0
SEQEND
  5
70
330
6D
100
AcDbEntity
  8
_U+30EC_U+30A4_U+30E4_U+30FC 1
 62
   179
420
  2234388
370
    25
  0
POLYLINE
  5
71
330
1F
100
AcDbEntity
  8
_U+30EC_U+30A4_U+30E4_U+30FC 1
 62
   179
420
  2234388
370
    25
100
AcDb2dPolyline
 66
     1
 10
0.0
 20
0.0
 30
0.0
  0
VERTEX
  5
72
330
71
100
AcDbEntity
  8
_U+30EC_U+30A4_U+30E4_U+30FC 1
 62
   179
420
  2234388
370
    25
100
AcDbVertex
100
AcDb2dVertex
 10
85.1696550493633
 20
-143.7047685751849
 30
0.0
  0
VERTEX
  5
73
330
71
100
AcDbEntity
  8
_U+30EC_U+30A4_U+30E4_U+30FC 1
 62
   179
420
  2234388
370
    25
100
AcDbVertex
100
AcDb2dVertex
 10
85.1696550493633
 20
-144.7045055193793
 30
0.0
  0
SEQEND
  5
74
330
71
100
AcDbEntity
  8
_U+30EC_U+30A4_U+30E4_U+30FC 1
 62
   179
420
  2234388
370
    25
  0
POLYLINE
  5
75
330
1F
100
AcDbEntity
  8
_U+30EC_U+30A4_U+30E4_U+30FC 1
 62
   179
420
  2234388
370
    25
100
AcDb2dPolyline
 66
     1
 10
0.0
 20
0.0
 30
0.0
  0
VERTEX
  5
76
330
75
100
AcDbEntity
  8
_U+30EC_U+30A4_U+30E4_U+30FC 1
 62
   179
420
  2234388
370
    25
100
AcDbVertex
100
AcDb2dVertex
 10
85.1696550493633
 20
-144.7045055193793
 30
0.0
  0
VERTEX
  5
77
330
75
100
AcDbEntity
  8
_U+30EC_U+30A4_U+30E4_U+30FC 1
 62
   179
420
  2234388
370
    25
100
AcDbVertex
100
AcDb2dVertex
 10
95.1700581275651
 20
-144.7045055193793
 30
0.0
  0
SEQEND
  5
78
330
75
100
AcDbEntity
  8
_U+30EC_U+30A4_U+30E4_U+30FC 1
 62
   179
420
  2234388
370
    25
  0
SPLINE
  5
79
330
1F
100
AcDbEntity
  8
_U+30EC_U+30A4_U+30E4_U+30FC 1
 62
   179
420
  2234388
370
     9
100
AcDbSpline
210
0.0
220
0.0
230
1.0
 70
    11
 71
     3
 72
    17
 73
    13
 74
     0
 42
0.0000000001
 43
0.0000000001
 12
1.0
 22
0.0
 32
0.0
 13
1.0
 23
0.0
 33
0.0
 40
0.0
 40
0.0
 40
0.0
 40
0.0
 40
1.0
 40
1.0
 40
1.0
 40
2.0
 40
2.0
 40
2.0
 40
3.0
 40
3.0
 40
3.0
 40
4.0
 40
4.0
 40
4.0
 40
4.0
 10
120.2696672094429
 20
-139.7050094095181
 30
0.0
 10
120.2696672094429
 20
-139.6498702428653
 30
0.0
 10
120.2248644328082
 20
-139.6051027428764
 30
0.0
 10
120.1697605453251
 20
-139.6051027428764
 30
0.0
 10
120.1146213800652
 20
-139.6051027428764
 30
0.0
 10
120.0698538812073
 20
-139.6498702428653
 30
0.0
 10
120.0698538812073
 20
-139.7050094095181
 30
0.0
 10
120.0698538812073
 20
-139.7601132983933
 30
0.0
 10
120.1146213800652
 20
-139.80491607616
 30
0.0
 10
120.1697605453251
 20
-139.80491607616
 30
0.0
 10
120.2248644328082
 20
-139.80491607616
 30
0.0
 10
120.2696672094429
 20
-139.7601132983933
 30
0.0
 10
120.2696672094429
 20
-139.7050094095181
 30
0.0
  0
SPLINE
  5
7A
330
1F
100
AcDbEntity
  8
_U+30EC_U+30A4_U+30E4_U+30FC 1
 62
   179
420
  2234388
370
     9
100
AcDbSpline
210
0.0
220
0.0
230
1.0
 70
    11
 71
     3
 72
    17
 73
    13
 74
     0
 42
0.0000000001
 43
0.0000000001
 12
1.0
 22
0.0
 32
0.0
 13
1.0
 23
0.0
 33
0.0
 40
0.0
 40
0.0
 40
0.0
 40
0.0
 40
1.0
 40
1.0
 40
1.0
 40
2.0
 40
2.0
 40
2.0
 40
3.0
 40
3.0
 40
3.0
 40
4.0
 40
4.0
 40
4.0
 40
4.0
 10
124.2700965518279
 20
-143.7047685751849
 30
0.0
 10
124.2700965518279
 20
-143.6496294085322
 30
0.0
 10
124.22532905297
 20
-143.6048266307655
 30
0.0
 10
124.1701898877101
 20
-143.6048266307655
 30
0.0
 10
124.1143804446895
 20
-143.6048266307655
 30
0.0
 10
124.0696129458316
 20
-143.6496294085322
 30
0.0
 10
124.0696129458316
 20
-143.7047685751849
 30
0.0
 10
124.0696129458316
 20
-143.7598724640602
 30
0.0
 10
124.1143804446895
 20
-143.8046752418266
 30
0.0
 10
124.1701898877101
 20
-143.8046752418266
 30
0.0
 10
124.22532905297
 20
-143.8046752418266
 30
0.0
 10
124.2700965518279
 20
-143.7598724640602
 30
0.0
 10
124.2700965518279
 20
-143.7047685751849
 30
0.0
  0
SPLINE
  5
7B
330
1F
100
AcDbEntity
  8
_U+30EC_U+30A4_U+30E4_U+30FC 1
 62
   179
420
  2234388
370
     9
100
AcDbSpline
210
0.0
220
0.0
230
1.0
 70
    11
 71
     3
 72
    17
 73
    13
 74
     0
 42
0.0000000001
 43
0.0000000001
 12
1.0
 22
0.0
 32
0.0
 13
1.0
 23
0.0
 33
0.0
 40
0.0
 40
0.0
 40
0.0
 40
0.0
 40
1.0
 40
1.0
 40
1.0
 40
2.0
 40
2.0
 40
2.0
 40
3.0
 40
3.0
 40
3.0
 40
4.0
 40
4.0
 40
4.0
 40
4.0
 10
124.2700965518279
 20
-144.7045055193793
 30
0.0
 10
124.2700965518279
 20
-144.6494016305044
 30
0.0
 10
124.22532905297
 20
-144.6045988527377
 30
0.0
 10
124.1701898877101
 20
-144.6045988527377
 30
0.0
 10
124.1143804446895
 20
-144.6045988527377
 30
0.0
 10
124.0696129458316
 20
-144.6494016305044
 30
0.0
 10
124.0696129458316
 20
-144.7045055193793
 30
0.0
 10
124.0696129458316
 20
-144.7603149638098
 30
0.0
 10
124.1143804446895
 20
-144.8051177415765
 30
0.0
 10
124.1701898877101
 20
-144.8051177415765
 30
0.0
 10
124.22532905297
 20
-144.8051177415765
 30
0.0
 10
124.2700965518279
 20
-144.7603149638098
 30
0.0
 10
124.2700965518279
 20
-144.7045055193793
 30
0.0
  0
SPLINE
  5
7C
330
1F
100
AcDbEntity
  8
_U+30EC_U+30A4_U+30E4_U+30FC 1
 62
   179
420
  2234388
370
     9
100
AcDbSpline
210
0.0
220
0.0
230
1.0
 70
    11
 71
     3
 72
    17
 73
    13
 74
     0
 42
0.0000000001
 43
0.0000000001
 12
1.0
 22
0.0
 32
0.0
 13
1.0
 23
0.0
 33
0.0
 40
0.0
 40
0.0
 40
0.0
 40
0.0
 40
1.0
 40
1.0
 40
1.0
 40
2.0
 40
2.0
 40
2.0
 40
3.0
 40
3.0
 40
3.0
 40
4.0
 40
4.0
 40
4.0
 40
4.0
 10
105.269697592124
 20
-159.9047827378016
 30
0.0
 10
105.269697592124
 20
-159.8496788489267
 30
0.0
 10
105.2249300932662
 20
-159.80487607116
 30
0.0
 10
105.1697909280062
 20
-159.80487607116
 30
0.0
 10
105.1146870405231
 20
-159.80487607116
 30
0.0
 10
105.0698842638884
 20
-159.8496788489267
 30
0.0
 10
105.0698842638884
 20
-159.9047827378016
 30
0.0
 10
105.0698842638884
 20
-159.9599219044547
 30
0.0
 10
105.1146870405231
 20
-160.0046894044432
 30
0.0
 10
105.1697909280062
 20
-160.0046894044432
 30
0.0
 10
105.2249300932662
 20
-160.0046894044432
 30
0.0
 10
105.269697592124
 20
-159.9599219044547
 30
0.0
 10
105.269697592124
 20
-159.9047827378016
 30
0.0
  0
SPLINE
  5
7D
330
1F
100
AcDbEntity
  8
_U+30EC_U+30A4_U+30E4_U+30FC 1
 62
   179
420
  2234388
370
     9
100
AcDbSpline
210
0.0
220
0.0
230
1.0
 70
    11
 71
     3
 72
    17
 73
    13
 74
     0
 42
0.0000000001
 43
0.0000000001
 12
1.0
 22
0.0
 32
0.0
 13
1.0
 23
0.0
 33
0.0
 40
0.0
 40
0.0
 40
0.0
 40
0.0
 40
1.0
 40
1.0
 40
1.0
 40
2.0
 40
2.0
 40
2.0
 40
3.0
 40
3.0
 40
3.0
 40
4.0
 40
4.0
 40
4.0
 40
4.0
 10
95.26996479168292
 20
-159.9047827378016
 30
0.0
 10
95.26996479168292
 20
-159.8496788489267
 30
0.0
 10
95.22519729282504
 20
-159.80487607116
 30
0.0
 10
95.1700581275651
 20
-159.80487607116
 30
0.0
 10
95.11424868454446
 20
-159.80487607116
 30
0.0
 10
95.06948118568658
 20
-159.8496788489267
 30
0.0
 10
95.06948118568658
 20
-159.9047827378016
 30
0.0
 10
95.06948118568658
 20
-159.9599219044547
 30
0.0
 10
95.11424868454446
 20
-160.0046894044432
 30
0.0
 10
95.1700581275651
 20
-160.0046894044432
 30
0.0
 10
95.22519729282504
 20
-160.0046894044432
 30
0.0
 10
95.26996479168292
 20
-159.9599219044547
 30
0.0
 10
95.26996479168292
 20
-159.9047827378016
 30
0.0
  0
SPLINE
  5
7E
330
1F
100
AcDbEntity
  8
_U+30EC_U+30A4_U+30E4_U+30FC 1
 62
   179
420
  2234388
370
     9
100
AcDbSpline
210
0.0
220
0.0
230
1.0
 70
    11
 71
     3
 72
    17
 73
    13
 74
     0
 42
0.0000000001
 43
0.0000000001
 12
1.0
 22
0.0
 32
0.0
 13
1.0
 23
0.0
 33
0.0
 40
0.0
 40
0.0
 40
0.0
 40
0.0
 40
1.0
 40
1.0
 40
1.0
 40
2.0
 40
2.0
 40
2.0
 40
3.0
 40
3.0
 40
3.0
 40
4.0
 40
4.0
 40
4.0
 40
4.0
 10
109.2694566567484
 20
-154.7054732946571
 30
0.0
 10
109.2694566567484
 20
-154.6496638502266
 30
0.0
 10
109.2246891578905
 20
-154.6048610724599
 30
0.0
 10
109.1695527504855
 20
-154.6048610724599
 30
0.0
 10
109.1144461051475
 20
-154.6048610724599
 30
0.0
 10
109.0696433285127
 20
-154.6496638502266
 30
0.0
 10
109.0696433285127
 20
-154.7054732946571
 30
0.0
 10
109.0696433285127
 20
-154.760577183532
 30
0.0
 10
109.1144461051475
 20
-154.8053799612987
 30
0.0
 10
109.1695527504855
 20
-154.8053799612987
 30
0.0
 10
109.2246891578905
 20
-154.8053799612987
 30
0.0
 10
109.2694566567484
 20
-154.760577183532
 30
0.0
 10
109.2694566567484
 20
-154.7054732946571
 30
0.0
  0
SPLINE
  5
7F
330
1F
100
AcDbEntity
  8
_U+30EC_U+30A4_U+30E4_U+30FC 1
 62
   179
420
  2234388
370
     9
100
AcDbSpline
210
0.0
220
0.0
230
1.0
 70
    11
 71
     3
 72
    17
 73
    13
 74
     0
 42
0.0000000001
 43
0.0000000001
 12
1.0
 22
0.0
 32
0.0
 13
1.0
 23
0.0
 33
0.0
 40
0.0
 40
0.0
 40
0.0
 40
0.0
 40
1.0
 40
1.0
 40
1.0
 40
2.0
 40
2.0
 40
2.0
 40
3.0
 40
3.0
 40
3.0
 40
4.0
 40
4.0
 40
4.0
 40
4.0
 10
109.2694566567484
 20
-155.2050066278653
 30
0.0
 10
109.2694566567484
 20
-155.1498674612128
 30
0.0
 10
109.2246891578905
 20
-155.1050999612236
 30
0.0
 10
109.1695527504855
 20
-155.1050999612236
 30
0.0
 10
109.1144461051475
 20
-155.1050999612236
 30
0.0
 10
109.0696433285127
 20
-155.1498674612128
 30
0.0
 10
109.0696433285127
 20
-155.2050066278653
 30
0.0
 10
109.0696433285127
 20
-155.2601105167408
 30
0.0
 10
109.1144461051475
 20
-155.3049132945069
 30
0.0
 10
109.1695527504855
 20
-155.3049132945069
 30
0.0
 10
109.2246891578905
 20
-155.3049132945069
 30
0.0
 10
109.2694566567484
 20
-155.2601105167408
 30
0.0
 10
109.2694566567484
 20
-155.2050066278653
 30
0.0
  0
SPLINE
  5
80
330
1F
100
AcDbEntity
  8
_U+30EC_U+30A4_U+30E4_U+30FC 1
 62
   179
420
  2234388
370
     9
100
AcDbSpline
210
0.0
220
0.0
230
1.0
 70
    11
 71
     3
 72
    17
 73
    13
 74
     0
 42
0.0000000001
 43
0.0000000001
 12
1.0
 22
0.0
 32
0.0
 13
1.0
 23
0.0
 33
0.0
 40
0.0
 40
0.0
 40
0.0
 40
0.0
 40
1.0
 40
1.0
 40
1.0
 40
2.0
 40
2.0
 40
2.0
 40
3.0
 40
3.0
 40
3.0
 40
4.0
 40
4.0
 40
4.0
 40
4.0
 10
124.2700965518279
 20
-154.7054732946571
 30
0.0
 10
124.2700965518279
 20
-154.6496638502266
 30
0.0
 10
124.22532905297
 20
-154.6048610724599
 30
0.0
 10
124.1701898877101
 20
-154.6048610724599
 30
0.0
 10
124.1143804446895
 20
-154.6048610724599
 30
0.0
 10
124.0696129458316
 20
-154.6496638502266
 30
0.0
 10
124.0696129458316
 20
-154.7054732946571
 30
0.0
 10
124.0696129458316
 20
-154.760577183532
 30
0.0
 10
124.1143804446895
 20
-154.8053799612987
 30
0.0
 10
124.1701898877101
 20
-154.8053799612987
 30
0.0
 10
124.22532905297
 20
-154.8053799612987
 30
0.0
 10
124.2700965518279
 20
-154.760577183532
 30
0.0
 10
124.2700965518279
 20
-154.7054732946571
 30
0.0
  0
SPLINE
  5
81
330
1F
100
AcDbEntity
  8
_U+30EC_U+30A4_U+30E4_U+30FC 1
 62
   179
420
  2234388
370
     9
100
AcDbSpline
210
0.0
220
0.0
230
1.0
 70
    11
 71
     3
 72
    17
 73
    13
 74
     0
 42
0.0000000001
 43
0.0000000001
 12
1.0
 22
0.0
 32
0.0
 13
1.0
 23
0.0
 33
0.0
 40
0.0
 40
0.0
 40
0.0
 40
0.0
 40
1.0
 40
1.0
 40
1.0
 40
2.0
 40
2.0
 40
2.0
 40
3.0
 40
3.0
 40
3.0
 40
4.0
 40
4.0
 40
4.0
 40
4.0
 10
85.27023199124181
 20
-139.7050094095181
 30
0.0
 10
85.27023199124181
 20
-139.6498702428653
 30
0.0
 10
85.22546664536024
 20
-139.6051027428764
 30
0.0
 10
85.1696550493633
 20
-139.6051027428764
 30
0.0
 10
85.11451588410335
 20
-139.6051027428764
 30
0.0
 10
85.06974838524546
 20
-139.6498702428653
 30
0.0
 10
85.06974838524546
 20
-139.7050094095181
 30
0.0
 10
85.06974838524546
 20
-139.7601132983933
 30
0.0
 10
85.11451588410335
 20
-139.80491607616
 30
0.0
 10
85.1696550493633
 20
-139.80491607616
 30
0.0
 10
85.22546664536024
 20
-139.80491607616
 30
0.0
 10
85.27023199124181
 20
-139.7601132983933
 30
0.0
 10
85.27023199124181
 20
-139.7050094095181
 30
0.0
  0
SPLINE
  5
82
330
1F
100
AcDbEntity
  8
_U+30EC_U+30A4_U+30E4_U+30FC 1
 62
   179
420
  2234388
370
     9
100
AcDbSpline
210
0.0
220
0.0
230
1.0
 70
    11
 71
     3
 72
    17
 73
    13
 74
     0
 42
0.0000000001
 43
0.0000000001
 12
1.0
 22
0.0
 32
0.0
 13
1.0
 23
0.0
 33
0.0
 40
0.0
 40
0.0
 40
0.0
 40
0.0
 40
1.0
 40
1.0
 40
1.0
 40
2.0
 40
2.0
 40
2.0
 40
3.0
 40
3.0
 40
3.0
 40
4.0
 40
4.0
 40
4.0
 40
4.0
 10
85.27023199124181
 20
-159.9047827378016
 30
0.0
 10
85.27023199124181
 20
-159.8496788489267
 30
0.0
 10
85.22546664536024
 20
-159.80487607116
 30
0.0
 10
85.1696550493633
 20
-159.80487607116
 30
0.0
 10
85.11451588410335
 20
-159.80487607116
 30
0.0
 10
85.06974838524546
 20
-159.8496788489267
 30
0.0
 10
85.06974838524546
 20
-159.9047827378016
 30
0.0
 10
85.06974838524546
 20
-159.9599219044547
 30
0.0
 10
85.11451588410335
 20
-160.0046894044432
 30
0.0
 10
85.1696550493633
 20
-160.0046894044432
 30
0.0
 10
85.22546664536024
 20
-160.0046894044432
 30
0.0
 10
85.27023199124181
 20
-159.9599219044547
 30
0.0
 10
85.27023199124181
 20
-159.9047827378016
 30
0.0
  0
POLYLINE
  5
83
330
1F
100
AcDbEntity
  8
_U+30EC_U+30A4_U+30E4_U+30FC 1
 62
   179
420
  2234388
370
     9
100
AcDb2dPolyline
 66
     1
 10
0.0
 20
0.0
 30
0.0
  0
VERTEX
  5
84
330
83
100
AcDbEntity
  8
_U+30EC_U+30A4_U+30E4_U+30FC 1
 62
   179
420
  2234388
370
     9
100
AcDbVertex
100
AcDb2dVertex
 10
124.1701898877101
 20
-143.7047685751849
 30
0.0
  0
VERTEX
  5
85
330
83
100
AcDbEntity
  8
_U+30EC_U+30A4_U+30E4_U+30FC 1
 62
   179
420
  2234388
370
     9
100
AcDbVertex
100
AcDb2dVertex
 10
124.1701898877101
 20
-139.9344560761275
 30
0.0
  0
SEQEND
  5
86
330
83
100
AcDbEntity
  8
_U+30EC_U+30A4_U+30E4_U+30FC 1
 62
   179
420
  2234388
370
     9
  0
POLYLINE
  5
87
330
1F
100
AcDbEntity
  8
_U+30EC_U+30A4_U+30E4_U+30FC 1
 62
   179
420
  2234388
370
     9
100
AcDb2dPolyline
 66
     1
 10
0.0
 20
0.0
 30
0.0
  0
VERTEX
  5
88
330
87
100
AcDbEntity
  8
_U+30EC_U+30A4_U+30E4_U+30FC 1
 62
   179
420
  2234388
370
     9
100
AcDbVertex
100
AcDb2dVertex
 10
124.1701898877101
 20
-143.7047685751849
 30
0.0
  0
VERTEX
  5
89
330
87
100
AcDbEntity
  8
_U+30EC_U+30A4_U+30E4_U+30FC 1
 62
   179
420
  2234388
370
     9
100
AcDbVertex
100
AcDb2dVertex
 10
124.1701898877101
 20
-144.7045055193793
 30
0.0
  0
SEQEND
  5
8A
330
87
100
AcDbEntity
  8
_U+30EC_U+30A4_U+30E4_U+30FC 1
 62
   179
420
  2234388
370
     9
  0
POLYLINE
  5
8B
330
1F
100
AcDbEntity
  8
_U+30EC_U+30A4_U+30E4_U+30FC 1
 62
   179
420
  2234388
370
     9
100
AcDb2dPolyline
 66
     1
 10
0.0
 20
0.0
 30
0.0
  0
VERTEX
  5
8C
330
8B
100
AcDbEntity
  8
_U+30EC_U+30A4_U+30E4_U+30FC 1
 62
   179
420
  2234388
370
     9
100
AcDbVertex
100
AcDb2dVertex
 10
122.71014853607
 20
-143.7047685751849
 30
0.0
  0
VERTEX
  5
8D
330
8B
100
AcDbEntity
  8
_U+30EC_U+30A4_U+30E4_U+30FC 1
 62
   179
420
  2234388
370
     9
100
AcDbVertex
100
AcDb2dVertex
 10
125.169962084426
 20
-143.7047685751849
 30
0.0
  0
SEQEND
  5
8E
330
8B
100
AcDbEntity
  8
_U+30EC_U+30A4_U+30E4_U+30FC 1
 62
   179
420
  2234388
370
     9
  0
POLYLINE
  5
8F
330
1F
100
AcDbEntity
  8
_U+30EC_U+30A4_U+30E4_U+30FC 1
 62
   179
420
  2234388
370
     9
100
AcDb2dPolyline
 66
     1
 10
0.0
 20
0.0
 30
0.0
  0
VERTEX
  5
90
330
8F
100
AcDbEntity
  8
_U+30EC_U+30A4_U+30E4_U+30FC 1
 62
   179
420
  2234388
370
     9
100
AcDbVertex
100
AcDb2dVertex
 10
122.71014853607
 20
-144.7045055193793
 30
0.0
  0
VERTEX
  5
91
330
8F
100
AcDbEntity
  8
_U+30EC_U+30A4_U+30E4_U+30FC 1
 62
   179
420
  2234388
370
     9
100
AcDbVertex
100
AcDb2dVertex
 10
125.169962084426
 20
-144.7045055193793
 30
0.0
  0
SEQEND
  5
92
330
8F
100
AcDbEntity
  8
_U+30EC_U+30A4_U+30E4_U+30FC 1
 62
   179
420
  2234388
370
     9
  0
INSERT
  5
94
330
1F
100
AcDbEntity
  8
_U+30EC_U+30A4_U+30E4_U+30FC 1
100
AcDbBlockReference
  2
block 2
 10
0.0
 20
0.0
 30
0.0
  0
POLYLINE
  5
99
330
1F
100
AcDbEntity
  8
_U+30EC_U+30A4_U+30E4_U+30FC 1
 62
   179
420
  2234388
370
     9
100
AcDb2dPolyline
 66
     1
 10
0.0
 20
0.0
 30
0.0
  0
VERTEX
  5
9A
330
99
100
AcDbEntity
  8
_U+30EC_U+30A4_U+30E4_U+30FC 1
 62
   179
420
  2234388
370
     9
100
AcDbVertex
100
AcDb2dVertex
 10
124.1701898877101
 20
-144.7045055193793
 30
0.0
  0
VERTEX
  5
9B
330
99
100
AcDbEntity
  8
_U+30EC_U+30A4_U+30E4_U+30FC 1
 62
   179
420
  2234388
370
     9
100
AcDbVertex
100
AcDb2dVertex
 10
124.1701898877101
 20
-154.7054732946571
 30
0.0
  0
SEQEND
  5
9C
330
99
100
AcDbEntity
  8
_U+30EC_U+30A4_U+30E4_U+30FC 1
 62
   179
420
  2234388
370
     9
  0
POLYLINE
  5
9D
330
1F
100
AcDbEntity
  8
_U+30EC_U+30A4_U+30E4_U+30FC 1
 62
   179
420
  2234388
370
     9
100
AcDb2dPolyline
 66
     1
 10
0.0
 20
0.0
 30
0.0
  0
VERTEX
  5
9E
330
9D
100
AcDbEntity
  8
_U+30EC_U+30A4_U+30E4_U+30FC 1
 62
   179
420
  2234388
370
     9
100
AcDbVertex
100
AcDb2dVertex
 10
107.7095439187673
 20
-154.7054732946571
 30
0.0
  0
VERTEX
  5
9F
330
9D
100
AcDbEntity
  8
_U+30EC_U+30A4_U+30E4_U+30FC 1
 62
   179
420
  2234388
370
     9
100
AcDbVertex
100
AcDb2dVertex
 10
125.169962084426
 20
-154.7054732946571
 30
0.0
  0
SEQEND
  5
A0
330
9D
100
AcDbEntity
  8
_U+30EC_U+30A4_U+30E4_U+30FC 1
 62
   179
420
  2234388
370
     9
  0
INSERT
  5
A2
330
1F
100
AcDbEntity
  8
_U+30EC_U+30A4_U+30E4_U+30FC 1
100
AcDbBlockReference
  2
block 3
 10
0.0
 20
0.0
 30
0.0
  0
POLYLINE
  5
AA
330
1F
100
AcDbEntity
  8
_U+30EC_U+30A4_U+30E4_U+30FC 1
 62
   179
420
  2234388
370
     9
100
AcDb2dPolyline
 66
     1
 10
0.0
 20
0.0
 30
0.0
  0
VERTEX
  5
AB
330
AA
100
AcDbEntity
  8
_U+30EC_U+30A4_U+30E4_U+30FC 1
 62
   179
420
  2234388
370
     9
100
AcDbVertex
100
AcDb2dVertex
 10
109.1695527504855
 20
-154.7054732946571
 30
0.0
  0
VERTEX
  5
AC
330
AA
100
AcDbEntity
  8
_U+30EC_U+30A4_U+30E4_U+30FC 1
 62
   179
420
  2234388
370
     9
100
AcDbVertex
100
AcDb2dVertex
 10
109.1695527504855
 20
-149.4475674626381
 30
0.0
  0
SEQEND
  5
AD
330
AA
100
AcDbEntity
  8
_U+30EC_U+30A4_U+30E4_U+30FC 1
 62
   179
420
  2234388
370
     9
  0
POLYLINE
  5
AE
330
1F
100
AcDbEntity
  8
_U+30EC_U+30A4_U+30E4_U+30FC 1
 62
   179
420
  2234388
370
     9
100
AcDb2dPolyline
 66
     1
 10
0.0
 20
0.0
 30
0.0
  0
VERTEX
  5
AF
330
AE
100
AcDbEntity
  8
_U+30EC_U+30A4_U+30E4_U+30FC 1
 62
   179
420
  2234388
370
     9
100
AcDbVertex
100
AcDb2dVertex
 10
109.1695527504855
 20
-154.7054732946571
 30
0.0
  0
VERTEX
  5
B0
330
AE
100
AcDbEntity
  8
_U+30EC_U+30A4_U+30E4_U+30FC 1
 62
   179
420
  2234388
370
     9
100
AcDbVertex
100
AcDb2dVertex
 10
109.1695527504855
 20
-156.2047788498378
 30
0.0
  0
SEQEND
  5
B1
330
AE
100
AcDbEntity
  8
_U+30EC_U+30A4_U+30E4_U+30FC 1
 62
   179
420
  2234388
370
     9
  0
POLYLINE
  5
B2
330
1F
100
AcDbEntity
  8
_U+30EC_U+30A4_U+30E4_U+30FC 1
 62
   179
420
  2234388
370
     9
100
AcDb2dPolyline
 66
     1
 10
0.0
 20
0.0
 30
0.0
  0
VERTEX
  5
B3
330
B2
100
AcDbEntity
  8
_U+30EC_U+30A4_U+30E4_U+30FC 1
 62
   179
420
  2234388
370
     9
100
AcDbVertex
100
AcDb2dVertex
 10
107.7095439187673
 20
-154.7054732946571
 30
0.0
  0
VERTEX
  5
B4
330
B2
100
AcDbEntity
  8
_U+30EC_U+30A4_U+30E4_U+30FC 1
 62
   179
420
  2234388
370
     9
100
AcDbVertex
100
AcDb2dVertex
 10
110.1700305280129
 20
-154.7054732946571
 30
0.0
  0
SEQEND
  5
B5
330
B2
100
AcDbEntity
  8
_U+30EC_U+30A4_U+30E4_U+30FC 1
 62
   179
420
  2234388
370
     9
  0
POLYLINE
  5
B6
330
1F
100
AcDbEntity
  8
_U+30EC_U+30A4_U+30E4_U+30FC 1
 62
   179
420
  2234388
370
     9
100
AcDb2dPolyline
 66
     1
 10
0.0
 20
0.0
 30
0.0
  0
VERTEX
  5
B7
330
B6
100
AcDbEntity
  8
_U+30EC_U+30A4_U+30E4_U+30FC 1
 62
   179
420
  2234388
370
     9
100
AcDbVertex
100
AcDb2dVertex
 10
107.7095439187673
 20
-155.2050066278653
 30
0.0
  0
VERTEX
  5
B8
330
B6
100
AcDbEntity
  8
_U+30EC_U+30A4_U+30E4_U+30FC 1
 62
   179
420
  2234388
370
     9
100
AcDbVertex
100
AcDb2dVertex
 10
110.1700305280129
 20
-155.2050066278653
 30
0.0
  0
SEQEND
  5
B9
330
B6
100
AcDbEntity
  8
_U+30EC_U+30A4_U+30E4_U+30FC 1
 62
   179
420
  2234388
370
     9
  0
INSERT
  5
BB
330
1F
100
AcDbEntity
  8
_U+30EC_U+30A4_U+30E4_U+30FC 1
100
AcDbBlockReference
  2
block 4
 10
0.0
 20
0.0
 30
0.0
  0
POLYLINE
  5
CB
330
1F
100
AcDbEntity
  8
_U+30EC_U+30A4_U+30E4_U+30FC 1
 62
   179
420
  2234388
370
     9
100
AcDb2dPolyline
 66
     1
 10
0.0
 20
0.0
 30
0.0
  0
VERTEX
  5
CC
330
CB
100
AcDbEntity
  8
_U+30EC_U+30A4_U+30E4_U+30FC 1
 62
   179
420
  2234388
370
     9
100
AcDbVertex
100
AcDb2dVertex
 10
95.1700581275651
 20
-159.9047827378016
 30
0.0
  0
VERTEX
  5
CD
330
CB
100
AcDbEntity
  8
_U+30EC_U+30A4_U+30E4_U+30FC 1
 62
   179
420
  2234388
370
     9
100
AcDbVertex
100
AcDb2dVertex
 10
105.1697909280062
 20
-159.9047827378016
 30
0.0
  0
SEQEND
  5
CE
330
CB
100
AcDbEntity
  8
_U+30EC_U+30A4_U+30E4_U+30FC 1
 62
   179
420
  2234388
370
     9
  0
POLYLINE
  5
CF
330
1F
100
AcDbEntity
  8
_U+30EC_U+30A4_U+30E4_U+30FC 1
 62
   179
420
  2234388
370
     9
100
AcDb2dPolyline
 66
     1
 10
0.0
 20
0.0
 30
0.0
  0
VERTEX
  5
D0
330
CF
100
AcDbEntity
  8
_U+30EC_U+30A4_U+30E4_U+30FC 1
 62
   179
420
  2234388
370
     9
100
AcDbVertex
100
AcDb2dVertex
 10
95.1700581275651
 20
-158.4447766270554
 30
0.0
  0
VERTEX
  5
D1
330
CF
100
AcDbEntity
  8
_U+30EC_U+30A4_U+30E4_U+30FC 1
 62
   179
420
  2234388
370
     9
100
AcDbVertex
100
AcDb2dVertex
 10
95.1700581275651
 20
-160.905260515329
 30
0.0
  0
SEQEND
  5
D2
330
CF
100
AcDbEntity
  8
_U+30EC_U+30A4_U+30E4_U+30FC 1
 62
   179
420
  2234388
370
     9
  0
POLYLINE
  5
D3
330
1F
100
AcDbEntity
  8
_U+30EC_U+30A4_U+30E4_U+30FC 1
 62
   179
420
  2234388
370
     9
100
AcDb2dPolyline
 66
     1
 10
0.0
 20
0.0
 30
0.0
  0
VERTEX
  5
D4
330
D3
100
AcDbEntity
  8
_U+30EC_U+30A4_U+30E4_U+30FC 1
 62
   179
420
  2234388
370
     9
100
AcDbVertex
100
AcDb2dVertex
 10
105.1697909280062
 20
-157.7447244050084
 30
0.0
  0
VERTEX
  5
D5
330
D3
100
AcDbEntity
  8
_U+30EC_U+30A4_U+30E4_U+30FC 1
 62
   179
420
  2234388
370
     9
100
AcDbVertex
100
AcDb2dVertex
 10
105.1697909280062
 20
-160.905260515329
 30
0.0
  0
SEQEND
  5
D6
330
D3
100
AcDbEntity
  8
_U+30EC_U+30A4_U+30E4_U+30FC 1
 62
   179
420
  2234388
370
     9
  0
INSERT
  5
D8
330
1F
100
AcDbEntity
  8
_U+30EC_U+30A4_U+30E4_U+30FC 1
100
AcDbBlockReference
  2
block 5
 10
0.0
 20
0.0
 30
0.0
  0
POLYLINE
  5
E0
330
1F
100
AcDbEntity
  8
_U+30EC_U+30A4_U+30E4_U+30FC 1
 62
   179
420
  2234388
370
     9
100
AcDb2dPolyline
 66
     1
 10
0.0
 20
0.0
 30
0.0
  0
VERTEX
  5
E1
330
E0
100
AcDbEntity
  8
_U+30EC_U+30A4_U+30E4_U+30FC 1
 62
   179
420
  2234388
370
     9
100
AcDbVertex
100
AcDb2dVertex
 10
85.1696550493633
 20
-139.7050094095181
 30
0.0
  0
VERTEX
  5
E2
330
E0
100
AcDbEntity
  8
_U+30EC_U+30A4_U+30E4_U+30FC 1
 62
   179
420
  2234388
370
     9
100
AcDbVertex
100
AcDb2dVertex
 10
120.1697605453251
 20
-139.7050094095181
 30
0.0
  0
SEQEND
  5
E3
330
E0
100
AcDbEntity
  8
_U+30EC_U+30A4_U+30E4_U+30FC 1
 62
   179
420
  2234388
370
     9
  0
POLYLINE
  5
E4
330
1F
100
AcDbEntity
  8
_U+30EC_U+30A4_U+30E4_U+30FC 1
 62
   179
420
  2234388
370
     9
100
AcDb2dPolyline
 66
     1
 10
0.0
 20
0.0
 30
0.0
  0
VERTEX
  5
E5
330
E4
100
AcDbEntity
  8
_U+30EC_U+30A4_U+30E4_U+30FC 1
 62
   179
420
  2234388
370
     9
100
AcDbVertex
100
AcDb2dVertex
 10
85.1696550493633
 20
-141.1650155202643
 30
0.0
  0
VERTEX
  5
E6
330
E4
100
AcDbEntity
  8
_U+30EC_U+30A4_U+30E4_U+30FC 1
 62
   179
420
  2234388
370
     9
100
AcDbVertex
100
AcDb2dVertex
 10
85.1696550493633
 20
-138.7045316319906
 30
0.0
  0
SEQEND
  5
E7
330
E4
100
AcDbEntity
  8
_U+30EC_U+30A4_U+30E4_U+30FC 1
 62
   179
420
  2234388
370
     9
  0
POLYLINE
  5
E8
330
1F
100
AcDbEntity
  8
_U+30EC_U+30A4_U+30E4_U+30FC 1
 62
   179
420
  2234388
370
     9
100
AcDb2dPolyline
 66
     1
 10
0.0
 20
0.0
 30
0.0
  0
VERTEX
  5
E9
330
E8
100
AcDbEntity
  8
_U+30EC_U+30A4_U+30E4_U+30FC 1
 62
   179
420
  2234388
370
     9
100
AcDbVertex
100
AcDb2dVertex
 10
120.1697605453251
 20
-141.1650155202643
 30
0.0
  0
VERTEX
  5
EA
330
E8
100
AcDbEntity
  8
_U+30EC_U+30A4_U+30E4_U+30FC 1
 62
   179
420
  2234388
370
     9
100
AcDbVertex
100
AcDb2dVertex
 10
120.1697605453251
 20
-138.7045316319906
 30
0.0
  0
SEQEND
  5
EB
330
E8
100
AcDbEntity
  8
_U+30EC_U+30A4_U+30E4_U+30FC 1
 62
   179
420
  2234388
370
     9
  0
INSERT
  5
ED
330
1F
100
AcDbEntity
  8
_U+30EC_U+30A4_U+30E4_U+30FC 1
100
AcDbBlockReference
  2
block 6
 10
0.0
 20
0.0
 30
0.0
  0
POLYLINE
  5
F4
330
1F
100
AcDbEntity
  8
_U+30EC_U+30A4_U+30E4_U+30FC 1
 62
   179
420
  2234388
370
     9
100
AcDb2dPolyline
 66
     1
 10
0.0
 20
0.0
 30
0.0
  0
VERTEX
  5
F5
330
F4
100
AcDbEntity
  8
_U+30EC_U+30A4_U+30E4_U+30FC 1
 62
   179
420
  2234388
370
     9
100
AcDbVertex
100
AcDb2dVertex
 10
85.1696550493633
 20
-159.9047827378016
 30
0.0
  0
VERTEX
  5
F6
330
F4
100
AcDbEntity
  8
_U+30EC_U+30A4_U+30E4_U+30FC 1
 62
   179
420
  2234388
370
     9
100
AcDbVertex
100
AcDb2dVertex
 10
95.1700581275651
 20
-159.9047827378016
 30
0.0
  0
SEQEND
  5
F7
330
F4
100
AcDbEntity
  8
_U+30EC_U+30A4_U+30E4_U+30FC 1
 62
   179
420
  2234388
370
     9
  0
POLYLINE
  5
F8
330
1F
100
AcDbEntity
  8
_U+30EC_U+30A4_U+30E4_U+30FC 1
 62
   179
420
  2234388
370
     9
100
AcDb2dPolyline
 66
     1
 10
0.0
 20
0.0
 30
0.0
  0
VERTEX
  5
F9
330
F8
100
AcDbEntity
  8
_U+30EC_U+30A4_U+30E4_U+30FC 1
 62
   179
420
  2234388
370
     9
100
AcDbVertex
100
AcDb2dVertex
 10
85.1696550493633
 20
-147.2456344076329
 30
0.0
  0
VERTEX
  5
FA
330
F8
100
AcDbEntity
  8
_U+30EC_U+30A4_U+30E4_U+30FC 1
 62
   179
420
  2234388
370
     9
100
AcDbVertex
100
AcDb2dVertex
 10
85.1696550493633
 20
-160.905260515329
 30
0.0
  0
SEQEND
  5
FB
330
F8
100
AcDbEntity
  8
_U+30EC_U+30A4_U+30E4_U+30FC 1
 62
   179
420
  2234388
370
     9
  0
INSERT
  5
FD
330
1F
100
AcDbEntity
  8
_U+30EC_U+30A4_U+30E4_U+30FC 1
100
AcDbBlockReference
  2
block 7
 10
0.0
 20
0.0
 30
0.0
  0
ENDSEC
  0
SECTION
  2
OBJECTS
  0
DICTIONARY
  5
C
330
0
100
AcDbDictionary
281
     1
  3
ACAD_GROUP
350
D
  3
ACAD_LAYOUT
350
1A
  3
ACAD_MATERIAL
350
3B
  3
ACAD_MLEADERSTYLE
350
106
  3
ACAD_MLINESTYLE
350
17
  3
ACAD_PLOTSETTINGS
350
19
  3
ACAD_PLOTSTYLENAME
350
E
  3
ACAD_TABLESTYLE
350
105
  3
ACAD_VISUALSTYLE
350
2A
  0
SUN
  5
3F
330
29
100
AcDbSun
 90
        1
290
     0
 63
     7
421
 16777215
 40
1.0
291
     1
 91
  2455826
 92
 54000000
292
     0
 70
     2
 71
   256
280
     1
  0
DICTIONARY
  5
D
102
{ACAD_REACTORS
330
C
102
}
330
C
100
AcDbDictionary
281
     1
  0
DICTIONARY
  5
1A
102
{ACAD_REACTORS
330
C
102
}
330
C
100
AcDbDictionary
281
     1
  3
Layout1
350
1E
  3
Layout2
350
26
  3
Model
350
22
  0
DICTIONARY
  5
3B
102
{ACAD_REACTORS
330
C
102
}
330
C
100
AcDbDictionary
281
     1
  3
ByBlock
350
3D
  3
ByLayer
350
3C
  3
Global
350
3E
  0
DICTIONARY
  5
106
102
{ACAD_REACTORS
330
C
102
}
330
C
100
AcDbDictionary
281
     1
  0
DICTIONARY
  5
17
102
{ACAD_REACTORS
330
C
102
}
330
C
100
AcDbDictionary
281
     1
  3
Standard
350
18
  0
DICTIONARY
  5
19
102
{ACAD_REACTORS
330
C
102
}
330
C
100
AcDbDictionary
281
     1
  0
ACDBDICTIONARYWDFLT
  5
E
102
{ACAD_REACTORS
330
C
102
}
330
C
100
AcDbDictionary
281
     1
  3
Normal
350
F
100
AcDbDictionaryWithDefault
340
F
  0
DICTIONARY
  5
105
102
{ACAD_REACTORS
330
C
102
}
330
C
100
AcDbDictionary
281
     1
  0
DICTIONARY
  5
2A
102
{ACAD_REACTORS
330
C
102
}
330
C
100
AcDbDictionary
281
     1
  3
2dWireframe
350
2F
  3
3D Hidden
350
31
  3
3dWireframe
350
30
  3
Basic
350
32
  3
Brighten
350
36
  3
ColorChange
350
3A
  3
Conceptual
350
34
  3
Dim
350
35
  3
Facepattern
350
39
  3
Flat
350
2B
  3
FlatWithEdges
350
2C
  3
Gouraud
350
2D
  3
GouraudWithEdges
350
2E
  3
Linepattern
350
38
  3
Realistic
350
33
  3
Thicken
350
37
  0
LAYOUT
  5
1E
102
{ACAD_REACTORS
330
1A
102
}
330
1A
100
AcDbPlotSettings
  1

  2
none_device
  4

  6

 40
0.0
 41
0.0
 42
0.0
 43
0.0
 44
0.0
 45
0.0
 46
0.0
 47
0.0
 48
0.0
 49
0.0
140
0.0
141
0.0
142
1.0
143
1.0
 70
   688
 72
     0
 73
     0
 74
     5
  7

 75
    16
 76
     0
 77
     2
 78
   300
147
1.0
148
0.0
149
0.0
100
AcDbLayout
  1
Layout1
 70
     1
 71
     1
 10
0.0
 20
0.0
 11
12.0
 21
9.0
 12
0.0
 22
0.0
 32
0.0
 14
1.000000000000000E+20
 24
1.000000000000000E+20
 34
1.000000000000000E+20
 15
-1.000000000000000E+20
 25
-1.000000000000000E+20
 35
-1.000000000000000E+20
146
0.0
 13
0.0
 23
0.0
 33
0.0
 16
1.0
 26
0.0
 36
0.0
 17
0.0
 27
1.0
 37
0.0
 76
     0
330
1B
  0
LAYOUT
  5
26
102
{ACAD_REACTORS
330
1A
102
}
330
1A
100
AcDbPlotSettings
  1

  2
none_device
  4

  6

 40
0.0
 41
0.0
 42
0.0
 43
0.0
 44
0.0
 45
0.0
 46
0.0
 47
0.0
 48
0.0
 49
0.0
140
0.0
141
0.0
142
1.0
143
1.0
 70
   688
 72
     0
 73
     0
 74
     5
  7

 75
    16
 76
     0
 77
     2
 78
   300
147
1.0
148
0.0
149
0.0
100
AcDbLayout
  1
Layout2
 70
     1
 71
     2
 10
0.0
 20
0.0
 11
0.0
 21
0.0
 12
0.0
 22
0.0
 32
0.0
 14
0.0
 24
0.0
 34
0.0
 15
0.0
 25
0.0
 35
0.0
146
0.0
 13
0.0
 23
0.0
 33
0.0
 16
1.0
 26
0.0
 36
0.0
 17
0.0
 27
1.0
 37
0.0
 76
     0
330
23
  0
LAYOUT
  5
22
102
{ACAD_REACTORS
330
1A
102
}
330
1A
100
AcDbPlotSettings
  1

  2
none_device
  4

  6

 40
0.0
 41
0.0
 42
0.0
 43
0.0
 44
0.0
 45
0.0
 46
0.0
 47
0.0
 48
0.0
 49
0.0
140
0.0
141
0.0
142
1.0
143
1.0
 70
  1712
 72
     0
 73
     0
 74
     0
  7

 75
     0
 76
     0
 77
     2
 78
   300
147
1.0
148
0.0
149
0.0
100
AcDbLayout
  1
Model
 70
     1
 71
     0
 10
0.0
 20
0.0
 11
12.0
 21
9.0
 12
0.0
 22
0.0
 32
0.0
 14
1.000000000000000E+20
 24
1.000000000000000E+20
 34
1.000000000000000E+20
 15
-1.000000000000000E+20
 25
-1.000000000000000E+20
 35
-1.000000000000000E+20
146
0.0
 13
0.0
 23
0.0
 33
0.0
 16
1.0
 26
0.0
 36
0.0
 17
0.0
 27
1.0
 37
0.0
 76
     0
330
1F
331
29
  0
MATERIAL
  5
3D
102
{ACAD_REACTORS
330
3B
102
}
330
3B
100
AcDbMaterial
  1
ByBlock
 72
     1
 94
      127
  0
MATERIAL
  5
3C
102
{ACAD_REACTORS
330
3B
102
}
330
3B
100
AcDbMaterial
  1
ByLayer
 72
     1
 94
      127
  0
MATERIAL
  5
3E
102
{ACAD_REACTORS
330
3B
102
}
330
3B
100
AcDbMaterial
  1
Global
 72
     1
 94
      127
  0
MLINESTYLE
  5
18
102
{ACAD_REACTORS
330
17
102
}
330
17
100
AcDbMlineStyle
  2
Standard
 70
     0
  3

 62
   256
 51
90.0
 52
90.0
 71
     2
 49
0.5
 62
   256
  6
BYLAYER
 49
-0.5
 62
   256
  6
BYLAYER
  0
ACDBPLACEHOLDER
  5
F
102
{ACAD_REACTORS
330
E
102
}
330
E
  0
VISUALSTYLE
  5
2F
102
{ACAD_REACTORS
330
2A
102
}
330
2A
100
AcDbVisualStyle
  2
2dWireframe
 70
     4
177
     2
291
     0
 71
     0
176
     1
 72
     2
176
     1
 73
     0
176
     1
 90
        0
176
     1
 40
-0.6
176
     1
 41
-30.0
176
     1
 62
     5
 63
     7
421
 16777215
176
     1
 74
     1
176
     1
 91
        4
176
     1
 64
     7
176
     1
 65
   257
176
     1
 75
     1
176
     1
175
     1
176
     1
 42
1.0
176
     1
 92
        0
176
     1
 66
   257
176
     1
 43
1.0
176
     1
 76
     1
176
     1
 77
     6
176
     1
 78
     2
176
     1
 67
     7
176
     1
 79
     5
176
     1
170
     0
176
     1
171
     0
176
     1
290
     0
176
     1
 93
        1
176
     1
 44
0.0
176
     1
173
     0
176
     1
  0
VISUALSTYLE
  5
31
102
{ACAD_REACTORS
330
2A
102
}
330
2A
100
AcDbVisualStyle
  2
3D Hidden
 70
     6
177
     2
291
     0
 71
     1
176
     1
 72
     2
176
     1
 73
     2
176
     1
 90
        0
176
     1
 40
-0.6
176
     1
 41
-30.0
176
     1
 62
     5
 63
     7
421
 16777215
176
     1
 74
     2
176
     1
 91
        2
176
     1
 64
     7
176
     1
 65
   257
176
     1
 75
     2
176
     1
175
     1
176
     1
 42
40.0
176
     1
 92
        0
176
     1
 66
   257
176
     1
 43
1.0
176
     1
 76
     1
176
     1
 77
     6
176
     1
 78
     2
176
     1
 67
     7
176
     1
 79
     3
176
     1
170
     0
176
     1
171
     0
176
     1
290
     0
176
     1
 93
        1
176
     1
 44
0.0
176
     1
173
     0
176
     1
  0
VISUALSTYLE
  5
30
102
{ACAD_REACTORS
330
2A
102
}
330
2A
100
AcDbVisualStyle
  2
3dWireframe
 70
     5
177
     2
291
     0
 71
     0
176
     1
 72
     2
176
     1
 73
     0
176
     1
 90
        0
176
     1
 40
-0.6
176
     1
 41
-30.0
176
     1
 62
     5
 63
     7
421
 16777215
176
     1
 74
     1
176
     1
 91
        4
176
     1
 64
     7
176
     1
 65
   257
176
     1
 75
     1
176
     1
175
     1
176
     1
 42
1.0
176
     1
 92
        0
176
     1
 66
   257
176
     1
 43
1.0
176
     1
 76
     1
176
     1
 77
     6
176
     1
 78
     2
176
     1
 67
     7
176
     1
 79
     5
176
     1
170
     0
176
     1
171
     0
176
     1
290
     0
176
     1
 93
        1
176
     1
 44
0.0
176
     1
173
     0
176
     1
  0
VISUALSTYLE
  5
32
102
{ACAD_REACTORS
330
2A
102
}
330
2A
100
AcDbVisualStyle
  2
Basic
 70
     7
177
     2
291
     1
 71
     1
176
     1
 72
     0
176
     1
 73
     1
176
     1
 90
        0
176
     1
 40
-0.6
176
     1
 41
-30.0
176
     1
 62
     5
 63
     7
421
 16777215
176
     1
 74
     0
176
     1
 91
        4
176
     1
 64
     7
176
     1
 65
   257
176
     1
 75
     1
176
     1
175
     1
176
     1
 42
1.0
176
     1
 92
        8
176
     1
 66
     7
176
     1
 43
1.0
176
     1
 76
     1
176
     1
 77
     6
176
     1
 78
     2
176
     1
 67
     7
176
     1
 79
     5
176
     1
170
     0
176
     1
171
     0
176
     1
290
     0
176
     1
 93
        1
176
     1
 44
0.0
176
     1
173
     0
176
     1
  0
VISUALSTYLE
  5
36
102
{ACAD_REACTORS
330
2A
102
}
330
2A
100
AcDbVisualStyle
  2
Brighten
 70
    12
177
     2
291
     1
 71
     2
176
     1
 72
     2
176
     1
 73
     0
176
     1
 90
        0
176
     1
 40
-0.6
176
     1
 41
-30.0
176
     1
 62
     5
 63
     7
421
 16777215
176
     1
 74
     1
176
     1
 91
        4
176
     1
 64
     7
176
     1
 65
   257
176
     1
 75
     1
176
     1
175
     1
176
     1
 42
1.0
176
     1
 92
        8
176
     1
 66
     7
176
     1
 43
1.0
176
     1
 76
     1
176
     1
 77
     6
176
     1
 78
     2
176
     1
 67
     7
176
     1
 79
     5
176
     1
170
     0
176
     1
171
     0
176
     1
290
     0
176
     1
 93
        1
176
     1
 44
50.0
176
     1
173
     0
176
     1
  0
VISUALSTYLE
  5
3A
102
{ACAD_REACTORS
330
2A
102
}
330
2A
100
AcDbVisualStyle
  2
ColorChange
 70
    16
177
     2
291
     1
 71
     2
176
     1
 72
     2
176
     1
 73
     3
176
     1
 90
        0
176
     1
 40
-0.6
176
     1
 41
-30.0
176
     1
 62
     5
 63
     8
421
  8421504
176
     1
 74
     1
176
     1
 91
        4
176
     1
 64
     7
176
     1
 65
   257
176
     1
 75
     1
176
     1
175
     1
176
     1
 42
1.0
176
     1
 92
        8
176
     1
 66
     8
424
  8421504
176
     1
 43
1.0
176
     1
 76
     1
176
     1
 77
     6
176
     1
 78
     2
176
     1
 67
     7
176
     1
 79
     5
176
     1
170
     0
176
     1
171
     0
176
     1
290
     0
176
     1
 93
        1
176
     1
 44
0.0
176
     1
173
     0
176
     1
  0
VISUALSTYLE
  5
34
102
{ACAD_REACTORS
330
2A
102
}
330
2A
100
AcDbVisualStyle
  2
Conceptual
 70
     9
177
     2
291
     0
 71
     3
176
     1
 72
     2
176
     1
 73
     0
176
     1
 90
        0
176
     1
 40
-0.6
176
     1
 41
-30.0
176
     1
 62
     5
 63
     7
421
 16777215
176
     1
 74
     2
176
     1
 91
        2
176
     1
 64
     7
176
     1
 65
   257
176
     1
 75
     1
176
     1
175
     1
176
     1
 42
40.0
176
     1
 92
        8
176
     1
 66
     7
176
     1
 43
1.0
176
     1
 76
     1
176
     1
 77
     6
176
     1
 78
     2
176
     1
 67
     7
176
     1
 79
     3
176
     1
170
     0
176
     1
171
     0
176
     1
290
     0
176
     1
 93
        1
176
     1
 44
0.0
176
     1
173
     0
176
     1
  0
VISUALSTYLE
  5
35
102
{ACAD_REACTORS
330
2A
102
}
330
2A
100
AcDbVisualStyle
  2
Dim
 70
    11
177
     2
291
     1
 71
     2
176
     1
 72
     2
176
     1
 73
     0
176
     1
 90
        0
176
     1
 40
-0.6
176
     1
 41
-30.0
176
     1
 62
     5
 63
     7
421
 16777215
176
     1
 74
     1
176
     1
 91
        4
176
     1
 64
     7
176
     1
 65
   257
176
     1
 75
     1
176
     1
175
     1
176
     1
 42
1.0
176
     1
 92
        8
176
     1
 66
     7
176
     1
 43
1.0
176
     1
 76
     1
176
     1
 77
     6
176
     1
 78
     2
176
     1
 67
     7
176
     1
 79
     5
176
     1
170
     0
176
     1
171
     0
176
     1
290
     0
176
     1
 93
        1
176
     1
 44
-50.0
176
     1
173
     0
176
     1
  0
VISUALSTYLE
  5
39
102
{ACAD_REACTORS
330
2A
102
}
330
2A
100
AcDbVisualStyle
  2
Facepattern
 70
    15
177
     2
291
     1
 71
     2
176
     1
 72
     2
176
     1
 73
     0
176
     1
 90
        0
176
     1
 40
-0.6
176
     1
 41
-30.0
176
     1
 62
     5
 63
     7
421
 16777215
176
     1
 74
     1
176
     1
 91
        4
176
     1
 64
     7
176
     1
 65
   257
176
     1
 75
     1
176
     1
175
     1
176
     1
 42
1.0
176
     1
 92
        8
176
     1
 66
     7
176
     1
 43
1.0
176
     1
 76
     1
176
     1
 77
     6
176
     1
 78
     2
176
     1
 67
     7
176
     1
 79
     5
176
     1
170
     0
176
     1
171
     0
176
     1
290
     0
176
     1
 93
        1
176
     1
 44
0.0
176
     1
173
     0
176
     1
  0
VISUALSTYLE
  5
2B
102
{ACAD_REACTORS
330
2A
102
}
330
2A
100
AcDbVisualStyle
  2
Flat
 70
     0
177
     2
291
     1
 71
     2
176
     1
 72
     1
176
     1
 73
     1
176
     1
 90
        2
176
     1
 40
-0.6
176
     1
 41
30.0
176
     1
 62
     5
 63
     7
421
 16777215
176
     1
 74
     0
176
     1
 91
        4
176
     1
 64
     7
176
     1
 65
   257
176
     1
 75
     1
176
     1
175
     1
176
     1
 42
1.0
176
     1
 92
        8
176
     1
 66
     7
176
     1
 43
1.0
176
     1
 76
     1
176
     1
 77
     6
176
     1
 78
     2
176
     1
 67
     7
176
     1
 79
     5
176
     1
170
     0
176
     1
171
     0
176
     1
290
     0
176
     1
 93
       13
176
     1
 44
0.0
176
     1
173
     0
176
     1
  0
VISUALSTYLE
  5
2C
102
{ACAD_REACTORS
330
2A
102
}
330
2A
100
AcDbVisualStyle
  2
FlatWithEdges
 70
     1
177
     2
291
     1
 71
     2
176
     1
 72
     1
176
     1
 73
     1
176
     1
 90
        2
176
     1
 40
-0.6
176
     1
 41
30.0
176
     1
 62
     5
 63
     7
421
 16777215
176
     1
 74
     1
176
     1
 91
        4
176
     1
 64
     7
176
     1
 65
   257
176
     1
 75
     1
176
     1
175
     1
176
     1
 42
1.0
176
     1
 92
        0
176
     1
 66
   257
176
     1
 43
1.0
176
     1
 76
     1
176
     1
 77
     6
176
     1
 78
     2
176
     1
 67
     7
176
     1
 79
     5
176
     1
170
     0
176
     1
171
     0
176
     1
290
     0
176
     1
 93
       13
176
     1
 44
0.0
176
     1
173
     0
176
     1
  0
VISUALSTYLE
  5
2D
102
{ACAD_REACTORS
330
2A
102
}
330
2A
100
AcDbVisualStyle
  2
Gouraud
 70
     2
177
     2
291
     1
 71
     2
176
     1
 72
     2
176
     1
 73
     1
176
     1
 90
        2
176
     1
 40
-0.6
176
     1
 41
30.0
176
     1
 62
     5
 63
     7
421
 16777215
176
     1
 74
     0
176
     1
 91
        4
176
     1
 64
     7
176
     1
 65
   257
176
     1
 75
     1
176
     1
175
     1
176
     1
 42
1.0
176
     1
 92
        0
176
     1
 66
     7
176
     1
 43
1.0
176
     1
 76
     1
176
     1
 77
     6
176
     1
 78
     2
176
     1
 67
     7
176
     1
 79
     5
176
     1
170
     0
176
     1
171
     0
176
     1
290
     0
176
     1
 93
       13
176
     1
 44
0.0
176
     1
173
     0
176
     1
  0
VISUALSTYLE
  5
2E
102
{ACAD_REACTORS
330
2A
102
}
330
2A
100
AcDbVisualStyle
  2
GouraudWithEdges
 70
     3
177
     2
291
     1
 71
     2
176
     1
 72
     2
176
     1
 73
     1
176
     1
 90
        2
176
     1
 40
-0.6
176
     1
 41
30.0
176
     1
 62
     5
 63
     7
421
 16777215
176
     1
 74
     1
176
     1
 91
        4
176
     1
 64
     7
176
     1
 65
   257
176
     1
 75
     1
176
     1
175
     1
176
     1
 42
1.0
176
     1
 92
        0
176
     1
 66
   257
176
     1
 43
1.0
176
     1
 76
     1
176
     1
 77
     6
176
     1
 78
     2
176
     1
 67
     7
176
     1
 79
     5
176
     1
170
     0
176
     1
171
     0
176
     1
290
     0
176
     1
 93
       13
176
     1
 44
0.0
176
     1
173
     0
176
     1
  0
VISUALSTYLE
  5
38
102
{ACAD_REACTORS
330
2A
102
}
330
2A
100
AcDbVisualStyle
  2
Linepattern
 70
    14
177
     2
291
     1
 71
     2
176
     1
 72
     2
176
     1
 73
     0
176
     1
 90
        0
176
     1
 40
-0.6
176
     1
 41
-30.0
176
     1
 62
     5
 63
     7
421
 16777215
176
     1
 74
     1
176
     1
 91
        4
176
     1
 64
     7
176
     1
 65
   257
176
     1
 75
     7
176
     1
175
     7
176
     1
 42
1.0
176
     1
 92
        8
176
     1
 66
     7
176
     1
 43
1.0
176
     1
 76
     1
176
     1
 77
     6
176
     1
 78
     2
176
     1
 67
     7
176
     1
 79
     5
176
     1
170
     0
176
     1
171
     0
176
     1
290
     0
176
     1
 93
        1
176
     1
 44
0.0
176
     1
173
     0
176
     1
  0
VISUALSTYLE
  5
33
102
{ACAD_REACTORS
330
2A
102
}
330
2A
100
AcDbVisualStyle
  2
Realistic
 70
     8
177
     2
291
     0
 71
     2
176
     1
 72
     2
176
     1
 73
     0
176
     1
 90
        0
176
     1
 40
-0.6
176
     1
 41
-30.0
176
     1
 62
     5
 63
     7
421
 16777215
176
     1
 74
     1
176
     1
 91
        0
176
     1
 64
     7
176
     1
 65
   257
176
     1
 75
     1
176
     1
175
     1
176
     1
 42
1.0
176
     1
 92
        8
176
     1
 66
     8
424
  7895160
176
     1
 43
1.0
176
     1
 76
     1
176
     1
 77
     6
176
     1
 78
     2
176
     1
 67
     7
176
     1
 79
     5
176
     1
170
     0
176
     1
171
     0
176
     1
290
     0
176
     1
 93
       13
176
     1
 44
0.0
176
     1
173
     0
176
     1
  0
VISUALSTYLE
  5
37
102
{ACAD_REACTORS
330
2A
102
}
330
2A
100
AcDbVisualStyle
  2
Thicken
 70
    13
177
     2
291
     1
 71
     2
176
     1
 72
     2
176
     1
 73
     0
176
     1
 90
        0
176
     1
 40
-0.6
176
     1
 41
-30.0
176
     1
 62
     5
 63
     7
421
 16777215
176
     1
 74
     1
176
     1
 91
        4
176
     1
 64
     7
176
     1
 65
   257
176
     1
 75
     1
176
     1
175
     1
176
     1
 42
1.0
176
     1
 92
       12
176
     1
 66
     7
176
     1
 43
1.0
176
     1
 76
     1
176
     1
 77
     6
176
     1
 78
     2
176
     1
 67
     7
176
     1
 79
     5
176
     1
170
     0
176
     1
171
     0
176
     1
290
     0
176
     1
 93
        1
176
     1
 44
0.0
176
     1
173
     0
176
     1
  0
ENDSEC
  0
EOF
