  0
SECTION
  2
HEADER
  9
$ACADVER
  1
AC1024
  9
$ACADMAINTVER
 70
     6
  9
$DWGCODEPAGE
  3
UNDEFINED
  9
$INSBASE
 10
0.0
 20
0.0
 30
0.0
  9
$EXTMIN
 10
1.000000000000000E+20
 20
1.000000000000000E+20
 30
1.000000000000000E+20
  9
$EXTMAX
 10
-1.000000000000000E+20
 20
-1.000000000000000E+20
 30
-1.000000000000000E+20
  9
$LIMMIN
 10
0.0
 20
0.0
  9
$LIMMAX
 10
12.0
 20
9.0
  9
$ORTHOMODE
 70
     0
  9
$REGENMODE
 70
     1
  9
$FILLMODE
 70
     1
  9
$QTEXTMODE
 70
     0
  9
$MIRRTEXT
 70
     1
  9
$LTSCALE
 40
1.0
  9
$ATTMODE
 70
     1
  9
$TEXTSIZE
 40
0.2
  9
$TRACEWID
 40
0.05
  9
$TEXTSTYLE
  7
Standard
  9
$CLAYER
  8
0
  9
$CELTYPE
  6
ByLayer
  9
$CECOLOR
 62
   256
  9
$CELTSCALE
 40
1.0
  9
$DISPSILH
 70
     0
  9
$DIMSCALE
 40
1.0
  9
$DIMASZ
 40
0.18
  9
$DIMEXO
 40
0.0625
  9
$DIMDLI
 40
0.38
  9
$DIMRND
 40
0.0
  9
$DIMDLE
 40
0.0
  9
$DIMEXE
 40
0.18
  9
$DIMTP
 40
0.0
  9
$DIMTM
 40
0.0
  9
$DIMTXT
 40
0.18
  9
$DIMCEN
 40
0.09
  9
$DIMTSZ
 40
0.0
  9
$DIMTOL
 70
     0
  9
$DIMLIM
 70
     0
  9
$DIMTIH
 70
     1
  9
$DIMTOH
 70
     1
  9
$DIMSE1
 70
     0
  9
$DIMSE2
 70
     0
  9
$DIMTAD
 70
     0
  9
$DIMZIN
 70
     0
  9
$DIMBLK
  1

  9
$DIMASO
 70
     1
  9
$DIMSHO
 70
     1
  9
$DIMPOST
  1

  9
$DIMAPOST
  1

  9
$DIMALT
 70
     0
  9
$DIMALTD
 70
     2
  9
$DIMALTF
 40
25.4
  9
$DIMLFAC
 40
1.0
  9
$DIMTOFL
 70
     0
  9
$DIMTVP
 40
0.0
  9
$DIMTIX
 70
     0
  9
$DIMSOXD
 70
     0
  9
$DIMSAH
 70
     0
  9
$DIMBLK1
  1

  9
$DIMBLK2
  1

  9
$DIMSTYLE
  2
Standard
  9
$DIMCLRD
 70
     0
  9
$DIMCLRE
 70
     0
  9
$DIMCLRT
 70
     0
  9
$DIMTFAC
 40
1.0
  9
$DIMGAP
 40
0.09
  9
$DIMJUST
 70
     0
  9
$DIMSD1
 70
     0
  9
$DIMSD2
 70
     0
  9
$DIMTOLJ
 70
     1
  9
$DIMTZIN
 70
     0
  9
$DIMALTZ
 70
     0
  9
$DIMALTTZ
 70
     0
  9
$DIMUPT
 70
     0
  9
$DIMDEC
 70
     4
  9
$DIMTDEC
 70
     4
  9
$DIMALTU
 70
     2
  9
$DIMALTTD
 70
     2
  9
$DIMTXSTY
  7
Standard
  9
$DIMAUNIT
 70
     0
  9
$DIMADEC
 70
     0
  9
$DIMALTRND
 40
0.0
  9
$DIMAZIN
 70
     0
  9
$DIMDSEP
 70
    46
  9
$DIMATFIT
 70
     3
  9
$DIMFRAC
 70
     0
  9
$DIMLDRBLK
  1

  9
$DIMLUNIT
 70
     2
  9
$DIMLWD
 70
    -2
  9
$DIMLWE
 70
    -2
  9
$DIMTMOVE
 70
     0
  9
$DIMFXL
 40
1.0
  9
$DIMFXLON
 70
     0
  9
$DIMJOGANG
 40
0.7853981633974483
  9
$DIMTFILL
 70
     0
  9
$DIMTFILLCLR
 70
     0
  9
$DIMARCSYM
 70
     0
  9
$DIMLTYPE
  6

  9
$DIMLTEX1
  6

  9
$DIMLTEX2
  6

  9
$DIMTXTDIRECTION
 70
     0
  9
$LUNITS
 70
     2
  9
$LUPREC
 70
     4
  9
$SKETCHINC
 40
0.1
  9
$FILLETRAD
 40
0.5
  9
$AUNITS
 70
     0
  9
$AUPREC
 70
     0
  9
$MENU
  1
.
  9
$ELEVATION
 40
0.0
  9
$PELEVATION
 40
0.0
  9
$THICKNESS
 40
0.0
  9
$LIMCHECK
 70
     0
  9
$CHAMFERA
 40
0.5
  9
$CHAMFERB
 40
0.5
  9
$CHAMFERC
 40
1.0
  9
$CHAMFERD
 40
0.0
  9
$SKPOLY
 70
     0
  9
$TDCREATE
 40
2457917.586967593
  9
$TDUCREATE
 40
2457917.211967593
  9
$TDUPDATE
 40
2457917.586967593
  9
$TDUUPDATE
 40
2457917.211967593
  9
$TDINDWG
 40
0.0000000116
  9
$TDUSRTIMER
 40
0.0000000116
  9
$USRTIMER
 70
     1
  9
$ANGBASE
 50
0.0
  9
$ANGDIR
 70
     0
  9
$PDMODE
 70
     0
  9
$PDSIZE
 40
0.0
  9
$PLINEWID
 40
0.0
  9
$SPLFRAME
 70
     0
  9
$SPLINETYPE
 70
     6
  9
$SPLINESEGS
 70
     8
  9
$HANDSEED
  5
122
  9
$SURFTAB1
 70
     6
  9
$SURFTAB2
 70
     6
  9
$SURFTYPE
 70
     6
  9
$SURFU
 70
     6
  9
$SURFV
 70
     6
  9
$UCSBASE
  2

  9
$UCSNAME
  2

  9
$UCSORG
 10
0.0
 20
0.0
 30
0.0
  9
$UCSXDIR
 10
1.0
 20
0.0
 30
0.0
  9
$UCSYDIR
 10
0.0
 20
1.0
 30
0.0
  9
$UCSORTHOREF
  2

  9
$UCSORTHOVIEW
 70
     0
  9
$UCSORGTOP
 10
0.0
 20
0.0
 30
0.0
  9
$UCSORGBOTTOM
 10
0.0
 20
0.0
 30
0.0
  9
$UCSORGLEFT
 10
0.0
 20
0.0
 30
0.0
  9
$UCSORGRIGHT
 10
0.0
 20
0.0
 30
0.0
  9
$UCSORGFRONT
 10
0.0
 20
0.0
 30
0.0
  9
$UCSORGBACK
 10
0.0
 20
0.0
 30
0.0
  9
$PUCSBASE
  2

  9
$PUCSNAME
  2

  9
$PUCSORG
 10
0.0
 20
0.0
 30
0.0
  9
$PUCSXDIR
 10
1.0
 20
0.0
 30
0.0
  9
$PUCSYDIR
 10
0.0
 20
1.0
 30
0.0
  9
$PUCSORTHOREF
  2

  9
$PUCSORTHOVIEW
 70
     0
  9
$PUCSORGTOP
 10
0.0
 20
0.0
 30
0.0
  9
$PUCSORGBOTTOM
 10
0.0
 20
0.0
 30
0.0
  9
$PUCSORGLEFT
 10
0.0
 20
0.0
 30
0.0
  9
$PUCSORGRIGHT
 10
0.0
 20
0.0
 30
0.0
  9
$PUCSORGFRONT
 10
0.0
 20
0.0
 30
0.0
  9
$PUCSORGBACK
 10
0.0
 20
0.0
 30
0.0
  9
$USERI1
 70
     0
  9
$USERI2
 70
     0
  9
$USERI3
 70
     0
  9
$USERI4
 70
     0
  9
$USERI5
 70
     0
  9
$USERR1
 40
0.0
  9
$USERR2
 40
0.0
  9
$USERR3
 40
0.0
  9
$USERR4
 40
0.0
  9
$USERR5
 40
0.0
  9
$WORLDVIEW
 70
     1
  9
$SHADEDGE
 70
     3
  9
$SHADEDIF
 70
    70
  9
$TILEMODE
 70
     1
  9
$MAXACTVP
 70
    64
  9
$PINSBASE
 10
0.0
 20
0.0
 30
0.0
  9
$PLIMCHECK
 70
     0
  9
$PEXTMIN
 10
1.000000000000000E+20
 20
1.000000000000000E+20
 30
1.000000000000000E+20
  9
$PEXTMAX
 10
-1.000000000000000E+20
 20
-1.000000000000000E+20
 30
-1.000000000000000E+20
  9
$PLIMMIN
 10
0.0
 20
0.0
  9
$PLIMMAX
 10
12.0
 20
9.0
  9
$UNITMODE
 70
     0
  9
$VISRETAIN
 70
     1
  9
$PLINEGEN
 70
     0
  9
$PSLTSCALE
 70
     1
  9
$TREEDEPTH
 70
  3020
  9
$CMLSTYLE
  2
Standard
  9
$CMLJUST
 70
     0
  9
$CMLSCALE
 40
1.0
  9
$PROXYGRAPHICS
 70
     1
  9
$MEASUREMENT
 70
     0
  9
$CELWEIGHT
370
    -1
  9
$ENDCAPS
280
     0
  9
$JOINSTYLE
280
     0
  9
$LWDISPLAY
290
     1
  9
$INSUNITS
 70
     1
  9
$HYPERLINKBASE
  1

  9
$STYLESHEET
  1

  9
$XEDIT
290
     1
  9
$CEPSNTYPE
380
     0
  9
$PSTYLEMODE
290
     1
  9
$FINGERPRINTGUID
  2
{238A3B6F-4BB0-1282-EDD7-0390AE890926}
  9
$VERSIONGUID
  2
{FAEB1C32-E019-11D5-929B-00C0DF256EC4}
  9
$EXTNAMES
290
     1
  9
$PSVPSCALE
 40
0.0
  9
$OLESTARTUP
290
     0
  9
$SORTENTS
280
   127
  9
$INDEXCTL
280
     0
  9
$HIDETEXT
280
     1
  9
$XCLIPFRAME
280
     2
  9
$HALOGAP
280
     0
  9
$OBSCOLOR
 70
   257
  9
$OBSLTYPE
280
     0
  9
$INTERSECTIONDISPLAY
280
     0
  9
$INTERSECTIONCOLOR
 70
   257
  9
$DIMASSOC
280
     2
  9
$PROJECTNAME
  1

  9
$CAMERADISPLAY
290
     0
  9
$LENSLENGTH
 40
50.0
  9
$CAMERAHEIGHT
 40
0.0
  9
$STEPSPERSEC
 40
2.0
  9
$STEPSIZE
 40
6.0
  9
$3DDWFPREC
 40
2.0
  9
$PSOLWIDTH
 40
0.25
  9
$PSOLHEIGHT
 40
4.0
  9
$LOFTANG1
 40
1.570796326794897
  9
$LOFTANG2
 40
1.570796326794897
  9
$LOFTMAG1
 40
0.0
  9
$LOFTMAG2
 40
0.0
  9
$LOFTPARAM
 70
     7
  9
$LOFTNORMALS
280
     1
  9
$LATITUDE
 40
37.795
  9
$LONGITUDE
 40
-122.394
  9
$NORTHDIRECTION
 40
0.0
  9
$TIMEZONE
 70
 -8000
  9
$LIGHTGLYPHDISPLAY
280
     1
  9
$TILEMODELIGHTSYNCH
280
     1
  9
$CMATERIAL
347
3C
  9
$SOLIDHIST
280
     1
  9
$SHOWHIST
280
     1
  9
$DWFFRAME
280
     2
  9
$DGNFRAME
280
     2
  9
$REALWORLDSCALE
290
     1
  9
$INTERFERECOLOR
 62
   256
  9
$CSHADOW
280
     0
  9
$SHADOWPLANELOCATION
 40
0.0
  0
ENDSEC
  0
SECTION
  2
CLASSES
  0
CLASS
  1
ACDBDICTIONARYWDFLT
  2
AcDbDictionaryWithDefault
  3
ObjectDBX Classes
 90
        0
 91
        4
280
     0
281
     0
  0
CLASS
  1
VISUALSTYLE
  2
AcDbVisualStyle
  3
ObjectDBX Classes
 90
     4095
 91
        4
280
     0
281
     0
  0
CLASS
  1
MATERIAL
  2
AcDbMaterial
  3
ObjectDBX Classes
 90
     1153
 91
        4
280
     0
281
     0
  0
CLASS
  1
SUN
  2
AcDbSun
  3
SCENEOE
 90
     1024
 91
        4
280
     0
281
     0
  0
ENDSEC
  0
SECTION
  2
TABLES
  0
TABLE
  2
VPORT
  5
8
330
0
100
AcDbSymbolTable
 70
     1
  0
VPORT
  5
29
330
8
100
AcDbSymbolTableRecord
100
AcDbViewportTableRecord
  2
*Active
 70
     0
 10
0.0
 20
0.0
 11
1.0
 21
1.0
 12
0.0
 22
0.0
 13
0.0
 23
0.0
 14
0.5
 24
0.5
 15
0.5
 25
0.5
 16
0.0
 26
0.0
 36
1.0
 17
105.0008280156501
 27
-148.4999710739862
 37
0.0
 40
296.9999421479724
 41
0.7070764206636528
 42
50.0
 43
0.0
 44
0.0
 50
0.0
 51
0.0
 71
     0
 72
   100
 73
     1
 74
     3
 75
     0
 76
     0
 77
     0
 78
     0
281
     0
 65
     1
110
0.0
120
0.0
130
0.0
111
1.0
121
0.0
131
0.0
112
0.0
122
1.0
132
0.0
 79
     0
146
0.0
 60
     3
 61
     5
292
     1
282
     1
141
0.0
142
0.0
 63
   250
361
3F
  0
ENDTAB
  0
TABLE
  2
LTYPE
  5
5
330
0
100
AcDbSymbolTable
 70
     1
  0
LTYPE
  5
14
330
5
100
AcDbSymbolTableRecord
100
AcDbLinetypeTableRecord
  2
ByBlock
 70
     0
  3

 72
    65
 73
     0
 40
0.0
  0
LTYPE
  5
15
330
5
100
AcDbSymbolTableRecord
100
AcDbLinetypeTableRecord
  2
ByLayer
 70
     0
  3

 72
    65
 73
     0
 40
0.0
  0
LTYPE
  5
16
330
5
100
AcDbSymbolTableRecord
100
AcDbLinetypeTableRecord
  2
Continuous
 70
     0
  3
Solid line
 72
    65
 73
     0
 40
0.0
  0
ENDTAB
  0
TABLE
  2
LAYER
  5
2
330
0
100
AcDbSymbolTable
 70
     2
  0
LAYER
  5
10
330
2
100
AcDbSymbolTableRecord
100
AcDbLayerTableRecord
  2
0
 70
     0
 62
     7
  6
Continuous
370
    -3
390
F
347
3E
  0
LAYER
  5
40
330
2
100
AcDbSymbolTableRecord
100
AcDbLayerTableRecord
  2
_U+30EC_U+30A4_U+30E4_U+30FC 1
 70
     0
 62
     7
  6
Continuous
370
    -3
390
F
347
3E
  0
ENDTAB
  0
TABLE
  2
STYLE
  5
3
330
0
100
AcDbSymbolTable
 70
     1
  0
STYLE
  5
11
330
3
100
AcDbSymbolTableRecord
100
AcDbTextStyleTableRecord
  2
Standard
 70
     0
 40
0.0
 41
1.0
 50
0.0
 71
     0
 42
0.2
  3
txt
  4

  0
ENDTAB
  0
TABLE
  2
VIEW
  5
6
330
0
100
AcDbSymbolTable
 70
     0
  0
ENDTAB
  0
TABLE
  2
UCS
  5
7
330
0
100
AcDbSymbolTable
 70
     0
  0
ENDTAB
  0
TABLE
  2
APPID
  5
9
330
0
100
AcDbSymbolTable
 70
     1
  0
APPID
  5
12
330
9
100
AcDbSymbolTableRecord
100
AcDbRegAppTableRecord
  2
ACAD
 70
     0
  0
ENDTAB
  0
TABLE
  2
DIMSTYLE
  5
A
330
0
100
AcDbSymbolTable
 70
     1
100
AcDbDimStyleTable
  0
DIMSTYLE
105
27
330
A
100
AcDbSymbolTableRecord
100
AcDbDimStyleTableRecord
  2
Standard
 70
     0
178
     0
340
11
  0
ENDTAB
  0
TABLE
  2
BLOCK_RECORD
  5
1
330
0
100
AcDbSymbolTable
 70
     7
  0
BLOCK_RECORD
  5
1F
330
1
100
AcDbSymbolTableRecord
100
AcDbBlockTableRecord
  2
*Model_Space
340
22
 70
     0
280
     1
281
     0
  0
BLOCK_RECORD
  5
1B
330
1
100
AcDbSymbolTableRecord
100
AcDbBlockTableRecord
  2
*Paper_Space
340
1E
 70
     0
280
     1
281
     0
  0
BLOCK_RECORD
  5
23
330
1
100
AcDbSymbolTableRecord
100
AcDbBlockTableRecord
  2
*Paper_Space0
340
26
 70
     0
280
     1
281
     0
  0
BLOCK_RECORD
  5
93
330
1
100
AcDbSymbolTableRecord
100
AcDbBlockTableRecord
  2
block 2
340
0
102
{BLKREFS
331
94
102
}
 70
     0
280
     1
281
     0
  0
BLOCK_RECORD
  5
A9
330
1
100
AcDbSymbolTableRecord
100
AcDbBlockTableRecord
  2
block 3
340
0
102
{BLKREFS
331
AA
102
}
 70
     0
280
     1
281
     0
  0
BLOCK_RECORD
  5
C6
330
1
100
AcDbSymbolTableRecord
100
AcDbBlockTableRecord
  2
block 4
340
0
102
{BLKREFS
331
C7
102
}
 70
     0
280
     1
281
     0
  0
BLOCK_RECORD
  5
D7
330
1
100
AcDbSymbolTableRecord
100
AcDbBlockTableRecord
  2
block 5
340
0
102
{BLKREFS
331
D8
102
}
 70
     0
280
     1
281
     0
  0
BLOCK_RECORD
  5
F4
330
1
100
AcDbSymbolTableRecord
100
AcDbBlockTableRecord
  2
block 6
340
0
102
{BLKREFS
331
F5
102
}
 70
     0
280
     1
281
     0
  0
BLOCK_RECORD
  5
117
330
1
100
AcDbSymbolTableRecord
100
AcDbBlockTableRecord
  2
block 7
340
0
102
{BLKREFS
331
118
102
}
 70
     0
280
     1
281
     0
  0
ENDTAB
  0
ENDSEC
  0
SECTION
  2
BLOCKS
  0
BLOCK
  5
20
330
1F
100
AcDbEntity
  8
0
100
AcDbBlockBegin
  2
*Model_Space
 70
     0
 10
0.0
 20
0.0
 30
0.0
  3
*Model_Space
  1

  0
ENDBLK
  5
21
330
1F
100
AcDbEntity
  8
0
100
AcDbBlockEnd
  0
BLOCK
  5
1C
330
1B
100
AcDbEntity
 67
     1
  8
0
100
AcDbBlockBegin
  2
*Paper_Space
 70
     0
 10
0.0
 20
0.0
 30
0.0
  3
*Paper_Space
  1

  0
ENDBLK
  5
1D
330
1B
100
AcDbEntity
 67
     1
  8
0
100
AcDbBlockEnd
  0
BLOCK
  5
24
330
23
100
AcDbEntity
  8
0
100
AcDbBlockBegin
  2
*Paper_Space0
 70
     0
 10
0.0
 20
0.0
 30
0.0
  3
*Paper_Space0
  1

  0
ENDBLK
  5
25
330
23
100
AcDbEntity
  8
0
100
AcDbBlockEnd
  0
BLOCK
  5
95
330
93
100
AcDbEntity
  8
0
100
AcDbBlockBegin
  2
block 2
 70
     0
 10
0.0
 20
0.0
 30
0.0
  3
block 2
  1

  0
SPLINE
  5
97
330
93
100
AcDbEntity
  8
_U+30EC_U+30A4_U+30E4_U+30FC 1
370
     0
100
AcDbSpline
210
0.0
220
0.0
230
1.0
 70
    11
 71
     3
 72
    26
 73
    22
 74
     0
 42
0.0000000001
 43
0.0000000001
 12
1.0
 22
0.0
 32
0.0
 13
1.0
 23
0.0
 33
0.0
 40
0.0
 40
0.0
 40
0.0
 40
0.0
 40
1.0
 40
1.0
 40
1.0
 40
2.0
 40
2.0
 40
2.0
 40
3.0
 40
3.0
 40
3.0
 40
4.0
 40
4.0
 40
4.0
 40
5.0
 40
5.0
 40
5.0
 40
6.0
 40
6.0
 40
6.0
 40
7.0
 40
7.0
 40
7.0
 40
7.0
 10
122.3232828470233
 20
-142.2529879744194
 30
0.0
 10
122.3232828470233
 20
-142.2529879744194
 30
0.0
 10
121.2191297440008
 20
-142.2529879744194
 30
0.0
 10
121.2191297440008
 20
-142.2529879744194
 30
0.0
 10
121.2191297440008
 20
-142.2529879744194
 30
0.0
 10
121.2191297440008
 20
-142.605765752109
 30
0.0
 10
121.2191297440008
 20
-142.605765752109
 30
0.0
 10
121.2191297440008
 20
-142.605765752109
 30
0.0
 10
121.070990638135
 20
-142.605765752109
 30
0.0
 10
121.070990638135
 20
-142.605765752109
 30
0.0
 10
121.0561767275485
 20
-142.250748662354
 30
0.0
 10
120.8932237110961
 20
-142.2009670325921
 30
0.0
 10
120.7788465409859
 20
-142.1694444089021
 30
0.0
 10
120.7788465409859
 20
-142.1694444089021
 30
0.0
 10
120.7788465409859
 20
-142.0133815834203
 30
0.0
 10
120.7788465409859
 20
-142.0133815834203
 30
0.0
 10
120.7788465409859
 20
-142.0133815834203
 30
0.0
 10
122.3232828470233
 20
-142.0133815834203
 30
0.0
 10
122.3232828470233
 20
-142.0133815834203
 30
0.0
 10
122.3232828470233
 20
-142.0133815834203
 30
0.0
 10
122.3232828470233
 20
-142.2529879744194
 30
0.0
 10
122.3232828470233
 20
-142.2529879744194
 30
0.0
  0
HATCH
  5
98
330
93
100
AcDbEntity
  8
_U+30EC_U+30A4_U+30E4_U+30FC 1
 62
   179
420
  2234388
100
AcDbHatch
 10
0.0
 20
0.0
 30
0.0
210
0.0
220
0.0
230
1.0
  2
SOLID
 70
     1
 71
     0
 91
        1
 92
        1
 93
        1
 72
     4
 94
        3
 73
     0
 74
     1
 95
       26
 96
       22
 40
0.0
 40
0.0
 40
0.0
 40
0.0
 40
1.0
 40
1.0
 40
1.0
 40
2.0
 40
2.0
 40
2.0
 40
3.0
 40
3.0
 40
3.0
 40
4.0
 40
4.0
 40
4.0
 40
5.0
 40
5.0
 40
5.0
 40
6.0
 40
6.0
 40
6.0
 40
7.0
 40
7.0
 40
7.0
 40
7.0
 10
122.3232828470233
 20
-142.2529879744194
 10
122.3232828470233
 20
-142.2529879744194
 10
121.2191297440008
 20
-142.2529879744194
 10
121.2191297440008
 20
-142.2529879744194
 10
121.2191297440008
 20
-142.2529879744194
 10
121.2191297440008
 20
-142.605765752109
 10
121.2191297440008
 20
-142.605765752109
 10
121.2191297440008
 20
-142.605765752109
 10
121.070990638135
 20
-142.605765752109
 10
121.070990638135
 20
-142.605765752109
 10
121.0561767275485
 20
-142.250748662354
 10
120.8932237110961
 20
-142.2009670325921
 10
120.7788465409859
 20
-142.1694444089021
 10
120.7788465409859
 20
-142.1694444089021
 10
120.7788465409859
 20
-142.0133815834203
 10
120.7788465409859
 20
-142.0133815834203
 10
120.7788465409859
 20
-142.0133815834203
 10
122.3232828470233
 20
-142.0133815834203
 10
122.3232828470233
 20
-142.0133815834203
 10
122.3232828470233
 20
-142.0133815834203
 10
122.3232828470233
 20
-142.2529879744194
 10
122.3232828470233
 20
-142.2529879744194
 97
        0
 97
        0
 75
     2
 76
     1
 98
        0
  0
ENDBLK
  5
96
330
93
100
AcDbEntity
  8
0
100
AcDbBlockEnd
  0
BLOCK
  5
AB
330
A9
100
AcDbEntity
  8
0
100
AcDbBlockBegin
  2
block 3
 70
     0
 10
0.0
 20
0.0
 30
0.0
  3
block 3
  1

  0
SPLINE
  5
AD
330
A9
100
AcDbEntity
  8
_U+30EC_U+30A4_U+30E4_U+30FC 1
370
     0
100
AcDbSpline
210
0.0
220
0.0
230
1.0
 70
    11
 71
     3
 72
    29
 73
    25
 74
     0
 42
0.0000000001
 43
0.0000000001
 12
1.0
 22
0.0
 32
0.0
 13
1.0
 23
0.0
 33
0.0
 40
0.0
 40
0.0
 40
0.0
 40
0.0
 40
1.0
 40
1.0
 40
1.0
 40
2.0
 40
2.0
 40
2.0
 40
3.0
 40
3.0
 40
3.0
 40
4.0
 40
4.0
 40
4.0
 40
5.0
 40
5.0
 40
5.0
 40
6.0
 40
6.0
 40
6.0
 40
7.0
 40
7.0
 40
7.0
 40
8.0
 40
8.0
 40
8.0
 40
8.0
 10
108.1446478679291
 20
-150.0935085345252
 30
0.0
 10
108.3541096734323
 20
-150.2089192332811
 30
0.0
 10
108.3730576986012
 20
-150.3942653703876
 30
0.0
 10
108.3730576986012
 20
-150.5186333174051
 30
0.0
 10
108.3730576986012
 20
-150.6901990725705
 30
0.0
 10
108.3265489095503
 20
-150.8417832739215
 30
0.0
 10
108.1446478679291
 20
-150.9434135907364
 30
0.0
 10
107.9499999730125
 20
-151.0543456653614
 30
0.0
 10
107.7133219131758
 20
-151.0746717287244
 30
0.0
 10
107.5503688967235
 20
-151.0746717287244
 30
0.0
 10
107.4063639054401
 20
-151.0746717287244
 30
0.0
 10
107.1545274254683
 20
-151.0567572322011
 30
0.0
 10
106.9557454159694
 20
-150.9434135907364
 30
0.0
 10
106.7528292918882
 20
-150.828347401529
 30
0.0
 10
106.7294026425885
 20
-150.6564371368151
 30
0.0
 10
106.7294026425885
 20
-150.5186333174051
 30
0.0
 10
106.7294026425885
 20
-150.3487901099822
 30
0.0
 10
106.7738443743482
 20
-150.1951388513401
 30
0.0
 10
106.9557454159694
 20
-150.0935085345252
 30
0.0
 10
107.1483262535949
 20
-149.987055084031
 30
0.0
 10
107.3767360842669
 20
-149.9622503965372
 30
0.0
 10
107.5503688967235
 20
-149.9622503965372
 30
0.0
 10
107.7215901423404
 20
-149.9622503965372
 30
0.0
 10
107.9520670303037
 20
-149.9849880267399
 30
0.0
 10
108.1446478679291
 20
-150.0935085345252
 30
0.0
  0
SPLINE
  5
AE
330
A9
100
AcDbEntity
  8
_U+30EC_U+30A4_U+30E4_U+30FC 1
370
     0
100
AcDbSpline
210
0.0
220
0.0
230
1.0
 70
    11
 71
     3
 72
    17
 73
    13
 74
     0
 42
0.0000000001
 43
0.0000000001
 12
1.0
 22
0.0
 32
0.0
 13
1.0
 23
0.0
 33
0.0
 40
0.0
 40
0.0
 40
0.0
 40
0.0
 40
1.0
 40
1.0
 40
1.0
 40
2.0
 40
2.0
 40
2.0
 40
3.0
 40
3.0
 40
3.0
 40
4.0
 40
4.0
 40
4.0
 40
4.0
 10
106.921983480214
 20
-150.5186333174051
 30
0.0
 10
106.921983480214
 20
-150.7852837079634
 30
0.0
 10
107.20551483865
 20
-150.834893082951
 30
0.0
 10
107.5503688967235
 20
-150.834893082951
 30
0.0
 10
107.8697292482062
 20
-150.834893082951
 30
0.0
 10
108.1784098036846
 20
-150.7966525230647
 30
0.0
 10
108.1784098036846
 20
-150.5186333174051
 30
0.0
 10
108.1784098036846
 20
-150.2540499841379
 30
0.0
 10
107.8972900120882
 20
-150.2020290423106
 30
0.0
 10
107.5503688967235
 20
-150.2020290423106
 30
0.0
 10
107.2306640356923
 20
-150.2020290423106
 30
0.0
 10
106.921983480214
 20
-150.2426811690366
 30
0.0
 10
106.921983480214
 20
-150.5186333174051
 30
0.0
  0
HATCH
  5
AF
330
A9
100
AcDbEntity
  8
_U+30EC_U+30A4_U+30E4_U+30FC 1
 62
   179
420
  2234388
100
AcDbHatch
 10
0.0
 20
0.0
 30
0.0
210
0.0
220
0.0
230
1.0
  2
SOLID
 70
     1
 71
     0
 91
        2
 92
        1
 93
        1
 72
     4
 94
        3
 73
     0
 74
     1
 95
       29
 96
       25
 40
0.0
 40
0.0
 40
0.0
 40
0.0
 40
1.0
 40
1.0
 40
1.0
 40
2.0
 40
2.0
 40
2.0
 40
3.0
 40
3.0
 40
3.0
 40
4.0
 40
4.0
 40
4.0
 40
5.0
 40
5.0
 40
5.0
 40
6.0
 40
6.0
 40
6.0
 40
7.0
 40
7.0
 40
7.0
 40
8.0
 40
8.0
 40
8.0
 40
8.0
 10
108.1446478679291
 20
-150.0935085345252
 10
108.3541096734323
 20
-150.2089192332811
 10
108.3730576986012
 20
-150.3942653703876
 10
108.3730576986012
 20
-150.5186333174051
 10
108.3730576986012
 20
-150.6901990725705
 10
108.3265489095503
 20
-150.8417832739215
 10
108.1446478679291
 20
-150.9434135907364
 10
107.9499999730125
 20
-151.0543456653614
 10
107.7133219131758
 20
-151.0746717287244
 10
107.5503688967235
 20
-151.0746717287244
 10
107.4063639054401
 20
-151.0746717287244
 10
107.1545274254683
 20
-151.0567572322011
 10
106.9557454159694
 20
-150.9434135907364
 10
106.7528292918882
 20
-150.828347401529
 10
106.7294026425885
 20
-150.6564371368151
 10
106.7294026425885
 20
-150.5186333174051
 10
106.7294026425885
 20
-150.3487901099822
 10
106.7738443743482
 20
-150.1951388513401
 10
106.9557454159694
 20
-150.0935085345252
 10
107.1483262535949
 20
-149.987055084031
 10
107.3767360842669
 20
-149.9622503965372
 10
107.5503688967235
 20
-149.9622503965372
 10
107.7215901423404
 20
-149.9622503965372
 10
107.9520670303037
 20
-149.9849880267399
 10
108.1446478679291
 20
-150.0935085345252
 97
        0
 97
        0
 92
        1
 93
        1
 72
     4
 94
        3
 73
     0
 74
     1
 95
       17
 96
       13
 40
0.0
 40
0.0
 40
0.0
 40
0.0
 40
1.0
 40
1.0
 40
1.0
 40
2.0
 40
2.0
 40
2.0
 40
3.0
 40
3.0
 40
3.0
 40
4.0
 40
4.0
 40
4.0
 40
4.0
 10
106.921983480214
 20
-150.5186333174051
 10
106.921983480214
 20
-150.7852837079634
 10
107.20551483865
 20
-150.834893082951
 10
107.5503688967235
 20
-150.834893082951
 10
107.8697292482062
 20
-150.834893082951
 10
108.1784098036846
 20
-150.7966525230647
 10
108.1784098036846
 20
-150.5186333174051
 10
108.1784098036846
 20
-150.2540499841379
 10
107.8972900120882
 20
-150.2020290423106
 10
107.5503688967235
 20
-150.2020290423106
 10
107.2306640356923
 20
-150.2020290423106
 10
106.921983480214
 20
-150.2426811690366
 10
106.921983480214
 20
-150.5186333174051
 97
        0
 97
        0
 75
     2
 76
     1
 98
        0
  0
POLYLINE
  5
B0
330
A9
100
AcDbEntity
  8
_U+30EC_U+30A4_U+30E4_U+30FC 1
370
     0
100
AcDb2dPolyline
 66
     1
 10
0.0
 20
0.0
 30
0.0
  0
VERTEX
  5
B1
330
B0
100
AcDbEntity
  8
_U+30EC_U+30A4_U+30E4_U+30FC 1
370
     0
100
AcDbVertex
100
AcDb2dVertex
 10
108.322414794968
 20
-149.731084489477
 30
0.0
  0
VERTEX
  5
B2
330
B0
100
AcDbEntity
  8
_U+30EC_U+30A4_U+30E4_U+30FC 1
370
     0
100
AcDbVertex
100
AcDb2dVertex
 10
108.0705783149963
 20
-149.731084489477
 30
0.0
  0
VERTEX
  5
B3
330
B0
100
AcDbEntity
  8
_U+30EC_U+30A4_U+30E4_U+30FC 1
370
     0
100
AcDbVertex
100
AcDb2dVertex
 10
108.0705783149963
 20
-149.4620225320789
 30
0.0
  0
VERTEX
  5
B4
330
B0
100
AcDbEntity
  8
_U+30EC_U+30A4_U+30E4_U+30FC 1
370
     0
100
AcDbVertex
100
AcDb2dVertex
 10
108.322414794968
 20
-149.4620225320789
 30
0.0
  0
VERTEX
  5
B5
330
B0
100
AcDbEntity
  8
_U+30EC_U+30A4_U+30E4_U+30FC 1
370
     0
100
AcDbVertex
100
AcDb2dVertex
 10
108.322414794968
 20
-149.731084489477
 30
0.0
  0
SEQEND
  5
B6
330
B0
100
AcDbEntity
  8
_U+30EC_U+30A4_U+30E4_U+30FC 1
370
     0
  0
HATCH
  5
B7
330
A9
100
AcDbEntity
  8
_U+30EC_U+30A4_U+30E4_U+30FC 1
 62
   179
420
  2234388
100
AcDbHatch
 10
0.0
 20
0.0
 30
0.0
210
0.0
220
0.0
230
1.0
  2
SOLID
 70
     1
 71
     0
 91
        1
 92
        1
 93
        4
 72
     1
 10
108.322414794968
 20
-149.731084489477
 11
108.0705783149963
 21
-149.731084489477
 72
     1
 10
108.0705783149963
 20
-149.731084489477
 11
108.0705783149963
 21
-149.4620225320789
 72
     1
 10
108.0705783149963
 20
-149.4620225320789
 11
108.322414794968
 21
-149.4620225320789
 72
     1
 10
108.322414794968
 20
-149.4620225320789
 11
108.322414794968
 21
-149.731084489477
 97
        0
 75
     2
 76
     1
 98
        0
  0
SPLINE
  5
B8
330
A9
100
AcDbEntity
  8
_U+30EC_U+30A4_U+30E4_U+30FC 1
370
     0
100
AcDbSpline
210
0.0
220
0.0
230
1.0
 70
    11
 71
     3
 72
    62
 73
    58
 74
     0
 42
0.0000000001
 43
0.0000000001
 12
1.0
 22
0.0
 32
0.0
 13
1.0
 23
0.0
 33
0.0
 40
0.0
 40
0.0
 40
0.0
 40
0.0
 40
1.0
 40
1.0
 40
1.0
 40
2.0
 40
2.0
 40
2.0
 40
3.0
 40
3.0
 40
3.0
 40
4.0
 40
4.0
 40
4.0
 40
5.0
 40
5.0
 40
5.0
 40
6.0
 40
6.0
 40
6.0
 40
7.0
 40
7.0
 40
7.0
 40
8.0
 40
8.0
 40
8.0
 40
9.0
 40
9.0
 40
9.0
 40
10.0
 40
10.0
 40
10.0
 40
11.0
 40
11.0
 40
11.0
 40
12.0
 40
12.0
 40
12.0
 40
13.0
 40
13.0
 40
13.0
 40
14.0
 40
14.0
 40
14.0
 40
15.0
 40
15.0
 40
15.0
 40
16.0
 40
16.0
 40
16.0
 40
17.0
 40
17.0
 40
17.0
 40
18.0
 40
18.0
 40
18.0
 40
19.0
 40
19.0
 40
19.0
 40
19.0
 10
108.3730576986012
 20
-148.683775461961
 30
0.0
 10
108.3730576986012
 20
-148.7854057787759
 30
0.0
 10
108.3520426161412
 20
-149.0182942335788
 30
0.0
 10
108.1660074599377
 20
-149.1516194288579
 30
0.0
 10
108.0536973471185
 20
-149.2308566250187
 30
0.0
 10
107.9544785971433
 20
-149.2353352491495
 30
0.0
 10
107.8697292482062
 20
-149.2398138732803
 30
0.0
 10
107.8697292482062
 20
-149.2398138732803
 30
0.0
 10
107.8697292482062
 20
-149.0048583611863
 30
0.0
 10
107.8697292482062
 20
-149.0048583611863
 30
0.0
 10
107.9437988011391
 20
-149.0024467943466
 30
0.0
 10
108.1784098036846
 20
-148.9910779792453
 30
0.0
 10
108.1784098036846
 20
-148.6882540860918
 30
0.0
 10
108.1784098036846
 20
-148.5411485088717
 30
0.0
 10
108.1088188748825
 20
-148.3785400019679
 30
0.0
 10
107.8804090442105
 20
-148.3785400019679
 30
0.0
 10
107.763964816809
 20
-148.3785400019679
 30
0.0
 10
107.715388970467
 20
-148.4191921286938
 30
0.0
 10
107.6836940920027
 20
-148.4529540644493
 30
0.0
 10
107.6096245390698
 20
-148.53219126061
 30
0.0
 10
107.5968776857744
 20
-148.6565592076275
 30
0.0
 10
107.5968776857744
 20
-148.7154703404253
 30
0.0
 10
107.5968776857744
 20
-148.7357964037883
 30
0.0
 10
107.5989447430655
 20
-148.7740369636745
 30
0.0
 10
107.6030788576478
 20
-148.8036647848477
 30
0.0
 10
107.6030788576478
 20
-148.8036647848477
 30
0.0
 10
107.4084309627312
 20
-148.8036647848477
 30
0.0
 10
107.4084309627312
 20
-148.8036647848477
 30
0.0
 10
107.4149766441532
 20
-148.7630126581218
 30
0.0
 10
107.4170437014444
 20
-148.7175373977165
 30
0.0
 10
107.4170437014444
 20
-148.7109917162945
 30
0.0
 10
107.4170437014444
 20
-148.6407117683954
 30
0.0
 10
107.3956841094358
 20
-148.4281493769555
 30
0.0
 10
107.1590060495991
 20
-148.4281493769555
 30
0.0
 10
106.9812391225603
 20
-148.4281493769555
 30
0.0
 10
106.9261175947963
 20
-148.5683647632051
 30
0.0
 10
106.9261175947963
 20
-148.6858425192522
 30
0.0
 10
106.9261175947963
 20
-148.9686848585912
 30
0.0
 10
107.1590060495991
 20
-148.9776421068528
 30
0.0
 10
107.2306640356923
 20
-148.9821207309836
 30
0.0
 10
107.2306640356923
 20
-148.9821207309836
 30
0.0
 10
107.2306640356923
 20
-149.1991617465544
 30
0.0
 10
107.2306640356923
 20
-149.1991617465544
 30
0.0
 10
107.1059515791263
 20
-149.1902044982927
 30
0.0
 10
106.7294026425885
 20
-149.1609211866681
 30
0.0
 10
106.7294026425885
 20
-148.6724066468597
 30
0.0
 10
106.7294026425885
 20
-148.4326280010863
 30
0.0
 10
106.8565266659942
 20
-148.1749348587896
 30
0.0
 10
107.1524603681772
 20
-148.1749348587896
 30
0.0
 10
107.3388400339292
 20
-148.1749348587896
 30
0.0
 10
107.4211778160267
 20
-148.276909685153
 30
0.0
 10
107.4825005156641
 20
-148.3830186260987
 30
0.0
 10
107.5100612795461
 20
-148.317561811879
 30
0.0
 10
107.5903320043524
 20
-148.1229139169623
 30
0.0
 10
107.867662190915
 20
-148.1229139169623
 30
0.0
 10
108.2059705675666
 20
-148.1229139169623
 30
0.0
 10
108.3730576986012
 20
-148.3874972502295
 30
0.0
 10
108.3730576986012
 20
-148.683775461961
 30
0.0
  0
HATCH
  5
B9
330
A9
100
AcDbEntity
  8
_U+30EC_U+30A4_U+30E4_U+30FC 1
 62
   179
420
  2234388
100
AcDbHatch
 10
0.0
 20
0.0
 30
0.0
210
0.0
220
0.0
230
1.0
  2
SOLID
 70
     1
 71
     0
 91
        1
 92
        1
 93
        1
 72
     4
 94
        3
 73
     0
 74
     1
 95
       62
 96
       58
 40
0.0
 40
0.0
 40
0.0
 40
0.0
 40
1.0
 40
1.0
 40
1.0
 40
2.0
 40
2.0
 40
2.0
 40
3.0
 40
3.0
 40
3.0
 40
4.0
 40
4.0
 40
4.0
 40
5.0
 40
5.0
 40
5.0
 40
6.0
 40
6.0
 40
6.0
 40
7.0
 40
7.0
 40
7.0
 40
8.0
 40
8.0
 40
8.0
 40
9.0
 40
9.0
 40
9.0
 40
10.0
 40
10.0
 40
10.0
 40
11.0
 40
11.0
 40
11.0
 40
12.0
 40
12.0
 40
12.0
 40
13.0
 40
13.0
 40
13.0
 40
14.0
 40
14.0
 40
14.0
 40
15.0
 40
15.0
 40
15.0
 40
16.0
 40
16.0
 40
16.0
 40
17.0
 40
17.0
 40
17.0
 40
18.0
 40
18.0
 40
18.0
 40
19.0
 40
19.0
 40
19.0
 40
19.0
 10
108.3730576986012
 20
-148.683775461961
 10
108.3730576986012
 20
-148.7854057787759
 10
108.3520426161412
 20
-149.0182942335788
 10
108.1660074599377
 20
-149.1516194288579
 10
108.0536973471185
 20
-149.2308566250187
 10
107.9544785971433
 20
-149.2353352491495
 10
107.8697292482062
 20
-149.2398138732803
 10
107.8697292482062
 20
-149.2398138732803
 10
107.8697292482062
 20
-149.0048583611863
 10
107.8697292482062
 20
-149.0048583611863
 10
107.9437988011391
 20
-149.0024467943466
 10
108.1784098036846
 20
-148.9910779792453
 10
108.1784098036846
 20
-148.6882540860918
 10
108.1784098036846
 20
-148.5411485088717
 10
108.1088188748825
 20
-148.3785400019679
 10
107.8804090442105
 20
-148.3785400019679
 10
107.763964816809
 20
-148.3785400019679
 10
107.715388970467
 20
-148.4191921286938
 10
107.6836940920027
 20
-148.4529540644493
 10
107.6096245390698
 20
-148.53219126061
 10
107.5968776857744
 20
-148.6565592076275
 10
107.5968776857744
 20
-148.7154703404253
 10
107.5968776857744
 20
-148.7357964037883
 10
107.5989447430655
 20
-148.7740369636745
 10
107.6030788576478
 20
-148.8036647848477
 10
107.6030788576478
 20
-148.8036647848477
 10
107.4084309627312
 20
-148.8036647848477
 10
107.4084309627312
 20
-148.8036647848477
 10
107.4149766441532
 20
-148.7630126581218
 10
107.4170437014444
 20
-148.7175373977165
 10
107.4170437014444
 20
-148.7109917162945
 10
107.4170437014444
 20
-148.6407117683954
 10
107.3956841094358
 20
-148.4281493769555
 10
107.1590060495991
 20
-148.4281493769555
 10
106.9812391225603
 20
-148.4281493769555
 10
106.9261175947963
 20
-148.5683647632051
 10
106.9261175947963
 20
-148.6858425192522
 10
106.9261175947963
 20
-148.9686848585912
 10
107.1590060495991
 20
-148.9776421068528
 10
107.2306640356923
 20
-148.9821207309836
 10
107.2306640356923
 20
-148.9821207309836
 10
107.2306640356923
 20
-149.1991617465544
 10
107.2306640356923
 20
-149.1991617465544
 10
107.1059515791263
 20
-149.1902044982927
 10
106.7294026425885
 20
-149.1609211866681
 10
106.7294026425885
 20
-148.6724066468597
 10
106.7294026425885
 20
-148.4326280010863
 10
106.8565266659942
 20
-148.1749348587896
 10
107.1524603681772
 20
-148.1749348587896
 10
107.3388400339292
 20
-148.1749348587896
 10
107.4211778160267
 20
-148.276909685153
 10
107.4825005156641
 20
-148.3830186260987
 10
107.5100612795461
 20
-148.317561811879
 10
107.5903320043524
 20
-148.1229139169623
 10
107.867662190915
 20
-148.1229139169623
 10
108.2059705675666
 20
-148.1229139169623
 10
108.3730576986012
 20
-148.3874972502295
 10
108.3730576986012
 20
-148.683775461961
 97
        0
 97
        0
 75
     2
 76
     1
 98
        0
  0
ENDBLK
  5
AC
330
A9
100
AcDbEntity
  8
0
100
AcDbBlockEnd
  0
BLOCK
  5
C8
330
C6
100
AcDbEntity
  8
0
100
AcDbBlockBegin
  2
block 4
 70
     0
 10
0.0
 20
0.0
 30
0.0
  3
block 4
  1

  0
SPLINE
  5
CA
330
C6
100
AcDbEntity
  8
_U+30EC_U+30A4_U+30E4_U+30FC 1
370
     0
100
AcDbSpline
210
0.0
220
0.0
230
1.0
 70
    11
 71
     3
 72
    26
 73
    22
 74
     0
 42
0.0000000001
 43
0.0000000001
 12
1.0
 22
0.0
 32
0.0
 13
1.0
 23
0.0
 33
0.0
 40
0.0
 40
0.0
 40
0.0
 40
0.0
 40
1.0
 40
1.0
 40
1.0
 40
2.0
 40
2.0
 40
2.0
 40
3.0
 40
3.0
 40
3.0
 40
4.0
 40
4.0
 40
4.0
 40
5.0
 40
5.0
 40
5.0
 40
6.0
 40
6.0
 40
6.0
 40
7.0
 40
7.0
 40
7.0
 40
7.0
 10
99.94859345374549
 20
-156.4421304947437
 30
0.0
 10
99.94859345374549
 20
-156.4421304947437
 30
0.0
 10
99.94859345374549
 20
-155.3379773917211
 30
0.0
 10
99.94859345374549
 20
-155.3379773917211
 30
0.0
 10
99.94859345374549
 20
-155.3379773917211
 30
0.0
 10
99.59616018560443
 20
-155.3379773917211
 30
0.0
 10
99.59616018560443
 20
-155.3379773917211
 30
0.0
 10
99.59616018560443
 20
-155.3379773917211
 30
0.0
 10
99.59616018560443
 20
-155.1898382858553
 30
0.0
 10
99.59616018560443
 20
-155.1898382858553
 30
0.0
 10
99.95100502058517
 20
-155.1750243752687
 30
0.0
 10
100.0006143955728
 20
-155.0120713588164
 30
0.0
 10
100.0323092740371
 20
-154.8976941887061
 30
0.0
 10
100.0323092740371
 20
-154.8976941887061
 30
0.0
 10
100.1883720995189
 20
-154.8976941887061
 30
0.0
 10
100.1883720995189
 20
-154.8976941887061
 30
0.0
 10
100.1883720995189
 20
-154.8976941887061
 30
0.0
 10
100.1883720995189
 20
-156.4421304947437
 30
0.0
 10
100.1883720995189
 20
-156.4421304947437
 30
0.0
 10
100.1883720995189
 20
-156.4421304947437
 30
0.0
 10
99.94859345374549
 20
-156.4421304947437
 30
0.0
 10
99.94859345374549
 20
-156.4421304947437
 30
0.0
  0
HATCH
  5
CB
330
C6
100
AcDbEntity
  8
_U+30EC_U+30A4_U+30E4_U+30FC 1
 62
   179
420
  2234388
100
AcDbHatch
 10
0.0
 20
0.0
 30
0.0
210
0.0
220
0.0
230
1.0
  2
SOLID
 70
     1
 71
     0
 91
        1
 92
        1
 93
        1
 72
     4
 94
        3
 73
     0
 74
     1
 95
       26
 96
       22
 40
0.0
 40
0.0
 40
0.0
 40
0.0
 40
1.0
 40
1.0
 40
1.0
 40
2.0
 40
2.0
 40
2.0
 40
3.0
 40
3.0
 40
3.0
 40
4.0
 40
4.0
 40
4.0
 40
5.0
 40
5.0
 40
5.0
 40
6.0
 40
6.0
 40
6.0
 40
7.0
 40
7.0
 40
7.0
 40
7.0
 10
99.94859345374549
 20
-156.4421304947437
 10
99.94859345374549
 20
-156.4421304947437
 10
99.94859345374549
 20
-155.3379773917211
 10
99.94859345374549
 20
-155.3379773917211
 10
99.94859345374549
 20
-155.3379773917211
 10
99.59616018560443
 20
-155.3379773917211
 10
99.59616018560443
 20
-155.3379773917211
 10
99.59616018560443
 20
-155.3379773917211
 10
99.59616018560443
 20
-155.1898382858553
 10
99.59616018560443
 20
-155.1898382858553
 10
99.95100502058517
 20
-155.1750243752687
 10
100.0006143955728
 20
-155.0120713588164
 10
100.0323092740371
 20
-154.8976941887061
 10
100.0323092740371
 20
-154.8976941887061
 10
100.1883720995189
 20
-154.8976941887061
 10
100.1883720995189
 20
-154.8976941887061
 10
100.1883720995189
 20
-154.8976941887061
 10
100.1883720995189
 20
-156.4421304947437
 10
100.1883720995189
 20
-156.4421304947437
 10
100.1883720995189
 20
-156.4421304947437
 10
99.94859345374549
 20
-156.4421304947437
 10
99.94859345374549
 20
-156.4421304947437
 97
        0
 97
        0
 75
     2
 76
     1
 98
        0
  0
SPLINE
  5
CC
330
C6
100
AcDbEntity
  8
_U+30EC_U+30A4_U+30E4_U+30FC 1
370
     0
100
AcDbSpline
210
0.0
220
0.0
230
1.0
 70
    11
 71
     3
 72
    29
 73
    25
 74
     0
 42
0.0000000001
 43
0.0000000001
 12
1.0
 22
0.0
 32
0.0
 13
1.0
 23
0.0
 33
0.0
 40
0.0
 40
0.0
 40
0.0
 40
0.0
 40
1.0
 40
1.0
 40
1.0
 40
2.0
 40
2.0
 40
2.0
 40
3.0
 40
3.0
 40
3.0
 40
4.0
 40
4.0
 40
4.0
 40
5.0
 40
5.0
 40
5.0
 40
6.0
 40
6.0
 40
6.0
 40
7.0
 40
7.0
 40
7.0
 40
8.0
 40
8.0
 40
8.0
 40
8.0
 10
101.6835435401173
 20
-156.2643635677047
 30
0.0
 10
101.5681328413614
 20
-156.4738253732079
 30
0.0
 10
101.382786704255
 20
-156.4927733983768
 30
0.0
 10
101.2584187572375
 20
-156.4927733983768
 30
0.0
 10
101.086853002072
 20
-156.4927733983768
 30
0.0
 10
100.935268800721
 20
-156.4462646093259
 30
0.0
 10
100.8336384839062
 20
-156.2643635677047
 30
0.0
 10
100.7227064092811
 20
-156.0697156727881
 30
0.0
 10
100.7023803459182
 20
-155.8330376129515
 30
0.0
 10
100.7023803459182
 20
-155.6700845964992
 30
0.0
 10
100.7023803459182
 20
-155.5260796052157
 30
0.0
 10
100.72063935199
 20
-155.2742431252439
 30
0.0
 10
100.8336384839062
 20
-155.075461115745
 30
0.0
 10
100.9487046731135
 20
-154.8725449916638
 30
0.0
 10
101.1206149378275
 20
-154.8491183423641
 30
0.0
 10
101.2584187572375
 20
-154.8491183423641
 30
0.0
 10
101.4282619646603
 20
-154.8491183423641
 30
0.0
 10
101.5819132233024
 20
-154.8935600741238
 30
0.0
 10
101.6835435401173
 20
-155.075461115745
 30
0.0
 10
101.7899969906115
 20
-155.2680419533705
 30
0.0
 10
101.8148016781053
 20
-155.4964517840426
 30
0.0
 10
101.8148016781053
 20
-155.6700845964992
 30
0.0
 10
101.8148016781053
 20
-155.8413058421161
 30
0.0
 10
101.7920640479027
 20
-156.0717827300793
 30
0.0
 10
101.6835435401173
 20
-156.2643635677047
 30
0.0
  0
SPLINE
  5
CD
330
C6
100
AcDbEntity
  8
_U+30EC_U+30A4_U+30E4_U+30FC 1
370
     0
100
AcDbSpline
210
0.0
220
0.0
230
1.0
 70
    11
 71
     3
 72
    17
 73
    13
 74
     0
 42
0.0000000001
 43
0.0000000001
 12
1.0
 22
0.0
 32
0.0
 13
1.0
 23
0.0
 33
0.0
 40
0.0
 40
0.0
 40
0.0
 40
0.0
 40
1.0
 40
1.0
 40
1.0
 40
2.0
 40
2.0
 40
2.0
 40
3.0
 40
3.0
 40
3.0
 40
4.0
 40
4.0
 40
4.0
 40
4.0
 10
101.2584187572375
 20
-155.0416991799896
 30
0.0
 10
100.9917683666791
 20
-155.0416991799896
 30
0.0
 10
100.9421589916915
 20
-155.3252305384256
 30
0.0
 10
100.9421589916915
 20
-155.6700845964992
 30
0.0
 10
100.9421589916915
 20
-155.9894449479818
 30
0.0
 10
100.9803995515778
 20
-156.2981255034602
 30
0.0
 10
101.2584187572375
 20
-156.2981255034602
 30
0.0
 10
101.5230020905047
 20
-156.2981255034602
 30
0.0
 10
101.5750230323319
 20
-156.0170057118638
 30
0.0
 10
101.5750230323319
 20
-155.6700845964992
 30
0.0
 10
101.5750230323319
 20
-155.350379735468
 30
0.0
 10
101.534370905606
 20
-155.0416991799896
 30
0.0
 10
101.2584187572375
 20
-155.0416991799896
 30
0.0
  0
HATCH
  5
CE
330
C6
100
AcDbEntity
  8
_U+30EC_U+30A4_U+30E4_U+30FC 1
 62
   179
420
  2234388
100
AcDbHatch
 10
0.0
 20
0.0
 30
0.0
210
0.0
220
0.0
230
1.0
  2
SOLID
 70
     1
 71
     0
 91
        2
 92
        1
 93
        1
 72
     4
 94
        3
 73
     0
 74
     1
 95
       29
 96
       25
 40
0.0
 40
0.0
 40
0.0
 40
0.0
 40
1.0
 40
1.0
 40
1.0
 40
2.0
 40
2.0
 40
2.0
 40
3.0
 40
3.0
 40
3.0
 40
4.0
 40
4.0
 40
4.0
 40
5.0
 40
5.0
 40
5.0
 40
6.0
 40
6.0
 40
6.0
 40
7.0
 40
7.0
 40
7.0
 40
8.0
 40
8.0
 40
8.0
 40
8.0
 10
101.6835435401173
 20
-156.2643635677047
 10
101.5681328413614
 20
-156.4738253732079
 10
101.382786704255
 20
-156.4927733983768
 10
101.2584187572375
 20
-156.4927733983768
 10
101.086853002072
 20
-156.4927733983768
 10
100.935268800721
 20
-156.4462646093259
 10
100.8336384839062
 20
-156.2643635677047
 10
100.7227064092811
 20
-156.0697156727881
 10
100.7023803459182
 20
-155.8330376129515
 10
100.7023803459182
 20
-155.6700845964992
 10
100.7023803459182
 20
-155.5260796052157
 10
100.72063935199
 20
-155.2742431252439
 10
100.8336384839062
 20
-155.075461115745
 10
100.9487046731135
 20
-154.8725449916638
 10
101.1206149378275
 20
-154.8491183423641
 10
101.2584187572375
 20
-154.8491183423641
 10
101.4282619646603
 20
-154.8491183423641
 10
101.5819132233024
 20
-154.8935600741238
 10
101.6835435401173
 20
-155.075461115745
 10
101.7899969906115
 20
-155.2680419533705
 10
101.8148016781053
 20
-155.4964517840426
 10
101.8148016781053
 20
-155.6700845964992
 10
101.8148016781053
 20
-155.8413058421161
 10
101.7920640479027
 20
-156.0717827300793
 10
101.6835435401173
 20
-156.2643635677047
 97
        0
 97
        0
 92
        1
 93
        1
 72
     4
 94
        3
 73
     0
 74
     1
 95
       17
 96
       13
 40
0.0
 40
0.0
 40
0.0
 40
0.0
 40
1.0
 40
1.0
 40
1.0
 40
2.0
 40
2.0
 40
2.0
 40
3.0
 40
3.0
 40
3.0
 40
4.0
 40
4.0
 40
4.0
 40
4.0
 10
101.2584187572375
 20
-155.0416991799896
 10
100.9917683666791
 20
-155.0416991799896
 10
100.9421589916915
 20
-155.3252305384256
 10
100.9421589916915
 20
-155.6700845964992
 10
100.9421589916915
 20
-155.9894449479818
 10
100.9803995515778
 20
-156.2981255034602
 10
101.2584187572375
 20
-156.2981255034602
 10
101.5230020905047
 20
-156.2981255034602
 10
101.5750230323319
 20
-156.0170057118638
 10
101.5750230323319
 20
-155.6700845964992
 10
101.5750230323319
 20
-155.350379735468
 10
101.534370905606
 20
-155.0416991799896
 10
101.2584187572375
 20
-155.0416991799896
 97
        0
 97
        0
 75
     2
 76
     1
 98
        0
  0
ENDBLK
  5
C9
330
C6
100
AcDbEntity
  8
0
100
AcDbBlockEnd
  0
BLOCK
  5
D9
330
D7
100
AcDbEntity
  8
0
100
AcDbBlockBegin
  2
block 5
 70
     0
 10
0.0
 20
0.0
 30
0.0
  3
block 5
  1

  0
SPLINE
  5
DB
330
D7
100
AcDbEntity
  8
_U+30EC_U+30A4_U+30E4_U+30FC 1
370
     0
100
AcDbSpline
210
0.0
220
0.0
230
1.0
 70
    11
 71
     3
 72
    32
 73
    28
 74
     0
 42
0.0000000001
 43
0.0000000001
 12
1.0
 22
0.0
 32
0.0
 13
1.0
 23
0.0
 33
0.0
 40
0.0
 40
0.0
 40
0.0
 40
0.0
 40
1.0
 40
1.0
 40
1.0
 40
2.0
 40
2.0
 40
2.0
 40
3.0
 40
3.0
 40
3.0
 40
4.0
 40
4.0
 40
4.0
 40
5.0
 40
5.0
 40
5.0
 40
6.0
 40
6.0
 40
6.0
 40
7.0
 40
7.0
 40
7.0
 40
8.0
 40
8.0
 40
8.0
 40
9.0
 40
9.0
 40
9.0
 40
9.0
 10
122.373581241108
 20
-150.2643852705936
 30
0.0
 10
122.373581241108
 20
-150.8159450577821
 30
0.0
 10
121.8196098870798
 20
-150.8249023060438
 30
0.0
 10
121.6056694574458
 20
-150.8249023060438
 30
0.0
 10
121.3751925694826
 20
-150.8249023060438
 30
0.0
 10
120.7278591278042
 20
-150.8045762426808
 30
0.0
 10
120.7278591278042
 20
-150.2233886343192
 30
0.0
 10
120.7278591278042
 20
-150.0380424972127
 30
0.0
 10
120.7977945661547
 20
-149.7758707307852
 30
0.0
 10
121.1299017709328
 20
-149.7352186040593
 30
0.0
 10
121.1299017709328
 20
-149.7352186040593
 30
0.0
 10
121.1299017709328
 20
-149.9636284347313
 30
0.0
 10
121.1299017709328
 20
-149.9636284347313
 30
0.0
 10
121.0727131858777
 20
-149.9749972498327
 30
0.0
 10
120.9245740800119
 20
-150.0087591855881
 30
0.0
 10
120.9245740800119
 20
-150.2258002011588
 30
0.0
 10
120.9245740800119
 20
-150.5379258521225
 30
0.0
 10
121.2525471702077
 20
-150.5806450361396
 30
0.0
 10
121.4575303515801
 20
-150.5944254180806
 30
0.0
 10
121.3793266840649
 20
-150.4948621585569
 30
0.0
 10
121.3200710417186
 20
-150.4225151533666
 30
0.0
 10
121.3200710417186
 20
-150.22786725845
 30
0.0
 10
121.3200710417186
 20
-150.0359754399216
 30
0.0
 10
121.4282470399554
 20
-149.7124809738566
 30
0.0
 10
121.8344237976664
 20
-149.7124809738566
 30
0.0
 10
122.1537841491491
 20
-149.7124809738566
 30
0.0
 10
122.373581241108
 20
-149.9250433652965
 30
0.0
 10
122.373581241108
 20
-150.2643852705936
 30
0.0
  0
SPLINE
  5
DC
330
D7
100
AcDbEntity
  8
_U+30EC_U+30A4_U+30E4_U+30FC 1
370
     0
100
AcDbSpline
210
0.0
220
0.0
230
1.0
 70
    11
 71
     3
 72
    17
 73
    13
 74
     0
 42
0.0000000001
 43
0.0000000001
 12
1.0
 22
0.0
 32
0.0
 13
1.0
 23
0.0
 33
0.0
 40
0.0
 40
0.0
 40
0.0
 40
0.0
 40
1.0
 40
1.0
 40
1.0
 40
2.0
 40
2.0
 40
2.0
 40
3.0
 40
3.0
 40
3.0
 40
4.0
 40
4.0
 40
4.0
 40
4.0
 10
121.5147189366352
 20
-150.2461262645218
 30
0.0
 10
121.5147189366352
 20
-150.5265570370211
 30
0.0
 10
121.7262477994296
 20
-150.5672091637471
 30
0.0
 10
121.842692026831
 20
-150.5672091637471
 30
0.0
 10
122.0183918965787
 20
-150.5672091637471
 30
0.0
 10
122.1813449130311
 20
-150.4655788469322
 30
0.0
 10
122.1813449130311
 20
-150.2688638947245
 30
0.0
 10
122.1813449130311
 20
-150.1400173235761
 30
0.0
 10
122.1220892706848
 20
-149.95225961963
 30
0.0
 10
121.8364908549575
 20
-149.95225961963
 30
0.0
 10
121.6122151388678
 20
-149.95225961963
 30
0.0
 10
121.5147189366352
 20
-150.1014322541413
 30
0.0
 10
121.5147189366352
 20
-150.2461262645218
 30
0.0
  0
HATCH
  5
DD
330
D7
100
AcDbEntity
  8
_U+30EC_U+30A4_U+30E4_U+30FC 1
 62
   179
420
  2234388
100
AcDbHatch
 10
0.0
 20
0.0
 30
0.0
210
0.0
220
0.0
230
1.0
  2
SOLID
 70
     1
 71
     0
 91
        2
 92
        1
 93
        1
 72
     4
 94
        3
 73
     0
 74
     1
 95
       32
 96
       28
 40
0.0
 40
0.0
 40
0.0
 40
0.0
 40
1.0
 40
1.0
 40
1.0
 40
2.0
 40
2.0
 40
2.0
 40
3.0
 40
3.0
 40
3.0
 40
4.0
 40
4.0
 40
4.0
 40
5.0
 40
5.0
 40
5.0
 40
6.0
 40
6.0
 40
6.0
 40
7.0
 40
7.0
 40
7.0
 40
8.0
 40
8.0
 40
8.0
 40
9.0
 40
9.0
 40
9.0
 40
9.0
 10
122.373581241108
 20
-150.2643852705936
 10
122.373581241108
 20
-150.8159450577821
 10
121.8196098870798
 20
-150.8249023060438
 10
121.6056694574458
 20
-150.8249023060438
 10
121.3751925694826
 20
-150.8249023060438
 10
120.7278591278042
 20
-150.8045762426808
 10
120.7278591278042
 20
-150.2233886343192
 10
120.7278591278042
 20
-150.0380424972127
 10
120.7977945661547
 20
-149.7758707307852
 10
121.1299017709328
 20
-149.7352186040593
 10
121.1299017709328
 20
-149.7352186040593
 10
121.1299017709328
 20
-149.9636284347313
 10
121.1299017709328
 20
-149.9636284347313
 10
121.0727131858777
 20
-149.9749972498327
 10
120.9245740800119
 20
-150.0087591855881
 10
120.9245740800119
 20
-150.2258002011588
 10
120.9245740800119
 20
-150.5379258521225
 10
121.2525471702077
 20
-150.5806450361396
 10
121.4575303515801
 20
-150.5944254180806
 10
121.3793266840649
 20
-150.4948621585569
 10
121.3200710417186
 20
-150.4225151533666
 10
121.3200710417186
 20
-150.22786725845
 10
121.3200710417186
 20
-150.0359754399216
 10
121.4282470399554
 20
-149.7124809738566
 10
121.8344237976664
 20
-149.7124809738566
 10
122.1537841491491
 20
-149.7124809738566
 10
122.373581241108
 20
-149.9250433652965
 10
122.373581241108
 20
-150.2643852705936
 97
        0
 97
        0
 92
        1
 93
        1
 72
     4
 94
        3
 73
     0
 74
     1
 95
       17
 96
       13
 40
0.0
 40
0.0
 40
0.0
 40
0.0
 40
1.0
 40
1.0
 40
1.0
 40
2.0
 40
2.0
 40
2.0
 40
3.0
 40
3.0
 40
3.0
 40
4.0
 40
4.0
 40
4.0
 40
4.0
 10
121.5147189366352
 20
-150.2461262645218
 10
121.5147189366352
 20
-150.5265570370211
 10
121.7262477994296
 20
-150.5672091637471
 10
121.842692026831
 20
-150.5672091637471
 10
122.0183918965787
 20
-150.5672091637471
 10
122.1813449130311
 20
-150.4655788469322
 10
122.1813449130311
 20
-150.2688638947245
 10
122.1813449130311
 20
-150.1400173235761
 10
122.1220892706848
 20
-149.95225961963
 10
121.8364908549575
 20
-149.95225961963
 10
121.6122151388678
 20
-149.95225961963
 10
121.5147189366352
 20
-150.1014322541413
 10
121.5147189366352
 20
-150.2461262645218
 97
        0
 97
        0
 75
     2
 76
     1
 98
        0
  0
POLYLINE
  5
DE
330
D7
100
AcDbEntity
  8
_U+30EC_U+30A4_U+30E4_U+30FC 1
370
     0
100
AcDb2dPolyline
 66
     1
 10
0.0
 20
0.0
 30
0.0
  0
VERTEX
  5
DF
330
DE
100
AcDbEntity
  8
_U+30EC_U+30A4_U+30E4_U+30FC 1
370
     0
100
AcDbVertex
100
AcDb2dVertex
 10
122.3229383374748
 20
-149.4813150667964
 30
0.0
  0
VERTEX
  5
E0
330
DE
100
AcDbEntity
  8
_U+30EC_U+30A4_U+30E4_U+30FC 1
370
     0
100
AcDbVertex
100
AcDb2dVertex
 10
122.0711018575031
 20
-149.4813150667964
 30
0.0
  0
VERTEX
  5
E1
330
DE
100
AcDbEntity
  8
_U+30EC_U+30A4_U+30E4_U+30FC 1
370
     0
100
AcDbVertex
100
AcDb2dVertex
 10
122.0711018575031
 20
-149.2122531093983
 30
0.0
  0
VERTEX
  5
E2
330
DE
100
AcDbEntity
  8
_U+30EC_U+30A4_U+30E4_U+30FC 1
370
     0
100
AcDbVertex
100
AcDb2dVertex
 10
122.3229383374748
 20
-149.2122531093983
 30
0.0
  0
VERTEX
  5
E3
330
DE
100
AcDbEntity
  8
_U+30EC_U+30A4_U+30E4_U+30FC 1
370
     0
100
AcDbVertex
100
AcDb2dVertex
 10
122.3229383374748
 20
-149.4813150667964
 30
0.0
  0
SEQEND
  5
E4
330
DE
100
AcDbEntity
  8
_U+30EC_U+30A4_U+30E4_U+30FC 1
370
     0
  0
HATCH
  5
E5
330
D7
100
AcDbEntity
  8
_U+30EC_U+30A4_U+30E4_U+30FC 1
 62
   179
420
  2234388
100
AcDbHatch
 10
0.0
 20
0.0
 30
0.0
210
0.0
220
0.0
230
1.0
  2
SOLID
 70
     1
 71
     0
 91
        1
 92
        1
 93
        4
 72
     1
 10
122.3229383374748
 20
-149.4813150667964
 11
122.0711018575031
 21
-149.4813150667964
 72
     1
 10
122.0711018575031
 20
-149.4813150667964
 11
122.0711018575031
 21
-149.2122531093983
 72
     1
 10
122.0711018575031
 20
-149.2122531093983
 11
122.3229383374748
 21
-149.2122531093983
 72
     1
 10
122.3229383374748
 20
-149.2122531093983
 11
122.3229383374748
 21
-149.4813150667964
 97
        0
 75
     2
 76
     1
 98
        0
  0
SPLINE
  5
E6
330
D7
100
AcDbEntity
  8
_U+30EC_U+30A4_U+30E4_U+30FC 1
370
     0
100
AcDbSpline
210
0.0
220
0.0
230
1.0
 70
    11
 71
     3
 72
    53
 73
    49
 74
     0
 42
0.0000000001
 43
0.0000000001
 12
1.0
 22
0.0
 32
0.0
 13
1.0
 23
0.0
 33
0.0
 40
0.0
 40
0.0
 40
0.0
 40
0.0
 40
1.0
 40
1.0
 40
1.0
 40
2.0
 40
2.0
 40
2.0
 40
3.0
 40
3.0
 40
3.0
 40
4.0
 40
4.0
 40
4.0
 40
5.0
 40
5.0
 40
5.0
 40
6.0
 40
6.0
 40
6.0
 40
7.0
 40
7.0
 40
7.0
 40
8.0
 40
8.0
 40
8.0
 40
9.0
 40
9.0
 40
9.0
 40
10.0
 40
10.0
 40
10.0
 40
11.0
 40
11.0
 40
11.0
 40
12.0
 40
12.0
 40
12.0
 40
13.0
 40
13.0
 40
13.0
 40
14.0
 40
14.0
 40
14.0
 40
15.0
 40
15.0
 40
15.0
 40
16.0
 40
16.0
 40
16.0
 40
16.0
 10
122.373581241108
 20
-148.4453748543817
 30
0.0
 10
122.373581241108
 20
-148.5287461651248
 30
0.0
 10
122.3567002732303
 20
-148.6376111824587
 30
0.0
 10
122.2933105163017
 20
-148.7457871806955
 30
0.0
 10
122.1834119703222
 20
-148.9314778273505
 30
0.0
 10
122.0521538323342
 20
-148.9538709480046
 30
0.0
 10
121.9443223436459
 20
-148.9741970113676
 30
0.0
 10
121.9443223436459
 20
-148.9741970113676
 30
0.0
 10
121.9443223436459
 20
-148.7368299324339
 30
0.0
 10
121.9443223436459
 20
-148.7368299324339
 30
0.0
 10
122.1431043531448
 20
-148.6782633091846
 30
0.0
 10
122.1727321743179
 20
-148.5425265470658
 30
0.0
 10
122.1727321743179
 20
-148.4429632875421
 30
0.0
 10
122.1727321743179
 20
-148.2937906530307
 30
0.0
 10
122.0731689147942
 20
-148.1311821461269
 30
0.0
 10
121.8406249695398
 20
-148.1311821461269
 30
0.0
 10
121.5846543749858
 20
-148.1311821461269
 30
0.0
 10
121.5147189366352
 20
-148.3230739646554
 30
0.0
 10
121.5147189366352
 20
-148.4519205358037
 30
0.0
 10
121.5147189366352
 20
-148.4860269811077
 30
0.0
 10
121.5147189366352
 20
-148.6376111824587
 30
0.0
 10
121.6439100173321
 20
-148.732351308303
 30
0.0
 10
121.6439100173321
 20
-148.732351308303
 30
0.0
 10
121.6249619921632
 20
-148.9201090122492
 30
0.0
 10
121.6249619921632
 20
-148.9201090122492
 30
0.0
 10
121.6249619921632
 20
-148.9201090122492
 30
0.0
 10
120.7785020314373
 20
-148.7912624411008
 30
0.0
 10
120.7785020314373
 20
-148.7912624411008
 30
0.0
 10
120.7785020314373
 20
-148.7912624411008
 30
0.0
 10
120.7785020314373
 20
-147.959271881413
 30
0.0
 10
120.7785020314373
 20
-147.959271881413
 30
0.0
 10
120.7785020314373
 20
-147.959271881413
 30
0.0
 10
120.9731499263539
 20
-147.959271881413
 30
0.0
 10
120.9731499263539
 20
-147.959271881413
 30
0.0
 10
120.9731499263539
 20
-147.959271881413
 30
0.0
 10
120.9731499263539
 20
-148.6169406095472
 30
0.0
 10
120.9731499263539
 20
-148.6169406095472
 30
0.0
 10
120.9731499263539
 20
-148.6169406095472
 30
0.0
 10
121.3962076519426
 20
-148.6872205574463
 30
0.0
 10
121.3962076519426
 20
-148.6872205574463
 30
0.0
 10
121.3624457161872
 20
-148.6217637432265
 30
0.0
 10
121.3221380990097
 20
-148.5335692988041
 30
0.0
 10
121.3221380990097
 20
-148.4067897849469
 30
0.0
 10
121.3221380990097
 20
-148.1356607702578
 30
0.0
 10
121.5085177647618
 20
-147.8824462520919
 30
0.0
 10
121.821676944371
 20
-147.8824462520919
 30
0.0
 10
122.1389702385625
 20
-147.8824462520919
 30
0.0
 10
122.373581241108
 20
-148.1218803883168
 30
0.0
 10
122.373581241108
 20
-148.4453748543817
 30
0.0
  0
HATCH
  5
E7
330
D7
100
AcDbEntity
  8
_U+30EC_U+30A4_U+30E4_U+30FC 1
 62
   179
420
  2234388
100
AcDbHatch
 10
0.0
 20
0.0
 30
0.0
210
0.0
220
0.0
230
1.0
  2
SOLID
 70
     1
 71
     0
 91
        1
 92
        1
 93
        1
 72
     4
 94
        3
 73
     0
 74
     1
 95
       53
 96
       49
 40
0.0
 40
0.0
 40
0.0
 40
0.0
 40
1.0
 40
1.0
 40
1.0
 40
2.0
 40
2.0
 40
2.0
 40
3.0
 40
3.0
 40
3.0
 40
4.0
 40
4.0
 40
4.0
 40
5.0
 40
5.0
 40
5.0
 40
6.0
 40
6.0
 40
6.0
 40
7.0
 40
7.0
 40
7.0
 40
8.0
 40
8.0
 40
8.0
 40
9.0
 40
9.0
 40
9.0
 40
10.0
 40
10.0
 40
10.0
 40
11.0
 40
11.0
 40
11.0
 40
12.0
 40
12.0
 40
12.0
 40
13.0
 40
13.0
 40
13.0
 40
14.0
 40
14.0
 40
14.0
 40
15.0
 40
15.0
 40
15.0
 40
16.0
 40
16.0
 40
16.0
 40
16.0
 10
122.373581241108
 20
-148.4453748543817
 10
122.373581241108
 20
-148.5287461651248
 10
122.3567002732303
 20
-148.6376111824587
 10
122.2933105163017
 20
-148.7457871806955
 10
122.1834119703222
 20
-148.9314778273505
 10
122.0521538323342
 20
-148.9538709480046
 10
121.9443223436459
 20
-148.9741970113676
 10
121.9443223436459
 20
-148.9741970113676
 10
121.9443223436459
 20
-148.7368299324339
 10
121.9443223436459
 20
-148.7368299324339
 10
122.1431043531448
 20
-148.6782633091846
 10
122.1727321743179
 20
-148.5425265470658
 10
122.1727321743179
 20
-148.4429632875421
 10
122.1727321743179
 20
-148.2937906530307
 10
122.0731689147942
 20
-148.1311821461269
 10
121.8406249695398
 20
-148.1311821461269
 10
121.5846543749858
 20
-148.1311821461269
 10
121.5147189366352
 20
-148.3230739646554
 10
121.5147189366352
 20
-148.4519205358037
 10
121.5147189366352
 20
-148.4860269811077
 10
121.5147189366352
 20
-148.6376111824587
 10
121.6439100173321
 20
-148.732351308303
 10
121.6439100173321
 20
-148.732351308303
 10
121.6249619921632
 20
-148.9201090122492
 10
121.6249619921632
 20
-148.9201090122492
 10
121.6249619921632
 20
-148.9201090122492
 10
120.7785020314373
 20
-148.7912624411008
 10
120.7785020314373
 20
-148.7912624411008
 10
120.7785020314373
 20
-148.7912624411008
 10
120.7785020314373
 20
-147.959271881413
 10
120.7785020314373
 20
-147.959271881413
 10
120.7785020314373
 20
-147.959271881413
 10
120.9731499263539
 20
-147.959271881413
 10
120.9731499263539
 20
-147.959271881413
 10
120.9731499263539
 20
-147.959271881413
 10
120.9731499263539
 20
-148.6169406095472
 10
120.9731499263539
 20
-148.6169406095472
 10
120.9731499263539
 20
-148.6169406095472
 10
121.3962076519426
 20
-148.6872205574463
 10
121.3962076519426
 20
-148.6872205574463
 10
121.3624457161872
 20
-148.6217637432265
 10
121.3221380990097
 20
-148.5335692988041
 10
121.3221380990097
 20
-148.4067897849469
 10
121.3221380990097
 20
-148.1356607702578
 10
121.5085177647618
 20
-147.8824462520919
 10
121.821676944371
 20
-147.8824462520919
 10
122.1389702385625
 20
-147.8824462520919
 10
122.373581241108
 20
-148.1218803883168
 10
122.373581241108
 20
-148.4453748543817
 97
        0
 97
        0
 75
     2
 76
     1
 98
        0
  0
ENDBLK
  5
DA
330
D7
100
AcDbEntity
  8
0
100
AcDbBlockEnd
  0
BLOCK
  5
F6
330
F4
100
AcDbEntity
  8
0
100
AcDbBlockBegin
  2
block 6
 70
     0
 10
0.0
 20
0.0
 30
0.0
  3
block 6
  1

  0
SPLINE
  5
F8
330
F4
100
AcDbEntity
  8
_U+30EC_U+30A4_U+30E4_U+30FC 1
370
     0
100
AcDbSpline
210
0.0
220
0.0
230
1.0
 70
    11
 71
     3
 72
    62
 73
    58
 74
     0
 42
0.0000000001
 43
0.0000000001
 12
1.0
 22
0.0
 32
0.0
 13
1.0
 23
0.0
 33
0.0
 40
0.0
 40
0.0
 40
0.0
 40
0.0
 40
1.0
 40
1.0
 40
1.0
 40
2.0
 40
2.0
 40
2.0
 40
3.0
 40
3.0
 40
3.0
 40
4.0
 40
4.0
 40
4.0
 40
5.0
 40
5.0
 40
5.0
 40
6.0
 40
6.0
 40
6.0
 40
7.0
 40
7.0
 40
7.0
 40
8.0
 40
8.0
 40
8.0
 40
9.0
 40
9.0
 40
9.0
 40
10.0
 40
10.0
 40
10.0
 40
11.0
 40
11.0
 40
11.0
 40
12.0
 40
12.0
 40
12.0
 40
13.0
 40
13.0
 40
13.0
 40
14.0
 40
14.0
 40
14.0
 40
15.0
 40
15.0
 40
15.0
 40
16.0
 40
16.0
 40
16.0
 40
17.0
 40
17.0
 40
17.0
 40
18.0
 40
18.0
 40
18.0
 40
19.0
 40
19.0
 40
19.0
 40
19.0
 10
101.9918795860472
 20
-139.9928330813212
 30
0.0
 10
101.8902492692323
 20
-139.9928330813212
 30
0.0
 10
101.6573608144294
 20
-139.9718179988612
 30
0.0
 10
101.5240356191502
 20
-139.7857828426577
 30
0.0
 10
101.4447984229895
 20
-139.6734727298386
 30
0.0
 10
101.4403197988587
 20
-139.5742539798634
 30
0.0
 10
101.4358411747279
 20
-139.4895046309262
 30
0.0
 10
101.4358411747279
 20
-139.4895046309262
 30
0.0
 10
101.6707966868219
 20
-139.4895046309262
 30
0.0
 10
101.6707966868219
 20
-139.4895046309262
 30
0.0
 10
101.6732082536616
 20
-139.5635741838591
 30
0.0
 10
101.6845770687629
 20
-139.7981851864046
 30
0.0
 10
101.9874009619164
 20
-139.7981851864046
 30
0.0
 10
102.1345065391365
 20
-139.7981851864046
 30
0.0
 10
102.2971150460403
 20
-139.7285942576026
 30
0.0
 10
102.2971150460403
 20
-139.5001844269305
 30
0.0
 10
102.2971150460403
 20
-139.3837401995291
 30
0.0
 10
102.2564629193144
 20
-139.3351643531871
 30
0.0
 10
102.2227009835589
 20
-139.3034694747228
 30
0.0
 10
102.1434637873982
 20
-139.2293999217899
 30
0.0
 10
102.0190958403806
 20
-139.2166530684945
 30
0.0
 10
101.9601847075829
 20
-139.2166530684945
 30
0.0
 10
101.9398586442199
 20
-139.2166530684945
 30
0.0
 10
101.9016180843336
 20
-139.2187201257856
 30
0.0
 10
101.8719902631605
 20
-139.2228542403679
 30
0.0
 10
101.8719902631605
 20
-139.2228542403679
 30
0.0
 10
101.8719902631605
 20
-139.0282063454513
 30
0.0
 10
101.8719902631605
 20
-139.0282063454513
 30
0.0
 10
101.9126423898864
 20
-139.0347520268733
 30
0.0
 10
101.9581176502917
 20
-139.0368190841644
 30
0.0
 10
101.9646633317137
 20
-139.0368190841644
 30
0.0
 10
102.0349432796128
 20
-139.0368190841644
 30
0.0
 10
102.2475056710527
 20
-139.0154594921559
 30
0.0
 10
102.2475056710527
 20
-138.7787814323192
 30
0.0
 10
102.2475056710527
 20
-138.6010145052803
 30
0.0
 10
102.107290284803
 20
-138.5458929775163
 30
0.0
 10
101.989812528756
 20
-138.5458929775163
 30
0.0
 10
101.706970189417
 20
-138.5458929775163
 30
0.0
 10
101.6980129411554
 20
-138.7787814323192
 30
0.0
 10
101.6935343170245
 20
-138.8504394184124
 30
0.0
 10
101.6935343170245
 20
-138.8504394184124
 30
0.0
 10
101.4764933014538
 20
-138.8504394184124
 30
0.0
 10
101.4764933014538
 20
-138.8504394184124
 30
0.0
 10
101.4854505497155
 20
-138.7257269618464
 30
0.0
 10
101.5147338613401
 20
-138.3491780253085
 30
0.0
 10
102.0032484011485
 20
-138.3491780253085
 30
0.0
 10
102.2430270469219
 20
-138.3491780253085
 30
0.0
 10
102.5007201892186
 20
-138.4763020487143
 30
0.0
 10
102.5007201892186
 20
-138.7722357508972
 30
0.0
 10
102.5007201892186
 20
-138.9586154166493
 30
0.0
 10
102.3987453628552
 20
-139.0409531987467
 30
0.0
 10
102.2926364219095
 20
-139.1022758983842
 30
0.0
 10
102.3580932361292
 20
-139.1298366622662
 30
0.0
 10
102.5527411310458
 20
-139.2101073870725
 30
0.0
 10
102.5527411310458
 20
-139.4874375736351
 30
0.0
 10
102.5527411310458
 20
-139.8257459502866
 30
0.0
 10
102.2881577977787
 20
-139.9928330813212
 30
0.0
 10
101.9918795860472
 20
-139.9928330813212
 30
0.0
  0
HATCH
  5
F9
330
F4
100
AcDbEntity
  8
_U+30EC_U+30A4_U+30E4_U+30FC 1
 62
   179
420
  2234388
100
AcDbHatch
 10
0.0
 20
0.0
 30
0.0
210
0.0
220
0.0
230
1.0
  2
SOLID
 70
     1
 71
     0
 91
        1
 92
        1
 93
        1
 72
     4
 94
        3
 73
     0
 74
     1
 95
       62
 96
       58
 40
0.0
 40
0.0
 40
0.0
 40
0.0
 40
1.0
 40
1.0
 40
1.0
 40
2.0
 40
2.0
 40
2.0
 40
3.0
 40
3.0
 40
3.0
 40
4.0
 40
4.0
 40
4.0
 40
5.0
 40
5.0
 40
5.0
 40
6.0
 40
6.0
 40
6.0
 40
7.0
 40
7.0
 40
7.0
 40
8.0
 40
8.0
 40
8.0
 40
9.0
 40
9.0
 40
9.0
 40
10.0
 40
10.0
 40
10.0
 40
11.0
 40
11.0
 40
11.0
 40
12.0
 40
12.0
 40
12.0
 40
13.0
 40
13.0
 40
13.0
 40
14.0
 40
14.0
 40
14.0
 40
15.0
 40
15.0
 40
15.0
 40
16.0
 40
16.0
 40
16.0
 40
17.0
 40
17.0
 40
17.0
 40
18.0
 40
18.0
 40
18.0
 40
19.0
 40
19.0
 40
19.0
 40
19.0
 10
101.9918795860472
 20
-139.9928330813212
 10
101.8902492692323
 20
-139.9928330813212
 10
101.6573608144294
 20
-139.9718179988612
 10
101.5240356191502
 20
-139.7857828426577
 10
101.4447984229895
 20
-139.6734727298386
 10
101.4403197988587
 20
-139.5742539798634
 10
101.4358411747279
 20
-139.4895046309262
 10
101.4358411747279
 20
-139.4895046309262
 10
101.6707966868219
 20
-139.4895046309262
 10
101.6707966868219
 20
-139.4895046309262
 10
101.6732082536616
 20
-139.5635741838591
 10
101.6845770687629
 20
-139.7981851864046
 10
101.9874009619164
 20
-139.7981851864046
 10
102.1345065391365
 20
-139.7981851864046
 10
102.2971150460403
 20
-139.7285942576026
 10
102.2971150460403
 20
-139.5001844269305
 10
102.2971150460403
 20
-139.3837401995291
 10
102.2564629193144
 20
-139.3351643531871
 10
102.2227009835589
 20
-139.3034694747228
 10
102.1434637873982
 20
-139.2293999217899
 10
102.0190958403806
 20
-139.2166530684945
 10
101.9601847075829
 20
-139.2166530684945
 10
101.9398586442199
 20
-139.2166530684945
 10
101.9016180843336
 20
-139.2187201257856
 10
101.8719902631605
 20
-139.2228542403679
 10
101.8719902631605
 20
-139.2228542403679
 10
101.8719902631605
 20
-139.0282063454513
 10
101.8719902631605
 20
-139.0282063454513
 10
101.9126423898864
 20
-139.0347520268733
 10
101.9581176502917
 20
-139.0368190841644
 10
101.9646633317137
 20
-139.0368190841644
 10
102.0349432796128
 20
-139.0368190841644
 10
102.2475056710527
 20
-139.0154594921559
 10
102.2475056710527
 20
-138.7787814323192
 10
102.2475056710527
 20
-138.6010145052803
 10
102.107290284803
 20
-138.5458929775163
 10
101.989812528756
 20
-138.5458929775163
 10
101.706970189417
 20
-138.5458929775163
 10
101.6980129411554
 20
-138.7787814323192
 10
101.6935343170245
 20
-138.8504394184124
 10
101.6935343170245
 20
-138.8504394184124
 10
101.4764933014538
 20
-138.8504394184124
 10
101.4764933014538
 20
-138.8504394184124
 10
101.4854505497155
 20
-138.7257269618464
 10
101.5147338613401
 20
-138.3491780253085
 10
102.0032484011485
 20
-138.3491780253085
 10
102.2430270469219
 20
-138.3491780253085
 10
102.5007201892186
 20
-138.4763020487143
 10
102.5007201892186
 20
-138.7722357508972
 10
102.5007201892186
 20
-138.9586154166493
 10
102.3987453628552
 20
-139.0409531987467
 10
102.2926364219095
 20
-139.1022758983842
 10
102.3580932361292
 20
-139.1298366622662
 10
102.5527411310458
 20
-139.2101073870725
 10
102.5527411310458
 20
-139.4874375736351
 10
102.5527411310458
 20
-139.8257459502866
 10
102.2881577977787
 20
-139.9928330813212
 10
101.9918795860472
 20
-139.9928330813212
 97
        0
 97
        0
 75
     2
 76
     1
 98
        0
  0
POLYLINE
  5
FA
330
F4
100
AcDbEntity
  8
_U+30EC_U+30A4_U+30E4_U+30FC 1
370
     0
100
AcDb2dPolyline
 66
     1
 10
0.0
 20
0.0
 30
0.0
  0
VERTEX
  5
FB
330
FA
100
AcDbEntity
  8
_U+30EC_U+30A4_U+30E4_U+30FC 1
370
     0
100
AcDbVertex
100
AcDb2dVertex
 10
103.6138305405028
 20
-139.5952690623234
 30
0.0
  0
VERTEX
  5
FC
330
FA
100
AcDbEntity
  8
_U+30EC_U+30A4_U+30E4_U+30FC 1
370
     0
100
AcDbVertex
100
AcDb2dVertex
 10
103.6138305405028
 20
-139.9421901776881
 30
0.0
  0
VERTEX
  5
FD
330
FA
100
AcDbEntity
  8
_U+30EC_U+30A4_U+30E4_U+30FC 1
370
     0
100
AcDbVertex
100
AcDb2dVertex
 10
103.3809420856999
 20
-139.9421901776881
 30
0.0
  0
VERTEX
  5
FE
330
FA
100
AcDbEntity
  8
_U+30EC_U+30A4_U+30E4_U+30FC 1
370
     0
100
AcDbVertex
100
AcDb2dVertex
 10
103.3809420856999
 20
-139.5952690623234
 30
0.0
  0
VERTEX
  5
FF
330
FA
100
AcDbEntity
  8
_U+30EC_U+30A4_U+30E4_U+30FC 1
370
     0
100
AcDbVertex
100
AcDb2dVertex
 10
102.6798651544516
 20
-139.5952690623234
 30
0.0
  0
VERTEX
  5
100
330
FA
100
AcDbEntity
  8
_U+30EC_U+30A4_U+30E4_U+30FC 1
370
     0
100
AcDbVertex
100
AcDb2dVertex
 10
102.6798651544516
 20
-139.3709933462337
 30
0.0
  0
VERTEX
  5
101
330
FA
100
AcDbEntity
  8
_U+30EC_U+30A4_U+30E4_U+30FC 1
370
     0
100
AcDbVertex
100
AcDb2dVertex
 10
103.4057467731937
 20
-138.3977538716506
 30
0.0
  0
VERTEX
  5
102
330
FA
100
AcDbEntity
  8
_U+30EC_U+30A4_U+30E4_U+30FC 1
370
     0
100
AcDbVertex
100
AcDb2dVertex
 10
103.6138305405028
 20
-138.3977538716506
 30
0.0
  0
VERTEX
  5
103
330
FA
100
AcDbEntity
  8
_U+30EC_U+30A4_U+30E4_U+30FC 1
370
     0
100
AcDbVertex
100
AcDb2dVertex
 10
103.6138305405028
 20
-139.3964870528245
 30
0.0
  0
VERTEX
  5
104
330
FA
100
AcDbEntity
  8
_U+30EC_U+30A4_U+30E4_U+30FC 1
370
     0
100
AcDbVertex
100
AcDb2dVertex
 10
103.8353501802044
 20
-139.3964870528245
 30
0.0
  0
VERTEX
  5
105
330
FA
100
AcDbEntity
  8
_U+30EC_U+30A4_U+30E4_U+30FC 1
370
     0
100
AcDbVertex
100
AcDb2dVertex
 10
103.8353501802044
 20
-139.5952690623234
 30
0.0
  0
VERTEX
  5
106
330
FA
100
AcDbEntity
  8
_U+30EC_U+30A4_U+30E4_U+30FC 1
370
     0
100
AcDbVertex
100
AcDb2dVertex
 10
103.6138305405028
 20
-139.5952690623234
 30
0.0
  0
SEQEND
  5
107
330
FA
100
AcDbEntity
  8
_U+30EC_U+30A4_U+30E4_U+30FC 1
370
     0
  0
POLYLINE
  5
108
330
F4
100
AcDbEntity
  8
_U+30EC_U+30A4_U+30E4_U+30FC 1
370
     0
100
AcDb2dPolyline
 66
     1
 10
0.0
 20
0.0
 30
0.0
  0
VERTEX
  5
109
330
108
100
AcDbEntity
  8
_U+30EC_U+30A4_U+30E4_U+30FC 1
370
     0
100
AcDbVertex
100
AcDb2dVertex
 10
103.3809420856999
 20
-138.7405408724329
 30
0.0
  0
VERTEX
  5
10A
330
108
100
AcDbEntity
  8
_U+30EC_U+30A4_U+30E4_U+30FC 1
370
     0
100
AcDbVertex
100
AcDb2dVertex
 10
102.8924275458915
 20
-139.3964870528245
 30
0.0
  0
VERTEX
  5
10B
330
108
100
AcDbEntity
  8
_U+30EC_U+30A4_U+30E4_U+30FC 1
370
     0
100
AcDbVertex
100
AcDb2dVertex
 10
103.3809420856999
 20
-139.3964870528245
 30
0.0
  0
VERTEX
  5
10C
330
108
100
AcDbEntity
  8
_U+30EC_U+30A4_U+30E4_U+30FC 1
370
     0
100
AcDbVertex
100
AcDb2dVertex
 10
103.3809420856999
 20
-138.7405408724329
 30
0.0
  0
SEQEND
  5
10D
330
108
100
AcDbEntity
  8
_U+30EC_U+30A4_U+30E4_U+30FC 1
370
     0
  0
HATCH
  5
10E
330
F4
100
AcDbEntity
  8
_U+30EC_U+30A4_U+30E4_U+30FC 1
 62
   179
420
  2234388
100
AcDbHatch
 10
0.0
 20
0.0
 30
0.0
210
0.0
220
0.0
230
1.0
  2
SOLID
 70
     1
 71
     0
 91
        2
 92
        1
 93
       11
 72
     1
 10
103.6138305405028
 20
-139.5952690623234
 11
103.6138305405028
 21
-139.9421901776881
 72
     1
 10
103.6138305405028
 20
-139.9421901776881
 11
103.3809420856999
 21
-139.9421901776881
 72
     1
 10
103.3809420856999
 20
-139.9421901776881
 11
103.3809420856999
 21
-139.5952690623234
 72
     1
 10
103.3809420856999
 20
-139.5952690623234
 11
102.6798651544516
 21
-139.5952690623234
 72
     1
 10
102.6798651544516
 20
-139.5952690623234
 11
102.6798651544516
 21
-139.3709933462337
 72
     1
 10
102.6798651544516
 20
-139.3709933462337
 11
103.4057467731937
 21
-138.3977538716506
 72
     1
 10
103.4057467731937
 20
-138.3977538716506
 11
103.6138305405028
 21
-138.3977538716506
 72
     1
 10
103.6138305405028
 20
-138.3977538716506
 11
103.6138305405028
 21
-139.3964870528245
 72
     1
 10
103.6138305405028
 20
-139.3964870528245
 11
103.8353501802044
 21
-139.3964870528245
 72
     1
 10
103.8353501802044
 20
-139.3964870528245
 11
103.8353501802044
 21
-139.5952690623234
 72
     1
 10
103.8353501802044
 20
-139.5952690623234
 11
103.6138305405028
 21
-139.5952690623234
 97
        0
 92
        1
 93
        3
 72
     1
 10
103.3809420856999
 20
-138.7405408724329
 11
102.8924275458915
 21
-139.3964870528245
 72
     1
 10
102.8924275458915
 20
-139.3964870528245
 11
103.3809420856999
 21
-139.3964870528245
 72
     1
 10
103.3809420856999
 20
-139.3964870528245
 11
103.3809420856999
 21
-138.7405408724329
 97
        0
 75
     2
 76
     1
 98
        0
  0
ENDBLK
  5
F7
330
F4
100
AcDbEntity
  8
0
100
AcDbBlockEnd
  0
BLOCK
  5
119
330
117
100
AcDbEntity
  8
0
100
AcDbBlockBegin
  2
block 7
 70
     0
 10
0.0
 20
0.0
 30
0.0
  3
block 7
  1

  0
SPLINE
  5
11B
330
117
100
AcDbEntity
  8
_U+30EC_U+30A4_U+30E4_U+30FC 1
370
     0
100
AcDbSpline
210
0.0
220
0.0
230
1.0
 70
    11
 71
     3
 72
    26
 73
    22
 74
     0
 42
0.0000000001
 43
0.0000000001
 12
1.0
 22
0.0
 32
0.0
 13
1.0
 23
0.0
 33
0.0
 40
0.0
 40
0.0
 40
0.0
 40
0.0
 40
1.0
 40
1.0
 40
1.0
 40
2.0
 40
2.0
 40
2.0
 40
3.0
 40
3.0
 40
3.0
 40
4.0
 40
4.0
 40
4.0
 40
5.0
 40
5.0
 40
5.0
 40
6.0
 40
6.0
 40
6.0
 40
7.0
 40
7.0
 40
7.0
 40
7.0
 10
89.94885929825932
 20
-156.4421304947437
 30
0.0
 10
89.94885929825932
 20
-156.4421304947437
 30
0.0
 10
89.94885929825932
 20
-155.3379773917211
 30
0.0
 10
89.94885929825932
 20
-155.3379773917211
 30
0.0
 10
89.94885929825932
 20
-155.3379773917211
 30
0.0
 10
89.59608152056974
 20
-155.3379773917211
 30
0.0
 10
89.59608152056974
 20
-155.3379773917211
 30
0.0
 10
89.59608152056974
 20
-155.3379773917211
 30
0.0
 10
89.59608152056974
 20
-155.1898382858553
 30
0.0
 10
89.59608152056974
 20
-155.1898382858553
 30
0.0
 10
89.95109861032473
 20
-155.1750243752687
 30
0.0
 10
90.00088024008659
 20
-155.0120713588164
 30
0.0
 10
90.0325751185509
 20
-154.8976941887061
 30
0.0
 10
90.0325751185509
 20
-154.8976941887061
 30
0.0
 10
90.18846568925845
 20
-154.8976941887061
 30
0.0
 10
90.18846568925845
 20
-154.8976941887061
 30
0.0
 10
90.18846568925845
 20
-154.8976941887061
 30
0.0
 10
90.18846568925845
 20
-156.4421304947437
 30
0.0
 10
90.18846568925845
 20
-156.4421304947437
 30
0.0
 10
90.18846568925845
 20
-156.4421304947437
 30
0.0
 10
89.94885929825932
 20
-156.4421304947437
 30
0.0
 10
89.94885929825932
 20
-156.4421304947437
 30
0.0
  0
HATCH
  5
11C
330
117
100
AcDbEntity
  8
_U+30EC_U+30A4_U+30E4_U+30FC 1
 62
   179
420
  2234388
100
AcDbHatch
 10
0.0
 20
0.0
 30
0.0
210
0.0
220
0.0
230
1.0
  2
SOLID
 70
     1
 71
     0
 91
        1
 92
        1
 93
        1
 72
     4
 94
        3
 73
     0
 74
     1
 95
       26
 96
       22
 40
0.0
 40
0.0
 40
0.0
 40
0.0
 40
1.0
 40
1.0
 40
1.0
 40
2.0
 40
2.0
 40
2.0
 40
3.0
 40
3.0
 40
3.0
 40
4.0
 40
4.0
 40
4.0
 40
5.0
 40
5.0
 40
5.0
 40
6.0
 40
6.0
 40
6.0
 40
7.0
 40
7.0
 40
7.0
 40
7.0
 10
89.94885929825932
 20
-156.4421304947437
 10
89.94885929825932
 20
-156.4421304947437
 10
89.94885929825932
 20
-155.3379773917211
 10
89.94885929825932
 20
-155.3379773917211
 10
89.94885929825932
 20
-155.3379773917211
 10
89.59608152056974
 20
-155.3379773917211
 10
89.59608152056974
 20
-155.3379773917211
 10
89.59608152056974
 20
-155.3379773917211
 10
89.59608152056974
 20
-155.1898382858553
 10
89.59608152056974
 20
-155.1898382858553
 10
89.95109861032473
 20
-155.1750243752687
 10
90.00088024008659
 20
-155.0120713588164
 10
90.0325751185509
 20
-154.8976941887061
 10
90.0325751185509
 20
-154.8976941887061
 10
90.18846568925845
 20
-154.8976941887061
 10
90.18846568925845
 20
-154.8976941887061
 10
90.18846568925845
 20
-154.8976941887061
 10
90.18846568925845
 20
-156.4421304947437
 10
90.18846568925845
 20
-156.4421304947437
 10
90.18846568925845
 20
-156.4421304947437
 10
89.94885929825932
 20
-156.4421304947437
 10
89.94885929825932
 20
-156.4421304947437
 97
        0
 97
        0
 75
     2
 76
     1
 98
        0
  0
SPLINE
  5
11D
330
117
100
AcDbEntity
  8
_U+30EC_U+30A4_U+30E4_U+30FC 1
370
     0
100
AcDbSpline
210
0.0
220
0.0
230
1.0
 70
    11
 71
     3
 72
    29
 73
    25
 74
     0
 42
0.0000000001
 43
0.0000000001
 12
1.0
 22
0.0
 32
0.0
 13
1.0
 23
0.0
 33
0.0
 40
0.0
 40
0.0
 40
0.0
 40
0.0
 40
1.0
 40
1.0
 40
1.0
 40
2.0
 40
2.0
 40
2.0
 40
3.0
 40
3.0
 40
3.0
 40
4.0
 40
4.0
 40
4.0
 40
5.0
 40
5.0
 40
5.0
 40
6.0
 40
6.0
 40
6.0
 40
7.0
 40
7.0
 40
7.0
 40
8.0
 40
8.0
 40
8.0
 40
8.0
 10
91.68363712985688
 20
-156.2643635677047
 30
0.0
 10
91.56839868587527
 20
-156.4738253732079
 30
0.0
 10
91.38305254876883
 20
-156.4927733983768
 30
0.0
 10
91.2586846017513
 20
-156.4927733983768
 30
0.0
 10
91.08677433703734
 20
-156.4927733983768
 30
0.0
 10
90.93536239046061
 20
-156.4462646093259
 30
0.0
 10
90.83355981887148
 20
-156.2643635677047
 30
0.0
 10
90.7227999990207
 20
-156.0697156727881
 30
0.0
 10
90.70247393565772
 20
-155.8330376129515
 30
0.0
 10
90.70247393565772
 20
-155.6700845964992
 30
0.0
 10
90.70247393565772
 20
-155.5260796052157
 30
0.0
 10
90.72056068695528
 20
-155.2742431252439
 30
0.0
 10
90.83355981887148
 20
-155.075461115745
 30
0.0
 10
90.94897051762734
 20
-154.8725449916638
 30
0.0
 10
91.12070852756705
 20
-154.8491183423641
 30
0.0
 10
91.2586846017513
 20
-154.8491183423641
 30
0.0
 10
91.4281832996256
 20
-154.8491183423641
 30
0.0
 10
91.582006813042
 20
-154.8935600741238
 30
0.0
 10
91.68363712985688
 20
-155.075461115745
 30
0.0
 10
91.78991832557683
 20
-155.2680419533705
 30
0.0
 10
91.81472301307063
 20
-155.4964517840426
 30
0.0
 10
91.81472301307063
 20
-155.6700845964992
 30
0.0
 10
91.81472301307063
 20
-155.8413058421161
 30
0.0
 10
91.79215763764225
 20
-156.0717827300793
 30
0.0
 10
91.68363712985688
 20
-156.2643635677047
 30
0.0
  0
SPLINE
  5
11E
330
117
100
AcDbEntity
  8
_U+30EC_U+30A4_U+30E4_U+30FC 1
370
     0
100
AcDbSpline
210
0.0
220
0.0
230
1.0
 70
    11
 71
     3
 72
    17
 73
    13
 74
     0
 42
0.0000000001
 43
0.0000000001
 12
1.0
 22
0.0
 32
0.0
 13
1.0
 23
0.0
 33
0.0
 40
0.0
 40
0.0
 40
0.0
 40
0.0
 40
1.0
 40
1.0
 40
1.0
 40
2.0
 40
2.0
 40
2.0
 40
3.0
 40
3.0
 40
3.0
 40
4.0
 40
4.0
 40
4.0
 40
4.0
 10
91.2586846017513
 20
-155.0416991799896
 30
0.0
 10
90.9918619564187
 20
-155.0416991799896
 30
0.0
 10
90.94208032665685
 20
-155.3252305384256
 30
0.0
 10
90.94208032665685
 20
-155.6700845964992
 30
0.0
 10
90.94208032665685
 20
-155.9894449479818
 30
0.0
 10
90.98049314131738
 20
-156.2981255034602
 30
0.0
 10
91.2586846017513
 20
-156.2981255034602
 30
0.0
 10
91.52309568024423
 20
-156.2981255034602
 30
0.0
 10
91.5751166220715
 20
-156.0170057118638
 30
0.0
 10
91.5751166220715
 20
-155.6700845964992
 30
0.0
 10
91.5751166220715
 20
-155.350379735468
 30
0.0
 10
91.53446449534556
 20
-155.0416991799896
 30
0.0
 10
91.2586846017513
 20
-155.0416991799896
 30
0.0
  0
HATCH
  5
11F
330
117
100
AcDbEntity
  8
_U+30EC_U+30A4_U+30E4_U+30FC 1
 62
   179
420
  2234388
100
AcDbHatch
 10
0.0
 20
0.0
 30
0.0
210
0.0
220
0.0
230
1.0
  2
SOLID
 70
     1
 71
     0
 91
        2
 92
        1
 93
        1
 72
     4
 94
        3
 73
     0
 74
     1
 95
       29
 96
       25
 40
0.0
 40
0.0
 40
0.0
 40
0.0
 40
1.0
 40
1.0
 40
1.0
 40
2.0
 40
2.0
 40
2.0
 40
3.0
 40
3.0
 40
3.0
 40
4.0
 40
4.0
 40
4.0
 40
5.0
 40
5.0
 40
5.0
 40
6.0
 40
6.0
 40
6.0
 40
7.0
 40
7.0
 40
7.0
 40
8.0
 40
8.0
 40
8.0
 40
8.0
 10
91.68363712985688
 20
-156.2643635677047
 10
91.56839868587527
 20
-156.4738253732079
 10
91.38305254876883
 20
-156.4927733983768
 10
91.2586846017513
 20
-156.4927733983768
 10
91.08677433703734
 20
-156.4927733983768
 10
90.93536239046061
 20
-156.4462646093259
 10
90.83355981887148
 20
-156.2643635677047
 10
90.7227999990207
 20
-156.0697156727881
 10
90.70247393565772
 20
-155.8330376129515
 10
90.70247393565772
 20
-155.6700845964992
 10
90.70247393565772
 20
-155.5260796052157
 10
90.72056068695528
 20
-155.2742431252439
 10
90.83355981887148
 20
-155.075461115745
 10
90.94897051762734
 20
-154.8725449916638
 10
91.12070852756705
 20
-154.8491183423641
 10
91.2586846017513
 20
-154.8491183423641
 10
91.4281832996256
 20
-154.8491183423641
 10
91.582006813042
 20
-154.8935600741238
 10
91.68363712985688
 20
-155.075461115745
 10
91.78991832557683
 20
-155.2680419533705
 10
91.81472301307063
 20
-155.4964517840426
 10
91.81472301307063
 20
-155.6700845964992
 10
91.81472301307063
 20
-155.8413058421161
 10
91.79215763764225
 20
-156.0717827300793
 10
91.68363712985688
 20
-156.2643635677047
 97
        0
 97
        0
 92
        1
 93
        1
 72
     4
 94
        3
 73
     0
 74
     1
 95
       17
 96
       13
 40
0.0
 40
0.0
 40
0.0
 40
0.0
 40
1.0
 40
1.0
 40
1.0
 40
2.0
 40
2.0
 40
2.0
 40
3.0
 40
3.0
 40
3.0
 40
4.0
 40
4.0
 40
4.0
 40
4.0
 10
91.2586846017513
 20
-155.0416991799896
 10
90.9918619564187
 20
-155.0416991799896
 10
90.94208032665685
 20
-155.3252305384256
 10
90.94208032665685
 20
-155.6700845964992
 10
90.94208032665685
 20
-155.9894449479818
 10
90.98049314131738
 20
-156.2981255034602
 10
91.2586846017513
 20
-156.2981255034602
 10
91.52309568024423
 20
-156.2981255034602
 10
91.5751166220715
 20
-156.0170057118638
 10
91.5751166220715
 20
-155.6700845964992
 10
91.5751166220715
 20
-155.350379735468
 10
91.53446449534556
 20
-155.0416991799896
 10
91.2586846017513
 20
-155.0416991799896
 97
        0
 97
        0
 75
     2
 76
     1
 98
        0
  0
ENDBLK
  5
11A
330
117
100
AcDbEntity
  8
0
100
AcDbBlockEnd
  0
ENDSEC
  0
SECTION
  2
ENTITIES
  0
POLYLINE
  5
41
330
1F
100
AcDbEntity
  8
_U+30EC_U+30A4_U+30E4_U+30FC 1
 62
   179
420
  2234388
370
    25
100
AcDb2dPolyline
 66
     1
 10
0.0
 20
0.0
 30
0.0
  0
VERTEX
  5
42
330
41
100
AcDbEntity
  8
_U+30EC_U+30A4_U+30E4_U+30FC 1
 62
   179
420
  2234388
370
    25
100
AcDbVertex
100
AcDb2dVertex
 10
85.62491475997088
 20
-145.2440085748001
 30
0.0
  0
VERTEX
  5
43
330
41
100
AcDbEntity
  8
_U+30EC_U+30A4_U+30E4_U+30FC 1
 62
   179
420
  2234388
370
    25
100
AcDbVertex
100
AcDb2dVertex
 10
96.62509003488859
 20
-145.2440085748001
 30
0.0
  0
SEQEND
  5
44
330
41
100
AcDbEntity
  8
_U+30EC_U+30A4_U+30E4_U+30FC 1
 62
   179
420
  2234388
370
    25
  0
POLYLINE
  5
45
330
1F
100
AcDbEntity
  8
_U+30EC_U+30A4_U+30E4_U+30FC 1
 62
   179
420
  2234388
370
    25
100
AcDb2dPolyline
 66
     1
 10
0.0
 20
0.0
 30
0.0
  0
VERTEX
  5
46
330
45
100
AcDbEntity
  8
_U+30EC_U+30A4_U+30E4_U+30FC 1
 62
   179
420
  2234388
370
    25
100
AcDbVertex
100
AcDb2dVertex
 10
98.62498720608917
 20
-146.2437807967723
 30
0.0
  0
VERTEX
  5
47
330
45
100
AcDbEntity
  8
_U+30EC_U+30A4_U+30E4_U+30FC 1
 62
   179
420
  2234388
370
    25
100
AcDbVertex
100
AcDb2dVertex
 10
119.6250716703324
 20
-146.2437807967723
 30
0.0
  0
SEQEND
  5
48
330
45
100
AcDbEntity
  8
_U+30EC_U+30A4_U+30E4_U+30FC 1
 62
   179
420
  2234388
370
    25
  0
POLYLINE
  5
49
330
1F
100
AcDbEntity
  8
_U+30EC_U+30A4_U+30E4_U+30FC 1
 62
   179
420
  2234388
370
    25
100
AcDb2dPolyline
 66
     1
 10
0.0
 20
0.0
 30
0.0
  0
VERTEX
  5
4A
330
49
100
AcDbEntity
  8
_U+30EC_U+30A4_U+30E4_U+30FC 1
 62
   179
420
  2234388
370
    25
100
AcDbVertex
100
AcDb2dVertex
 10
95.62500275387157
 20
-146.2437807967723
 30
0.0
  0
VERTEX
  5
4B
330
49
100
AcDbEntity
  8
_U+30EC_U+30A4_U+30E4_U+30FC 1
 62
   179
420
  2234388
370
    25
100
AcDbVertex
100
AcDb2dVertex
 10
95.62500275387157
 20
-153.7435894060087
 30
0.0
  0
SEQEND
  5
4C
330
49
100
AcDbEntity
  8
_U+30EC_U+30A4_U+30E4_U+30FC 1
 62
   179
420
  2234388
370
    25
  0
POLYLINE
  5
4D
330
1F
100
AcDbEntity
  8
_U+30EC_U+30A4_U+30E4_U+30FC 1
 62
   179
420
  2234388
370
    25
100
AcDb2dPolyline
 66
     1
 10
0.0
 20
0.0
 30
0.0
  0
VERTEX
  5
4E
330
4D
100
AcDbEntity
  8
_U+30EC_U+30A4_U+30E4_U+30FC 1
 62
   179
420
  2234388
370
    25
100
AcDbVertex
100
AcDb2dVertex
 10
105.6252623052751
 20
-152.7438171840361
 30
0.0
  0
VERTEX
  5
4F
330
4D
100
AcDbEntity
  8
_U+30EC_U+30A4_U+30E4_U+30FC 1
 62
   179
420
  2234388
370
    25
100
AcDbVertex
100
AcDb2dVertex
 10
105.6252623052751
 20
-153.043537183961
 30
0.0
  0
SEQEND
  5
50
330
4D
100
AcDbEntity
  8
_U+30EC_U+30A4_U+30E4_U+30FC 1
 62
   179
420
  2234388
370
    25
  0
POLYLINE
  5
51
330
1F
100
AcDbEntity
  8
_U+30EC_U+30A4_U+30E4_U+30FC 1
 62
   179
420
  2234388
370
    25
100
AcDb2dPolyline
 66
     1
 10
0.0
 20
0.0
 30
0.0
  0
VERTEX
  5
52
330
51
100
AcDbEntity
  8
_U+30EC_U+30A4_U+30E4_U+30FC 1
 62
   179
420
  2234388
370
    25
100
AcDbVertex
100
AcDb2dVertex
 10
98.62498720608917
 20
-152.7438171840361
 30
0.0
  0
VERTEX
  5
53
330
51
100
AcDbEntity
  8
_U+30EC_U+30A4_U+30E4_U+30FC 1
 62
   179
420
  2234388
370
    25
100
AcDbVertex
100
AcDb2dVertex
 10
105.6252623052751
 20
-152.7438171840361
 30
0.0
  0
SEQEND
  5
54
330
51
100
AcDbEntity
  8
_U+30EC_U+30A4_U+30E4_U+30FC 1
 62
   179
420
  2234388
370
    25
  0
POLYLINE
  5
55
330
1F
100
AcDbEntity
  8
_U+30EC_U+30A4_U+30E4_U+30FC 1
 62
   179
420
  2234388
370
    25
100
AcDb2dPolyline
 66
     1
 10
0.0
 20
0.0
 30
0.0
  0
VERTEX
  5
56
330
55
100
AcDbEntity
  8
_U+30EC_U+30A4_U+30E4_U+30FC 1
 62
   179
420
  2234388
370
    25
100
AcDbVertex
100
AcDb2dVertex
 10
97.6248622316045
 20
-145.2440085748001
 30
0.0
  0
VERTEX
  5
57
330
55
100
AcDbEntity
  8
_U+30EC_U+30A4_U+30E4_U+30FC 1
 62
   179
420
  2234388
370
    25
100
AcDbVertex
100
AcDb2dVertex
 10
119.6250716703324
 20
-145.2440085748001
 30
0.0
  0
SEQEND
  5
58
330
55
100
AcDbEntity
  8
_U+30EC_U+30A4_U+30E4_U+30FC 1
 62
   179
420
  2234388
370
    25
  0
POLYLINE
  5
59
330
1F
100
AcDbEntity
  8
_U+30EC_U+30A4_U+30E4_U+30FC 1
 62
   179
420
  2234388
370
    25
100
AcDb2dPolyline
 66
     1
 10
0.0
 20
0.0
 30
0.0
  0
VERTEX
  5
5A
330
59
100
AcDbEntity
  8
_U+30EC_U+30A4_U+30E4_U+30FC 1
 62
   179
420
  2234388
370
    25
100
AcDbVertex
100
AcDb2dVertex
 10
96.62509003488859
 20
-145.2440085748001
 30
0.0
  0
VERTEX
  5
5B
330
59
100
AcDbEntity
  8
_U+30EC_U+30A4_U+30E4_U+30FC 1
 62
   179
420
  2234388
370
    25
100
AcDbVertex
100
AcDb2dVertex
 10
96.62509003488859
 20
-152.7438171840361
 30
0.0
  0
SEQEND
  5
5C
330
59
100
AcDbEntity
  8
_U+30EC_U+30A4_U+30E4_U+30FC 1
 62
   179
420
  2234388
370
    25
  0
POLYLINE
  5
5D
330
1F
100
AcDbEntity
  8
_U+30EC_U+30A4_U+30E4_U+30FC 1
 62
   179
420
  2234388
370
    25
100
AcDb2dPolyline
 66
     1
 10
0.0
 20
0.0
 30
0.0
  0
VERTEX
  5
5E
330
5D
100
AcDbEntity
  8
_U+30EC_U+30A4_U+30E4_U+30FC 1
 62
   179
420
  2234388
370
    25
100
AcDbVertex
100
AcDb2dVertex
 10
97.6248622316045
 20
-145.2440085748001
 30
0.0
  0
VERTEX
  5
5F
330
5D
100
AcDbEntity
  8
_U+30EC_U+30A4_U+30E4_U+30FC 1
 62
   179
420
  2234388
370
    25
100
AcDbVertex
100
AcDb2dVertex
 10
97.6248622316045
 20
-152.7438171840361
 30
0.0
  0
SEQEND
  5
60
330
5D
100
AcDbEntity
  8
_U+30EC_U+30A4_U+30E4_U+30FC 1
 62
   179
420
  2234388
370
    25
  0
POLYLINE
  5
61
330
1F
100
AcDbEntity
  8
_U+30EC_U+30A4_U+30E4_U+30FC 1
 62
   179
420
  2234388
370
    25
100
AcDb2dPolyline
 66
     1
 10
0.0
 20
0.0
 30
0.0
  0
VERTEX
  5
62
330
61
100
AcDbEntity
  8
_U+30EC_U+30A4_U+30E4_U+30FC 1
 62
   179
420
  2234388
370
    25
100
AcDbVertex
100
AcDb2dVertex
 10
98.62498720608917
 20
-146.2437807967723
 30
0.0
  0
VERTEX
  5
63
330
61
100
AcDbEntity
  8
_U+30EC_U+30A4_U+30E4_U+30FC 1
 62
   179
420
  2234388
370
    25
100
AcDbVertex
100
AcDb2dVertex
 10
98.62498720608917
 20
-152.7438171840361
 30
0.0
  0
SEQEND
  5
64
330
61
100
AcDbEntity
  8
_U+30EC_U+30A4_U+30E4_U+30FC 1
 62
   179
420
  2234388
370
    25
  0
POLYLINE
  5
65
330
1F
100
AcDbEntity
  8
_U+30EC_U+30A4_U+30E4_U+30FC 1
 62
   179
420
  2234388
370
    25
100
AcDb2dPolyline
 66
     1
 10
0.0
 20
0.0
 30
0.0
  0
VERTEX
  5
66
330
65
100
AcDbEntity
  8
_U+30EC_U+30A4_U+30E4_U+30FC 1
 62
   179
420
  2234388
370
    25
100
AcDbVertex
100
AcDb2dVertex
 10
96.62509003488859
 20
-152.7438171840361
 30
0.0
  0
VERTEX
  5
67
330
65
100
AcDbEntity
  8
_U+30EC_U+30A4_U+30E4_U+30FC 1
 62
   179
420
  2234388
370
    25
100
AcDbVertex
100
AcDb2dVertex
 10
97.6248622316045
 20
-152.7438171840361
 30
0.0
  0
SEQEND
  5
68
330
65
100
AcDbEntity
  8
_U+30EC_U+30A4_U+30E4_U+30FC 1
 62
   179
420
  2234388
370
    25
  0
POLYLINE
  5
69
330
1F
100
AcDbEntity
  8
_U+30EC_U+30A4_U+30E4_U+30FC 1
 62
   179
420
  2234388
370
    25
100
AcDb2dPolyline
 66
     1
 10
0.0
 20
0.0
 30
0.0
  0
VERTEX
  5
6A
330
69
100
AcDbEntity
  8
_U+30EC_U+30A4_U+30E4_U+30FC 1
 62
   179
420
  2234388
370
    25
100
AcDbVertex
100
AcDb2dVertex
 10
95.62500275387157
 20
-153.7435894060087
 30
0.0
  0
VERTEX
  5
6B
330
69
100
AcDbEntity
  8
_U+30EC_U+30A4_U+30E4_U+30FC 1
 62
   179
420
  2234388
370
    25
100
AcDbVertex
100
AcDb2dVertex
 10
105.6252623052751
 20
-153.043537183961
 30
0.0
  0
SEQEND
  5
6C
330
69
100
AcDbEntity
  8
_U+30EC_U+30A4_U+30E4_U+30FC 1
 62
   179
420
  2234388
370
    25
  0
POLYLINE
  5
6D
330
1F
100
AcDbEntity
  8
_U+30EC_U+30A4_U+30E4_U+30FC 1
 62
   179
420
  2234388
370
    25
100
AcDb2dPolyline
 66
     1
 10
0.0
 20
0.0
 30
0.0
  0
VERTEX
  5
6E
330
6D
100
AcDbEntity
  8
_U+30EC_U+30A4_U+30E4_U+30FC 1
 62
   179
420
  2234388
370
    25
100
AcDbVertex
100
AcDb2dVertex
 10
119.6250716703324
 20
-145.2440085748001
 30
0.0
  0
VERTEX
  5
6F
330
6D
100
AcDbEntity
  8
_U+30EC_U+30A4_U+30E4_U+30FC 1
 62
   179
420
  2234388
370
    25
100
AcDbVertex
100
AcDb2dVertex
 10
119.6250716703324
 20
-146.2437807967723
 30
0.0
  0
SEQEND
  5
70
330
6D
100
AcDbEntity
  8
_U+30EC_U+30A4_U+30E4_U+30FC 1
 62
   179
420
  2234388
370
    25
  0
POLYLINE
  5
71
330
1F
100
AcDbEntity
  8
_U+30EC_U+30A4_U+30E4_U+30FC 1
 62
   179
420
  2234388
370
    25
100
AcDb2dPolyline
 66
     1
 10
0.0
 20
0.0
 30
0.0
  0
VERTEX
  5
72
330
71
100
AcDbEntity
  8
_U+30EC_U+30A4_U+30E4_U+30FC 1
 62
   179
420
  2234388
370
    25
100
AcDbVertex
100
AcDb2dVertex
 10
85.62491475997088
 20
-146.2437807967723
 30
0.0
  0
VERTEX
  5
73
330
71
100
AcDbEntity
  8
_U+30EC_U+30A4_U+30E4_U+30FC 1
 62
   179
420
  2234388
370
    25
100
AcDbVertex
100
AcDb2dVertex
 10
95.62500275387157
 20
-146.2437807967723
 30
0.0
  0
SEQEND
  5
74
330
71
100
AcDbEntity
  8
_U+30EC_U+30A4_U+30E4_U+30FC 1
 62
   179
420
  2234388
370
    25
  0
POLYLINE
  5
75
330
1F
100
AcDbEntity
  8
_U+30EC_U+30A4_U+30E4_U+30FC 1
 62
   179
420
  2234388
370
    25
100
AcDb2dPolyline
 66
     1
 10
0.0
 20
0.0
 30
0.0
  0
VERTEX
  5
76
330
75
100
AcDbEntity
  8
_U+30EC_U+30A4_U+30E4_U+30FC 1
 62
   179
420
  2234388
370
    25
100
AcDbVertex
100
AcDb2dVertex
 10
85.62491475997088
 20
-145.2440085748001
 30
0.0
  0
VERTEX
  5
77
330
75
100
AcDbEntity
  8
_U+30EC_U+30A4_U+30E4_U+30FC 1
 62
   179
420
  2234388
370
    25
100
AcDbVertex
100
AcDb2dVertex
 10
85.62491475997088
 20
-146.2437807967723
 30
0.0
  0
SEQEND
  5
78
330
75
100
AcDbEntity
  8
_U+30EC_U+30A4_U+30E4_U+30FC 1
 62
   179
420
  2234388
370
    25
  0
SPLINE
  5
79
330
1F
100
AcDbEntity
  8
_U+30EC_U+30A4_U+30E4_U+30FC 1
 62
   179
420
  2234388
370
     9
100
AcDbSpline
210
0.0
220
0.0
230
1.0
 70
    11
 71
     3
 72
    17
 73
    13
 74
     0
 42
0.0000000001
 43
0.0000000001
 12
1.0
 22
0.0
 32
0.0
 13
1.0
 23
0.0
 33
0.0
 40
0.0
 40
0.0
 40
0.0
 40
0.0
 40
1.0
 40
1.0
 40
1.0
 40
2.0
 40
2.0
 40
2.0
 40
3.0
 40
3.0
 40
3.0
 40
4.0
 40
4.0
 40
4.0
 40
4.0
 10
123.7247373990745
 20
-145.2440085748001
 30
0.0
 10
123.7247373990745
 20
-145.1881991303696
 30
0.0
 10
123.6799699002166
 20
-145.1434316303807
 30
0.0
 10
123.6248307349567
 20
-145.1434316303807
 30
0.0
 10
123.5697268474736
 20
-145.1434316303807
 30
0.0
 10
123.5249240708389
 20
-145.1881991303696
 30
0.0
 10
123.5249240708389
 20
-145.2440085748001
 30
0.0
 10
123.5249240708389
 20
-145.2991477414531
 30
0.0
 10
123.5697268474736
 20
-145.3439152414417
 30
0.0
 10
123.6248307349567
 20
-145.3439152414417
 30
0.0
 10
123.6799699002166
 20
-145.3439152414417
 30
0.0
 10
123.7247373990745
 20
-145.2991477414531
 30
0.0
 10
123.7247373990745
 20
-145.2440085748001
 30
0.0
  0
SPLINE
  5
7A
330
1F
100
AcDbEntity
  8
_U+30EC_U+30A4_U+30E4_U+30FC 1
 62
   179
420
  2234388
370
     9
100
AcDbSpline
210
0.0
220
0.0
230
1.0
 70
    11
 71
     3
 72
    17
 73
    13
 74
     0
 42
0.0000000001
 43
0.0000000001
 12
1.0
 22
0.0
 32
0.0
 13
1.0
 23
0.0
 33
0.0
 40
0.0
 40
0.0
 40
0.0
 40
0.0
 40
1.0
 40
1.0
 40
1.0
 40
2.0
 40
2.0
 40
2.0
 40
3.0
 40
3.0
 40
3.0
 40
4.0
 40
4.0
 40
4.0
 40
4.0
 10
123.7247373990745
 20
-146.2437807967723
 30
0.0
 10
123.7247373990745
 20
-146.1886769078974
 30
0.0
 10
123.6799699002166
 20
-146.1438741301307
 30
0.0
 10
123.6248307349567
 20
-146.1438741301307
 30
0.0
 10
123.5697268474736
 20
-146.1438741301307
 30
0.0
 10
123.5249240708389
 20
-146.1886769078974
 30
0.0
 10
123.5249240708389
 20
-146.2437807967723
 30
0.0
 10
123.5249240708389
 20
-146.2989199634254
 30
0.0
 10
123.5697268474736
 20
-146.3436874634142
 30
0.0
 10
123.6248307349567
 20
-146.3436874634142
 30
0.0
 10
123.6799699002166
 20
-146.3436874634142
 30
0.0
 10
123.7247373990745
 20
-146.2989199634254
 30
0.0
 10
123.7247373990745
 20
-146.2437807967723
 30
0.0
  0
SPLINE
  5
7B
330
1F
100
AcDbEntity
  8
_U+30EC_U+30A4_U+30E4_U+30FC 1
 62
   179
420
  2234388
370
     9
100
AcDbSpline
210
0.0
220
0.0
230
1.0
 70
    11
 71
     3
 72
    17
 73
    13
 74
     0
 42
0.0000000001
 43
0.0000000001
 12
1.0
 22
0.0
 32
0.0
 13
1.0
 23
0.0
 33
0.0
 40
0.0
 40
0.0
 40
0.0
 40
0.0
 40
1.0
 40
1.0
 40
1.0
 40
2.0
 40
2.0
 40
2.0
 40
3.0
 40
3.0
 40
3.0
 40
4.0
 40
4.0
 40
4.0
 40
4.0
 10
105.7251689693929
 20
-157.7433485716755
 30
0.0
 10
105.7251689693929
 20
-157.6882094050225
 30
0.0
 10
105.6803661927581
 20
-157.6434419050339
 30
0.0
 10
105.6252623052751
 20
-157.6434419050339
 30
0.0
 10
105.5701231400151
 20
-157.6434419050339
 30
0.0
 10
105.5253583069521
 20
-157.6882094050225
 30
0.0
 10
105.5253583069521
 20
-157.7433485716755
 30
0.0
 10
105.5253583069521
 20
-157.7984524605505
 30
0.0
 10
105.5701231400151
 20
-157.8432552383172
 30
0.0
 10
105.6252623052751
 20
-157.8432552383172
 30
0.0
 10
105.6803661927581
 20
-157.8432552383172
 30
0.0
 10
105.7251689693929
 20
-157.7984524605505
 30
0.0
 10
105.7251689693929
 20
-157.7433485716755
 30
0.0
  0
SPLINE
  5
7C
330
1F
100
AcDbEntity
  8
_U+30EC_U+30A4_U+30E4_U+30FC 1
 62
   179
420
  2234388
370
     9
100
AcDbSpline
210
0.0
220
0.0
230
1.0
 70
    11
 71
     3
 72
    17
 73
    13
 74
     0
 42
0.0000000001
 43
0.0000000001
 12
1.0
 22
0.0
 32
0.0
 13
1.0
 23
0.0
 33
0.0
 40
0.0
 40
0.0
 40
0.0
 40
0.0
 40
1.0
 40
1.0
 40
1.0
 40
2.0
 40
2.0
 40
2.0
 40
3.0
 40
3.0
 40
3.0
 40
4.0
 40
4.0
 40
4.0
 40
4.0
 10
95.72490700229861
 20
-157.7433485716755
 30
0.0
 10
95.72490700229861
 20
-157.6882094050225
 30
0.0
 10
95.68010422566384
 20
-157.6434419050339
 30
0.0
 10
95.62500275387157
 20
-157.6434419050339
 30
0.0
 10
95.56954367292893
 20
-157.6434419050339
 30
0.0
 10
95.52474089629416
 20
-157.6882094050225
 30
0.0
 10
95.52474089629416
 20
-157.7433485716755
 30
0.0
 10
95.52474089629416
 20
-157.7984524605505
 30
0.0
 10
95.56954367292893
 20
-157.8432552383172
 30
0.0
 10
95.62500275387157
 20
-157.8432552383172
 30
0.0
 10
95.68010422566384
 20
-157.8432552383172
 30
0.0
 10
95.72490700229861
 20
-157.7984524605505
 30
0.0
 10
95.72490700229861
 20
-157.7433485716755
 30
0.0
  0
SPLINE
  5
7D
330
1F
100
AcDbEntity
  8
_U+30EC_U+30A4_U+30E4_U+30FC 1
 62
   179
420
  2234388
370
     9
100
AcDbSpline
210
0.0
220
0.0
230
1.0
 70
    11
 71
     3
 72
    17
 73
    13
 74
     0
 42
0.0000000001
 43
0.0000000001
 12
1.0
 22
0.0
 32
0.0
 13
1.0
 23
0.0
 33
0.0
 40
0.0
 40
0.0
 40
0.0
 40
0.0
 40
1.0
 40
1.0
 40
1.0
 40
2.0
 40
2.0
 40
2.0
 40
3.0
 40
3.0
 40
3.0
 40
4.0
 40
4.0
 40
4.0
 40
4.0
 10
109.7245752562484
 20
-152.7438171840361
 30
0.0
 10
109.7245752562484
 20
-152.6880077396057
 30
0.0
 10
109.6797724796137
 20
-152.6432402396171
 30
0.0
 10
109.6246685921306
 20
-152.6432402396171
 30
0.0
 10
109.5695294268706
 20
-152.6432402396171
 30
0.0
 10
109.5247619280128
 20
-152.6880077396057
 30
0.0
 10
109.5247619280128
 20
-152.7438171840361
 30
0.0
 10
109.5247619280128
 20
-152.7989563506892
 30
0.0
 10
109.5695294268706
 20
-152.8437238506777
 30
0.0
 10
109.6246685921306
 20
-152.8437238506777
 30
0.0
 10
109.6797724796137
 20
-152.8437238506777
 30
0.0
 10
109.7245752562484
 20
-152.7989563506892
 30
0.0
 10
109.7245752562484
 20
-152.7438171840361
 30
0.0
  0
SPLINE
  5
7E
330
1F
100
AcDbEntity
  8
_U+30EC_U+30A4_U+30E4_U+30FC 1
 62
   179
420
  2234388
370
     9
100
AcDbSpline
210
0.0
220
0.0
230
1.0
 70
    11
 71
     3
 72
    17
 73
    13
 74
     0
 42
0.0000000001
 43
0.0000000001
 12
1.0
 22
0.0
 32
0.0
 13
1.0
 23
0.0
 33
0.0
 40
0.0
 40
0.0
 40
0.0
 40
0.0
 40
1.0
 40
1.0
 40
1.0
 40
2.0
 40
2.0
 40
2.0
 40
3.0
 40
3.0
 40
3.0
 40
4.0
 40
4.0
 40
4.0
 40
4.0
 10
109.7245752562484
 20
-153.043537183961
 30
0.0
 10
109.7245752562484
 20
-152.9884332950861
 30
0.0
 10
109.6797724796137
 20
-152.9436305173194
 30
0.0
 10
109.6246685921306
 20
-152.9436305173194
 30
0.0
 10
109.5695294268706
 20
-152.9436305173194
 30
0.0
 10
109.5247619280128
 20
-152.9884332950861
 30
0.0
 10
109.5247619280128
 20
-153.043537183961
 30
0.0
 10
109.5247619280128
 20
-153.0986763506141
 30
0.0
 10
109.5695294268706
 20
-153.1434438506033
 30
0.0
 10
109.6246685921306
 20
-153.1434438506033
 30
0.0
 10
109.6797724796137
 20
-153.1434438506033
 30
0.0
 10
109.7245752562484
 20
-153.0986763506141
 30
0.0
 10
109.7245752562484
 20
-153.043537183961
 30
0.0
  0
SPLINE
  5
7F
330
1F
100
AcDbEntity
  8
_U+30EC_U+30A4_U+30E4_U+30FC 1
 62
   179
420
  2234388
370
     9
100
AcDbSpline
210
0.0
220
0.0
230
1.0
 70
    11
 71
     3
 72
    17
 73
    13
 74
     0
 42
0.0000000001
 43
0.0000000001
 12
1.0
 22
0.0
 32
0.0
 13
1.0
 23
0.0
 33
0.0
 40
0.0
 40
0.0
 40
0.0
 40
0.0
 40
1.0
 40
1.0
 40
1.0
 40
2.0
 40
2.0
 40
2.0
 40
3.0
 40
3.0
 40
3.0
 40
4.0
 40
4.0
 40
4.0
 40
4.0
 10
123.7247373990745
 20
-152.7438171840361
 30
0.0
 10
123.7247373990745
 20
-152.6880077396057
 30
0.0
 10
123.6799699002166
 20
-152.6432402396171
 30
0.0
 10
123.6248307349567
 20
-152.6432402396171
 30
0.0
 10
123.5697268474736
 20
-152.6432402396171
 30
0.0
 10
123.5249240708389
 20
-152.6880077396057
 30
0.0
 10
123.5249240708389
 20
-152.7438171840361
 30
0.0
 10
123.5249240708389
 20
-152.7989563506892
 30
0.0
 10
123.5697268474736
 20
-152.8437238506777
 30
0.0
 10
123.6248307349567
 20
-152.8437238506777
 30
0.0
 10
123.6799699002166
 20
-152.8437238506777
 30
0.0
 10
123.7247373990745
 20
-152.7989563506892
 30
0.0
 10
123.7247373990745
 20
-152.7438171840361
 30
0.0
  0
SPLINE
  5
80
330
1F
100
AcDbEntity
  8
_U+30EC_U+30A4_U+30E4_U+30FC 1
 62
   179
420
  2234388
370
     9
100
AcDbSpline
210
0.0
220
0.0
230
1.0
 70
    11
 71
     3
 72
    17
 73
    13
 74
     0
 42
0.0000000001
 43
0.0000000001
 12
1.0
 22
0.0
 32
0.0
 13
1.0
 23
0.0
 33
0.0
 40
0.0
 40
0.0
 40
0.0
 40
0.0
 40
1.0
 40
1.0
 40
1.0
 40
2.0
 40
2.0
 40
2.0
 40
3.0
 40
3.0
 40
3.0
 40
4.0
 40
4.0
 40
4.0
 40
4.0
 10
119.7249783344502
 20
-141.2428735758003
 30
0.0
 10
119.7249783344502
 20
-141.1877696869254
 30
0.0
 10
119.6802138589689
 20
-141.1429669091586
 30
0.0
 10
119.6250716703324
 20
-141.1429669091586
 30
0.0
 10
119.5699677828493
 20
-141.1429669091586
 30
0.0
 10
119.5251650062146
 20
-141.1877696869254
 30
0.0
 10
119.5251650062146
 20
-141.2428735758003
 30
0.0
 10
119.5251650062146
 20
-141.2986830202307
 30
0.0
 10
119.5699677828493
 20
-141.3434857979975
 30
0.0
 10
119.6250716703324
 20
-141.3434857979975
 30
0.0
 10
119.6802138589689
 20
-141.3434857979975
 30
0.0
 10
119.7249783344502
 20
-141.2986830202307
 30
0.0
 10
119.7249783344502
 20
-141.2428735758003
 30
0.0
  0
SPLINE
  5
81
330
1F
100
AcDbEntity
  8
_U+30EC_U+30A4_U+30E4_U+30FC 1
 62
   179
420
  2234388
370
     9
100
AcDbSpline
210
0.0
220
0.0
230
1.0
 70
    11
 71
     3
 72
    17
 73
    13
 74
     0
 42
0.0000000001
 43
0.0000000001
 12
1.0
 22
0.0
 32
0.0
 13
1.0
 23
0.0
 33
0.0
 40
0.0
 40
0.0
 40
0.0
 40
0.0
 40
1.0
 40
1.0
 40
1.0
 40
2.0
 40
2.0
 40
2.0
 40
3.0
 40
3.0
 40
3.0
 40
4.0
 40
4.0
 40
4.0
 40
4.0
 10
85.72499997856876
 20
-141.2428735758003
 30
0.0
 10
85.72499997856876
 20
-141.1877696869254
 30
0.0
 10
85.68019720080203
 20
-141.1429669091586
 30
0.0
 10
85.62491475997088
 20
-141.1429669091586
 30
0.0
 10
85.5698108724878
 20
-141.1429669091586
 30
0.0
 10
85.52500809585304
 20
-141.1877696869254
 30
0.0
 10
85.52500809585304
 20
-141.2428735758003
 30
0.0
 10
85.52500809585304
 20
-141.2986830202307
 30
0.0
 10
85.5698108724878
 20
-141.3434857979975
 30
0.0
 10
85.62491475997088
 20
-141.3434857979975
 30
0.0
 10
85.68019720080203
 20
-141.3434857979975
 30
0.0
 10
85.72499997856876
 20
-141.2986830202307
 30
0.0
 10
85.72499997856876
 20
-141.2428735758003
 30
0.0
  0
SPLINE
  5
82
330
1F
100
AcDbEntity
  8
_U+30EC_U+30A4_U+30E4_U+30FC 1
 62
   179
420
  2234388
370
     9
100
AcDbSpline
210
0.0
220
0.0
230
1.0
 70
    11
 71
     3
 72
    17
 73
    13
 74
     0
 42
0.0000000001
 43
0.0000000001
 12
1.0
 22
0.0
 32
0.0
 13
1.0
 23
0.0
 33
0.0
 40
0.0
 40
0.0
 40
0.0
 40
0.0
 40
1.0
 40
1.0
 40
1.0
 40
2.0
 40
2.0
 40
2.0
 40
3.0
 40
3.0
 40
3.0
 40
4.0
 40
4.0
 40
4.0
 40
4.0
 10
85.72499997856876
 20
-157.7433485716755
 30
0.0
 10
85.72499997856876
 20
-157.6882094050225
 30
0.0
 10
85.68019720080203
 20
-157.6434419050339
 30
0.0
 10
85.62491475997088
 20
-157.6434419050339
 30
0.0
 10
85.5698108724878
 20
-157.6434419050339
 30
0.0
 10
85.52500809585304
 20
-157.6882094050225
 30
0.0
 10
85.52500809585304
 20
-157.7433485716755
 30
0.0
 10
85.52500809585304
 20
-157.7984524605505
 30
0.0
 10
85.5698108724878
 20
-157.8432552383172
 30
0.0
 10
85.62491475997088
 20
-157.8432552383172
 30
0.0
 10
85.68019720080203
 20
-157.8432552383172
 30
0.0
 10
85.72499997856876
 20
-157.7984524605505
 30
0.0
 10
85.72499997856876
 20
-157.7433485716755
 30
0.0
  0
POLYLINE
  5
83
330
1F
100
AcDbEntity
  8
_U+30EC_U+30A4_U+30E4_U+30FC 1
 62
   179
420
  2234388
370
     9
100
AcDb2dPolyline
 66
     1
 10
0.0
 20
0.0
 30
0.0
  0
VERTEX
  5
84
330
83
100
AcDbEntity
  8
_U+30EC_U+30A4_U+30E4_U+30FC 1
 62
   179
420
  2234388
370
     9
100
AcDbVertex
100
AcDb2dVertex
 10
123.6248307349567
 20
-145.2440085748001
 30
0.0
  0
VERTEX
  5
85
330
83
100
AcDbEntity
  8
_U+30EC_U+30A4_U+30E4_U+30FC 1
 62
   179
420
  2234388
370
     9
100
AcDbVertex
100
AcDb2dVertex
 10
123.6248307349567
 20
-141.473025797965
 30
0.0
  0
SEQEND
  5
86
330
83
100
AcDbEntity
  8
_U+30EC_U+30A4_U+30E4_U+30FC 1
 62
   179
420
  2234388
370
     9
  0
POLYLINE
  5
87
330
1F
100
AcDbEntity
  8
_U+30EC_U+30A4_U+30E4_U+30FC 1
 62
   179
420
  2234388
370
     9
100
AcDb2dPolyline
 66
     1
 10
0.0
 20
0.0
 30
0.0
  0
VERTEX
  5
88
330
87
100
AcDbEntity
  8
_U+30EC_U+30A4_U+30E4_U+30FC 1
 62
   179
420
  2234388
370
     9
100
AcDbVertex
100
AcDb2dVertex
 10
123.6248307349567
 20
-145.2440085748001
 30
0.0
  0
VERTEX
  5
89
330
87
100
AcDbEntity
  8
_U+30EC_U+30A4_U+30E4_U+30FC 1
 62
   179
420
  2234388
370
     9
100
AcDbVertex
100
AcDb2dVertex
 10
123.6248307349567
 20
-146.2437807967723
 30
0.0
  0
SEQEND
  5
8A
330
87
100
AcDbEntity
  8
_U+30EC_U+30A4_U+30E4_U+30FC 1
 62
   179
420
  2234388
370
     9
  0
POLYLINE
  5
8B
330
1F
100
AcDbEntity
  8
_U+30EC_U+30A4_U+30E4_U+30FC 1
 62
   179
420
  2234388
370
     9
100
AcDb2dPolyline
 66
     1
 10
0.0
 20
0.0
 30
0.0
  0
VERTEX
  5
8C
330
8B
100
AcDbEntity
  8
_U+30EC_U+30A4_U+30E4_U+30FC 1
 62
   179
420
  2234388
370
     9
100
AcDbVertex
100
AcDb2dVertex
 10
122.1647893833166
 20
-145.2440085748001
 30
0.0
  0
VERTEX
  5
8D
330
8B
100
AcDbEntity
  8
_U+30EC_U+30A4_U+30E4_U+30FC 1
 62
   179
420
  2234388
370
     9
100
AcDbVertex
100
AcDb2dVertex
 10
124.6253084872102
 20
-145.2440085748001
 30
0.0
  0
SEQEND
  5
8E
330
8B
100
AcDbEntity
  8
_U+30EC_U+30A4_U+30E4_U+30FC 1
 62
   179
420
  2234388
370
     9
  0
POLYLINE
  5
8F
330
1F
100
AcDbEntity
  8
_U+30EC_U+30A4_U+30E4_U+30FC 1
 62
   179
420
  2234388
370
     9
100
AcDb2dPolyline
 66
     1
 10
0.0
 20
0.0
 30
0.0
  0
VERTEX
  5
90
330
8F
100
AcDbEntity
  8
_U+30EC_U+30A4_U+30E4_U+30FC 1
 62
   179
420
  2234388
370
     9
100
AcDbVertex
100
AcDb2dVertex
 10
122.1647893833166
 20
-146.2437807967723
 30
0.0
  0
VERTEX
  5
91
330
8F
100
AcDbEntity
  8
_U+30EC_U+30A4_U+30E4_U+30FC 1
 62
   179
420
  2234388
370
     9
100
AcDbVertex
100
AcDb2dVertex
 10
124.6253084872102
 20
-146.2437807967723
 30
0.0
  0
SEQEND
  5
92
330
8F
100
AcDbEntity
  8
_U+30EC_U+30A4_U+30E4_U+30FC 1
 62
   179
420
  2234388
370
     9
  0
INSERT
  5
94
330
1F
100
AcDbEntity
  8
_U+30EC_U+30A4_U+30E4_U+30FC 1
100
AcDbBlockReference
  2
block 2
 10
0.0
 20
0.0
 30
0.0
  0
POLYLINE
  5
99
330
1F
100
AcDbEntity
  8
_U+30EC_U+30A4_U+30E4_U+30FC 1
 62
   179
420
  2234388
370
     9
100
AcDb2dPolyline
 66
     1
 10
0.0
 20
0.0
 30
0.0
  0
VERTEX
  5
9A
330
99
100
AcDbEntity
  8
_U+30EC_U+30A4_U+30E4_U+30FC 1
 62
   179
420
  2234388
370
     9
100
AcDbVertex
100
AcDb2dVertex
 10
109.6246685921306
 20
-152.7438171840361
 30
0.0
  0
VERTEX
  5
9B
330
99
100
AcDbEntity
  8
_U+30EC_U+30A4_U+30E4_U+30FC 1
 62
   179
420
  2234388
370
     9
100
AcDbVertex
100
AcDb2dVertex
 10
109.6246685921306
 20
-147.4860877409064
 30
0.0
  0
SEQEND
  5
9C
330
99
100
AcDbEntity
  8
_U+30EC_U+30A4_U+30E4_U+30FC 1
 62
   179
420
  2234388
370
     9
  0
POLYLINE
  5
9D
330
1F
100
AcDbEntity
  8
_U+30EC_U+30A4_U+30E4_U+30FC 1
 62
   179
420
  2234388
370
     9
100
AcDb2dPolyline
 66
     1
 10
0.0
 20
0.0
 30
0.0
  0
VERTEX
  5
9E
330
9D
100
AcDbEntity
  8
_U+30EC_U+30A4_U+30E4_U+30FC 1
 62
   179
420
  2234388
370
     9
100
AcDbVertex
100
AcDb2dVertex
 10
109.6246685921306
 20
-152.7438171840361
 30
0.0
  0
VERTEX
  5
9F
330
9D
100
AcDbEntity
  8
_U+30EC_U+30A4_U+30E4_U+30FC 1
 62
   179
420
  2234388
370
     9
100
AcDbVertex
100
AcDb2dVertex
 10
109.6246685921306
 20
-154.0433094059336
 30
0.0
  0
SEQEND
  5
A0
330
9D
100
AcDbEntity
  8
_U+30EC_U+30A4_U+30E4_U+30FC 1
 62
   179
420
  2234388
370
     9
  0
POLYLINE
  5
A1
330
1F
100
AcDbEntity
  8
_U+30EC_U+30A4_U+30E4_U+30FC 1
 62
   179
420
  2234388
370
     9
100
AcDb2dPolyline
 66
     1
 10
0.0
 20
0.0
 30
0.0
  0
VERTEX
  5
A2
330
A1
100
AcDbEntity
  8
_U+30EC_U+30A4_U+30E4_U+30FC 1
 62
   179
420
  2234388
370
     9
100
AcDbVertex
100
AcDb2dVertex
 10
108.1649800182592
 20
-152.7438171840361
 30
0.0
  0
VERTEX
  5
A3
330
A1
100
AcDbEntity
  8
_U+30EC_U+30A4_U+30E4_U+30FC 1
 62
   179
420
  2234388
370
     9
100
AcDbVertex
100
AcDb2dVertex
 10
110.6251138612328
 20
-152.7438171840361
 30
0.0
  0
SEQEND
  5
A4
330
A1
100
AcDbEntity
  8
_U+30EC_U+30A4_U+30E4_U+30FC 1
 62
   179
420
  2234388
370
     9
  0
POLYLINE
  5
A5
330
1F
100
AcDbEntity
  8
_U+30EC_U+30A4_U+30E4_U+30FC 1
 62
   179
420
  2234388
370
     9
100
AcDb2dPolyline
 66
     1
 10
0.0
 20
0.0
 30
0.0
  0
VERTEX
  5
A6
330
A5
100
AcDbEntity
  8
_U+30EC_U+30A4_U+30E4_U+30FC 1
 62
   179
420
  2234388
370
     9
100
AcDbVertex
100
AcDb2dVertex
 10
108.1649800182592
 20
-153.043537183961
 30
0.0
  0
VERTEX
  5
A7
330
A5
100
AcDbEntity
  8
_U+30EC_U+30A4_U+30E4_U+30FC 1
 62
   179
420
  2234388
370
     9
100
AcDbVertex
100
AcDb2dVertex
 10
110.6251138612328
 20
-153.043537183961
 30
0.0
  0
SEQEND
  5
A8
330
A5
100
AcDbEntity
  8
_U+30EC_U+30A4_U+30E4_U+30FC 1
 62
   179
420
  2234388
370
     9
  0
INSERT
  5
AA
330
1F
100
AcDbEntity
  8
_U+30EC_U+30A4_U+30E4_U+30FC 1
100
AcDbBlockReference
  2
block 3
 10
0.0
 20
0.0
 30
0.0
  0
POLYLINE
  5
BA
330
1F
100
AcDbEntity
  8
_U+30EC_U+30A4_U+30E4_U+30FC 1
 62
   179
420
  2234388
370
     9
100
AcDb2dPolyline
 66
     1
 10
0.0
 20
0.0
 30
0.0
  0
VERTEX
  5
BB
330
BA
100
AcDbEntity
  8
_U+30EC_U+30A4_U+30E4_U+30FC 1
 62
   179
420
  2234388
370
     9
100
AcDbVertex
100
AcDb2dVertex
 10
95.62500275387157
 20
-157.7433485716755
 30
0.0
  0
VERTEX
  5
BC
330
BA
100
AcDbEntity
  8
_U+30EC_U+30A4_U+30E4_U+30FC 1
 62
   179
420
  2234388
370
     9
100
AcDbVertex
100
AcDb2dVertex
 10
105.6252623052751
 20
-157.7433485716755
 30
0.0
  0
SEQEND
  5
BD
330
BA
100
AcDbEntity
  8
_U+30EC_U+30A4_U+30E4_U+30FC 1
 62
   179
420
  2234388
370
     9
  0
POLYLINE
  5
BE
330
1F
100
AcDbEntity
  8
_U+30EC_U+30A4_U+30E4_U+30FC 1
 62
   179
420
  2234388
370
     9
100
AcDb2dPolyline
 66
     1
 10
0.0
 20
0.0
 30
0.0
  0
VERTEX
  5
BF
330
BE
100
AcDbEntity
  8
_U+30EC_U+30A4_U+30E4_U+30FC 1
 62
   179
420
  2234388
370
     9
100
AcDbVertex
100
AcDb2dVertex
 10
95.62500275387157
 20
-156.2833071831512
 30
0.0
  0
VERTEX
  5
C0
330
BE
100
AcDbEntity
  8
_U+30EC_U+30A4_U+30E4_U+30FC 1
 62
   179
420
  2234388
370
     9
100
AcDbVertex
100
AcDb2dVertex
 10
95.62500275387157
 20
-158.7437910714254
 30
0.0
  0
SEQEND
  5
C1
330
BE
100
AcDbEntity
  8
_U+30EC_U+30A4_U+30E4_U+30FC 1
 62
   179
420
  2234388
370
     9
  0
POLYLINE
  5
C2
330
1F
100
AcDbEntity
  8
_U+30EC_U+30A4_U+30E4_U+30FC 1
 62
   179
420
  2234388
370
     9
100
AcDb2dPolyline
 66
     1
 10
0.0
 20
0.0
 30
0.0
  0
VERTEX
  5
C3
330
C2
100
AcDbEntity
  8
_U+30EC_U+30A4_U+30E4_U+30FC 1
 62
   179
420
  2234388
370
     9
100
AcDbVertex
100
AcDb2dVertex
 10
105.6252623052751
 20
-155.5832549611042
 30
0.0
  0
VERTEX
  5
C4
330
C2
100
AcDbEntity
  8
_U+30EC_U+30A4_U+30E4_U+30FC 1
 62
   179
420
  2234388
370
     9
100
AcDbVertex
100
AcDb2dVertex
 10
105.6252623052751
 20
-158.7437910714254
 30
0.0
  0
SEQEND
  5
C5
330
C2
100
AcDbEntity
  8
_U+30EC_U+30A4_U+30E4_U+30FC 1
 62
   179
420
  2234388
370
     9
  0
INSERT
  5
C7
330
1F
100
AcDbEntity
  8
_U+30EC_U+30A4_U+30E4_U+30FC 1
100
AcDbBlockReference
  2
block 4
 10
0.0
 20
0.0
 30
0.0
  0
POLYLINE
  5
CF
330
1F
100
AcDbEntity
  8
_U+30EC_U+30A4_U+30E4_U+30FC 1
 62
   179
420
  2234388
370
     9
100
AcDb2dPolyline
 66
     1
 10
0.0
 20
0.0
 30
0.0
  0
VERTEX
  5
D0
330
CF
100
AcDbEntity
  8
_U+30EC_U+30A4_U+30E4_U+30FC 1
 62
   179
420
  2234388
370
     9
100
AcDbVertex
100
AcDb2dVertex
 10
123.6248307349567
 20
-152.7438171840361
 30
0.0
  0
VERTEX
  5
D1
330
CF
100
AcDbEntity
  8
_U+30EC_U+30A4_U+30E4_U+30FC 1
 62
   179
420
  2234388
370
     9
100
AcDbVertex
100
AcDb2dVertex
 10
123.6248307349567
 20
-146.2437807967723
 30
0.0
  0
SEQEND
  5
D2
330
CF
100
AcDbEntity
  8
_U+30EC_U+30A4_U+30E4_U+30FC 1
 62
   179
420
  2234388
370
     9
  0
POLYLINE
  5
D3
330
1F
100
AcDbEntity
  8
_U+30EC_U+30A4_U+30E4_U+30FC 1
 62
   179
420
  2234388
370
     9
100
AcDb2dPolyline
 66
     1
 10
0.0
 20
0.0
 30
0.0
  0
VERTEX
  5
D4
330
D3
100
AcDbEntity
  8
_U+30EC_U+30A4_U+30E4_U+30FC 1
 62
   179
420
  2234388
370
     9
100
AcDbVertex
100
AcDb2dVertex
 10
108.1649800182592
 20
-152.7438171840361
 30
0.0
  0
VERTEX
  5
D5
330
D3
100
AcDbEntity
  8
_U+30EC_U+30A4_U+30E4_U+30FC 1
 62
   179
420
  2234388
370
     9
100
AcDbVertex
100
AcDb2dVertex
 10
124.6253084872102
 20
-152.7438171840361
 30
0.0
  0
SEQEND
  5
D6
330
D3
100
AcDbEntity
  8
_U+30EC_U+30A4_U+30E4_U+30FC 1
 62
   179
420
  2234388
370
     9
  0
INSERT
  5
D8
330
1F
100
AcDbEntity
  8
_U+30EC_U+30A4_U+30E4_U+30FC 1
100
AcDbBlockReference
  2
block 5
 10
0.0
 20
0.0
 30
0.0
  0
POLYLINE
  5
E8
330
1F
100
AcDbEntity
  8
_U+30EC_U+30A4_U+30E4_U+30FC 1
 62
   179
420
  2234388
370
     9
100
AcDb2dPolyline
 66
     1
 10
0.0
 20
0.0
 30
0.0
  0
VERTEX
  5
E9
330
E8
100
AcDbEntity
  8
_U+30EC_U+30A4_U+30E4_U+30FC 1
 62
   179
420
  2234388
370
     9
100
AcDbVertex
100
AcDb2dVertex
 10
119.6250716703324
 20
-141.2428735758003
 30
0.0
  0
VERTEX
  5
EA
330
E8
100
AcDbEntity
  8
_U+30EC_U+30A4_U+30E4_U+30FC 1
 62
   179
420
  2234388
370
     9
100
AcDbVertex
100
AcDb2dVertex
 10
85.62491475997088
 20
-141.2428735758003
 30
0.0
  0
SEQEND
  5
EB
330
E8
100
AcDbEntity
  8
_U+30EC_U+30A4_U+30E4_U+30FC 1
 62
   179
420
  2234388
370
     9
  0
POLYLINE
  5
EC
330
1F
100
AcDbEntity
  8
_U+30EC_U+30A4_U+30E4_U+30FC 1
 62
   179
420
  2234388
370
     9
100
AcDb2dPolyline
 66
     1
 10
0.0
 20
0.0
 30
0.0
  0
VERTEX
  5
ED
330
EC
100
AcDbEntity
  8
_U+30EC_U+30A4_U+30E4_U+30FC 1
 62
   179
420
  2234388
370
     9
100
AcDbVertex
100
AcDb2dVertex
 10
119.6250716703324
 20
-142.7029149643243
 30
0.0
  0
VERTEX
  5
EE
330
EC
100
AcDbEntity
  8
_U+30EC_U+30A4_U+30E4_U+30FC 1
 62
   179
420
  2234388
370
     9
100
AcDbVertex
100
AcDb2dVertex
 10
119.6250716703324
 20
-140.2431366316059
 30
0.0
  0
SEQEND
  5
EF
330
EC
100
AcDbEntity
  8
_U+30EC_U+30A4_U+30E4_U+30FC 1
 62
   179
420
  2234388
370
     9
  0
POLYLINE
  5
F0
330
1F
100
AcDbEntity
  8
_U+30EC_U+30A4_U+30E4_U+30FC 1
 62
   179
420
  2234388
370
     9
100
AcDb2dPolyline
 66
     1
 10
0.0
 20
0.0
 30
0.0
  0
VERTEX
  5
F1
330
F0
100
AcDbEntity
  8
_U+30EC_U+30A4_U+30E4_U+30FC 1
 62
   179
420
  2234388
370
     9
100
AcDbVertex
100
AcDb2dVertex
 10
85.62491475997088
 20
-142.7029149643243
 30
0.0
  0
VERTEX
  5
F2
330
F0
100
AcDbEntity
  8
_U+30EC_U+30A4_U+30E4_U+30FC 1
 62
   179
420
  2234388
370
     9
100
AcDbVertex
100
AcDb2dVertex
 10
85.62491475997088
 20
-140.2431366316059
 30
0.0
  0
SEQEND
  5
F3
330
F0
100
AcDbEntity
  8
_U+30EC_U+30A4_U+30E4_U+30FC 1
 62
   179
420
  2234388
370
     9
  0
INSERT
  5
F5
330
1F
100
AcDbEntity
  8
_U+30EC_U+30A4_U+30E4_U+30FC 1
100
AcDbBlockReference
  2
block 6
 10
0.0
 20
0.0
 30
0.0
  0
POLYLINE
  5
10F
330
1F
100
AcDbEntity
  8
_U+30EC_U+30A4_U+30E4_U+30FC 1
 62
   179
420
  2234388
370
     9
100
AcDb2dPolyline
 66
     1
 10
0.0
 20
0.0
 30
0.0
  0
VERTEX
  5
110
330
10F
100
AcDbEntity
  8
_U+30EC_U+30A4_U+30E4_U+30FC 1
 62
   179
420
  2234388
370
     9
100
AcDbVertex
100
AcDb2dVertex
 10
95.62500275387157
 20
-157.7433485716755
 30
0.0
  0
VERTEX
  5
111
330
10F
100
AcDbEntity
  8
_U+30EC_U+30A4_U+30E4_U+30FC 1
 62
   179
420
  2234388
370
     9
100
AcDbVertex
100
AcDb2dVertex
 10
85.62491475997088
 20
-157.7433485716755
 30
0.0
  0
SEQEND
  5
112
330
10F
100
AcDbEntity
  8
_U+30EC_U+30A4_U+30E4_U+30FC 1
 62
   179
420
  2234388
370
     9
  0
POLYLINE
  5
113
330
1F
100
AcDbEntity
  8
_U+30EC_U+30A4_U+30E4_U+30FC 1
 62
   179
420
  2234388
370
     9
100
AcDb2dPolyline
 66
     1
 10
0.0
 20
0.0
 30
0.0
  0
VERTEX
  5
114
330
113
100
AcDbEntity
  8
_U+30EC_U+30A4_U+30E4_U+30FC 1
 62
   179
420
  2234388
370
     9
100
AcDbVertex
100
AcDb2dVertex
 10
85.62491475997088
 20
-148.7834985739151
 30
0.0
  0
VERTEX
  5
115
330
113
100
AcDbEntity
  8
_U+30EC_U+30A4_U+30E4_U+30FC 1
 62
   179
420
  2234388
370
     9
100
AcDbVertex
100
AcDb2dVertex
 10
85.62491475997088
 20
-158.7437910714254
 30
0.0
  0
SEQEND
  5
116
330
113
100
AcDbEntity
  8
_U+30EC_U+30A4_U+30E4_U+30FC 1
 62
   179
420
  2234388
370
     9
  0
INSERT
  5
118
330
1F
100
AcDbEntity
  8
_U+30EC_U+30A4_U+30E4_U+30FC 1
100
AcDbBlockReference
  2
block 7
 10
0.0
 20
0.0
 30
0.0
  0
ENDSEC
  0
SECTION
  2
OBJECTS
  0
DICTIONARY
  5
C
330
0
100
AcDbDictionary
281
     1
  3
ACAD_GROUP
350
D
  3
ACAD_LAYOUT
350
1A
  3
ACAD_MATERIAL
350
3B
  3
ACAD_MLEADERSTYLE
350
121
  3
ACAD_MLINESTYLE
350
17
  3
ACAD_PLOTSETTINGS
350
19
  3
ACAD_PLOTSTYLENAME
350
E
  3
ACAD_TABLESTYLE
350
120
  3
ACAD_VISUALSTYLE
350
2A
  0
SUN
  5
3F
330
29
100
AcDbSun
 90
        1
290
     0
 63
     7
421
 16777215
 40
1.0
291
     1
 91
  2455826
 92
 54000000
292
     0
 70
     2
 71
   256
280
     1
  0
DICTIONARY
  5
D
102
{ACAD_REACTORS
330
C
102
}
330
C
100
AcDbDictionary
281
     1
  0
DICTIONARY
  5
1A
102
{ACAD_REACTORS
330
C
102
}
330
C
100
AcDbDictionary
281
     1
  3
Layout1
350
1E
  3
Layout2
350
26
  3
Model
350
22
  0
DICTIONARY
  5
3B
102
{ACAD_REACTORS
330
C
102
}
330
C
100
AcDbDictionary
281
     1
  3
ByBlock
350
3D
  3
ByLayer
350
3C
  3
Global
350
3E
  0
DICTIONARY
  5
121
102
{ACAD_REACTORS
330
C
102
}
330
C
100
AcDbDictionary
281
     1
  0
DICTIONARY
  5
17
102
{ACAD_REACTORS
330
C
102
}
330
C
100
AcDbDictionary
281
     1
  3
Standard
350
18
  0
DICTIONARY
  5
19
102
{ACAD_REACTORS
330
C
102
}
330
C
100
AcDbDictionary
281
     1
  0
ACDBDICTIONARYWDFLT
  5
E
102
{ACAD_REACTORS
330
C
102
}
330
C
100
AcDbDictionary
281
     1
  3
Normal
350
F
100
AcDbDictionaryWithDefault
340
F
  0
DICTIONARY
  5
120
102
{ACAD_REACTORS
330
C
102
}
330
C
100
AcDbDictionary
281
     1
  0
DICTIONARY
  5
2A
102
{ACAD_REACTORS
330
C
102
}
330
C
100
AcDbDictionary
281
     1
  3
2dWireframe
350
2F
  3
3D Hidden
350
31
  3
3dWireframe
350
30
  3
Basic
350
32
  3
Brighten
350
36
  3
ColorChange
350
3A
  3
Conceptual
350
34
  3
Dim
350
35
  3
Facepattern
350
39
  3
Flat
350
2B
  3
FlatWithEdges
350
2C
  3
Gouraud
350
2D
  3
GouraudWithEdges
350
2E
  3
Linepattern
350
38
  3
Realistic
350
33
  3
Thicken
350
37
  0
LAYOUT
  5
1E
102
{ACAD_REACTORS
330
1A
102
}
330
1A
100
AcDbPlotSettings
  1

  2
none_device
  4

  6

 40
0.0
 41
0.0
 42
0.0
 43
0.0
 44
0.0
 45
0.0
 46
0.0
 47
0.0
 48
0.0
 49
0.0
140
0.0
141
0.0
142
1.0
143
1.0
 70
   688
 72
     0
 73
     0
 74
     5
  7

 75
    16
 76
     0
 77
     2
 78
   300
147
1.0
148
0.0
149
0.0
100
AcDbLayout
  1
Layout1
 70
     1
 71
     1
 10
0.0
 20
0.0
 11
12.0
 21
9.0
 12
0.0
 22
0.0
 32
0.0
 14
1.000000000000000E+20
 24
1.000000000000000E+20
 34
1.000000000000000E+20
 15
-1.000000000000000E+20
 25
-1.000000000000000E+20
 35
-1.000000000000000E+20
146
0.0
 13
0.0
 23
0.0
 33
0.0
 16
1.0
 26
0.0
 36
0.0
 17
0.0
 27
1.0
 37
0.0
 76
     0
330
1B
  0
LAYOUT
  5
26
102
{ACAD_REACTORS
330
1A
102
}
330
1A
100
AcDbPlotSettings
  1

  2
none_device
  4

  6

 40
0.0
 41
0.0
 42
0.0
 43
0.0
 44
0.0
 45
0.0
 46
0.0
 47
0.0
 48
0.0
 49
0.0
140
0.0
141
0.0
142
1.0
143
1.0
 70
   688
 72
     0
 73
     0
 74
     5
  7

 75
    16
 76
     0
 77
     2
 78
   300
147
1.0
148
0.0
149
0.0
100
AcDbLayout
  1
Layout2
 70
     1
 71
     2
 10
0.0
 20
0.0
 11
0.0
 21
0.0
 12
0.0
 22
0.0
 32
0.0
 14
0.0
 24
0.0
 34
0.0
 15
0.0
 25
0.0
 35
0.0
146
0.0
 13
0.0
 23
0.0
 33
0.0
 16
1.0
 26
0.0
 36
0.0
 17
0.0
 27
1.0
 37
0.0
 76
     0
330
23
  0
LAYOUT
  5
22
102
{ACAD_REACTORS
330
1A
102
}
330
1A
100
AcDbPlotSettings
  1

  2
none_device
  4

  6

 40
0.0
 41
0.0
 42
0.0
 43
0.0
 44
0.0
 45
0.0
 46
0.0
 47
0.0
 48
0.0
 49
0.0
140
0.0
141
0.0
142
1.0
143
1.0
 70
  1712
 72
     0
 73
     0
 74
     0
  7

 75
     0
 76
     0
 77
     2
 78
   300
147
1.0
148
0.0
149
0.0
100
AcDbLayout
  1
Model
 70
     1
 71
     0
 10
0.0
 20
0.0
 11
12.0
 21
9.0
 12
0.0
 22
0.0
 32
0.0
 14
1.000000000000000E+20
 24
1.000000000000000E+20
 34
1.000000000000000E+20
 15
-1.000000000000000E+20
 25
-1.000000000000000E+20
 35
-1.000000000000000E+20
146
0.0
 13
0.0
 23
0.0
 33
0.0
 16
1.0
 26
0.0
 36
0.0
 17
0.0
 27
1.0
 37
0.0
 76
     0
330
1F
331
29
  0
MATERIAL
  5
3D
102
{ACAD_REACTORS
330
3B
102
}
330
3B
100
AcDbMaterial
  1
ByBlock
 72
     1
 94
      127
  0
MATERIAL
  5
3C
102
{ACAD_REACTORS
330
3B
102
}
330
3B
100
AcDbMaterial
  1
ByLayer
 72
     1
 94
      127
  0
MATERIAL
  5
3E
102
{ACAD_REACTORS
330
3B
102
}
330
3B
100
AcDbMaterial
  1
Global
 72
     1
 94
      127
  0
MLINESTYLE
  5
18
102
{ACAD_REACTORS
330
17
102
}
330
17
100
AcDbMlineStyle
  2
Standard
 70
     0
  3

 62
   256
 51
90.0
 52
90.0
 71
     2
 49
0.5
 62
   256
  6
BYLAYER
 49
-0.5
 62
   256
  6
BYLAYER
  0
ACDBPLACEHOLDER
  5
F
102
{ACAD_REACTORS
330
E
102
}
330
E
  0
VISUALSTYLE
  5
2F
102
{ACAD_REACTORS
330
2A
102
}
330
2A
100
AcDbVisualStyle
  2
2dWireframe
 70
     4
177
     2
291
     0
 71
     0
176
     1
 72
     2
176
     1
 73
     0
176
     1
 90
        0
176
     1
 40
-0.6
176
     1
 41
-30.0
176
     1
 62
     5
 63
     7
421
 16777215
176
     1
 74
     1
176
     1
 91
        4
176
     1
 64
     7
176
     1
 65
   257
176
     1
 75
     1
176
     1
175
     1
176
     1
 42
1.0
176
     1
 92
        0
176
     1
 66
   257
176
     1
 43
1.0
176
     1
 76
     1
176
     1
 77
     6
176
     1
 78
     2
176
     1
 67
     7
176
     1
 79
     5
176
     1
170
     0
176
     1
171
     0
176
     1
290
     0
176
     1
 93
        1
176
     1
 44
0.0
176
     1
173
     0
176
     1
  0
VISUALSTYLE
  5
31
102
{ACAD_REACTORS
330
2A
102
}
330
2A
100
AcDbVisualStyle
  2
3D Hidden
 70
     6
177
     2
291
     0
 71
     1
176
     1
 72
     2
176
     1
 73
     2
176
     1
 90
        0
176
     1
 40
-0.6
176
     1
 41
-30.0
176
     1
 62
     5
 63
     7
421
 16777215
176
     1
 74
     2
176
     1
 91
        2
176
     1
 64
     7
176
     1
 65
   257
176
     1
 75
     2
176
     1
175
     1
176
     1
 42
40.0
176
     1
 92
        0
176
     1
 66
   257
176
     1
 43
1.0
176
     1
 76
     1
176
     1
 77
     6
176
     1
 78
     2
176
     1
 67
     7
176
     1
 79
     3
176
     1
170
     0
176
     1
171
     0
176
     1
290
     0
176
     1
 93
        1
176
     1
 44
0.0
176
     1
173
     0
176
     1
  0
VISUALSTYLE
  5
30
102
{ACAD_REACTORS
330
2A
102
}
330
2A
100
AcDbVisualStyle
  2
3dWireframe
 70
     5
177
     2
291
     0
 71
     0
176
     1
 72
     2
176
     1
 73
     0
176
     1
 90
        0
176
     1
 40
-0.6
176
     1
 41
-30.0
176
     1
 62
     5
 63
     7
421
 16777215
176
     1
 74
     1
176
     1
 91
        4
176
     1
 64
     7
176
     1
 65
   257
176
     1
 75
     1
176
     1
175
     1
176
     1
 42
1.0
176
     1
 92
        0
176
     1
 66
   257
176
     1
 43
1.0
176
     1
 76
     1
176
     1
 77
     6
176
     1
 78
     2
176
     1
 67
     7
176
     1
 79
     5
176
     1
170
     0
176
     1
171
     0
176
     1
290
     0
176
     1
 93
        1
176
     1
 44
0.0
176
     1
173
     0
176
     1
  0
VISUALSTYLE
  5
32
102
{ACAD_REACTORS
330
2A
102
}
330
2A
100
AcDbVisualStyle
  2
Basic
 70
     7
177
     2
291
     1
 71
     1
176
     1
 72
     0
176
     1
 73
     1
176
     1
 90
        0
176
     1
 40
-0.6
176
     1
 41
-30.0
176
     1
 62
     5
 63
     7
421
 16777215
176
     1
 74
     0
176
     1
 91
        4
176
     1
 64
     7
176
     1
 65
   257
176
     1
 75
     1
176
     1
175
     1
176
     1
 42
1.0
176
     1
 92
        8
176
     1
 66
     7
176
     1
 43
1.0
176
     1
 76
     1
176
     1
 77
     6
176
     1
 78
     2
176
     1
 67
     7
176
     1
 79
     5
176
     1
170
     0
176
     1
171
     0
176
     1
290
     0
176
     1
 93
        1
176
     1
 44
0.0
176
     1
173
     0
176
     1
  0
VISUALSTYLE
  5
36
102
{ACAD_REACTORS
330
2A
102
}
330
2A
100
AcDbVisualStyle
  2
Brighten
 70
    12
177
     2
291
     1
 71
     2
176
     1
 72
     2
176
     1
 73
     0
176
     1
 90
        0
176
     1
 40
-0.6
176
     1
 41
-30.0
176
     1
 62
     5
 63
     7
421
 16777215
176
     1
 74
     1
176
     1
 91
        4
176
     1
 64
     7
176
     1
 65
   257
176
     1
 75
     1
176
     1
175
     1
176
     1
 42
1.0
176
     1
 92
        8
176
     1
 66
     7
176
     1
 43
1.0
176
     1
 76
     1
176
     1
 77
     6
176
     1
 78
     2
176
     1
 67
     7
176
     1
 79
     5
176
     1
170
     0
176
     1
171
     0
176
     1
290
     0
176
     1
 93
        1
176
     1
 44
50.0
176
     1
173
     0
176
     1
  0
VISUALSTYLE
  5
3A
102
{ACAD_REACTORS
330
2A
102
}
330
2A
100
AcDbVisualStyle
  2
ColorChange
 70
    16
177
     2
291
     1
 71
     2
176
     1
 72
     2
176
     1
 73
     3
176
     1
 90
        0
176
     1
 40
-0.6
176
     1
 41
-30.0
176
     1
 62
     5
 63
     8
421
  8421504
176
     1
 74
     1
176
     1
 91
        4
176
     1
 64
     7
176
     1
 65
   257
176
     1
 75
     1
176
     1
175
     1
176
     1
 42
1.0
176
     1
 92
        8
176
     1
 66
     8
424
  8421504
176
     1
 43
1.0
176
     1
 76
     1
176
     1
 77
     6
176
     1
 78
     2
176
     1
 67
     7
176
     1
 79
     5
176
     1
170
     0
176
     1
171
     0
176
     1
290
     0
176
     1
 93
        1
176
     1
 44
0.0
176
     1
173
     0
176
     1
  0
VISUALSTYLE
  5
34
102
{ACAD_REACTORS
330
2A
102
}
330
2A
100
AcDbVisualStyle
  2
Conceptual
 70
     9
177
     2
291
     0
 71
     3
176
     1
 72
     2
176
     1
 73
     0
176
     1
 90
        0
176
     1
 40
-0.6
176
     1
 41
-30.0
176
     1
 62
     5
 63
     7
421
 16777215
176
     1
 74
     2
176
     1
 91
        2
176
     1
 64
     7
176
     1
 65
   257
176
     1
 75
     1
176
     1
175
     1
176
     1
 42
40.0
176
     1
 92
        8
176
     1
 66
     7
176
     1
 43
1.0
176
     1
 76
     1
176
     1
 77
     6
176
     1
 78
     2
176
     1
 67
     7
176
     1
 79
     3
176
     1
170
     0
176
     1
171
     0
176
     1
290
     0
176
     1
 93
        1
176
     1
 44
0.0
176
     1
173
     0
176
     1
  0
VISUALSTYLE
  5
35
102
{ACAD_REACTORS
330
2A
102
}
330
2A
100
AcDbVisualStyle
  2
Dim
 70
    11
177
     2
291
     1
 71
     2
176
     1
 72
     2
176
     1
 73
     0
176
     1
 90
        0
176
     1
 40
-0.6
176
     1
 41
-30.0
176
     1
 62
     5
 63
     7
421
 16777215
176
     1
 74
     1
176
     1
 91
        4
176
     1
 64
     7
176
     1
 65
   257
176
     1
 75
     1
176
     1
175
     1
176
     1
 42
1.0
176
     1
 92
        8
176
     1
 66
     7
176
     1
 43
1.0
176
     1
 76
     1
176
     1
 77
     6
176
     1
 78
     2
176
     1
 67
     7
176
     1
 79
     5
176
     1
170
     0
176
     1
171
     0
176
     1
290
     0
176
     1
 93
        1
176
     1
 44
-50.0
176
     1
173
     0
176
     1
  0
VISUALSTYLE
  5
39
102
{ACAD_REACTORS
330
2A
102
}
330
2A
100
AcDbVisualStyle
  2
Facepattern
 70
    15
177
     2
291
     1
 71
     2
176
     1
 72
     2
176
     1
 73
     0
176
     1
 90
        0
176
     1
 40
-0.6
176
     1
 41
-30.0
176
     1
 62
     5
 63
     7
421
 16777215
176
     1
 74
     1
176
     1
 91
        4
176
     1
 64
     7
176
     1
 65
   257
176
     1
 75
     1
176
     1
175
     1
176
     1
 42
1.0
176
     1
 92
        8
176
     1
 66
     7
176
     1
 43
1.0
176
     1
 76
     1
176
     1
 77
     6
176
     1
 78
     2
176
     1
 67
     7
176
     1
 79
     5
176
     1
170
     0
176
     1
171
     0
176
     1
290
     0
176
     1
 93
        1
176
     1
 44
0.0
176
     1
173
     0
176
     1
  0
VISUALSTYLE
  5
2B
102
{ACAD_REACTORS
330
2A
102
}
330
2A
100
AcDbVisualStyle
  2
Flat
 70
     0
177
     2
291
     1
 71
     2
176
     1
 72
     1
176
     1
 73
     1
176
     1
 90
        2
176
     1
 40
-0.6
176
     1
 41
30.0
176
     1
 62
     5
 63
     7
421
 16777215
176
     1
 74
     0
176
     1
 91
        4
176
     1
 64
     7
176
     1
 65
   257
176
     1
 75
     1
176
     1
175
     1
176
     1
 42
1.0
176
     1
 92
        8
176
     1
 66
     7
176
     1
 43
1.0
176
     1
 76
     1
176
     1
 77
     6
176
     1
 78
     2
176
     1
 67
     7
176
     1
 79
     5
176
     1
170
     0
176
     1
171
     0
176
     1
290
     0
176
     1
 93
       13
176
     1
 44
0.0
176
     1
173
     0
176
     1
  0
VISUALSTYLE
  5
2C
102
{ACAD_REACTORS
330
2A
102
}
330
2A
100
AcDbVisualStyle
  2
FlatWithEdges
 70
     1
177
     2
291
     1
 71
     2
176
     1
 72
     1
176
     1
 73
     1
176
     1
 90
        2
176
     1
 40
-0.6
176
     1
 41
30.0
176
     1
 62
     5
 63
     7
421
 16777215
176
     1
 74
     1
176
     1
 91
        4
176
     1
 64
     7
176
     1
 65
   257
176
     1
 75
     1
176
     1
175
     1
176
     1
 42
1.0
176
     1
 92
        0
176
     1
 66
   257
176
     1
 43
1.0
176
     1
 76
     1
176
     1
 77
     6
176
     1
 78
     2
176
     1
 67
     7
176
     1
 79
     5
176
     1
170
     0
176
     1
171
     0
176
     1
290
     0
176
     1
 93
       13
176
     1
 44
0.0
176
     1
173
     0
176
     1
  0
VISUALSTYLE
  5
2D
102
{ACAD_REACTORS
330
2A
102
}
330
2A
100
AcDbVisualStyle
  2
Gouraud
 70
     2
177
     2
291
     1
 71
     2
176
     1
 72
     2
176
     1
 73
     1
176
     1
 90
        2
176
     1
 40
-0.6
176
     1
 41
30.0
176
     1
 62
     5
 63
     7
421
 16777215
176
     1
 74
     0
176
     1
 91
        4
176
     1
 64
     7
176
     1
 65
   257
176
     1
 75
     1
176
     1
175
     1
176
     1
 42
1.0
176
     1
 92
        0
176
     1
 66
     7
176
     1
 43
1.0
176
     1
 76
     1
176
     1
 77
     6
176
     1
 78
     2
176
     1
 67
     7
176
     1
 79
     5
176
     1
170
     0
176
     1
171
     0
176
     1
290
     0
176
     1
 93
       13
176
     1
 44
0.0
176
     1
173
     0
176
     1
  0
VISUALSTYLE
  5
2E
102
{ACAD_REACTORS
330
2A
102
}
330
2A
100
AcDbVisualStyle
  2
GouraudWithEdges
 70
     3
177
     2
291
     1
 71
     2
176
     1
 72
     2
176
     1
 73
     1
176
     1
 90
        2
176
     1
 40
-0.6
176
     1
 41
30.0
176
     1
 62
     5
 63
     7
421
 16777215
176
     1
 74
     1
176
     1
 91
        4
176
     1
 64
     7
176
     1
 65
   257
176
     1
 75
     1
176
     1
175
     1
176
     1
 42
1.0
176
     1
 92
        0
176
     1
 66
   257
176
     1
 43
1.0
176
     1
 76
     1
176
     1
 77
     6
176
     1
 78
     2
176
     1
 67
     7
176
     1
 79
     5
176
     1
170
     0
176
     1
171
     0
176
     1
290
     0
176
     1
 93
       13
176
     1
 44
0.0
176
     1
173
     0
176
     1
  0
VISUALSTYLE
  5
38
102
{ACAD_REACTORS
330
2A
102
}
330
2A
100
AcDbVisualStyle
  2
Linepattern
 70
    14
177
     2
291
     1
 71
     2
176
     1
 72
     2
176
     1
 73
     0
176
     1
 90
        0
176
     1
 40
-0.6
176
     1
 41
-30.0
176
     1
 62
     5
 63
     7
421
 16777215
176
     1
 74
     1
176
     1
 91
        4
176
     1
 64
     7
176
     1
 65
   257
176
     1
 75
     7
176
     1
175
     7
176
     1
 42
1.0
176
     1
 92
        8
176
     1
 66
     7
176
     1
 43
1.0
176
     1
 76
     1
176
     1
 77
     6
176
     1
 78
     2
176
     1
 67
     7
176
     1
 79
     5
176
     1
170
     0
176
     1
171
     0
176
     1
290
     0
176
     1
 93
        1
176
     1
 44
0.0
176
     1
173
     0
176
     1
  0
VISUALSTYLE
  5
33
102
{ACAD_REACTORS
330
2A
102
}
330
2A
100
AcDbVisualStyle
  2
Realistic
 70
     8
177
     2
291
     0
 71
     2
176
     1
 72
     2
176
     1
 73
     0
176
     1
 90
        0
176
     1
 40
-0.6
176
     1
 41
-30.0
176
     1
 62
     5
 63
     7
421
 16777215
176
     1
 74
     1
176
     1
 91
        0
176
     1
 64
     7
176
     1
 65
   257
176
     1
 75
     1
176
     1
175
     1
176
     1
 42
1.0
176
     1
 92
        8
176
     1
 66
     8
424
  7895160
176
     1
 43
1.0
176
     1
 76
     1
176
     1
 77
     6
176
     1
 78
     2
176
     1
 67
     7
176
     1
 79
     5
176
     1
170
     0
176
     1
171
     0
176
     1
290
     0
176
     1
 93
       13
176
     1
 44
0.0
176
     1
173
     0
176
     1
  0
VISUALSTYLE
  5
37
102
{ACAD_REACTORS
330
2A
102
}
330
2A
100
AcDbVisualStyle
  2
Thicken
 70
    13
177
     2
291
     1
 71
     2
176
     1
 72
     2
176
     1
 73
     0
176
     1
 90
        0
176
     1
 40
-0.6
176
     1
 41
-30.0
176
     1
 62
     5
 63
     7
421
 16777215
176
     1
 74
     1
176
     1
 91
        4
176
     1
 64
     7
176
     1
 65
   257
176
     1
 75
     1
176
     1
175
     1
176
     1
 42
1.0
176
     1
 92
       12
176
     1
 66
     7
176
     1
 43
1.0
176
     1
 76
     1
176
     1
 77
     6
176
     1
 78
     2
176
     1
 67
     7
176
     1
 79
     5
176
     1
170
     0
176
     1
171
     0
176
     1
290
     0
176
     1
 93
        1
176
     1
 44
0.0
176
     1
173
     0
176
     1
  0
ENDSEC
  0
EOF
