  0
SECTION
  2
HEADER
  9
$ACADVER
  1
AC1024
  9
$ACADMAINTVER
 70
   226
  9
$DWGCODEPAGE
  3
ANSI_932
  9
$INSBASE
 10
0.0
 20
0.0
 30
0.0
  9
$EXTMIN
 10
1.000000000000000E+20
 20
1.000000000000000E+20
 30
1.000000000000000E+20
  9
$EXTMAX
 10
-1.000000000000000E+20
 20
-1.000000000000000E+20
 30
-1.000000000000000E+20
  9
$LIMMIN
 10
0.0
 20
0.0
  9
$LIMMAX
 10
12.0
 20
9.0
  9
$ORTHOMODE
 70
     0
  9
$REGENMODE
 70
     1
  9
$FILLMODE
 70
     1
  9
$QTEXTMODE
 70
     0
  9
$MIRRTEXT
 70
     0
  9
$LTSCALE
 40
1.0
  9
$ATTMODE
 70
     1
  9
$TEXTSIZE
 40
0.2
  9
$TRACEWID
 40
0.05
  9
$TEXTSTYLE
  7
Standard
  9
$CLAYER
  8
0
  9
$CELTYPE
  6
ByLayer
  9
$CECOLOR
 62
   256
  9
$CELTSCALE
 40
1.0
  9
$DISPSILH
 70
     0
  9
$DIMSCALE
 40
1.0
  9
$DIMASZ
 40
0.18
  9
$DIMEXO
 40
0.0625
  9
$DIMDLI
 40
0.38
  9
$DIMRND
 40
0.0
  9
$DIMDLE
 40
0.0
  9
$DIMEXE
 40
0.18
  9
$DIMTP
 40
0.0
  9
$DIMTM
 40
0.0
  9
$DIMTXT
 40
0.18
  9
$DIMCEN
 40
0.09
  9
$DIMTSZ
 40
0.0
  9
$DIMTOL
 70
     0
  9
$DIMLIM
 70
     0
  9
$DIMTIH
 70
     1
  9
$DIMTOH
 70
     1
  9
$DIMSE1
 70
     0
  9
$DIMSE2
 70
     0
  9
$DIMTAD
 70
     0
  9
$DIMZIN
 70
     0
  9
$DIMBLK
  1

  9
$DIMASO
 70
     1
  9
$DIMSHO
 70
     1
  9
$DIMPOST
  1

  9
$DIMAPOST
  1

  9
$DIMALT
 70
     0
  9
$DIMALTD
 70
     2
  9
$DIMALTF
 40
25.4
  9
$DIMLFAC
 40
1.0
  9
$DIMTOFL
 70
     0
  9
$DIMTVP
 40
0.0
  9
$DIMTIX
 70
     0
  9
$DIMSOXD
 70
     0
  9
$DIMSAH
 70
     0
  9
$DIMBLK1
  1

  9
$DIMBLK2
  1

  9
$DIMSTYLE
  2
Standard
  9
$DIMCLRD
 70
     0
  9
$DIMCLRE
 70
     0
  9
$DIMCLRT
 70
     0
  9
$DIMTFAC
 40
1.0
  9
$DIMGAP
 40
0.09
  9
$DIMJUST
 70
     0
  9
$DIMSD1
 70
     0
  9
$DIMSD2
 70
     0
  9
$DIMTOLJ
 70
     1
  9
$DIMTZIN
 70
     0
  9
$DIMALTZ
 70
     0
  9
$DIMALTTZ
 70
     0
  9
$DIMUPT
 70
     0
  9
$DIMDEC
 70
     4
  9
$DIMTDEC
 70
     4
  9
$DIMALTU
 70
     2
  9
$DIMALTTD
 70
     2
  9
$DIMTXSTY
  7
Standard
  9
$DIMAUNIT
 70
     0
  9
$DIMADEC
 70
     0
  9
$DIMALTRND
 40
0.0
  9
$DIMAZIN
 70
     0
  9
$DIMDSEP
 70
    46
  9
$DIMATFIT
 70
     3
  9
$DIMFRAC
 70
     0
  9
$DIMLDRBLK
  1

  9
$DIMLUNIT
 70
     2
  9
$DIMLWD
 70
    -2
  9
$DIMLWE
 70
    -2
  9
$DIMTMOVE
 70
     0
  9
$DIMFXL
 40
1.0
  9
$DIMFXLON
 70
     0
  9
$DIMJOGANG
 40
0.7853981633974483
  9
$DIMTFILL
 70
     0
  9
$DIMTFILLCLR
 70
     0
  9
$DIMARCSYM
 70
     0
  9
$DIMLTYPE
  6

  9
$DIMLTEX1
  6

  9
$DIMLTEX2
  6

  9
$DIMTXTDIRECTION
 70
     0
  9
$LUNITS
 70
     2
  9
$LUPREC
 70
     4
  9
$SKETCHINC
 40
0.1
  9
$FILLETRAD
 40
0.0
  9
$AUNITS
 70
     0
  9
$AUPREC
 70
     0
  9
$MENU
  1
.
  9
$ELEVATION
 40
0.0
  9
$PELEVATION
 40
0.0
  9
$THICKNESS
 40
0.0
  9
$LIMCHECK
 70
     0
  9
$CHAMFERA
 40
0.0
  9
$CHAMFERB
 40
0.0
  9
$CHAMFERC
 40
0.0
  9
$CHAMFERD
 40
0.0
  9
$SKPOLY
 70
     0
  9
$TDCREATE
 40
2459676.424421297
  9
$TDUCREATE
 40
2459676.049421297
  9
$TDUPDATE
 40
2459676.424421297
  9
$TDUUPDATE
 40
2459676.049421297
  9
$TDINDWG
 40
0.0000000000
  9
$TDUSRTIMER
 40
0.0000000000
  9
$USRTIMER
 70
     1
  9
$ANGBASE
 50
0.0
  9
$ANGDIR
 70
     0
  9
$PDMODE
 70
     0
  9
$PDSIZE
 40
0.0
  9
$PLINEWID
 40
0.0
  9
$SPLFRAME
 70
     0
  9
$SPLINETYPE
 70
     6
  9
$SPLINESEGS
 70
     8
  9
$HANDSEED
  5
13C
  9
$SURFTAB1
 70
     6
  9
$SURFTAB2
 70
     6
  9
$SURFTYPE
 70
     6
  9
$SURFU
 70
     6
  9
$SURFV
 70
     6
  9
$UCSBASE
  2

  9
$UCSNAME
  2

  9
$UCSORG
 10
0.0
 20
0.0
 30
0.0
  9
$UCSXDIR
 10
1.0
 20
0.0
 30
0.0
  9
$UCSYDIR
 10
0.0
 20
1.0
 30
0.0
  9
$UCSORTHOREF
  2

  9
$UCSORTHOVIEW
 70
     0
  9
$UCSORGTOP
 10
0.0
 20
0.0
 30
0.0
  9
$UCSORGBOTTOM
 10
0.0
 20
0.0
 30
0.0
  9
$UCSORGLEFT
 10
0.0
 20
0.0
 30
0.0
  9
$UCSORGRIGHT
 10
0.0
 20
0.0
 30
0.0
  9
$UCSORGFRONT
 10
0.0
 20
0.0
 30
0.0
  9
$UCSORGBACK
 10
0.0
 20
0.0
 30
0.0
  9
$PUCSBASE
  2

  9
$PUCSNAME
  2

  9
$PUCSORG
 10
0.0
 20
0.0
 30
0.0
  9
$PUCSXDIR
 10
1.0
 20
0.0
 30
0.0
  9
$PUCSYDIR
 10
0.0
 20
1.0
 30
0.0
  9
$PUCSORTHOREF
  2

  9
$PUCSORTHOVIEW
 70
     0
  9
$PUCSORGTOP
 10
0.0
 20
0.0
 30
0.0
  9
$PUCSORGBOTTOM
 10
0.0
 20
0.0
 30
0.0
  9
$PUCSORGLEFT
 10
0.0
 20
0.0
 30
0.0
  9
$PUCSORGRIGHT
 10
0.0
 20
0.0
 30
0.0
  9
$PUCSORGFRONT
 10
0.0
 20
0.0
 30
0.0
  9
$PUCSORGBACK
 10
0.0
 20
0.0
 30
0.0
  9
$USERI1
 70
     0
  9
$USERI2
 70
     0
  9
$USERI3
 70
     0
  9
$USERI4
 70
     0
  9
$USERI5
 70
     0
  9
$USERR1
 40
0.0
  9
$USERR2
 40
0.0
  9
$USERR3
 40
0.0
  9
$USERR4
 40
0.0
  9
$USERR5
 40
0.0
  9
$WORLDVIEW
 70
     1
  9
$SHADEDGE
 70
     3
  9
$SHADEDIF
 70
    70
  9
$TILEMODE
 70
     1
  9
$MAXACTVP
 70
    64
  9
$PINSBASE
 10
0.0
 20
0.0
 30
0.0
  9
$PLIMCHECK
 70
     0
  9
$PEXTMIN
 10
1.000000000000000E+20
 20
1.000000000000000E+20
 30
1.000000000000000E+20
  9
$PEXTMAX
 10
-1.000000000000000E+20
 20
-1.000000000000000E+20
 30
-1.000000000000000E+20
  9
$PLIMMIN
 10
0.0
 20
0.0
  9
$PLIMMAX
 10
12.0
 20
9.0
  9
$UNITMODE
 70
     0
  9
$VISRETAIN
 70
     1
  9
$PLINEGEN
 70
     0
  9
$PSLTSCALE
 70
     1
  9
$TREEDEPTH
 70
  3020
  9
$CMLSTYLE
  2
Standard
  9
$CMLJUST
 70
     0
  9
$CMLSCALE
 40
1.0
  9
$PROXYGRAPHICS
 70
     1
  9
$MEASUREMENT
 70
     0
  9
$CELWEIGHT
370
    -1
  9
$ENDCAPS
280
     0
  9
$JOINSTYLE
280
     0
  9
$LWDISPLAY
290
     1
  9
$INSUNITS
 70
     4
  9
$HYPERLINKBASE
  1

  9
$STYLESHEET
  1

  9
$XEDIT
290
     1
  9
$CEPSNTYPE
380
     0
  9
$PSTYLEMODE
290
     1
  9
$FINGERPRINTGUID
  2
{AFD97255-5FD5-CF4E-A6CD-D49F686E41CC}
  9
$VERSIONGUID
  2
{407727A7-71AC-AF4A-8347-3A5127016FE4}
  9
$EXTNAMES
290
     1
  9
$PSVPSCALE
 40
0.0
  9
$OLESTARTUP
290
     0
  9
$SORTENTS
280
   127
  9
$INDEXCTL
280
     0
  9
$HIDETEXT
280
     1
  9
$XCLIPFRAME
280
     2
  9
$HALOGAP
280
     0
  9
$OBSCOLOR
 70
   257
  9
$OBSLTYPE
280
     0
  9
$INTERSECTIONDISPLAY
280
     0
  9
$INTERSECTIONCOLOR
 70
   257
  9
$DIMASSOC
280
     2
  9
$PROJECTNAME
  1

  9
$CAMERADISPLAY
290
     0
  9
$LENSLENGTH
 40
50.0
  9
$CAMERAHEIGHT
 40
0.0
  9
$STEPSPERSEC
 40
2.0
  9
$STEPSIZE
 40
6.0
  9
$3DDWFPREC
 40
2.0
  9
$PSOLWIDTH
 40
0.25
  9
$PSOLHEIGHT
 40
4.0
  9
$LOFTANG1
 40
1.570796326794896
  9
$LOFTANG2
 40
1.570796326794896
  9
$LOFTMAG1
 40
0.0
  9
$LOFTMAG2
 40
0.0
  9
$LOFTPARAM
 70
     7
  9
$LOFTNORMALS
280
     1
  9
$LATITUDE
 40
37.795
  9
$LONGITUDE
 40
-122.394
  9
$NORTHDIRECTION
 40
0.0
  9
$TIMEZONE
 70
 -8000
  9
$LIGHTGLYPHDISPLAY
280
     1
  9
$TILEMODELIGHTSYNCH
280
     1
  9
$CMATERIAL
347
11
  9
$SOLIDHIST
280
     0
  9
$SHOWHIST
280
     1
  9
$DWFFRAME
280
     2
  9
$DGNFRAME
280
     0
  9
$REALWORLDSCALE
290
     1
  9
$INTERFERECOLOR
 62
     1
  9
$INTERFEREOBJVS
345
33
  9
$INTERFEREVPVS
346
30
  9
$CSHADOW
280
     0
  9
$SHADOWPLANELOCATION
 40
0.0
  0
ENDSEC
  0
SECTION
  2
CLASSES
  0
CLASS
  1
ACDBDICTIONARYWDFLT
  2
AcDbDictionaryWithDefault
  3
ObjectDBX Classes
 90
        0
 91
        1
280
     0
281
     0
  0
CLASS
  1
MATERIAL
  2
AcDbMaterial
  3
ObjectDBX Classes
 90
     1153
 91
        3
280
     0
281
     0
  0
CLASS
  1
VISUALSTYLE
  2
AcDbVisualStyle
  3
ObjectDBX Classes
 90
     4095
 91
       24
280
     0
281
     0
  0
CLASS
  1
SCALE
  2
AcDbScale
  3
ObjectDBX Classes
 90
     1153
 91
       17
280
     0
281
     0
  0
CLASS
  1
TABLESTYLE
  2
AcDbTableStyle
  3
ObjectDBX Classes
 90
     4095
 91
        1
280
     0
281
     0
  0
CLASS
  1
MLEADERSTYLE
  2
AcDbMLeaderStyle
  3
ACDB_MLEADERSTYLE_CLASS
 90
     4095
 91
        1
280
     0
281
     0
  0
CLASS
  1
ACDBSECTIONVIEWSTYLE
  2
AcDbSectionViewStyle
  3
ObjectDBX Classes
 90
     1025
 91
        1
280
     0
281
     0
  0
CLASS
  1
ACDBDETAILVIEWSTYLE
  2
AcDbDetailViewStyle
  3
ObjectDBX Classes
 90
     1025
 91
        1
280
     0
281
     0
  0
CLASS
  1
DICTIONARYVAR
  2
AcDbDictionaryVar
  3
ObjectDBX Classes
 90
        0
 91
        5
280
     0
281
     0
  0
CLASS
  1
CELLSTYLEMAP
  2
AcDbCellStyleMap
  3
ObjectDBX Classes
 90
     1152
 91
        1
280
     0
281
     0
  0
ENDSEC
  0
SECTION
  2
TABLES
  0
TABLE
  2
VPORT
  5
8
330
0
100
AcDbSymbolTable
 70
     1
  0
VPORT
  5
57
330
8
100
AcDbSymbolTableRecord
100
AcDbViewportTableRecord
  2
*Active
 70
     0
 10
0.0
 20
0.0
 11
1.0
 21
1.0
 12
0.0
 22
0.0
 13
0.0
 23
0.0
 14
1.0
 24
1.0
 15
0.0
 25
0.0
 16
0.0
 26
0.0
 36
1.0
 17
104.9999999737534
 27
-148.4999999628701
 37
0.0
 40
302.939999924255
 41
0.7070707070707534
 42
50.0
 43
0.0
 44
0.0
 50
0.0
 51
0.0
 71
     0
 72
   100
 73
     1
 74
     0
 75
     1
 76
     0
 77
     0
 78
     0
281
     0
 65
     1
110
0.0
120
0.0
130
0.0
111
1.0
121
0.0
131
0.0
112
0.0
122
1.0
132
0.0
 79
     0
146
0.0
 60
     3
 61
     5
292
     1
282
     1
141
0.0
142
0.0
 63
   250
421
  3355443
  0
ENDTAB
  0
TABLE
  2
LTYPE
  5
5
330
0
100
AcDbSymbolTable
 70
     2
  0
LTYPE
  5
5B
330
5
100
AcDbSymbolTableRecord
100
AcDbLinetypeTableRecord
  2
ByBlock
 70
     0
  3

 72
    65
 73
     0
 40
0.0
  0
LTYPE
  5
5C
330
5
100
AcDbSymbolTableRecord
100
AcDbLinetypeTableRecord
  2
ByLayer
 70
     0
  3

 72
    65
 73
     0
 40
0.0
  0
LTYPE
  5
5D
330
5
100
AcDbSymbolTableRecord
100
AcDbLinetypeTableRecord
  2
Continuous
 70
     0
  3
Solid line
 72
    65
 73
     0
 40
0.0
  0
LTYPE
  5
DA
330
5
100
AcDbSymbolTableRecord
100
AcDbLinetypeTableRecord
  2
AI-Linetype-0
 70
     0
  3
Adobe Illustrator Linetype No. 0
 72
    65
 73
     2
 40
1.411111110758333
 49
0.7055555553791667
 74
     0
 49
-0.7055555553791667
 74
     0
  0
ENDTAB
  0
TABLE
  2
LAYER
  5
2
330
0
100
AcDbSymbolTable
 70
     2
  0
LAYER
  5
54
330
2
100
AcDbSymbolTableRecord
100
AcDbLayerTableRecord
  2
0
 70
     0
 62
     7
  6
Continuous
370
    -3
390
F
347
21
  0
LAYER
  5
78
330
2
100
AcDbSymbolTableRecord
100
AcDbLayerTableRecord
  2
レイヤー 1
 70
     0
 62
     7
  6
Continuous
370
     0
390
F
347
21
  0
ENDTAB
  0
TABLE
  2
STYLE
  5
3
330
0
100
AcDbSymbolTable
 70
     2
  0
STYLE
  5
55
330
3
100
AcDbSymbolTableRecord
100
AcDbTextStyleTableRecord
  2
Standard
 70
     0
 40
0.0
 41
1.0
 50
0.0
 71
     0
 42
0.2
  3
txt
  4

  0
STYLE
  5
5A
330
3
100
AcDbSymbolTableRecord
100
AcDbTextStyleTableRecord
  2
Annotative
 70
     0
 40
0.0
 41
1.0
 50
0.0
 71
     0
 42
0.2
  3
txt
  4

1001
AcadAnnotative
1000
AnnotativeData
1002
{
1070
     1
1070
     1
1002
}
  0
ENDTAB
  0
TABLE
  2
VIEW
  5
6
330
0
100
AcDbSymbolTable
 70
     0
  0
ENDTAB
  0
TABLE
  2
UCS
  5
7
330
0
100
AcDbSymbolTable
 70
     0
  0
ENDTAB
  0
TABLE
  2
APPID
  5
9
330
0
100
AcDbSymbolTable
 70
     2
  0
APPID
  5
56
330
9
100
AcDbSymbolTableRecord
100
AcDbRegAppTableRecord
  2
ACAD
 70
     0
  0
APPID
  5
5E
330
9
100
AcDbSymbolTableRecord
100
AcDbRegAppTableRecord
  2
AcadAnnotative
 70
     0
  0
ENDTAB
  0
TABLE
  2
DIMSTYLE
  5
A
330
0
100
AcDbSymbolTable
 70
     2
100
AcDbDimStyleTable
 71
     0
  0
DIMSTYLE
105
58
330
A
100
AcDbSymbolTableRecord
100
AcDbDimStyleTableRecord
  2
Standard
 70
     0
340
55
  0
DIMSTYLE
105
59
330
A
100
AcDbSymbolTableRecord
100
AcDbDimStyleTableRecord
  2
Annotative
 70
     0
340
55
1001
AcadAnnotative
1000
AnnotativeData
1002
{
1070
     1
1070
     1
1002
}
  0
ENDTAB
  0
TABLE
  2
BLOCK_RECORD
  5
1
330
0
100
AcDbSymbolTable
 70
    14
  0
BLOCK_RECORD
  5
70
330
1
100
AcDbSymbolTableRecord
100
AcDbBlockTableRecord
  2
*Model_Space
340
73
 70
     0
280
     1
281
     0
  0
BLOCK_RECORD
  5
6C
330
1
100
AcDbSymbolTableRecord
100
AcDbBlockTableRecord
  2
*Paper_Space
340
6F
 70
     0
280
     1
281
     0
  0
BLOCK_RECORD
  5
74
330
1
100
AcDbSymbolTableRecord
100
AcDbBlockTableRecord
  2
*Paper_Space0
340
77
 70
     0
280
     1
281
     0
  0
BLOCK_RECORD
  5
79
330
1
100
AcDbSymbolTableRecord
100
AcDbBlockTableRecord
  2
Block_0
340
0
102
{BLKREFS
331
7A
102
}
 70
     0
280
     1
281
     0
  0
BLOCK_RECORD
  5
7D
330
1
100
AcDbSymbolTableRecord
100
AcDbBlockTableRecord
  2
Block_1
340
0
102
{BLKREFS
331
7E
102
}
 70
     0
280
     1
281
     0
  0
BLOCK_RECORD
  5
94
330
1
100
AcDbSymbolTableRecord
100
AcDbBlockTableRecord
  2
Block_2
340
0
102
{BLKREFS
331
95
102
}
 70
     0
280
     1
281
     0
  0
BLOCK_RECORD
  5
9C
330
1
100
AcDbSymbolTableRecord
100
AcDbBlockTableRecord
  2
Block_3
340
0
102
{BLKREFS
331
9D
102
}
 70
     0
280
     1
281
     0
  0
BLOCK_RECORD
  5
A0
330
1
100
AcDbSymbolTableRecord
100
AcDbBlockTableRecord
  2
Block_4
340
0
102
{BLKREFS
331
A1
102
}
 70
     0
280
     1
281
     0
  0
BLOCK_RECORD
  5
AA
330
1
100
AcDbSymbolTableRecord
100
AcDbBlockTableRecord
  2
Block_5
340
0
102
{BLKREFS
331
AB
102
}
 70
     0
280
     1
281
     0
  0
BLOCK_RECORD
  5
B6
330
1
100
AcDbSymbolTableRecord
100
AcDbBlockTableRecord
  2
Block_6
340
0
102
{BLKREFS
331
B7
102
}
 70
     0
280
     1
281
     0
  0
BLOCK_RECORD
  5
BA
330
1
100
AcDbSymbolTableRecord
100
AcDbBlockTableRecord
  2
Block_7
340
0
102
{BLKREFS
331
BB
102
}
 70
     0
280
     1
281
     0
  0
BLOCK_RECORD
  5
CA
330
1
100
AcDbSymbolTableRecord
100
AcDbBlockTableRecord
  2
Block_8
340
0
102
{BLKREFS
331
CB
102
}
 70
     0
280
     1
281
     0
  0
BLOCK_RECORD
  5
CE
330
1
100
AcDbSymbolTableRecord
100
AcDbBlockTableRecord
  2
Block_9
340
0
102
{BLKREFS
331
CF
102
}
 70
     0
280
     1
281
     0
  0
BLOCK_RECORD
  5
DB
330
1
100
AcDbSymbolTableRecord
100
AcDbBlockTableRecord
  2
Block_10
340
0
102
{BLKREFS
331
DC
102
}
 70
     0
280
     1
281
     0
  0
BLOCK_RECORD
  5
E2
330
1
100
AcDbSymbolTableRecord
100
AcDbBlockTableRecord
  2
Block_11
340
0
102
{BLKREFS
331
E3
102
}
 70
     0
280
     1
281
     0
  0
BLOCK_RECORD
  5
E6
330
1
100
AcDbSymbolTableRecord
100
AcDbBlockTableRecord
  2
Block_12
340
0
102
{BLKREFS
331
E7
102
}
 70
     0
280
     1
281
     0
  0
ENDTAB
  0
ENDSEC
  0
SECTION
  2
BLOCKS
  0
BLOCK
  5
71
330
70
100
AcDbEntity
  8
0
100
AcDbBlockBegin
  2
*Model_Space
 70
     0
 10
0.0
 20
0.0
 30
0.0
  3
*Model_Space
  1

  0
ENDBLK
  5
72
330
70
100
AcDbEntity
  8
0
100
AcDbBlockEnd
  0
BLOCK
  5
6D
330
6C
100
AcDbEntity
 67
     1
  8
0
100
AcDbBlockBegin
  2
*Paper_Space
 70
     0
 10
0.0
 20
0.0
 30
0.0
  3
*Paper_Space
  1

  0
ENDBLK
  5
6E
330
6C
100
AcDbEntity
 67
     1
  8
0
100
AcDbBlockEnd
  0
BLOCK
  5
75
330
74
100
AcDbEntity
 67
     1
  8
0
100
AcDbBlockBegin
  2
*Paper_Space0
 70
     0
 10
0.0
 20
0.0
 30
0.0
  3
*Paper_Space0
  1

  0
ENDBLK
  5
76
330
74
100
AcDbEntity
 67
     1
  8
0
100
AcDbBlockEnd
  0
BLOCK
  5
7B
330
79
100
AcDbEntity
  8
0
100
AcDbBlockBegin
  2
Block_0
 70
     0
 10
0.0
 20
0.0
 30
0.0
  3
Block_0
  1

  0
INSERT
  5
7E
330
79
100
AcDbEntity
  8
レイヤー 1
100
AcDbBlockReference
  2
Block_1
 10
0.0
 20
0.0
 30
0.0
  0
ENDBLK
  5
7C
330
79
100
AcDbEntity
  8
0
100
AcDbBlockEnd
  0
BLOCK
  5
7F
330
7D
100
AcDbEntity
  8
0
100
AcDbBlockBegin
  2
Block_1
 70
     0
 10
0.0
 20
0.0
 30
0.0
  3
Block_1
  1

  0
LINE
  5
81
330
7D
100
AcDbEntity
  8
レイヤー 1
 62
   250
420
  2299925
370
    25
100
AcDbLine
 10
93.31658619575703
 20
-144.0069840874149
 30
0.0
 11
97.31659369475643
 21
-144.0069840874149
 31
0.0
  0
LINE
  5
82
330
7D
100
AcDbEntity
  8
レイヤー 1
 62
   250
420
  2299925
370
    25
100
AcDbLine
 10
96.31659734784122
 20
-145.0067563397619
 30
0.0
 11
96.31659734784122
 21
-153.0068131281055
 31
0.0
  0
LINE
  5
83
330
7D
100
AcDbEntity
  8
レイヤー 1
 62
   250
420
  2299925
370
    25
100
AcDbLine
 10
93.31658619575703
 20
-145.0067562841305
 30
0.0
 11
96.31659730611794
 21
-145.0067562841305
 31
0.0
  0
LINE
  5
84
330
7D
100
AcDbEntity
  8
レイヤー 1
 62
   250
420
  2299925
370
    25
100
AcDbLine
 10
93.31658619575703
 20
-144.0069840874149
 30
0.0
 11
93.31658619575703
 21
-145.0067562841305
 31
0.0
  0
LINE
  5
85
330
7D
100
AcDbEntity
  8
レイヤー 1
 62
   250
420
  2299925
370
    25
100
AcDbLine
 10
97.31659373159573
 20
-144.006984143046
 30
0.0
 11
97.31659373159573
 21
-152.0071342672471
 31
0.0
  0
LINE
  5
86
330
7D
100
AcDbEntity
  8
レイヤー 1
 62
   250
420
  2299925
370
    25
100
AcDbLine
 10
113.3165694171345
 20
-152.0071342672471
 30
0.0
 11
113.3165694171345
 21
-152.4071137014872
 31
0.0
  0
LINE
  5
87
330
7D
100
AcDbEntity
  8
レイヤー 1
 62
   250
420
  2299925
370
    25
100
AcDbLine
 10
97.31659373647969
 20
-152.0071342672471
 30
0.0
 11
113.3165694171345
 21
-152.0071342672471
 31
0.0
  0
LINE
  5
88
330
7D
100
AcDbEntity
  8
レイヤー 1
 62
   250
420
  2299925
370
    25
100
AcDbLine
 10
113.3165694171345
 20
-152.4071137014872
 30
0.0
 11
96.31659734784122
 21
-153.0068131281055
 31
0.0
  0
SPLINE
  5
89
330
7D
100
AcDbEntity
  8
レイヤー 1
 62
   250
420
  2299925
370
     9
100
AcDbSpline
210
0.0
220
0.0
230
1.0
 70
    11
 71
     3
 72
    17
 73
    13
 74
     0
 42
0.0000000001
 43
0.0000000001
 40
0.0
 40
0.0
 40
0.0
 40
0.0
 40
1.0
 40
1.0
 40
1.0
 40
2.0
 40
2.0
 40
2.0
 40
3.0
 40
3.0
 40
3.0
 40
4.0
 40
4.0
 40
4.0
 40
4.0
 10
117.4169417870105
 20
-144.0069840874149
 30
0.0
 10
117.4169417870105
 20
-143.9517038110474
 30
0.0
 10
117.3721390092438
 20
-143.9069010344127
 30
0.0
 10
117.3163284817589
 20
-143.9069010344127
 30
0.0
 10
117.2612245942758
 20
-143.9069010344127
 30
0.0
 10
117.216421817641
 20
-143.9517038110474
 30
0.0
 10
117.216421817641
 20
-144.0069840874149
 30
0.0
 10
117.216421817641
 20
-144.0622643637823
 30
0.0
 10
117.2612245942758
 20
-144.1070671404168
 30
0.0
 10
117.3163284817589
 20
-144.1070671404168
 30
0.0
 10
117.3721390092438
 20
-144.1070671404168
 30
0.0
 10
117.4169417870105
 20
-144.0622643637823
 30
0.0
 10
117.4169417870105
 20
-144.0069840874149
 30
0.0
  0
SPLINE
  5
8A
330
7D
100
AcDbEntity
  8
レイヤー 1
 62
   250
420
  2299925
370
     9
100
AcDbSpline
210
0.0
220
0.0
230
1.0
 70
     9
 71
     3
 72
    17
 73
    13
 74
     0
 42
0.0000000001
 43
0.0000000001
 40
0.0
 40
0.0
 40
0.0
 40
0.0
 40
1.0
 40
1.0
 40
1.0
 40
2.0
 40
2.0
 40
2.0
 40
3.0
 40
3.0
 40
3.0
 40
4.0
 40
4.0
 40
4.0
 40
4.0
 10
117.4169417870105
 20
-152.0071342672471
 30
0.0
 10
117.4169417870105
 20
-151.9516776019952
 30
0.0
 10
117.3721390092438
 20
-151.9068748253605
 30
0.0
 10
117.3163284817589
 20
-151.9068748253605
 30
0.0
 10
117.2612245942758
 20
-151.9068748253605
 30
0.0
 10
117.216421817641
 20
-151.9516776019952
 30
0.0
 10
117.216421817641
 20
-152.0071342672471
 30
0.0
 10
117.216421817641
 20
-152.0622381547295
 30
0.0
 10
117.2612245942758
 20
-152.1070409313649
 30
0.0
 10
117.3163284817589
 20
-152.1070409313649
 30
0.0
 10
117.3721390092438
 20
-152.1070409313649
 30
0.0
 10
117.4169417870105
 20
-152.0622381547295
 30
0.0
 10
117.4169417870105
 20
-152.0071342672471
 30
0.0
  0
SPLINE
  5
8B
330
7D
100
AcDbEntity
  8
レイヤー 1
 62
   250
420
  2299925
370
     9
100
AcDbSpline
210
0.0
220
0.0
230
1.0
 70
     9
 71
     3
 72
    17
 73
    13
 74
     0
 42
0.0000000001
 43
0.0000000001
 40
0.0
 40
0.0
 40
0.0
 40
0.0
 40
1.0
 40
1.0
 40
1.0
 40
2.0
 40
2.0
 40
2.0
 40
3.0
 40
3.0
 40
3.0
 40
4.0
 40
4.0
 40
4.0
 40
4.0
 10
117.4169417870105
 20
-152.4071137014872
 30
0.0
 10
117.4169417870105
 20
-152.3516570362353
 30
0.0
 10
117.3721390092438
 20
-152.3068542596006
 30
0.0
 10
117.3163284817589
 20
-152.3068542596006
 30
0.0
 10
117.2612245942758
 20
-152.3068542596006
 30
0.0
 10
117.216421817641
 20
-152.3516570362353
 30
0.0
 10
117.216421817641
 20
-152.4071137014872
 30
0.0
 10
117.216421817641
 20
-152.4622175889703
 30
0.0
 10
117.2612245942758
 20
-152.507020365605
 30
0.0
 10
117.3163284817589
 20
-152.507020365605
 30
0.0
 10
117.3721390092438
 20
-152.507020365605
 30
0.0
 10
117.4169417870105
 20
-152.4622175889703
 30
0.0
 10
117.4169417870105
 20
-152.4071137014872
 30
0.0
  0
CIRCLE
  5
8C
330
7D
100
AcDbEntity
  8
レイヤー 1
 62
   250
420
  2299925
370
     9
100
AcDbCircle
 10
113.3165694171345
 20
-157.1067485815894
 30
0.0
 40
0.099906664118076
  0
SPLINE
  5
8D
330
7D
100
AcDbEntity
  8
レイヤー 1
 62
   250
420
  2299925
370
     9
100
AcDbSpline
210
0.0
220
0.0
230
1.0
 70
     9
 71
     3
 72
    17
 73
    13
 74
     0
 42
0.0000000001
 43
0.0000000001
 40
0.0
 40
0.0
 40
0.0
 40
0.0
 40
1.0
 40
1.0
 40
1.0
 40
2.0
 40
2.0
 40
2.0
 40
3.0
 40
3.0
 40
3.0
 40
4.0
 40
4.0
 40
4.0
 40
4.0
 10
93.41666925128723
 20
-157.1067485815895
 30
0.0
 10
93.41666925128723
 20
-157.051603425659
 30
0.0
 10
93.37186647352051
 20
-157.006841917471
 30
0.0
 10
93.31658619575703
 20
-157.006841917471
 30
0.0
 10
93.26130591799291
 20
-157.006841917471
 30
0.0
 10
93.21667952911507
 20
-157.051603425659
 30
0.0
 10
93.21667952911507
 20
-157.1067485815895
 30
0.0
 10
93.21667952911507
 20
-157.1618524690726
 30
0.0
 10
93.26130591799291
 20
-157.2066552457074
 30
0.0
 10
93.31658619575703
 20
-157.2066552457074
 30
0.0
 10
93.37186647352051
 20
-157.2066552457074
 30
0.0
 10
93.41666925128723
 20
-157.1618524690726
 30
0.0
 10
93.41666925128723
 20
-157.1067485815895
 30
0.0
  0
SPLINE
  5
8E
330
7D
100
AcDbEntity
  8
レイヤー 1
 62
   250
420
  2299925
370
     9
100
AcDbSpline
210
0.0
220
0.0
230
1.0
 70
    11
 71
     3
 72
    17
 73
    13
 74
     0
 42
0.0000000001
 43
0.0000000001
 40
0.0
 40
0.0
 40
0.0
 40
0.0
 40
1.0
 40
1.0
 40
1.0
 40
2.0
 40
2.0
 40
2.0
 40
3.0
 40
3.0
 40
3.0
 40
4.0
 40
4.0
 40
4.0
 40
4.0
 10
91.36681869624387
 20
-144.0069840874149
 30
0.0
 10
91.36681869624387
 20
-143.9517038110474
 30
0.0
 10
91.32205119625533
 20
-143.9069010344127
 30
0.0
 10
91.26691202960289
 20
-143.9069010344127
 30
0.0
 10
91.21163175183845
 20
-143.9069010344127
 30
0.0
 10
91.16686425184925
 20
-143.9517038110474
 30
0.0
 10
91.16686425184925
 20
-144.0069840874149
 30
0.0
 10
91.16686425184925
 20
-144.0622643637823
 30
0.0
 10
91.21163175183845
 20
-144.1070671404168
 30
0.0
 10
91.26691202960289
 20
-144.1070671404168
 30
0.0
 10
91.32205119625533
 20
-144.1070671404168
 30
0.0
 10
91.36681869624387
 20
-144.0622643637823
 30
0.0
 10
91.36681869624387
 20
-144.0069840874149
 30
0.0
  0
SPLINE
  5
8F
330
7D
100
AcDbEntity
  8
レイヤー 1
 62
   250
420
  2299925
370
     9
100
AcDbSpline
210
0.0
220
0.0
230
1.0
 70
     9
 71
     3
 72
    17
 73
    13
 74
     0
 42
0.0000000001
 43
0.0000000001
 40
0.0
 40
0.0
 40
0.0
 40
0.0
 40
1.0
 40
1.0
 40
1.0
 40
2.0
 40
2.0
 40
2.0
 40
3.0
 40
3.0
 40
3.0
 40
4.0
 40
4.0
 40
4.0
 40
4.0
 10
91.36681869624387
 20
-145.0067562841305
 30
0.0
 10
91.36681869624387
 20
-144.9516171188709
 30
0.0
 10
91.32205119625533
 20
-144.906849620013
 30
0.0
 10
91.26691202960289
 20
-144.906849620013
 30
0.0
 10
91.21163175183845
 20
-144.906849620013
 30
0.0
 10
91.16686425184925
 20
-144.9516171188709
 30
0.0
 10
91.16686425184925
 20
-145.0067562841305
 30
0.0
 10
91.16686425184925
 20
-145.062212949383
 30
0.0
 10
91.21163175183845
 20
-145.1070157260174
 30
0.0
 10
91.26691202960289
 20
-145.1070157260174
 30
0.0
 10
91.32205119625533
 20
-145.1070157260174
 30
0.0
 10
91.36681869624387
 20
-145.062212949383
 30
0.0
 10
91.36681869624387
 20
-145.0067562841305
 30
0.0
  0
SPLINE
  5
90
330
7D
100
AcDbEntity
  8
レイヤー 1
 62
   250
420
  2299925
370
     9
100
AcDbSpline
210
0.0
220
0.0
230
1.0
 70
     9
 71
     3
 72
    17
 73
    13
 74
     0
 42
0.0000000001
 43
0.0000000001
 40
0.0
 40
0.0
 40
0.0
 40
0.0
 40
1.0
 40
1.0
 40
1.0
 40
2.0
 40
2.0
 40
2.0
 40
3.0
 40
3.0
 40
3.0
 40
4.0
 40
4.0
 40
4.0
 40
4.0
 10
96.41664512559358
 20
-157.1067485815895
 30
0.0
 10
96.41664512559358
 20
-157.051603425659
 30
0.0
 10
96.371877625605
 20
-157.006841917471
 30
0.0
 10
96.31659734784122
 20
-157.006841917471
 30
0.0
 10
96.26145818118814
 20
-157.006841917471
 30
0.0
 10
96.21669068119892
 20
-157.051603425659
 30
0.0
 10
96.21669068119892
 20
-157.1067485815895
 30
0.0
 10
96.21669068119892
 20
-157.1618524690726
 30
0.0
 10
96.26145818118814
 20
-157.2066552457074
 30
0.0
 10
96.31659734784122
 20
-157.2066552457074
 30
0.0
 10
96.371877625605
 20
-157.2066552457074
 30
0.0
 10
96.41664512559358
 20
-157.1618524690726
 30
0.0
 10
96.41664512559358
 20
-157.1067485815895
 30
0.0
  0
LINE
  5
91
330
7D
100
AcDbEntity
  8
レイヤー 1
 62
   250
420
  2299925
370
     9
100
AcDbLine
 10
93.31676258464559
 20
-157.1067485815895
 30
0.0
 11
96.31659730611794
 21
-157.1067485815895
 31
0.0
  0
LINE
  5
92
330
7D
100
AcDbEntity
  8
レイヤー 1
 62
   250
420
  2299925
370
     9
100
AcDbLine
 10
93.31658619575703
 20
-147.6469098835171
 30
0.0
 11
93.31658619575703
 21
-158.1071910560661
 31
0.0
  0
LINE
  5
93
330
7D
100
AcDbEntity
  8
レイヤー 1
 62
   250
420
  2299925
370
     9
100
AcDbLine
 10
96.31659734784122
 20
-155.6467072299494
 30
0.0
 11
96.31659734784122
 21
-158.1071910560661
 31
0.0
  0
INSERT
  5
95
330
7D
100
AcDbEntity
  8
レイヤー 1
100
AcDbBlockReference
  2
Block_2
 10
0.0
 20
0.0
 30
0.0
  0
LINE
  5
9A
330
7D
100
AcDbEntity
  8
レイヤー 1
 62
   250
420
  2299925
370
     9
100
AcDbLine
 10
96.31659734784122
 20
-157.1067485815895
 30
0.0
 11
113.3165694171345
 21
-157.1067485815895
 31
0.0
  0
LINE
  5
9B
330
7D
100
AcDbEntity
  8
レイヤー 1
 62
   250
420
  2299925
370
     9
100
AcDbLine
 10
113.3165694171345
 20
-154.946655025587
 30
0.0
 11
113.3165694171345
 21
-158.1071910560661
 31
0.0
  0
INSERT
  5
9D
330
7D
100
AcDbEntity
  8
レイヤー 1
100
AcDbBlockReference
  2
Block_3
 10
0.0
 20
0.0
 30
0.0
  0
LINE
  5
A8
330
7D
100
AcDbEntity
  8
レイヤー 1
 62
   250
420
  2299925
370
     9
100
AcDbLine
 10
117.3163284817589
 20
-152.0071342672471
 30
0.0
 11
117.3163284817589
 21
-144.006984143046
 31
0.0
  0
LINE
  5
A9
330
7D
100
AcDbEntity
  8
レイヤー 1
 62
   250
420
  2299925
370
     9
100
AcDbLine
 10
99.95666429137529
 20
-144.0069840874149
 30
0.0
 11
118.3167709562354
 21
-144.0069840874149
 31
0.0
  0
INSERT
  5
AB
330
7D
100
AcDbEntity
  8
レイヤー 1
100
AcDbBlockReference
  2
Block_5
 10
0.0
 20
0.0
 30
0.0
  0
LINE
  5
B2
330
7D
100
AcDbEntity
  8
レイヤー 1
 62
   250
420
  2299925
370
     9
100
AcDbLine
 10
117.3163284817589
 20
-152.4071137014872
 30
0.0
 11
117.3163284817589
 21
-153.4068858982031
 31
0.0
  0
LINE
  5
B3
330
7D
100
AcDbEntity
  8
レイヤー 1
 62
   250
420
  2299925
370
     9
100
AcDbLine
 10
117.3163284817589
 20
-152.0071342672471
 30
0.0
 11
117.3163284817589
 21
-152.4071137014872
 31
0.0
  0
LINE
  5
B4
330
7D
100
AcDbEntity
  8
レイヤー 1
 62
   250
420
  2299925
370
     9
100
AcDbLine
 10
115.8562871301187
 20
-152.0071342672471
 30
0.0
 11
118.3167709562354
 21
-152.0071342672471
 31
0.0
  0
LINE
  5
B5
330
7D
100
AcDbEntity
  8
レイヤー 1
 62
   250
420
  2299925
370
     9
100
AcDbLine
 10
115.8562871301187
 20
-152.4071137014872
 30
0.0
 11
118.3167709562354
 21
-152.4071137014872
 31
0.0
  0
INSERT
  5
B7
330
7D
100
AcDbEntity
  8
レイヤー 1
100
AcDbBlockReference
  2
Block_6
 10
0.0
 20
0.0
 30
0.0
  0
LINE
  5
C6
330
7D
100
AcDbEntity
  8
レイヤー 1
 62
   250
420
  2299925
370
     9
100
AcDbLine
 10
91.26691202960289
 20
-144.0069840874149
 30
0.0
 11
91.26691202960289
 21
-143.0070355018146
 31
0.0
  0
LINE
  5
C7
330
7D
100
AcDbEntity
  8
レイヤー 1
 62
   250
420
  2299925
370
     9
100
AcDbLine
 10
91.26691202960289
 20
-144.0069840874149
 30
0.0
 11
91.26691202960289
 21
-146.0068459808386
 31
0.0
  0
LINE
  5
C8
330
7D
100
AcDbEntity
  8
レイヤー 1
 62
   250
420
  2299925
370
     9
100
AcDbLine
 10
92.72677702923706
 20
-144.0069840874149
 30
0.0
 11
90.26682230763011
 21
-144.0069840874149
 31
0.0
  0
LINE
  5
C9
330
7D
100
AcDbEntity
  8
レイヤー 1
 62
   250
420
  2299925
370
     9
100
AcDbLine
 10
92.72677702923706
 20
-145.0067562841305
 30
0.0
 11
90.26682230763011
 21
-145.0067562841305
 31
0.0
  0
INSERT
  5
CB
330
7D
100
AcDbEntity
  8
レイヤー 1
100
AcDbBlockReference
  2
Block_8
 10
0.0
 20
0.0
 30
0.0
  0
ENDBLK
  5
80
330
7D
100
AcDbEntity
  8
0
100
AcDbBlockEnd
  0
BLOCK
  5
96
330
94
100
AcDbEntity
  8
0
100
AcDbBlockBegin
  2
Block_2
 70
     0
 10
0.0
 20
0.0
 30
0.0
  3
Block_2
  1

  0
SPLINE
  5
98
330
94
100
AcDbEntity
  8
レイヤー 1
100
AcDbSpline
210
0.0
220
0.0
230
1.0
 70
     9
 71
     3
 72
    62
 73
    58
 74
     0
 42
0.0000000001
 43
0.0000000001
 40
0.0
 40
0.0
 40
0.0
 40
0.0
 40
1.0
 40
1.0
 40
1.0
 40
2.0
 40
2.0
 40
2.0
 40
3.0
 40
3.0
 40
3.0
 40
4.0
 40
4.0
 40
4.0
 40
5.0
 40
5.0
 40
5.0
 40
6.0
 40
6.0
 40
6.0
 40
7.0
 40
7.0
 40
7.0
 40
8.0
 40
8.0
 40
8.0
 40
9.0
 40
9.0
 40
9.0
 40
10.0
 40
10.0
 40
10.0
 40
11.0
 40
11.0
 40
11.0
 40
12.0
 40
12.0
 40
12.0
 40
13.0
 40
13.0
 40
13.0
 40
14.0
 40
14.0
 40
14.0
 40
15.0
 40
15.0
 40
15.0
 40
16.0
 40
16.0
 40
16.0
 40
17.0
 40
17.0
 40
17.0
 40
18.0
 40
18.0
 40
18.0
 40
19.0
 40
19.0
 40
19.0
 40
19.0
 10
94.78336179271041
 20
-156.5113769139971
 30
0.0
 10
94.70205753925851
 20
-156.5113769139971
 30
0.0
 10
94.51636689260356
 20
-156.4903618315371
 30
0.0
 10
94.40991344210933
 20
-156.3043266753336
 30
0.0
 10
94.34686819472926
 20
-156.1920165625145
 30
0.0
 10
94.34325084446975
 20
-156.0927978125393
 30
0.0
 10
94.33963349421023
 20
-156.0080484636021
 30
0.0
 10
94.33963349421023
 20
-156.0080484636021
 30
0.0
 10
94.52721894338209
 20
-156.0080484636021
 30
0.0
 10
94.52721894338209
 20
-156.0080484636021
 30
0.0
 10
94.52894149112472
 20
-156.082118016535
 30
0.0
 10
94.53807099416062
 20
-156.3167290190805
 30
0.0
 10
94.77957218767663
 20
-156.3167290190805
 30
0.0
 10
94.89670543417513
 20
-156.3167290190805
 30
0.0
 10
95.02658553396905
 20
-156.2471380902785
 30
0.0
 10
95.02658553396905
 20
-156.0187282596064
 30
0.0
 10
95.02658553396905
 20
-155.902284032205
 30
0.0
 10
94.9942016364077
 20
-155.8537081858629
 30
0.0
 10
94.96732989162275
 20
-155.8220133073986
 30
0.0
 10
94.90394013469416
 20
-155.7479437544658
 30
0.0
 10
94.80506589426749
 20
-155.7351969011704
 30
0.0
 10
94.75786808611957
 20
-155.7351969011704
 30
0.0
 10
94.74167613733888
 20
-155.7351969011704
 30
0.0
 10
94.71101478752016
 20
-155.7372639584615
 30
0.0
 10
94.68758813822047
 20
-155.7413980730438
 30
0.0
 10
94.68758813822047
 20
-155.7413980730438
 30
0.0
 10
94.68758813822047
 20
-155.5467501781272
 30
0.0
 10
94.68758813822047
 20
-155.5467501781272
 30
0.0
 10
94.72031654533035
 20
-155.5532958595492
 30
0.0
 10
94.75614553837694
 20
-155.5553629168403
 30
0.0
 10
94.76165769115334
 20
-155.5553629168403
 30
0.0
 10
94.81746823801438
 20
-155.5553629168403
 30
0.0
 10
94.98696693588867
 20
-155.5340033248318
 30
0.0
 10
94.98696693588867
 20
-155.2973252649951
 30
0.0
 10
94.98696693588867
 20
-155.1195583379562
 30
0.0
 10
94.87534584216659
 20
-155.0644368101922
 30
0.0
 10
94.78129473541926
 20
-155.0644368101922
 30
0.0
 10
94.55598549068392
 20
-155.0644368101922
 30
0.0
 10
94.5487507901649
 20
-155.2973252649951
 30
0.0
 10
94.54530569467966
 20
-155.3689832510883
 30
0.0
 10
94.54530569467966
 20
-155.3689832510883
 30
0.0
 10
94.37218964654585
 20
-155.3689832510883
 30
0.0
 10
94.37218964654585
 20
-155.3689832510883
 30
0.0
 10
94.37925209229062
 20
-155.2442707945222
 30
0.0
 10
94.40285099636456
 20
-154.8677218579844
 30
0.0
 10
94.79231904097206
 20
-154.8677218579844
 30
0.0
 10
94.98352184040342
 20
-154.8677218579844
 30
0.0
 10
95.18884953132433
 20
-154.9948458813902
 30
0.0
 10
95.18884953132433
 20
-155.2907795835731
 30
0.0
 10
95.18884953132433
 20
-155.4771592493251
 30
0.0
 10
95.10788978742095
 20
-155.5594970314226
 30
0.0
 10
95.02314043848381
 20
-155.6208197310601
 30
0.0
 10
95.0755058898596
 20
-155.648380494942
 30
0.0
 10
95.23053518669584
 20
-155.7286512197484
 30
0.0
 10
95.23053518669584
 20
-156.005981406311
 30
0.0
 10
95.23053518669584
 20
-156.3442897829625
 30
0.0
 10
95.01935083345003
 20
-156.5113769139971
 30
0.0
 10
94.78336179271041
 20
-156.5113769139971
 30
0.0
  0
HATCH
  5
99
330
94
100
AcDbEntity
  8
レイヤー 1
 62
   250
420
  2299925
440
 33554687
100
AcDbHatch
 10
0.0
 20
0.0
 30
0.0
210
0.0
220
0.0
230
1.0
  2
SOLID
 70
     1
 71
     1
 91
        1
 92
        1
 93
        1
 72
     4
 94
        3
 73
     0
 74
     0
 95
       62
 96
       58
 40
0.0
 40
0.0
 40
0.0
 40
0.0
 40
1.0
 40
1.0
 40
1.0
 40
2.0
 40
2.0
 40
2.0
 40
3.0
 40
3.0
 40
3.0
 40
4.0
 40
4.0
 40
4.0
 40
5.0
 40
5.0
 40
5.0
 40
6.0
 40
6.0
 40
6.0
 40
7.0
 40
7.0
 40
7.0
 40
8.0
 40
8.0
 40
8.0
 40
9.0
 40
9.0
 40
9.0
 40
10.0
 40
10.0
 40
10.0
 40
11.0
 40
11.0
 40
11.0
 40
12.0
 40
12.0
 40
12.0
 40
13.0
 40
13.0
 40
13.0
 40
14.0
 40
14.0
 40
14.0
 40
15.0
 40
15.0
 40
15.0
 40
16.0
 40
16.0
 40
16.0
 40
17.0
 40
17.0
 40
17.0
 40
18.0
 40
18.0
 40
18.0
 40
19.0
 40
19.0
 40
19.0
 40
19.0
 10
94.78336179271041
 20
-156.5113769139971
 10
94.70205753925851
 20
-156.5113769139971
 10
94.51636689260356
 20
-156.4903618315371
 10
94.40991344210933
 20
-156.3043266753336
 10
94.34686819472926
 20
-156.1920165625145
 10
94.34325084446975
 20
-156.0927978125393
 10
94.33963349421023
 20
-156.0080484636021
 10
94.33963349421023
 20
-156.0080484636021
 10
94.52721894338209
 20
-156.0080484636021
 10
94.52721894338209
 20
-156.0080484636021
 10
94.52894149112472
 20
-156.082118016535
 10
94.53807099416062
 20
-156.3167290190805
 10
94.77957218767663
 20
-156.3167290190805
 10
94.89670543417513
 20
-156.3167290190805
 10
95.02658553396905
 20
-156.2471380902785
 10
95.02658553396905
 20
-156.0187282596064
 10
95.02658553396905
 20
-155.902284032205
 10
94.9942016364077
 20
-155.8537081858629
 10
94.96732989162275
 20
-155.8220133073986
 10
94.90394013469416
 20
-155.7479437544658
 10
94.80506589426749
 20
-155.7351969011704
 10
94.75786808611957
 20
-155.7351969011704
 10
94.74167613733888
 20
-155.7351969011704
 10
94.71101478752016
 20
-155.7372639584615
 10
94.68758813822047
 20
-155.7413980730438
 10
94.68758813822047
 20
-155.7413980730438
 10
94.68758813822047
 20
-155.5467501781272
 10
94.68758813822047
 20
-155.5467501781272
 10
94.72031654533035
 20
-155.5532958595492
 10
94.75614553837694
 20
-155.5553629168403
 10
94.76165769115334
 20
-155.5553629168403
 10
94.81746823801438
 20
-155.5553629168403
 10
94.98696693588867
 20
-155.5340033248318
 10
94.98696693588867
 20
-155.2973252649951
 10
94.98696693588867
 20
-155.1195583379562
 10
94.87534584216659
 20
-155.0644368101922
 10
94.78129473541926
 20
-155.0644368101922
 10
94.55598549068392
 20
-155.0644368101922
 10
94.5487507901649
 20
-155.2973252649951
 10
94.54530569467966
 20
-155.3689832510883
 10
94.54530569467966
 20
-155.3689832510883
 10
94.37218964654585
 20
-155.3689832510883
 10
94.37218964654585
 20
-155.3689832510883
 10
94.37925209229062
 20
-155.2442707945222
 10
94.40285099636456
 20
-154.8677218579844
 10
94.79231904097206
 20
-154.8677218579844
 10
94.98352184040342
 20
-154.8677218579844
 10
95.18884953132433
 20
-154.9948458813902
 10
95.18884953132433
 20
-155.2907795835731
 10
95.18884953132433
 20
-155.4771592493251
 10
95.10788978742095
 20
-155.5594970314226
 10
95.02314043848381
 20
-155.6208197310601
 10
95.0755058898596
 20
-155.648380494942
 10
95.23053518669584
 20
-155.7286512197484
 10
95.23053518669584
 20
-156.005981406311
 10
95.23053518669584
 20
-156.3442897829625
 10
95.01935083345003
 20
-156.5113769139971
 10
94.78336179271041
 20
-156.5113769139971
 97
        0
 97
        1
330
98
 75
     2
 76
     1
 98
        1
 10
0.0
 20
0.0
450
        0
451
        0
460
0.0
461
0.0
452
        0
462
0.0
453
        0
470

  0
ENDBLK
  5
97
330
94
100
AcDbEntity
  8
0
100
AcDbBlockEnd
  0
BLOCK
  5
9E
330
9C
100
AcDbEntity
  8
0
100
AcDbBlockBegin
  2
Block_3
 70
     0
 10
0.0
 20
0.0
 30
0.0
  3
Block_3
  1

  0
INSERT
  5
A1
330
9C
100
AcDbEntity
  8
レイヤー 1
100
AcDbBlockReference
  2
Block_4
 10
0.0
 20
0.0
 30
0.0
  0
ENDBLK
  5
9F
330
9C
100
AcDbEntity
  8
0
100
AcDbBlockEnd
  0
BLOCK
  5
A2
330
A0
100
AcDbEntity
  8
0
100
AcDbBlockBegin
  2
Block_4
 70
     0
 10
0.0
 20
0.0
 30
0.0
  3
Block_4
  1

  0
SPLINE
  5
A4
330
A0
100
AcDbEntity
  8
レイヤー 1
100
AcDbSpline
210
0.0
220
0.0
230
1.0
 70
    11
 71
     3
 72
    26
 73
    22
 74
     0
 42
0.0000000001
 43
0.0000000001
 40
0.0
 40
0.0
 40
0.0
 40
0.0
 40
1.0
 40
1.0
 40
1.0
 40
2.0
 40
2.0
 40
2.0
 40
3.0
 40
3.0
 40
3.0
 40
4.0
 40
4.0
 40
4.0
 40
5.0
 40
5.0
 40
5.0
 40
6.0
 40
6.0
 40
6.0
 40
7.0
 40
7.0
 40
7.0
 40
7.0
 10
104.274772109348
 20
-156.4610785199125
 30
0.0
 10
104.274772109348
 20
-156.4610785199125
 30
0.0
 10
104.274772109348
 20
-155.3569254168899
 30
0.0
 10
104.274772109348
 20
-155.3569254168899
 30
0.0
 10
104.274772109348
 20
-155.3569254168899
 30
0.0
 10
103.993307808203
 20
-155.3569254168899
 30
0.0
 10
103.993307808203
 20
-155.3569254168899
 30
0.0
 10
103.993307808203
 20
-155.3569254168899
 30
0.0
 10
103.993307808203
 20
-155.2087863110242
 30
0.0
 10
103.993307808203
 20
-155.2087863110242
 30
0.0
 10
104.2764946570906
 20
-155.1939724004376
 30
0.0
 10
104.316113255171
 20
-155.0310193839853
 30
0.0
 10
104.3412624522133
 20
-154.916642213875
 30
0.0
 10
104.3412624522133
 20
-154.916642213875
 30
0.0
 10
104.4659749087793
 20
-154.916642213875
 30
0.0
 10
104.4659749087793
 20
-154.916642213875
 30
0.0
 10
104.4659749087793
 20
-154.916642213875
 30
0.0
 10
104.4659749087793
 20
-156.4610785199125
 30
0.0
 10
104.4659749087793
 20
-156.4610785199125
 30
0.0
 10
104.4659749087793
 20
-156.4610785199125
 30
0.0
 10
104.274772109348
 20
-156.4610785199125
 30
0.0
 10
104.274772109348
 20
-156.4610785199125
 30
0.0
  0
HATCH
  5
A5
330
A0
100
AcDbEntity
  8
レイヤー 1
 62
   250
420
  2299925
440
 33554687
100
AcDbHatch
 10
0.0
 20
0.0
 30
0.0
210
0.0
220
0.0
230
1.0
  2
SOLID
 70
     1
 71
     1
 91
        1
 92
        1
 93
        1
 72
     4
 94
        3
 73
     0
 74
     0
 95
       26
 96
       22
 40
0.0
 40
0.0
 40
0.0
 40
0.0
 40
1.0
 40
1.0
 40
1.0
 40
2.0
 40
2.0
 40
2.0
 40
3.0
 40
3.0
 40
3.0
 40
4.0
 40
4.0
 40
4.0
 40
5.0
 40
5.0
 40
5.0
 40
6.0
 40
6.0
 40
6.0
 40
7.0
 40
7.0
 40
7.0
 40
7.0
 10
104.274772109348
 20
-156.4610785199125
 10
104.274772109348
 20
-156.4610785199125
 10
104.274772109348
 20
-155.3569254168899
 10
104.274772109348
 20
-155.3569254168899
 10
104.274772109348
 20
-155.3569254168899
 10
103.993307808203
 20
-155.3569254168899
 10
103.993307808203
 20
-155.3569254168899
 10
103.993307808203
 20
-155.3569254168899
 10
103.993307808203
 20
-155.2087863110242
 10
103.993307808203
 20
-155.2087863110242
 10
104.2764946570906
 20
-155.1939724004376
 10
104.316113255171
 20
-155.0310193839853
 10
104.3412624522133
 20
-154.916642213875
 10
104.3412624522133
 20
-154.916642213875
 10
104.4659749087793
 20
-154.916642213875
 10
104.4659749087793
 20
-154.916642213875
 10
104.4659749087793
 20
-154.916642213875
 10
104.4659749087793
 20
-156.4610785199125
 10
104.4659749087793
 20
-156.4610785199125
 10
104.4659749087793
 20
-156.4610785199125
 10
104.274772109348
 20
-156.4610785199125
 10
104.274772109348
 20
-156.4610785199125
 97
        0
 97
        1
330
A4
 75
     2
 76
     1
 98
        1
 10
0.0
 20
0.0
450
        0
451
        0
460
0.0
461
0.0
452
        0
462
0.0
453
        0
470

  0
SPLINE
  5
A6
330
A0
100
AcDbEntity
  8
レイヤー 1
100
AcDbSpline
210
0.0
220
0.0
230
1.0
 70
     9
 71
     3
 72
    26
 73
    22
 74
     0
 42
0.0000000001
 43
0.0000000001
 40
0.0
 40
0.0
 40
0.0
 40
0.0
 40
1.0
 40
1.0
 40
1.0
 40
2.0
 40
2.0
 40
2.0
 40
3.0
 40
3.0
 40
3.0
 40
4.0
 40
4.0
 40
4.0
 40
5.0
 40
5.0
 40
5.0
 40
6.0
 40
6.0
 40
6.0
 40
7.0
 40
7.0
 40
7.0
 40
7.0
 10
105.2421549216061
 20
-156.4610785199125
 30
0.0
 10
105.2421549216061
 20
-156.4610785199125
 30
0.0
 10
105.0402723261705
 20
-156.4610785199125
 30
0.0
 10
105.0402723261705
 20
-156.4610785199125
 30
0.0
 10
105.0619764277275
 20
-156.1520534548856
 30
0.0
 10
105.2259629728254
 20
-155.633911093904
 30
0.0
 10
105.572195069093
 20
-155.1281710766693
 30
0.0
 10
105.572195069093
 20
-155.1281710766693
 30
0.0
 10
104.8580267750008
 20
-155.1281710766693
 30
0.0
 10
104.8580267750008
 20
-155.1281710766693
 30
0.0
 10
104.8580267750008
 20
-155.1281710766693
 30
0.0
 10
104.8580267750008
 20
-154.916642213875
 30
0.0
 10
104.8580267750008
 20
-154.916642213875
 30
0.0
 10
104.8580267750008
 20
-154.916642213875
 30
0.0
 10
105.7740776645287
 20
-154.916642213875
 30
0.0
 10
105.7740776645287
 20
-154.916642213875
 30
0.0
 10
105.7740776645287
 20
-154.916642213875
 30
0.0
 10
105.7740776645287
 20
-155.1281710766693
 30
0.0
 10
105.7740776645287
 20
-155.1281710766693
 30
0.0
 10
105.4984700257087
 20
-155.4182481165274
 30
0.0
 10
105.2710937236822
 20
-156.0104600304418
 30
0.0
 10
105.2421549216061
 20
-156.4610785199125
 30
0.0
  0
HATCH
  5
A7
330
A0
100
AcDbEntity
  8
レイヤー 1
 62
   250
420
  2299925
440
 33554687
100
AcDbHatch
 10
0.0
 20
0.0
 30
0.0
210
0.0
220
0.0
230
1.0
  2
SOLID
 70
     1
 71
     1
 91
        1
 92
        1
 93
        1
 72
     4
 94
        3
 73
     0
 74
     0
 95
       26
 96
       22
 40
0.0
 40
0.0
 40
0.0
 40
0.0
 40
1.0
 40
1.0
 40
1.0
 40
2.0
 40
2.0
 40
2.0
 40
3.0
 40
3.0
 40
3.0
 40
4.0
 40
4.0
 40
4.0
 40
5.0
 40
5.0
 40
5.0
 40
6.0
 40
6.0
 40
6.0
 40
7.0
 40
7.0
 40
7.0
 40
7.0
 10
105.2421549216061
 20
-156.4610785199125
 10
105.2421549216061
 20
-156.4610785199125
 10
105.0402723261705
 20
-156.4610785199125
 10
105.0402723261705
 20
-156.4610785199125
 10
105.0619764277275
 20
-156.1520534548856
 10
105.2259629728254
 20
-155.633911093904
 10
105.572195069093
 20
-155.1281710766693
 10
105.572195069093
 20
-155.1281710766693
 10
104.8580267750008
 20
-155.1281710766693
 10
104.8580267750008
 20
-155.1281710766693
 10
104.8580267750008
 20
-155.1281710766693
 10
104.8580267750008
 20
-154.916642213875
 10
104.8580267750008
 20
-154.916642213875
 10
104.8580267750008
 20
-154.916642213875
 10
105.7740776645287
 20
-154.916642213875
 10
105.7740776645287
 20
-154.916642213875
 10
105.7740776645287
 20
-154.916642213875
 10
105.7740776645287
 20
-155.1281710766693
 10
105.7740776645287
 20
-155.1281710766693
 10
105.4984700257087
 20
-155.4182481165274
 10
105.2710937236822
 20
-156.0104600304418
 10
105.2421549216061
 20
-156.4610785199125
 97
        0
 97
        1
330
A6
 75
     2
 76
     1
 98
        1
 10
0.0
 20
0.0
450
        0
451
        0
460
0.0
461
0.0
452
        0
462
0.0
453
        0
470

  0
ENDBLK
  5
A3
330
A0
100
AcDbEntity
  8
0
100
AcDbBlockEnd
  0
BLOCK
  5
AC
330
AA
100
AcDbEntity
  8
0
100
AcDbBlockBegin
  2
Block_5
 70
     0
 10
0.0
 20
0.0
 30
0.0
  3
Block_5
  1

  0
SPLINE
  5
AE
330
AA
100
AcDbEntity
  8
レイヤー 1
100
AcDbSpline
210
0.0
220
0.0
230
1.0
 70
     9
 71
     3
 72
    17
 73
    13
 74
     0
 42
0.0000000001
 43
0.0000000001
 40
0.0
 40
0.0
 40
0.0
 40
0.0
 40
1.0
 40
1.0
 40
1.0
 40
2.0
 40
2.0
 40
2.0
 40
3.0
 40
3.0
 40
3.0
 40
4.0
 40
4.0
 40
4.0
 40
4.0
 10
115.9298746454967
 20
-148.0068141991094
 30
0.0
 10
115.9298746454967
 20
-148.1294595983843
 30
0.0
 10
116.016691051725
 20
-148.2593396981782
 30
0.0
 10
116.2196071758062
 20
-148.2593396981782
 30
0.0
 10
116.4249348667271
 20
-148.2593396981782
 30
0.0
 10
116.5262206739934
 20
-148.1511636999414
 30
0.0
 10
116.5262206739934
 20
-148.0068141991094
 30
0.0
 10
116.5262206739934
 20
-147.8479952972394
 30
0.0
 10
116.4035752747185
 20
-147.7542887000406
 30
0.0
 10
116.2258083476796
 20
-147.7542887000406
 30
0.0
 10
116.0039441984296
 20
-147.7542887000406
 30
0.0
 10
115.9298746454967
 20
-147.8931260480962
 30
0.0
 10
115.9298746454967
 20
-148.0068141991094
 30
0.0
  0
SPLINE
  5
AF
330
AA
100
AcDbEntity
  8
レイヤー 1
100
AcDbSpline
210
0.0
220
0.0
230
1.0
 70
     9
 71
     3
 72
    17
 73
    13
 74
     0
 42
0.0000000001
 43
0.0000000001
 40
0.0
 40
0.0
 40
0.0
 40
0.0
 40
1.0
 40
1.0
 40
1.0
 40
2.0
 40
2.0
 40
2.0
 40
3.0
 40
3.0
 40
3.0
 40
4.0
 40
4.0
 40
4.0
 40
4.0
 10
115.2697943505228
 20
-148.0068141991094
 30
0.0
 10
115.2697943505228
 20
-148.1473740949076
 30
0.0
 10
115.3648789859157
 20
-148.2197211000978
 30
0.0
 10
115.500271238486
 20
-148.2197211000978
 30
0.0
 10
115.6229166377609
 20
-148.2197211000978
 30
0.0
 10
115.7414279224535
 20
-148.1583984004604
 30
0.0
 10
115.7414279224535
 20
-148.0068141991094
 30
0.0
 10
115.7414279224535
 20
-147.8552299977584
 30
0.0
 10
115.6229166377609
 20
-147.793907298121
 30
0.0
 10
115.500271238486
 20
-147.793907298121
 30
0.0
 10
115.3648789859157
 20
-147.793907298121
 30
0.0
 10
115.2697943505228
 20
-147.8679768510538
 30
0.0
 10
115.2697943505228
 20
-148.0068141991094
 30
0.0
  0
SPLINE
  5
B0
330
AA
100
AcDbEntity
  8
レイヤー 1
100
AcDbSpline
210
0.0
220
0.0
230
1.0
 70
     9
 71
     3
 72
    29
 73
    25
 74
     0
 42
0.0000000001
 43
0.0000000001
 40
0.0
 40
0.0
 40
0.0
 40
0.0
 40
1.0
 40
1.0
 40
1.0
 40
2.0
 40
2.0
 40
2.0
 40
3.0
 40
3.0
 40
3.0
 40
4.0
 40
4.0
 40
4.0
 40
5.0
 40
5.0
 40
5.0
 40
6.0
 40
6.0
 40
6.0
 40
7.0
 40
7.0
 40
7.0
 40
8.0
 40
8.0
 40
8.0
 40
8.0
 10
116.72086856891
 20
-148.0068141991094
 30
0.0
 10
116.72086856891
 20
-148.2338459915873
 30
0.0
 10
116.5834092590486
 20
-148.4505424976096
 30
0.0
 10
116.2344210863928
 20
-148.4505424976096
 30
0.0
 10
115.9784504918387
 20
-148.4505424976096
 30
0.0
 10
115.8833658564458
 20
-148.3296196460773
 30
0.0
 10
115.8220431568083
 20
-148.2393581443638
 30
0.0
 10
115.7627875144621
 20
-148.345811594858
 30
0.0
 10
115.6484103443518
 20
-148.4105793899806
 30
0.0
 10
115.4875243851906
 20
-148.4105793899806
 30
0.0
 10
115.2126057654677
 20
-148.4105793899806
 30
0.0
 10
115.0772135128973
 20
-148.2410806921064
 30
0.0
 10
115.0772135128973
 20
-148.0068141991094
 30
0.0
 10
115.0772135128973
 20
-147.7649684960448
 30
0.0
 10
115.2212185041808
 20
-147.6027044986896
 30
0.0
 10
115.4875243851906
 20
-147.6027044986896
 30
0.0
 10
115.6484103443518
 20
-147.6027044986896
 30
0.0
 10
115.7627875144621
 20
-147.6695393511034
 30
0.0
 10
115.8220431568083
 20
-147.7759928015976
 30
0.0
 10
115.8726860604415
 20
-147.7002007009222
 30
0.0
 10
115.9677706958344
 20
-147.5648084483518
 30
0.0
 10
116.2302869718105
 20
-147.5648084483518
 30
0.0
 10
116.6047688510571
 20
-147.5648084483518
 30
0.0
 10
116.72086856891
 20
-147.8028645463826
 30
0.0
 10
116.72086856891
 20
-148.0068141991094
 30
0.0
  0
HATCH
  5
B1
330
AA
100
AcDbEntity
  8
レイヤー 1
 62
   250
420
  2299925
440
 33554687
100
AcDbHatch
 10
0.0
 20
0.0
 30
0.0
210
0.0
220
0.0
230
1.0
  2
SOLID
 70
     1
 71
     1
 91
        3
 92
        1
 93
        1
 72
     4
 94
        3
 73
     0
 74
     0
 95
       17
 96
       13
 40
0.0
 40
0.0
 40
0.0
 40
0.0
 40
1.0
 40
1.0
 40
1.0
 40
2.0
 40
2.0
 40
2.0
 40
3.0
 40
3.0
 40
3.0
 40
4.0
 40
4.0
 40
4.0
 40
4.0
 10
115.9298746454967
 20
-148.0068141991094
 10
115.9298746454967
 20
-148.1294595983843
 10
116.016691051725
 20
-148.2593396981782
 10
116.2196071758062
 20
-148.2593396981782
 10
116.4249348667271
 20
-148.2593396981782
 10
116.5262206739934
 20
-148.1511636999414
 10
116.5262206739934
 20
-148.0068141991094
 10
116.5262206739934
 20
-147.8479952972394
 10
116.4035752747185
 20
-147.7542887000406
 10
116.2258083476796
 20
-147.7542887000406
 10
116.0039441984296
 20
-147.7542887000406
 10
115.9298746454967
 20
-147.8931260480962
 10
115.9298746454967
 20
-148.0068141991094
 97
        0
 97
        1
330
AE
 92
        1
 93
        1
 72
     4
 94
        3
 73
     0
 74
     0
 95
       17
 96
       13
 40
0.0
 40
0.0
 40
0.0
 40
0.0
 40
1.0
 40
1.0
 40
1.0
 40
2.0
 40
2.0
 40
2.0
 40
3.0
 40
3.0
 40
3.0
 40
4.0
 40
4.0
 40
4.0
 40
4.0
 10
115.2697943505228
 20
-148.0068141991094
 10
115.2697943505228
 20
-148.1473740949076
 10
115.3648789859157
 20
-148.2197211000978
 10
115.500271238486
 20
-148.2197211000978
 10
115.6229166377609
 20
-148.2197211000978
 10
115.7414279224535
 20
-148.1583984004604
 10
115.7414279224535
 20
-148.0068141991094
 10
115.7414279224535
 20
-147.8552299977584
 10
115.6229166377609
 20
-147.793907298121
 10
115.500271238486
 20
-147.793907298121
 10
115.3648789859157
 20
-147.793907298121
 10
115.2697943505228
 20
-147.8679768510538
 10
115.2697943505228
 20
-148.0068141991094
 97
        0
 97
        1
330
AF
 92
        1
 93
        1
 72
     4
 94
        3
 73
     0
 74
     0
 95
       29
 96
       25
 40
0.0
 40
0.0
 40
0.0
 40
0.0
 40
1.0
 40
1.0
 40
1.0
 40
2.0
 40
2.0
 40
2.0
 40
3.0
 40
3.0
 40
3.0
 40
4.0
 40
4.0
 40
4.0
 40
5.0
 40
5.0
 40
5.0
 40
6.0
 40
6.0
 40
6.0
 40
7.0
 40
7.0
 40
7.0
 40
8.0
 40
8.0
 40
8.0
 40
8.0
 10
116.72086856891
 20
-148.0068141991094
 10
116.72086856891
 20
-148.2338459915873
 10
116.5834092590486
 20
-148.4505424976096
 10
116.2344210863928
 20
-148.4505424976096
 10
115.9784504918387
 20
-148.4505424976096
 10
115.8833658564458
 20
-148.3296196460773
 10
115.8220431568083
 20
-148.2393581443638
 10
115.7627875144621
 20
-148.345811594858
 10
115.6484103443518
 20
-148.4105793899806
 10
115.4875243851906
 20
-148.4105793899806
 10
115.2126057654677
 20
-148.4105793899806
 10
115.0772135128973
 20
-148.2410806921064
 10
115.0772135128973
 20
-148.0068141991094
 10
115.0772135128973
 20
-147.7649684960448
 10
115.2212185041808
 20
-147.6027044986896
 10
115.4875243851906
 20
-147.6027044986896
 10
115.6484103443518
 20
-147.6027044986896
 10
115.7627875144621
 20
-147.6695393511034
 10
115.8220431568083
 20
-147.7759928015976
 10
115.8726860604415
 20
-147.7002007009222
 10
115.9677706958344
 20
-147.5648084483518
 10
116.2302869718105
 20
-147.5648084483518
 10
116.6047688510571
 20
-147.5648084483518
 10
116.72086856891
 20
-147.8028645463826
 10
116.72086856891
 20
-148.0068141991094
 97
        0
 97
        1
330
B0
 75
     2
 76
     1
 98
        1
 10
0.0
 20
0.0
450
        0
451
        0
460
0.0
461
0.0
452
        0
462
0.0
453
        0
470

  0
ENDBLK
  5
AD
330
AA
100
AcDbEntity
  8
0
100
AcDbBlockEnd
  0
BLOCK
  5
B8
330
B6
100
AcDbEntity
  8
0
100
AcDbBlockBegin
  2
Block_6
 70
     0
 10
0.0
 20
0.0
 30
0.0
  3
Block_6
  1

  0
INSERT
  5
BB
330
B6
100
AcDbEntity
  8
レイヤー 1
100
AcDbBlockReference
  2
Block_7
 10
0.0
 20
0.0
 30
0.0
  0
ENDBLK
  5
B9
330
B6
100
AcDbEntity
  8
0
100
AcDbBlockEnd
  0
BLOCK
  5
BC
330
BA
100
AcDbEntity
  8
0
100
AcDbBlockBegin
  2
Block_7
 70
     0
 10
0.0
 20
0.0
 30
0.0
  3
Block_7
  1

  0
SPLINE
  5
BE
330
BA
100
AcDbEntity
  8
レイヤー 1
100
AcDbSpline
210
0.0
220
0.0
230
1.0
 70
     9
 71
     3
 72
    17
 73
    13
 74
     0
 42
0.0000000001
 43
0.0000000001
 40
0.0
 40
0.0
 40
0.0
 40
0.0
 40
1.0
 40
1.0
 40
1.0
 40
2.0
 40
2.0
 40
2.0
 40
3.0
 40
3.0
 40
3.0
 40
4.0
 40
4.0
 40
4.0
 40
4.0
 10
119.5031276827978
 20
-153.083162396625
 30
0.0
 10
119.5031276827978
 20
-153.2957247880649
 30
0.0
 10
119.7866590412339
 20
-153.3356878956938
 30
0.0
 10
120.1315130993074
 20
-153.3356878956938
 30
0.0
 10
120.45087345079
 20
-153.3356878956938
 30
0.0
 10
120.7595540062684
 20
-153.3050265458751
 30
0.0
 10
120.7595540062684
 20
-153.083162396625
 30
0.0
 10
120.7595540062684
 20
-152.8719780433792
 30
0.0
 10
120.478434214672
 20
-152.8306368975562
 30
0.0
 10
120.1315130993074
 20
-152.8306368975562
 30
0.0
 10
119.8118082382762
 20
-152.8306368975562
 30
0.0
 10
119.5031276827978
 20
-152.8630207951176
 30
0.0
 10
119.5031276827978
 20
-153.083162396625
 30
0.0
  0
SPLINE
  5
BF
330
BA
100
AcDbEntity
  8
レイヤー 1
100
AcDbSpline
210
0.0
220
0.0
230
1.0
 70
     9
 71
     3
 72
    29
 73
    25
 74
     0
 42
0.0000000001
 43
0.0000000001
 40
0.0
 40
0.0
 40
0.0
 40
0.0
 40
1.0
 40
1.0
 40
1.0
 40
2.0
 40
2.0
 40
2.0
 40
3.0
 40
3.0
 40
3.0
 40
4.0
 40
4.0
 40
4.0
 40
5.0
 40
5.0
 40
5.0
 40
6.0
 40
6.0
 40
6.0
 40
7.0
 40
7.0
 40
7.0
 40
8.0
 40
8.0
 40
8.0
 40
8.0
 10
120.725792070513
 20
-152.7441650008765
 30
0.0
 10
120.9352538760162
 20
-152.8361490503326
 30
0.0
 10
120.954201901185
 20
-152.9839436466498
 30
0.0
 10
120.954201901185
 20
-153.083162396625
 30
0.0
 10
120.954201901185
 20
-153.2202771969379
 30
0.0
 10
120.9076931121342
 20
-153.3408555389217
 30
0.0
 10
120.725792070513
 20
-153.4221597923736
 30
0.0
 10
120.5311441755964
 20
-153.510354236796
 30
0.0
 10
120.2944661157597
 20
-153.5265461855767
 30
0.0
 10
120.1315130993074
 20
-153.5265461855767
 30
0.0
 10
119.9875081080239
 20
-153.5265461855767
 30
0.0
 10
119.7356716280522
 20
-153.5124212940871
 30
0.0
 10
119.5368896185533
 20
-153.4221597923736
 30
0.0
 10
119.333973494472
 20
-153.3301757429175
 30
0.0
 10
119.3105468451723
 20
-153.1930609426045
 30
0.0
 10
119.3105468451723
 20
-153.083162396625
 30
0.0
 10
119.3105468451723
 20
-152.9477701440547
 30
0.0
 10
119.3549885769321
 20
-152.8251247447798
 30
0.0
 10
119.5368896185533
 20
-152.7441650008765
 30
0.0
 10
119.7294704561787
 20
-152.6594156519393
 30
0.0
 10
119.9578802868508
 20
-152.6394340981248
 30
0.0
 10
120.1315130993074
 20
-152.6394340981248
 30
0.0
 10
120.3027343449243
 20
-152.6394340981248
 30
0.0
 10
120.5332112328875
 20
-152.6576931041967
 30
0.0
 10
120.725792070513
 20
-152.7441650008765
 30
0.0
  0
HATCH
  5
C0
330
BA
100
AcDbEntity
  8
レイヤー 1
 62
   250
420
  2299925
440
 33554687
100
AcDbHatch
 10
0.0
 20
0.0
 30
0.0
210
0.0
220
0.0
230
1.0
  2
SOLID
 70
     1
 71
     1
 91
        2
 92
        1
 93
        1
 72
     4
 94
        3
 73
     0
 74
     0
 95
       17
 96
       13
 40
0.0
 40
0.0
 40
0.0
 40
0.0
 40
1.0
 40
1.0
 40
1.0
 40
2.0
 40
2.0
 40
2.0
 40
3.0
 40
3.0
 40
3.0
 40
4.0
 40
4.0
 40
4.0
 40
4.0
 10
119.5031276827978
 20
-153.083162396625
 10
119.5031276827978
 20
-153.2957247880649
 10
119.7866590412339
 20
-153.3356878956938
 10
120.1315130993074
 20
-153.3356878956938
 10
120.45087345079
 20
-153.3356878956938
 10
120.7595540062684
 20
-153.3050265458751
 10
120.7595540062684
 20
-153.083162396625
 10
120.7595540062684
 20
-152.8719780433792
 10
120.478434214672
 20
-152.8306368975562
 10
120.1315130993074
 20
-152.8306368975562
 10
119.8118082382762
 20
-152.8306368975562
 10
119.5031276827978
 20
-152.8630207951176
 10
119.5031276827978
 20
-153.083162396625
 97
        0
 97
        1
330
BE
 92
        1
 93
        1
 72
     4
 94
        3
 73
     0
 74
     0
 95
       29
 96
       25
 40
0.0
 40
0.0
 40
0.0
 40
0.0
 40
1.0
 40
1.0
 40
1.0
 40
2.0
 40
2.0
 40
2.0
 40
3.0
 40
3.0
 40
3.0
 40
4.0
 40
4.0
 40
4.0
 40
5.0
 40
5.0
 40
5.0
 40
6.0
 40
6.0
 40
6.0
 40
7.0
 40
7.0
 40
7.0
 40
8.0
 40
8.0
 40
8.0
 40
8.0
 10
120.725792070513
 20
-152.7441650008765
 10
120.9352538760162
 20
-152.8361490503326
 10
120.954201901185
 20
-152.9839436466498
 10
120.954201901185
 20
-153.083162396625
 10
120.954201901185
 20
-153.2202771969379
 10
120.9076931121342
 20
-153.3408555389217
 10
120.725792070513
 20
-153.4221597923736
 10
120.5311441755964
 20
-153.510354236796
 10
120.2944661157597
 20
-153.5265461855767
 10
120.1315130993074
 20
-153.5265461855767
 10
119.9875081080239
 20
-153.5265461855767
 10
119.7356716280522
 20
-153.5124212940871
 10
119.5368896185533
 20
-153.4221597923736
 10
119.333973494472
 20
-153.3301757429175
 10
119.3105468451723
 20
-153.1930609426045
 10
119.3105468451723
 20
-153.083162396625
 10
119.3105468451723
 20
-152.9477701440547
 10
119.3549885769321
 20
-152.8251247447798
 10
119.5368896185533
 20
-152.7441650008765
 10
119.7294704561787
 20
-152.6594156519393
 10
119.9578802868508
 20
-152.6394340981248
 10
120.1315130993074
 20
-152.6394340981248
 10
120.3027343449243
 20
-152.6394340981248
 10
120.5332112328875
 20
-152.6576931041967
 10
120.725792070513
 20
-152.7441650008765
 97
        0
 97
        1
330
BF
 75
     2
 76
     1
 98
        1
 10
0.0
 20
0.0
450
        0
451
        0
460
0.0
461
0.0
452
        0
462
0.0
453
        0
470

  0
SPLINE
  5
C1
330
BA
100
AcDbEntity
  8
レイヤー 1
100
AcDbSpline
210
0.0
220
0.0
230
1.0
 70
    11
 71
     3
 72
    17
 73
    13
 74
     0
 42
0.0000000001
 43
0.0000000001
 40
0.0
 40
0.0
 40
0.0
 40
0.0
 40
1.0
 40
1.0
 40
1.0
 40
2.0
 40
2.0
 40
2.0
 40
3.0
 40
3.0
 40
3.0
 40
4.0
 40
4.0
 40
4.0
 40
4.0
 10
120.9035589975519
 20
-152.4564995278581
 30
0.0
 10
120.9035589975519
 20
-152.4564995278581
 30
0.0
 10
120.6517225175801
 20
-152.4564995278581
 30
0.0
 10
120.6517225175801
 20
-152.4564995278581
 30
0.0
 10
120.6517225175801
 20
-152.4564995278581
 30
0.0
 10
120.6517225175801
 20
-152.241870079127
 30
0.0
 10
120.6517225175801
 20
-152.241870079127
 30
0.0
 10
120.6517225175801
 20
-152.241870079127
 30
0.0
 10
120.9035589975519
 20
-152.241870079127
 30
0.0
 10
120.9035589975519
 20
-152.241870079127
 30
0.0
 10
120.9035589975519
 20
-152.241870079127
 30
0.0
 10
120.9035589975519
 20
-152.4564995278581
 30
0.0
 10
120.9035589975519
 20
-152.4564995278581
 30
0.0
  0
HATCH
  5
C2
330
BA
100
AcDbEntity
  8
レイヤー 1
 62
   250
420
  2299925
440
 33554687
100
AcDbHatch
 10
0.0
 20
0.0
 30
0.0
210
0.0
220
0.0
230
1.0
  2
SOLID
 70
     1
 71
     1
 91
        1
 92
        1
 93
        1
 72
     4
 94
        3
 73
     0
 74
     0
 95
       17
 96
       13
 40
0.0
 40
0.0
 40
0.0
 40
0.0
 40
1.0
 40
1.0
 40
1.0
 40
2.0
 40
2.0
 40
2.0
 40
3.0
 40
3.0
 40
3.0
 40
4.0
 40
4.0
 40
4.0
 40
4.0
 10
120.9035589975519
 20
-152.4564995278581
 10
120.9035589975519
 20
-152.4564995278581
 10
120.6517225175801
 20
-152.4564995278581
 10
120.6517225175801
 20
-152.4564995278581
 10
120.6517225175801
 20
-152.4564995278581
 10
120.6517225175801
 20
-152.241870079127
 10
120.6517225175801
 20
-152.241870079127
 10
120.6517225175801
 20
-152.241870079127
 10
120.9035589975519
 20
-152.241870079127
 10
120.9035589975519
 20
-152.241870079127
 10
120.9035589975519
 20
-152.241870079127
 10
120.9035589975519
 20
-152.4564995278581
 10
120.9035589975519
 20
-152.4564995278581
 97
        0
 97
        1
330
C1
 75
     2
 76
     1
 98
        1
 10
0.0
 20
0.0
450
        0
451
        0
460
0.0
461
0.0
452
        0
462
0.0
453
        0
470

  0
SPLINE
  5
C3
330
BA
100
AcDbEntity
  8
レイヤー 1
100
AcDbSpline
210
0.0
220
0.0
230
1.0
 70
    11
 71
     3
 72
    14
 73
    10
 74
     0
 42
0.0000000001
 43
0.0000000001
 40
0.0
 40
0.0
 40
0.0
 40
0.0
 40
1.0
 40
1.0
 40
1.0
 40
2.0
 40
2.0
 40
2.0
 40
3.0
 40
3.0
 40
3.0
 40
3.0
 10
119.7019096922967
 20
-151.5170219890304
 30
0.0
 10
119.7019096922967
 20
-151.5170219890304
 30
0.0
 10
120.3578558726883
 20
-151.9066622884122
 30
0.0
 10
120.3578558726883
 20
-151.9066622884122
 30
0.0
 10
120.3578558726883
 20
-151.9066622884122
 30
0.0
 10
120.3578558726883
 20
-151.5170219890304
 30
0.0
 10
120.3578558726883
 20
-151.5170219890304
 30
0.0
 10
120.3578558726883
 20
-151.5170219890304
 30
0.0
 10
119.7019096922967
 20
-151.5170219890304
 30
0.0
 10
119.7019096922967
 20
-151.5170219890304
 30
0.0
  0
SPLINE
  5
C4
330
BA
100
AcDbEntity
  8
レイヤー 1
100
AcDbSpline
210
0.0
220
0.0
230
1.0
 70
    11
 71
     3
 72
    38
 73
    34
 74
     0
 42
0.0000000001
 43
0.0000000001
 40
0.0
 40
0.0
 40
0.0
 40
0.0
 40
1.0
 40
1.0
 40
1.0
 40
2.0
 40
2.0
 40
2.0
 40
3.0
 40
3.0
 40
3.0
 40
4.0
 40
4.0
 40
4.0
 40
5.0
 40
5.0
 40
5.0
 40
6.0
 40
6.0
 40
6.0
 40
7.0
 40
7.0
 40
7.0
 40
8.0
 40
8.0
 40
8.0
 40
9.0
 40
9.0
 40
9.0
 40
10.0
 40
10.0
 40
10.0
 40
11.0
 40
11.0
 40
11.0
 40
11.0
 10
120.5566378821872
 20
-151.3313313423755
 30
0.0
 10
120.5566378821872
 20
-151.3313313423755
 30
0.0
 10
120.9035589975519
 20
-151.3313313423755
 30
0.0
 10
120.9035589975519
 20
-151.3313313423755
 30
0.0
 10
120.9035589975519
 20
-151.3313313423755
 30
0.0
 10
120.9035589975519
 20
-151.5170219890304
 30
0.0
 10
120.9035589975519
 20
-151.5170219890304
 30
0.0
 10
120.9035589975519
 20
-151.5170219890304
 30
0.0
 10
120.5566378821872
 20
-151.5170219890304
 30
0.0
 10
120.5566378821872
 20
-151.5170219890304
 30
0.0
 10
120.5566378821872
 20
-151.5170219890304
 30
0.0
 10
120.5566378821872
 20
-152.0761609862865
 30
0.0
 10
120.5566378821872
 20
-152.0761609862865
 30
0.0
 10
120.5566378821872
 20
-152.0761609862865
 30
0.0
 10
120.3323621660974
 20
-152.0761609862865
 30
0.0
 10
120.3323621660974
 20
-152.0761609862865
 30
0.0
 10
120.3323621660974
 20
-152.0761609862865
 30
0.0
 10
119.3591226915144
 20
-151.4973849447645
 30
0.0
 10
119.3591226915144
 20
-151.4973849447645
 30
0.0
 10
119.3591226915144
 20
-151.4973849447645
 30
0.0
 10
119.3591226915144
 20
-151.3313313423755
 30
0.0
 10
119.3591226915144
 20
-151.3313313423755
 30
0.0
 10
119.3591226915144
 20
-151.3313313423755
 30
0.0
 10
120.3578558726883
 20
-151.3313313423755
 30
0.0
 10
120.3578558726883
 20
-151.3313313423755
 30
0.0
 10
120.3578558726883
 20
-151.3313313423755
 30
0.0
 10
120.3578558726883
 20
-151.1545979439822
 30
0.0
 10
120.3578558726883
 20
-151.1545979439822
 30
0.0
 10
120.3578558726883
 20
-151.1545979439822
 30
0.0
 10
120.5566378821872
 20
-151.1545979439822
 30
0.0
 10
120.5566378821872
 20
-151.1545979439822
 30
0.0
 10
120.5566378821872
 20
-151.1545979439822
 30
0.0
 10
120.5566378821872
 20
-151.3313313423755
 30
0.0
 10
120.5566378821872
 20
-151.3313313423755
 30
0.0
  0
HATCH
  5
C5
330
BA
100
AcDbEntity
  8
レイヤー 1
 62
   250
420
  2299925
440
 33554687
100
AcDbHatch
 10
0.0
 20
0.0
 30
0.0
210
0.0
220
0.0
230
1.0
  2
SOLID
 70
     1
 71
     1
 91
        2
 92
        1
 93
        1
 72
     4
 94
        3
 73
     0
 74
     0
 95
       14
 96
       10
 40
0.0
 40
0.0
 40
0.0
 40
0.0
 40
1.0
 40
1.0
 40
1.0
 40
2.0
 40
2.0
 40
2.0
 40
3.0
 40
3.0
 40
3.0
 40
3.0
 10
119.7019096922967
 20
-151.5170219890304
 10
119.7019096922967
 20
-151.5170219890304
 10
120.3578558726883
 20
-151.9066622884122
 10
120.3578558726883
 20
-151.9066622884122
 10
120.3578558726883
 20
-151.9066622884122
 10
120.3578558726883
 20
-151.5170219890304
 10
120.3578558726883
 20
-151.5170219890304
 10
120.3578558726883
 20
-151.5170219890304
 10
119.7019096922967
 20
-151.5170219890304
 10
119.7019096922967
 20
-151.5170219890304
 97
        0
 97
        1
330
C3
 92
        1
 93
        1
 72
     4
 94
        3
 73
     0
 74
     0
 95
       38
 96
       34
 40
0.0
 40
0.0
 40
0.0
 40
0.0
 40
1.0
 40
1.0
 40
1.0
 40
2.0
 40
2.0
 40
2.0
 40
3.0
 40
3.0
 40
3.0
 40
4.0
 40
4.0
 40
4.0
 40
5.0
 40
5.0
 40
5.0
 40
6.0
 40
6.0
 40
6.0
 40
7.0
 40
7.0
 40
7.0
 40
8.0
 40
8.0
 40
8.0
 40
9.0
 40
9.0
 40
9.0
 40
10.0
 40
10.0
 40
10.0
 40
11.0
 40
11.0
 40
11.0
 40
11.0
 10
120.5566378821872
 20
-151.3313313423755
 10
120.5566378821872
 20
-151.3313313423755
 10
120.9035589975519
 20
-151.3313313423755
 10
120.9035589975519
 20
-151.3313313423755
 10
120.9035589975519
 20
-151.3313313423755
 10
120.9035589975519
 20
-151.5170219890304
 10
120.9035589975519
 20
-151.5170219890304
 10
120.9035589975519
 20
-151.5170219890304
 10
120.5566378821872
 20
-151.5170219890304
 10
120.5566378821872
 20
-151.5170219890304
 10
120.5566378821872
 20
-151.5170219890304
 10
120.5566378821872
 20
-152.0761609862865
 10
120.5566378821872
 20
-152.0761609862865
 10
120.5566378821872
 20
-152.0761609862865
 10
120.3323621660974
 20
-152.0761609862865
 10
120.3323621660974
 20
-152.0761609862865
 10
120.3323621660974
 20
-152.0761609862865
 10
119.3591226915144
 20
-151.4973849447645
 10
119.3591226915144
 20
-151.4973849447645
 10
119.3591226915144
 20
-151.4973849447645
 10
119.3591226915144
 20
-151.3313313423755
 10
119.3591226915144
 20
-151.3313313423755
 10
119.3591226915144
 20
-151.3313313423755
 10
120.3578558726883
 20
-151.3313313423755
 10
120.3578558726883
 20
-151.3313313423755
 10
120.3578558726883
 20
-151.3313313423755
 10
120.3578558726883
 20
-151.1545979439822
 10
120.3578558726883
 20
-151.1545979439822
 10
120.3578558726883
 20
-151.1545979439822
 10
120.5566378821872
 20
-151.1545979439822
 10
120.5566378821872
 20
-151.1545979439822
 10
120.5566378821872
 20
-151.1545979439822
 10
120.5566378821872
 20
-151.3313313423755
 10
120.5566378821872
 20
-151.3313313423755
 97
        0
 97
        1
330
C4
 75
     2
 76
     1
 98
        1
 10
0.0
 20
0.0
450
        0
451
        0
460
0.0
461
0.0
452
        0
462
0.0
453
        0
470

  0
ENDBLK
  5
BD
330
BA
100
AcDbEntity
  8
0
100
AcDbBlockEnd
  0
BLOCK
  5
CC
330
CA
100
AcDbEntity
  8
0
100
AcDbBlockBegin
  2
Block_8
 70
     0
 10
0.0
 20
0.0
 30
0.0
  3
Block_8
  1

  0
INSERT
  5
CF
330
CA
100
AcDbEntity
  8
レイヤー 1
100
AcDbBlockReference
  2
Block_9
 10
0.0
 20
0.0
 30
0.0
  0
ENDBLK
  5
CD
330
CA
100
AcDbEntity
  8
0
100
AcDbBlockEnd
  0
BLOCK
  5
D0
330
CE
100
AcDbEntity
  8
0
100
AcDbBlockBegin
  2
Block_9
 70
     0
 10
0.0
 20
0.0
 30
0.0
  3
Block_9
  1

  0
SPLINE
  5
D2
330
CE
100
AcDbEntity
  8
レイヤー 1
100
AcDbSpline
210
0.0
220
0.0
230
1.0
 70
    11
 71
     3
 72
    26
 73
    22
 74
     0
 42
0.0000000001
 43
0.0000000001
 40
0.0
 40
0.0
 40
0.0
 40
0.0
 40
1.0
 40
1.0
 40
1.0
 40
2.0
 40
2.0
 40
2.0
 40
3.0
 40
3.0
 40
3.0
 40
4.0
 40
4.0
 40
4.0
 40
5.0
 40
5.0
 40
5.0
 40
6.0
 40
6.0
 40
6.0
 40
7.0
 40
7.0
 40
7.0
 40
7.0
 10
90.62082517265729
 20
-143.5106200813098
 30
0.0
 10
90.62082517265729
 20
-143.5106200813098
 30
0.0
 10
89.51667206963472
 20
-143.5106200813098
 30
0.0
 10
89.51667206963472
 20
-143.5106200813098
 30
0.0
 10
89.51667206963472
 20
-143.5106200813098
 30
0.0
 10
89.51667206963472
 20
-143.7920843824547
 30
0.0
 10
89.51667206963472
 20
-143.7920843824547
 30
0.0
 10
89.51667206963472
 20
-143.7920843824547
 30
0.0
 10
89.36853296376899
 20
-143.7920843824547
 30
0.0
 10
89.36853296376899
 20
-143.7920843824547
 30
0.0
 10
89.35371905318239
 20
-143.5088975335672
 30
0.0
 10
89.1907660367301
 20
-143.4692789354868
 30
0.0
 10
89.07638886661979
 20
-143.4441297384445
 30
0.0
 10
89.07638886661979
 20
-143.4441297384445
 30
0.0
 10
89.07638886661979
 20
-143.3194172818785
 30
0.0
 10
89.07638886661979
 20
-143.3194172818785
 30
0.0
 10
89.07638886661979
 20
-143.3194172818785
 30
0.0
 10
90.62082517265729
 20
-143.3194172818785
 30
0.0
 10
90.62082517265729
 20
-143.3194172818785
 30
0.0
 10
90.62082517265729
 20
-143.3194172818785
 30
0.0
 10
90.62082517265729
 20
-143.5106200813098
 30
0.0
 10
90.62082517265729
 20
-143.5106200813098
 30
0.0
  0
HATCH
  5
D3
330
CE
100
AcDbEntity
  8
レイヤー 1
 62
   250
420
  2299925
440
 33554687
100
AcDbHatch
 10
0.0
 20
0.0
 30
0.0
210
0.0
220
0.0
230
1.0
  2
SOLID
 70
     1
 71
     1
 91
        1
 92
        1
 93
        1
 72
     4
 94
        3
 73
     0
 74
     0
 95
       26
 96
       22
 40
0.0
 40
0.0
 40
0.0
 40
0.0
 40
1.0
 40
1.0
 40
1.0
 40
2.0
 40
2.0
 40
2.0
 40
3.0
 40
3.0
 40
3.0
 40
4.0
 40
4.0
 40
4.0
 40
5.0
 40
5.0
 40
5.0
 40
6.0
 40
6.0
 40
6.0
 40
7.0
 40
7.0
 40
7.0
 40
7.0
 10
90.62082517265729
 20
-143.5106200813098
 10
90.62082517265729
 20
-143.5106200813098
 10
89.51667206963472
 20
-143.5106200813098
 10
89.51667206963472
 20
-143.5106200813098
 10
89.51667206963472
 20
-143.5106200813098
 10
89.51667206963472
 20
-143.7920843824547
 10
89.51667206963472
 20
-143.7920843824547
 10
89.51667206963472
 20
-143.7920843824547
 10
89.36853296376899
 20
-143.7920843824547
 10
89.36853296376899
 20
-143.7920843824547
 10
89.35371905318239
 20
-143.5088975335672
 10
89.1907660367301
 20
-143.4692789354868
 10
89.07638886661979
 20
-143.4441297384445
 10
89.07638886661979
 20
-143.4441297384445
 10
89.07638886661979
 20
-143.3194172818785
 10
89.07638886661979
 20
-143.3194172818785
 10
89.07638886661979
 20
-143.3194172818785
 10
90.62082517265729
 20
-143.3194172818785
 10
90.62082517265729
 20
-143.3194172818785
 10
90.62082517265729
 20
-143.3194172818785
 10
90.62082517265729
 20
-143.5106200813098
 10
90.62082517265729
 20
-143.5106200813098
 97
        0
 97
        1
330
D2
 75
     2
 76
     1
 98
        1
 10
0.0
 20
0.0
450
        0
451
        0
460
0.0
461
0.0
452
        0
462
0.0
453
        0
470

  0
SPLINE
  5
D4
330
CE
100
AcDbEntity
  8
レイヤー 1
100
AcDbSpline
210
0.0
220
0.0
230
1.0
 70
    11
 71
     3
 72
    17
 73
    13
 74
     0
 42
0.0000000001
 43
0.0000000001
 40
0.0
 40
0.0
 40
0.0
 40
0.0
 40
1.0
 40
1.0
 40
1.0
 40
2.0
 40
2.0
 40
2.0
 40
3.0
 40
3.0
 40
3.0
 40
4.0
 40
4.0
 40
4.0
 40
4.0
 10
90.62082517265729
 20
-142.8426160667199
 30
0.0
 10
90.62082517265729
 20
-142.8426160667199
 30
0.0
 10
90.36898869268553
 20
-142.8426160667199
 30
0.0
 10
90.36898869268553
 20
-142.8426160667199
 30
0.0
 10
90.36898869268553
 20
-142.8426160667199
 30
0.0
 10
90.36898869268553
 20
-142.6279866179888
 30
0.0
 10
90.36898869268553
 20
-142.6279866179888
 30
0.0
 10
90.36898869268553
 20
-142.6279866179888
 30
0.0
 10
90.62082517265729
 20
-142.6279866179888
 30
0.0
 10
90.62082517265729
 20
-142.6279866179888
 30
0.0
 10
90.62082517265729
 20
-142.6279866179888
 30
0.0
 10
90.62082517265729
 20
-142.8426160667199
 30
0.0
 10
90.62082517265729
 20
-142.8426160667199
 30
0.0
  0
HATCH
  5
D5
330
CE
100
AcDbEntity
  8
レイヤー 1
 62
   250
420
  2299925
440
 33554687
100
AcDbHatch
 10
0.0
 20
0.0
 30
0.0
210
0.0
220
0.0
230
1.0
  2
SOLID
 70
     1
 71
     1
 91
        1
 92
        1
 93
        1
 72
     4
 94
        3
 73
     0
 74
     0
 95
       17
 96
       13
 40
0.0
 40
0.0
 40
0.0
 40
0.0
 40
1.0
 40
1.0
 40
1.0
 40
2.0
 40
2.0
 40
2.0
 40
3.0
 40
3.0
 40
3.0
 40
4.0
 40
4.0
 40
4.0
 40
4.0
 10
90.62082517265729
 20
-142.8426160667199
 10
90.62082517265729
 20
-142.8426160667199
 10
90.36898869268553
 20
-142.8426160667199
 10
90.36898869268553
 20
-142.8426160667199
 10
90.36898869268553
 20
-142.8426160667199
 10
90.36898869268553
 20
-142.6279866179888
 10
90.36898869268553
 20
-142.6279866179888
 10
90.36898869268553
 20
-142.6279866179888
 10
90.62082517265729
 20
-142.6279866179888
 10
90.62082517265729
 20
-142.6279866179888
 10
90.62082517265729
 20
-142.6279866179888
 10
90.62082517265729
 20
-142.8426160667199
 10
90.62082517265729
 20
-142.8426160667199
 97
        0
 97
        1
330
D4
 75
     2
 76
     1
 98
        1
 10
0.0
 20
0.0
450
        0
451
        0
460
0.0
461
0.0
452
        0
462
0.0
453
        0
470

  0
SPLINE
  5
D6
330
CE
100
AcDbEntity
  8
レイヤー 1
100
AcDbSpline
210
0.0
220
0.0
230
1.0
 70
     9
 71
     3
 72
    17
 73
    13
 74
     0
 42
0.0000000001
 43
0.0000000001
 40
0.0
 40
0.0
 40
0.0
 40
0.0
 40
1.0
 40
1.0
 40
1.0
 40
2.0
 40
2.0
 40
2.0
 40
3.0
 40
3.0
 40
3.0
 40
4.0
 40
4.0
 40
4.0
 40
4.0
 10
89.22039385790323
 20
-142.0006347301248
 30
0.0
 10
89.22039385790323
 20
-142.2135416311133
 30
0.0
 10
89.50392521633929
 20
-142.2531602291936
 30
0.0
 10
89.8487792744128
 20
-142.2531602291936
 30
0.0
 10
90.16813962589546
 20
-142.2531602291936
 30
0.0
 10
90.47682018137384
 20
-142.2224988793749
 30
0.0
 10
90.47682018137384
 20
-142.0006347301248
 30
0.0
 10
90.47682018137384
 20
-141.789450376879
 30
0.0
 10
90.19570038977747
 20
-141.748109231056
 30
0.0
 10
89.8487792744128
 20
-141.748109231056
 30
0.0
 10
89.52907441338162
 20
-141.748109231056
 30
0.0
 10
89.22039385790323
 20
-141.7804931286174
 30
0.0
 10
89.22039385790323
 20
-142.0006347301248
 30
0.0
  0
SPLINE
  5
D7
330
CE
100
AcDbEntity
  8
レイヤー 1
100
AcDbSpline
210
0.0
220
0.0
230
1.0
 70
     9
 71
     3
 72
    29
 73
    25
 74
     0
 42
0.0000000001
 43
0.0000000001
 40
0.0
 40
0.0
 40
0.0
 40
0.0
 40
1.0
 40
1.0
 40
1.0
 40
2.0
 40
2.0
 40
2.0
 40
3.0
 40
3.0
 40
3.0
 40
4.0
 40
4.0
 40
4.0
 40
5.0
 40
5.0
 40
5.0
 40
6.0
 40
6.0
 40
6.0
 40
7.0
 40
7.0
 40
7.0
 40
8.0
 40
8.0
 40
8.0
 40
8.0
 10
90.4430582456184
 20
-141.6616373343762
 30
0.0
 10
90.6525200511216
 20
-141.7536213838324
 30
0.0
 10
90.67146807629047
 20
-141.9014159801496
 30
0.0
 10
90.67146807629047
 20
-142.0006347301248
 30
0.0
 10
90.67146807629047
 20
-142.1377495304378
 30
0.0
 10
90.6249592872396
 20
-142.2583278724215
 30
0.0
 10
90.4430582456184
 20
-142.3396321258734
 30
0.0
 10
90.24841035070179
 20
-142.4278265702958
 30
0.0
 10
90.01138778131659
 20
-142.444363028625
 30
0.0
 10
89.8487792744128
 20
-142.444363028625
 30
0.0
 10
89.70477428312937
 20
-142.444363028625
 30
0.0
 10
89.45293780315759
 20
-142.429893627587
 30
0.0
 10
89.25415579365868
 20
-142.3396321258734
 30
0.0
 10
89.05123966957747
 20
-142.2476480764172
 30
0.0
 10
89.02781302027777
 20
-142.1105332761043
 30
0.0
 10
89.02781302027777
 20
-142.0006347301248
 30
0.0
 10
89.02781302027777
 20
-141.8652424775545
 30
0.0
 10
89.0722547520375
 20
-141.7425970782796
 30
0.0
 10
89.25415579365868
 20
-141.6616373343762
 30
0.0
 10
89.44673663128416
 20
-141.5768879854391
 30
0.0
 10
89.67514646195622
 20
-141.5569064316246
 30
0.0
 10
89.8487792744128
 20
-141.5569064316246
 30
0.0
 10
90.02000052002973
 20
-141.5569064316246
 30
0.0
 10
90.25047740799294
 20
-141.5751654376965
 30
0.0
 10
90.4430582456184
 20
-141.6616373343762
 30
0.0
  0
HATCH
  5
D8
330
CE
100
AcDbEntity
  8
レイヤー 1
 62
   250
420
  2299925
440
 33554687
100
AcDbHatch
 10
0.0
 20
0.0
 30
0.0
210
0.0
220
0.0
230
1.0
  2
SOLID
 70
     1
 71
     1
 91
        2
 92
        1
 93
        1
 72
     4
 94
        3
 73
     0
 74
     0
 95
       17
 96
       13
 40
0.0
 40
0.0
 40
0.0
 40
0.0
 40
1.0
 40
1.0
 40
1.0
 40
2.0
 40
2.0
 40
2.0
 40
3.0
 40
3.0
 40
3.0
 40
4.0
 40
4.0
 40
4.0
 40
4.0
 10
89.22039385790323
 20
-142.0006347301248
 10
89.22039385790323
 20
-142.2135416311133
 10
89.50392521633929
 20
-142.2531602291936
 10
89.8487792744128
 20
-142.2531602291936
 10
90.16813962589546
 20
-142.2531602291936
 10
90.47682018137384
 20
-142.2224988793749
 10
90.47682018137384
 20
-142.0006347301248
 10
90.47682018137384
 20
-141.789450376879
 10
90.19570038977747
 20
-141.748109231056
 10
89.8487792744128
 20
-141.748109231056
 10
89.52907441338162
 20
-141.748109231056
 10
89.22039385790323
 20
-141.7804931286174
 10
89.22039385790323
 20
-142.0006347301248
 97
        0
 97
        1
330
D6
 92
        1
 93
        1
 72
     4
 94
        3
 73
     0
 74
     0
 95
       29
 96
       25
 40
0.0
 40
0.0
 40
0.0
 40
0.0
 40
1.0
 40
1.0
 40
1.0
 40
2.0
 40
2.0
 40
2.0
 40
3.0
 40
3.0
 40
3.0
 40
4.0
 40
4.0
 40
4.0
 40
5.0
 40
5.0
 40
5.0
 40
6.0
 40
6.0
 40
6.0
 40
7.0
 40
7.0
 40
7.0
 40
8.0
 40
8.0
 40
8.0
 40
8.0
 10
90.4430582456184
 20
-141.6616373343762
 10
90.6525200511216
 20
-141.7536213838324
 10
90.67146807629047
 20
-141.9014159801496
 10
90.67146807629047
 20
-142.0006347301248
 10
90.67146807629047
 20
-142.1377495304378
 10
90.6249592872396
 20
-142.2583278724215
 10
90.4430582456184
 20
-142.3396321258734
 10
90.24841035070179
 20
-142.4278265702958
 10
90.01138778131659
 20
-142.444363028625
 10
89.8487792744128
 20
-142.444363028625
 10
89.70477428312937
 20
-142.444363028625
 10
89.45293780315759
 20
-142.429893627587
 10
89.25415579365868
 20
-142.3396321258734
 10
89.05123966957747
 20
-142.2476480764172
 10
89.02781302027777
 20
-142.1105332761043
 10
89.02781302027777
 20
-142.0006347301248
 10
89.02781302027777
 20
-141.8652424775545
 10
89.0722547520375
 20
-141.7425970782796
 10
89.25415579365868
 20
-141.6616373343762
 10
89.44673663128416
 20
-141.5768879854391
 10
89.67514646195622
 20
-141.5569064316246
 10
89.8487792744128
 20
-141.5569064316246
 10
90.02000052002973
 20
-141.5569064316246
 10
90.25047740799294
 20
-141.5751654376965
 10
90.4430582456184
 20
-141.6616373343762
 97
        0
 97
        1
330
D7
 75
     2
 76
     1
 98
        1
 10
0.0
 20
0.0
450
        0
451
        0
460
0.0
461
0.0
452
        0
462
0.0
453
        0
470

  0
ENDBLK
  5
D1
330
CE
100
AcDbEntity
  8
0
100
AcDbBlockEnd
  0
BLOCK
  5
DD
330
DB
100
AcDbEntity
  8
0
100
AcDbBlockBegin
  2
Block_10
 70
     0
 10
0.0
 20
0.0
 30
0.0
  3
Block_10
  1

  0
LINE
  5
DF
330
DB
100
AcDbEntity
  8
レイヤー 1
 62
    18
420
        0
370
     9
100
AcDbLine
 10
108.0120499594692
 20
-151.2136887041564
 30
0.0
 11
107.7452051016088
 21
-150.249916470886
 31
0.0
  0
LINE
  5
E0
330
DB
100
AcDbEntity
  8
レイヤー 1
 62
    18
420
        0
370
     9
100
AcDbLine
 10
108.0120499594692
 20
-151.2136887041564
 30
0.0
 11
107.9776157520921
 21
-149.5997281413529
 31
0.0
  0
LINE
  5
E1
330
DB
100
AcDbEntity
  8
レイヤー 1
 62
    18
420
        0
370
     9
100
AcDbLine
 10
108.0120499594692
 20
-151.2136887041564
 30
0.0
 11
108.2628980369751
 21
-150.2455082487702
 31
0.0
  0
ENDBLK
  5
DE
330
DB
100
AcDbEntity
  8
0
100
AcDbBlockEnd
  0
BLOCK
  5
E4
330
E2
100
AcDbEntity
  8
0
100
AcDbBlockBegin
  2
Block_11
 70
     0
 10
0.0
 20
0.0
 30
0.0
  3
Block_11
  1

  0
INSERT
  5
E7
330
E2
100
AcDbEntity
  8
レイヤー 1
100
AcDbBlockReference
  2
Block_12
 10
0.0
 20
0.0
 30
0.0
  0
ENDBLK
  5
E5
330
E2
100
AcDbEntity
  8
0
100
AcDbBlockEnd
  0
BLOCK
  5
E8
330
E6
100
AcDbEntity
  8
0
100
AcDbBlockBegin
  2
Block_12
 70
     0
 10
0.0
 20
0.0
 30
0.0
  3
Block_12
  1

  0
SPLINE
  5
EA
330
E6
100
AcDbEntity
  8
レイヤー 1
100
AcDbSpline
210
0.0
220
0.0
230
1.0
 70
     9
 71
     3
 72
    17
 73
    13
 74
     0
 42
0.0000000001
 43
0.0000000001
 40
0.0
 40
0.0
 40
0.0
 40
0.0
 40
1.0
 40
1.0
 40
1.0
 40
2.0
 40
2.0
 40
2.0
 40
3.0
 40
3.0
 40
3.0
 40
4.0
 40
4.0
 40
4.0
 40
4.0
 10
104.0260362153129
 20
-148.5333970440298
 30
0.0
 10
104.0089829926609
 20
-148.5628526104287
 30
0.0
 10
103.9583400890278
 20
-148.6560424433047
 30
0.0
 10
103.9476602930235
 20
-148.6749904684736
 30
0.0
 10
104.1380018185835
 20
-148.7342461108199
 30
0.0
 10
104.1591891558178
 20
-148.7406195374676
 30
0.0
 10
104.2311916514595
 20
-148.7681803013496
 30
0.0
 10
104.2861409244493
 20
-148.6813638951213
 30
0.0
 10
104.3093953189747
 20
-148.6072943421884
 30
0.0
 10
104.3242092295613
 20
-148.5333970440298
 30
0.0
 10
104.3242092295613
 20
-148.5333970440298
 30
0.0
 10
104.0260362153129
 20
-148.5333970440298
 30
0.0
 10
104.0260362153129
 20
-148.5333970440298
 30
0.0
  0
SPLINE
  5
EB
330
E6
100
AcDbEntity
  8
レイヤー 1
100
AcDbSpline
210
0.0
220
0.0
230
1.0
 70
    11
 71
     3
 72
    20
 73
    16
 74
     0
 42
0.0000000001
 43
0.0000000001
 40
0.0
 40
0.0
 40
0.0
 40
0.0
 40
1.0
 40
1.0
 40
1.0
 40
2.0
 40
2.0
 40
2.0
 40
3.0
 40
3.0
 40
3.0
 40
4.0
 40
4.0
 40
4.0
 40
5.0
 40
5.0
 40
5.0
 40
5.0
 10
103.9624742036101
 20
-147.6829752234959
 30
0.0
 10
103.9624742036101
 20
-147.6829752234959
 30
0.0
 10
103.9307793251458
 20
-147.6829752234959
 30
0.0
 10
103.9307793251458
 20
-147.6829752234959
 30
0.0
 10
103.9772881141966
 20
-147.7823662282454
 30
0.0
 10
104.0089829926609
 20
-147.8626369530517
 30
0.0
 10
104.0429171831906
 20
-147.9895887216831
 30
0.0
 10
104.0429171831906
 20
-147.9895887216831
 30
0.0
 10
104.2501396766284
 20
-147.9895887216831
 30
0.0
 10
104.2501396766284
 20
-147.9895887216831
 30
0.0
 10
104.282006809867
 20
-147.8965711435814
 30
0.0
 10
104.3052612043924
 20
-147.8119940494185
 30
0.0
 10
104.3285155989178
 20
-147.6829752234959
 30
0.0
 10
104.3285155989178
 20
-147.6829752234959
 30
0.0
 10
103.9624742036101
 20
-147.6829752234959
 30
0.0
 10
103.9624742036101
 20
-147.6829752234959
 30
0.0
  0
SPLINE
  5
EC
330
E6
100
AcDbEntity
  8
レイヤー 1
100
AcDbSpline
210
0.0
220
0.0
230
1.0
 70
     9
 71
     3
 72
   242
 73
   238
 74
     0
 42
0.0000000001
 43
0.0000000001
 40
0.0
 40
0.0
 40
0.0
 40
0.0
 40
1.0
 40
1.0
 40
1.0
 40
2.0
 40
2.0
 40
2.0
 40
3.0
 40
3.0
 40
3.0
 40
4.0
 40
4.0
 40
4.0
 40
5.0
 40
5.0
 40
5.0
 40
6.0
 40
6.0
 40
6.0
 40
7.0
 40
7.0
 40
7.0
 40
8.0
 40
8.0
 40
8.0
 40
9.0
 40
9.0
 40
9.0
 40
10.0
 40
10.0
 40
10.0
 40
11.0
 40
11.0
 40
11.0
 40
12.0
 40
12.0
 40
12.0
 40
13.0
 40
13.0
 40
13.0
 40
14.0
 40
14.0
 40
14.0
 40
15.0
 40
15.0
 40
15.0
 40
16.0
 40
16.0
 40
16.0
 40
17.0
 40
17.0
 40
17.0
 40
18.0
 40
18.0
 40
18.0
 40
19.0
 40
19.0
 40
19.0
 40
20.0
 40
20.0
 40
20.0
 40
21.0
 40
21.0
 40
21.0
 40
22.0
 40
22.0
 40
22.0
 40
23.0
 40
23.0
 40
23.0
 40
24.0
 40
24.0
 40
24.0
 40
25.0
 40
25.0
 40
25.0
 40
26.0
 40
26.0
 40
26.0
 40
27.0
 40
27.0
 40
27.0
 40
28.0
 40
28.0
 40
28.0
 40
29.0
 40
29.0
 40
29.0
 40
30.0
 40
30.0
 40
30.0
 40
31.0
 40
31.0
 40
31.0
 40
32.0
 40
32.0
 40
32.0
 40
33.0
 40
33.0
 40
33.0
 40
34.0
 40
34.0
 40
34.0
 40
35.0
 40
35.0
 40
35.0
 40
36.0
 40
36.0
 40
36.0
 40
37.0
 40
37.0
 40
37.0
 40
38.0
 40
38.0
 40
38.0
 40
39.0
 40
39.0
 40
39.0
 40
40.0
 40
40.0
 40
40.0
 40
41.0
 40
41.0
 40
41.0
 40
42.0
 40
42.0
 40
42.0
 40
43.0
 40
43.0
 40
43.0
 40
44.0
 40
44.0
 40
44.0
 40
45.0
 40
45.0
 40
45.0
 40
46.0
 40
46.0
 40
46.0
 40
47.0
 40
47.0
 40
47.0
 40
48.0
 40
48.0
 40
48.0
 40
49.0
 40
49.0
 40
49.0
 40
50.0
 40
50.0
 40
50.0
 40
51.0
 40
51.0
 40
51.0
 40
52.0
 40
52.0
 40
52.0
 40
53.0
 40
53.0
 40
53.0
 40
54.0
 40
54.0
 40
54.0
 40
55.0
 40
55.0
 40
55.0
 40
56.0
 40
56.0
 40
56.0
 40
57.0
 40
57.0
 40
57.0
 40
58.0
 40
58.0
 40
58.0
 40
59.0
 40
59.0
 40
59.0
 40
60.0
 40
60.0
 40
60.0
 40
61.0
 40
61.0
 40
61.0
 40
62.0
 40
62.0
 40
62.0
 40
63.0
 40
63.0
 40
63.0
 40
64.0
 40
64.0
 40
64.0
 40
65.0
 40
65.0
 40
65.0
 40
66.0
 40
66.0
 40
66.0
 40
67.0
 40
67.0
 40
67.0
 40
68.0
 40
68.0
 40
68.0
 40
69.0
 40
69.0
 40
69.0
 40
70.0
 40
70.0
 40
70.0
 40
71.0
 40
71.0
 40
71.0
 40
72.0
 40
72.0
 40
72.0
 40
73.0
 40
73.0
 40
73.0
 40
74.0
 40
74.0
 40
74.0
 40
75.0
 40
75.0
 40
75.0
 40
76.0
 40
76.0
 40
76.0
 40
77.0
 40
77.0
 40
77.0
 40
78.0
 40
78.0
 40
78.0
 40
79.0
 40
79.0
 40
79.0
 40
79.0
 10
104.5908596201196
 20
-148.1482353687789
 30
0.0
 10
104.5908596201196
 20
-148.1482353687789
 30
0.0
 10
104.3369560828567
 20
-148.1482353687789
 30
0.0
 10
104.3369560828567
 20
-148.1482353687789
 30
0.0
 10
104.3369560828567
 20
-148.1482353687789
 30
0.0
 10
104.0597981510684
 20
-148.1482353687789
 30
0.0
 10
104.0597981510684
 20
-148.1482353687789
 30
0.0
 10
104.0597981510684
 20
-148.1482353687789
 30
0.0
 10
104.1867499196998
 20
-148.1906100432475
 30
0.0
 10
104.1867499196998
 20
-148.1906100432475
 30
0.0
 10
104.1972574609298
 20
-148.194916412604
 30
0.0
 10
104.2100043142253
 20
-148.2011175844775
 30
0.0
 10
104.2100043142253
 20
-148.2138644377729
 30
0.0
 10
104.2100043142253
 20
-148.2350517750072
 30
0.0
 10
104.178309435761
 20
-148.2414252016549
 30
0.0
 10
104.1571220985267
 20
-148.2455593162372
 30
0.0
 10
104.1466145572967
 20
-148.2688137107626
 30
0.0
 10
104.1169867361235
 20
-148.3344427797566
 30
0.0
 10
104.0978664561804
 20
-148.3788845115164
 30
0.0
 10
104.0978664561804
 20
-148.3788845115164
 30
0.0
 10
104.368650961321
 20
-148.3788845115164
 30
0.0
 10
104.368650961321
 20
-148.3788845115164
 30
0.0
 10
104.4596014821316
 20
-148.3788845115164
 30
0.0
 10
104.6563164343394
 20
-148.3745781421598
 30
0.0
 10
104.7980821135574
 20
-148.3661376582209
 30
0.0
 10
104.7980821135574
 20
-148.3661376582209
 30
0.0
 10
104.7980821135574
 20
-148.5439045852599
 30
0.0
 10
104.7980821135574
 20
-148.5439045852599
 30
0.0
 10
104.7155720766857
 20
-148.5395982159033
 30
0.0
 10
104.6943847394514
 20
-148.5395982159033
 30
0.0
 10
104.5145507551213
 20
-148.535464101321
 30
0.0
 10
104.482855876657
 20
-148.6898043790602
 30
0.0
 10
104.4384141448973
 20
-148.7702473586407
 30
0.0
 10
104.3939724131376
 20
-148.8400105422171
 30
0.0
 10
104.5145507551213
 20
-148.8994384393376
 30
0.0
 10
104.6204874412928
 20
-148.9669623108485
 30
0.0
 10
104.7240125606245
 20
-149.0496446024945
 30
0.0
 10
104.7240125606245
 20
-149.0496446024945
 30
0.0
 10
104.6056735307062
 20
-149.2167317335291
 30
0.0
 10
104.6056735307062
 20
-149.2167317335291
 30
0.0
 10
104.5824191361808
 20
-149.1977837083602
 30
0.0
 10
104.5696722828853
 20
-149.1891709696471
 30
0.0
 10
104.4575344248405
 20
-149.10442162071
 30
0.0
 10
104.4087863237242
 20
-149.0665255703722
 30
0.0
 10
104.3497029361521
 20
-149.0306965773257
 30
0.0
 10
104.2692599565715
 20
-148.9862548455659
 30
0.0
 10
104.0577310937772
 20
-149.1722900017694
 30
0.0
 10
103.8524034028563
 20
-149.1957166510691
 30
0.0
 10
103.5626708725468
 20
-149.2253444722423
 30
0.0
 10
103.5626708725468
 20
-149.2253444722423
 30
0.0
 10
103.4589734984408
 20
-149.0455104879122
 30
0.0
 10
103.4589734984408
 20
-149.0455104879122
 30
0.0
 10
103.7762667926323
 20
-149.0410318637814
 30
0.0
 10
103.95196666238
 20
-149.0158826667391
 30
0.0
 10
104.1042398828281
 20
-148.9056396112111
 30
0.0
 10
103.9857285981355
 20
-148.8548244528036
 30
0.0
 10
103.8968451346161
 20
-148.8274359436959
 30
0.0
 10
103.8610161415695
 20
-148.8146890904005
 30
0.0
 10
103.8418958616263
 20
-148.8422498542825
 30
0.0
 10
103.8270819510397
 20
-148.8611978794514
 30
0.0
 10
103.7995211871577
 20
-148.8953043247553
 30
0.0
 10
103.7995211871577
 20
-148.8953043247553
 30
0.0
 10
103.60280623495
 20
-148.8126220331093
 30
0.0
 10
103.60280623495
 20
-148.8126220331093
 30
0.0
 10
103.6853162718217
 20
-148.7321790535288
 30
0.0
 10
103.7466389714591
 20
-148.6369221633616
 30
0.0
 10
103.8038275565143
 20
-148.535464101321
 30
0.0
 10
103.6134860309543
 20
-148.5395982159033
 30
0.0
 10
103.5922986937199
 20
-148.5395982159033
 30
0.0
 10
103.5097886568482
 20
-148.5439045852599
 30
0.0
 10
103.5097886568482
 20
-148.5439045852599
 30
0.0
 10
103.5097886568482
 20
-148.3661376582209
 30
0.0
 10
103.5097886568482
 20
-148.3661376582209
 30
0.0
 10
103.6493150240008
 20
-148.3725110848687
 30
0.0
 10
103.858776829504
 20
-148.3768174542252
 30
0.0
 10
103.8842705360949
 20
-148.3768174542252
 30
0.0
 10
103.9011515039726
 20
-148.3428832636955
 30
0.0
 10
103.9561007769624
 20
-148.2223049217117
 30
0.0
 10
103.9752210569055
 20
-148.1482353687789
 30
0.0
 10
103.9561007769624
 20
-148.1482353687789
 30
0.0
 10
103.7785061046977
 20
-148.1546087954266
 30
0.0
 10
103.5838582097811
 20
-148.167355648722
 30
0.0
 10
103.5838582097811
 20
-148.167355648722
 30
0.0
 10
103.5838582097811
 20
-148.3006808440012
 30
0.0
 10
103.5838582097811
 20
-148.3006808440012
 30
0.0
 10
103.5351101086648
 20
-148.3260022958178
 30
0.0
 10
103.4758544663185
 20
-148.3576971742821
 30
0.0
 10
103.3427015258136
 20
-148.4233262432761
 30
0.0
 10
103.3427015258136
 20
-148.4233262432761
 30
0.0
 10
103.3427015258136
 20
-148.5692260370764
 30
0.0
 10
103.3427015258136
 20
-148.5692260370764
 30
0.0
 10
103.3427015258136
 20
-148.5692260370764
 30
0.0
 10
103.3427015258136
 20
-149.0368977491991
 30
0.0
 10
103.3427015258136
 20
-149.0368977491991
 30
0.0
 10
103.3427015258136
 20
-149.1636772630563
 30
0.0
 10
103.3067002779928
 20
-149.2229329054026
 30
0.0
 10
103.0231689195567
 20
-149.214664676238
 30
0.0
 10
103.0231689195567
 20
-149.214664676238
 30
0.0
 10
102.9194715454507
 20
-149.0072699280259
 30
0.0
 10
102.9194715454507
 20
-149.0072699280259
 30
0.0
 10
102.9830335571535
 20
-149.0200167813214
 30
0.0
 10
103.0316094034956
 20
-149.0241508959037
 30
0.0
 10
103.071917020673
 20
-149.0241508959037
 30
0.0
 10
103.148053630897
 20
-149.0241508959037
 30
0.0
 10
103.158561172127
 20
-149.0010687561525
 30
0.0
 10
103.158561172127
 20
-148.9352674323842
 30
0.0
 10
103.158561172127
 20
-148.9352674323842
 30
0.0
 10
103.158561172127
 20
-148.5058362801478
 30
0.0
 10
103.158561172127
 20
-148.5058362801478
 30
0.0
 10
103.0612372246687
 20
-148.545971642551
 30
0.0
 10
103.044356256791
 20
-148.5523450691987
 30
0.0
 10
102.9978474677401
 20
-148.5714653491418
 30
0.0
 10
102.9935410983835
 20
-148.5924804316019
 30
0.0
 10
102.9894069838012
 20
-148.622108252775
 30
0.0
 10
102.9702867038581
 20
-148.622108252775
 30
0.0
 10
102.9618462199192
 20
-148.622108252775
 30
0.0
 10
102.9513386786892
 20
-148.6179741381927
 30
0.0
 10
102.9449652520415
 20
-148.5947197436673
 30
0.0
 10
102.9449652520415
 20
-148.5947197436673
 30
0.0
 10
102.8920830363429
 20
-148.4021389060418
 30
0.0
 10
102.8920830363429
 20
-148.4021389060418
 30
0.0
 10
103.0379828301433
 20
-148.3556301169909
 30
0.0
 10
103.1036118991373
 20
-148.3323757224655
 30
0.0
 10
103.158561172127
 20
-148.3111883852312
 30
0.0
 10
103.158561172127
 20
-148.3111883852312
 30
0.0
 10
103.158561172127
 20
-147.8986382008725
 30
0.0
 10
103.158561172127
 20
-147.8986382008725
 30
0.0
 10
103.158561172127
 20
-147.8986382008725
 30
0.0
 10
103.1056789564284
 20
-147.8986382008725
 30
0.0
 10
103.1056789564284
 20
-147.8986382008725
 30
0.0
 10
103.1056789564284
 20
-147.8986382008725
 30
0.0
 10
103.0274752889132
 20
-147.8986382008725
 30
0.0
 10
103.0274752889132
 20
-147.8986382008725
 30
0.0
 10
102.9597791626281
 20
-147.8986382008725
 30
0.0
 10
102.9513386786892
 20
-147.8986382008725
 30
0.0
 10
102.9153374308684
 20
-147.9050116275202
 30
0.0
 10
102.9153374308684
 20
-147.9050116275202
 30
0.0
 10
102.9153374308684
 20
-147.7103637326036
 30
0.0
 10
102.9153374308684
 20
-147.7103637326036
 30
0.0
 10
102.9428981947503
 20
-147.7167371592513
 30
0.0
 10
102.9513386786892
 20
-147.7167371592513
 30
0.0
 10
103.0211018622655
 20
-147.7167371592513
 30
0.0
 10
103.0211018622655
 20
-147.7167371592513
 30
0.0
 10
103.1544270575447
 20
-147.7167371592513
 30
0.0
 10
103.1544270575447
 20
-147.7167371592513
 30
0.0
 10
103.1544270575447
 20
-147.646973975675
 30
0.0
 10
103.1544270575447
 20
-147.5644639388033
 30
0.0
 10
103.1521877454793
 20
-147.5601575694468
 30
0.0
 10
103.1437472615404
 20
-147.3803235851167
 30
0.0
 10
103.1437472615404
 20
-147.3613755599478
 30
0.0
 10
103.1416802042493
 20
-147.314866770897
 30
0.0
 10
103.1416802042493
 20
-147.314866770897
 30
0.0
 10
103.3575154364002
 20
-147.3233072548358
 30
0.0
 10
103.3575154364002
 20
-147.3233072548358
 30
0.0
 10
103.3680229776302
 20
-147.3233072548358
 30
0.0
 10
103.3892103148645
 20
-147.325374312127
 30
0.0
 10
103.3892103148645
 20
-147.3422552800047
 30
0.0
 10
103.3892103148645
 20
-147.3613755599478
 30
0.0
 10
103.3743964042779
 20
-147.3718831011779
 30
0.0
 10
103.3490749524613
 20
-147.391003381121
 30
0.0
 10
103.3490749524613
 20
-147.4416462847542
 30
0.0
 10
103.3427015258136
 20
-147.6702283702005
 30
0.0
 10
103.3447685831047
 20
-147.7167371592513
 30
0.0
 10
103.4737874090274
 20
-147.7167371592513
 30
0.0
 10
103.4865342623228
 20
-147.7167371592513
 30
0.0
 10
103.5838582097811
 20
-147.7082966753125
 30
0.0
 10
103.5838582097811
 20
-147.7082966753125
 30
0.0
 10
103.5838582097811
 20
-147.9029445702291
 30
0.0
 10
103.5838582097811
 20
-147.9029445702291
 30
0.0
 10
103.5457899046691
 20
-147.9007052581637
 30
0.0
 10
103.4780937783839
 20
-147.8965711435814
 30
0.0
 10
103.3427015258136
 20
-147.8986382008725
 30
0.0
 10
103.3427015258136
 20
-147.8986382008725
 30
0.0
 10
103.3427015258136
 20
-148.2371188322983
 30
0.0
 10
103.3427015258136
 20
-148.2371188322983
 30
0.0
 10
103.3976507988033
 20
-148.2138644377729
 30
0.0
 10
103.4632798677973
 20
-148.1863036738909
 30
0.0
 10
103.5118557141394
 20
-148.1630492793654
 30
0.0
 10
103.5118557141394
 20
-148.1630492793654
 30
0.0
 10
103.5118557141394
 20
-147.9854546071009
 30
0.0
 10
103.5118557141394
 20
-147.9854546071009
 30
0.0
 10
103.6260606294754
 20
-147.998029205622
 30
0.0
 10
103.744571914168
 20
-147.998029205622
 30
0.0
 10
103.8610161415695
 20
-147.998029205622
 30
0.0
 10
103.8375894922697
 20
-147.9029445702291
 30
0.0
 10
103.810200983162
 20
-147.8204345333574
 30
0.0
 10
103.7466389714591
 20
-147.6871093380782
 30
0.0
 10
103.7021972396994
 20
-147.6891763953694
 30
0.0
 10
103.619859457602
 20
-147.6934827647259
 30
0.0
 10
103.5816188977157
 20
-147.6955498220171
 30
0.0
 10
103.5816188977157
 20
-147.6955498220171
 30
0.0
 10
103.5816188977157
 20
-147.515715837687
 30
0.0
 10
103.5816188977157
 20
-147.515715837687
 30
0.0
 10
103.706503609056
 20
-147.5241563216259
 30
0.0
 10
103.8799641667383
 20
-147.5284626909824
 30
0.0
 10
103.9624742036101
 20
-147.5284626909824
 30
0.0
 10
103.9624742036101
 20
-147.5284626909824
 30
0.0
 10
104.0449842404818
 20
-147.5284626909824
 30
0.0
 10
104.0449842404818
 20
-147.5284626909824
 30
0.0
 10
104.0449842404818
 20
-147.3655096745301
 30
0.0
 10
104.0449842404818
 20
-147.3550021333001
 30
0.0
 10
104.0429171831906
 20
-147.3000528603104
 30
0.0
 10
104.0429171831906
 20
-147.3000528603104
 30
0.0
 10
104.2671928992804
 20
-147.325374312127
 30
0.0
 10
104.2671928992804
 20
-147.325374312127
 30
0.0
 10
104.2713270138627
 20
-147.325374312127
 30
0.0
 10
104.292514351097
 20
-147.3274413694181
 30
0.0
 10
104.292514351097
 20
-147.3443223372958
 30
0.0
 10
104.292514351097
 20
-147.3591362478824
 30
0.0
 10
104.282006809867
 20
-147.3677489865955
 30
0.0
 10
104.254446045985
 20
-147.3825628971821
 30
0.0
 10
104.2480726193373
 20
-147.4480197114019
 30
0.0
 10
104.2460055620461
 20
-147.4692070486361
 30
0.0
 10
104.2460055620461
 20
-147.5284626909824
 30
0.0
 10
104.2460055620461
 20
-147.5284626909824
 30
0.0
 10
104.341090197439
 20
-147.5284626909824
 30
0.0
 10
104.341090197439
 20
-147.5284626909824
 30
0.0
 10
104.4236002343107
 20
-147.5284626909824
 30
0.0
 10
104.5970607919931
 20
-147.5241563216259
 30
0.0
 10
104.7219455033334
 20
-147.515715837687
 30
0.0
 10
104.7219455033334
 20
-147.515715837687
 30
0.0
 10
104.7219455033334
 20
-147.6955498220171
 30
0.0
 10
104.7219455033334
 20
-147.6955498220171
 30
0.0
 10
104.6923176821602
 20
-147.6934827647259
 30
0.0
 10
104.5738063974676
 20
-147.6891763953694
 30
0.0
 10
104.5336710350645
 20
-147.6871093380782
 30
0.0
 10
104.5188571244779
 20
-147.7379244964857
 30
0.0
 10
104.4850951887225
 20
-147.8500623545305
 30
0.0
 10
104.4194661197284
 20
-147.9895887216831
 30
0.0
 10
104.4616685394228
 20
-147.9895887216831
 30
0.0
 10
104.7388264712111
 20
-147.9706406965143
 30
0.0
 10
104.8001491708486
 20
-147.9684013844488
 30
0.0
 10
104.8001491708486
 20
-147.9684013844488
 30
0.0
 10
104.8001491708486
 20
-148.1525417381354
 30
0.0
 10
104.8001491708486
 20
-148.1525417381354
 30
0.0
 10
104.7706936044497
 20
-148.1525417381354
 30
0.0
 10
104.7536403817977
 20
-148.1482353687789
 30
0.0
 10
104.5908596201196
 20
-148.1482353687789
 30
0.0
  0
HATCH
  5
ED
330
E6
100
AcDbEntity
  8
レイヤー 1
 62
    18
420
        0
440
 33554687
100
AcDbHatch
 10
0.0
 20
0.0
 30
0.0
210
0.0
220
0.0
230
1.0
  2
SOLID
 70
     1
 71
     1
 91
        3
 92
        1
 93
        1
 72
     4
 94
        3
 73
     0
 74
     0
 95
       17
 96
       13
 40
0.0
 40
0.0
 40
0.0
 40
0.0
 40
1.0
 40
1.0
 40
1.0
 40
2.0
 40
2.0
 40
2.0
 40
3.0
 40
3.0
 40
3.0
 40
4.0
 40
4.0
 40
4.0
 40
4.0
 10
104.0260362153129
 20
-148.5333970440298
 10
104.0089829926609
 20
-148.5628526104287
 10
103.9583400890278
 20
-148.6560424433047
 10
103.9476602930235
 20
-148.6749904684736
 10
104.1380018185835
 20
-148.7342461108199
 10
104.1591891558178
 20
-148.7406195374676
 10
104.2311916514595
 20
-148.7681803013496
 10
104.2861409244493
 20
-148.6813638951213
 10
104.3093953189747
 20
-148.6072943421884
 10
104.3242092295613
 20
-148.5333970440298
 10
104.3242092295613
 20
-148.5333970440298
 10
104.0260362153129
 20
-148.5333970440298
 10
104.0260362153129
 20
-148.5333970440298
 97
        0
 97
        1
330
EA
 92
        1
 93
        1
 72
     4
 94
        3
 73
     0
 74
     0
 95
       20
 96
       16
 40
0.0
 40
0.0
 40
0.0
 40
0.0
 40
1.0
 40
1.0
 40
1.0
 40
2.0
 40
2.0
 40
2.0
 40
3.0
 40
3.0
 40
3.0
 40
4.0
 40
4.0
 40
4.0
 40
5.0
 40
5.0
 40
5.0
 40
5.0
 10
103.9624742036101
 20
-147.6829752234959
 10
103.9624742036101
 20
-147.6829752234959
 10
103.9307793251458
 20
-147.6829752234959
 10
103.9307793251458
 20
-147.6829752234959
 10
103.9772881141966
 20
-147.7823662282454
 10
104.0089829926609
 20
-147.8626369530517
 10
104.0429171831906
 20
-147.9895887216831
 10
104.0429171831906
 20
-147.9895887216831
 10
104.2501396766284
 20
-147.9895887216831
 10
104.2501396766284
 20
-147.9895887216831
 10
104.282006809867
 20
-147.8965711435814
 10
104.3052612043924
 20
-147.8119940494185
 10
104.3285155989178
 20
-147.6829752234959
 10
104.3285155989178
 20
-147.6829752234959
 10
103.9624742036101
 20
-147.6829752234959
 10
103.9624742036101
 20
-147.6829752234959
 97
        0
 97
        1
330
EB
 92
        1
 93
        1
 72
     4
 94
        3
 73
     0
 74
     0
 95
      242
 96
      238
 40
0.0
 40
0.0
 40
0.0
 40
0.0
 40
1.0
 40
1.0
 40
1.0
 40
2.0
 40
2.0
 40
2.0
 40
3.0
 40
3.0
 40
3.0
 40
4.0
 40
4.0
 40
4.0
 40
5.0
 40
5.0
 40
5.0
 40
6.0
 40
6.0
 40
6.0
 40
7.0
 40
7.0
 40
7.0
 40
8.0
 40
8.0
 40
8.0
 40
9.0
 40
9.0
 40
9.0
 40
10.0
 40
10.0
 40
10.0
 40
11.0
 40
11.0
 40
11.0
 40
12.0
 40
12.0
 40
12.0
 40
13.0
 40
13.0
 40
13.0
 40
14.0
 40
14.0
 40
14.0
 40
15.0
 40
15.0
 40
15.0
 40
16.0
 40
16.0
 40
16.0
 40
17.0
 40
17.0
 40
17.0
 40
18.0
 40
18.0
 40
18.0
 40
19.0
 40
19.0
 40
19.0
 40
20.0
 40
20.0
 40
20.0
 40
21.0
 40
21.0
 40
21.0
 40
22.0
 40
22.0
 40
22.0
 40
23.0
 40
23.0
 40
23.0
 40
24.0
 40
24.0
 40
24.0
 40
25.0
 40
25.0
 40
25.0
 40
26.0
 40
26.0
 40
26.0
 40
27.0
 40
27.0
 40
27.0
 40
28.0
 40
28.0
 40
28.0
 40
29.0
 40
29.0
 40
29.0
 40
30.0
 40
30.0
 40
30.0
 40
31.0
 40
31.0
 40
31.0
 40
32.0
 40
32.0
 40
32.0
 40
33.0
 40
33.0
 40
33.0
 40
34.0
 40
34.0
 40
34.0
 40
35.0
 40
35.0
 40
35.0
 40
36.0
 40
36.0
 40
36.0
 40
37.0
 40
37.0
 40
37.0
 40
38.0
 40
38.0
 40
38.0
 40
39.0
 40
39.0
 40
39.0
 40
40.0
 40
40.0
 40
40.0
 40
41.0
 40
41.0
 40
41.0
 40
42.0
 40
42.0
 40
42.0
 40
43.0
 40
43.0
 40
43.0
 40
44.0
 40
44.0
 40
44.0
 40
45.0
 40
45.0
 40
45.0
 40
46.0
 40
46.0
 40
46.0
 40
47.0
 40
47.0
 40
47.0
 40
48.0
 40
48.0
 40
48.0
 40
49.0
 40
49.0
 40
49.0
 40
50.0
 40
50.0
 40
50.0
 40
51.0
 40
51.0
 40
51.0
 40
52.0
 40
52.0
 40
52.0
 40
53.0
 40
53.0
 40
53.0
 40
54.0
 40
54.0
 40
54.0
 40
55.0
 40
55.0
 40
55.0
 40
56.0
 40
56.0
 40
56.0
 40
57.0
 40
57.0
 40
57.0
 40
58.0
 40
58.0
 40
58.0
 40
59.0
 40
59.0
 40
59.0
 40
60.0
 40
60.0
 40
60.0
 40
61.0
 40
61.0
 40
61.0
 40
62.0
 40
62.0
 40
62.0
 40
63.0
 40
63.0
 40
63.0
 40
64.0
 40
64.0
 40
64.0
 40
65.0
 40
65.0
 40
65.0
 40
66.0
 40
66.0
 40
66.0
 40
67.0
 40
67.0
 40
67.0
 40
68.0
 40
68.0
 40
68.0
 40
69.0
 40
69.0
 40
69.0
 40
70.0
 40
70.0
 40
70.0
 40
71.0
 40
71.0
 40
71.0
 40
72.0
 40
72.0
 40
72.0
 40
73.0
 40
73.0
 40
73.0
 40
74.0
 40
74.0
 40
74.0
 40
75.0
 40
75.0
 40
75.0
 40
76.0
 40
76.0
 40
76.0
 40
77.0
 40
77.0
 40
77.0
 40
78.0
 40
78.0
 40
78.0
 40
79.0
 40
79.0
 40
79.0
 40
79.0
 10
104.5908596201196
 20
-148.1482353687789
 10
104.5908596201196
 20
-148.1482353687789
 10
104.3369560828567
 20
-148.1482353687789
 10
104.3369560828567
 20
-148.1482353687789
 10
104.3369560828567
 20
-148.1482353687789
 10
104.0597981510684
 20
-148.1482353687789
 10
104.0597981510684
 20
-148.1482353687789
 10
104.0597981510684
 20
-148.1482353687789
 10
104.1867499196998
 20
-148.1906100432475
 10
104.1867499196998
 20
-148.1906100432475
 10
104.1972574609298
 20
-148.194916412604
 10
104.2100043142253
 20
-148.2011175844775
 10
104.2100043142253
 20
-148.2138644377729
 10
104.2100043142253
 20
-148.2350517750072
 10
104.178309435761
 20
-148.2414252016549
 10
104.1571220985267
 20
-148.2455593162372
 10
104.1466145572967
 20
-148.2688137107626
 10
104.1169867361235
 20
-148.3344427797566
 10
104.0978664561804
 20
-148.3788845115164
 10
104.0978664561804
 20
-148.3788845115164
 10
104.368650961321
 20
-148.3788845115164
 10
104.368650961321
 20
-148.3788845115164
 10
104.4596014821316
 20
-148.3788845115164
 10
104.6563164343394
 20
-148.3745781421598
 10
104.7980821135574
 20
-148.3661376582209
 10
104.7980821135574
 20
-148.3661376582209
 10
104.7980821135574
 20
-148.5439045852599
 10
104.7980821135574
 20
-148.5439045852599
 10
104.7155720766857
 20
-148.5395982159033
 10
104.6943847394514
 20
-148.5395982159033
 10
104.5145507551213
 20
-148.535464101321
 10
104.482855876657
 20
-148.6898043790602
 10
104.4384141448973
 20
-148.7702473586407
 10
104.3939724131376
 20
-148.8400105422171
 10
104.5145507551213
 20
-148.8994384393376
 10
104.6204874412928
 20
-148.9669623108485
 10
104.7240125606245
 20
-149.0496446024945
 10
104.7240125606245
 20
-149.0496446024945
 10
104.6056735307062
 20
-149.2167317335291
 10
104.6056735307062
 20
-149.2167317335291
 10
104.5824191361808
 20
-149.1977837083602
 10
104.5696722828853
 20
-149.1891709696471
 10
104.4575344248405
 20
-149.10442162071
 10
104.4087863237242
 20
-149.0665255703722
 10
104.3497029361521
 20
-149.0306965773257
 10
104.2692599565715
 20
-148.9862548455659
 10
104.0577310937772
 20
-149.1722900017694
 10
103.8524034028563
 20
-149.1957166510691
 10
103.5626708725468
 20
-149.2253444722423
 10
103.5626708725468
 20
-149.2253444722423
 10
103.4589734984408
 20
-149.0455104879122
 10
103.4589734984408
 20
-149.0455104879122
 10
103.7762667926323
 20
-149.0410318637814
 10
103.95196666238
 20
-149.0158826667391
 10
104.1042398828281
 20
-148.9056396112111
 10
103.9857285981355
 20
-148.8548244528036
 10
103.8968451346161
 20
-148.8274359436959
 10
103.8610161415695
 20
-148.8146890904005
 10
103.8418958616263
 20
-148.8422498542825
 10
103.8270819510397
 20
-148.8611978794514
 10
103.7995211871577
 20
-148.8953043247553
 10
103.7995211871577
 20
-148.8953043247553
 10
103.60280623495
 20
-148.8126220331093
 10
103.60280623495
 20
-148.8126220331093
 10
103.6853162718217
 20
-148.7321790535288
 10
103.7466389714591
 20
-148.6369221633616
 10
103.8038275565143
 20
-148.535464101321
 10
103.6134860309543
 20
-148.5395982159033
 10
103.5922986937199
 20
-148.5395982159033
 10
103.5097886568482
 20
-148.5439045852599
 10
103.5097886568482
 20
-148.5439045852599
 10
103.5097886568482
 20
-148.3661376582209
 10
103.5097886568482
 20
-148.3661376582209
 10
103.6493150240008
 20
-148.3725110848687
 10
103.858776829504
 20
-148.3768174542252
 10
103.8842705360949
 20
-148.3768174542252
 10
103.9011515039726
 20
-148.3428832636955
 10
103.9561007769624
 20
-148.2223049217117
 10
103.9752210569055
 20
-148.1482353687789
 10
103.9561007769624
 20
-148.1482353687789
 10
103.7785061046977
 20
-148.1546087954266
 10
103.5838582097811
 20
-148.167355648722
 10
103.5838582097811
 20
-148.167355648722
 10
103.5838582097811
 20
-148.3006808440012
 10
103.5838582097811
 20
-148.3006808440012
 10
103.5351101086648
 20
-148.3260022958178
 10
103.4758544663185
 20
-148.3576971742821
 10
103.3427015258136
 20
-148.4233262432761
 10
103.3427015258136
 20
-148.4233262432761
 10
103.3427015258136
 20
-148.5692260370764
 10
103.3427015258136
 20
-148.5692260370764
 10
103.3427015258136
 20
-148.5692260370764
 10
103.3427015258136
 20
-149.0368977491991
 10
103.3427015258136
 20
-149.0368977491991
 10
103.3427015258136
 20
-149.1636772630563
 10
103.3067002779928
 20
-149.2229329054026
 10
103.0231689195567
 20
-149.214664676238
 10
103.0231689195567
 20
-149.214664676238
 10
102.9194715454507
 20
-149.0072699280259
 10
102.9194715454507
 20
-149.0072699280259
 10
102.9830335571535
 20
-149.0200167813214
 10
103.0316094034956
 20
-149.0241508959037
 10
103.071917020673
 20
-149.0241508959037
 10
103.148053630897
 20
-149.0241508959037
 10
103.158561172127
 20
-149.0010687561525
 10
103.158561172127
 20
-148.9352674323842
 10
103.158561172127
 20
-148.9352674323842
 10
103.158561172127
 20
-148.5058362801478
 10
103.158561172127
 20
-148.5058362801478
 10
103.0612372246687
 20
-148.545971642551
 10
103.044356256791
 20
-148.5523450691987
 10
102.9978474677401
 20
-148.5714653491418
 10
102.9935410983835
 20
-148.5924804316019
 10
102.9894069838012
 20
-148.622108252775
 10
102.9702867038581
 20
-148.622108252775
 10
102.9618462199192
 20
-148.622108252775
 10
102.9513386786892
 20
-148.6179741381927
 10
102.9449652520415
 20
-148.5947197436673
 10
102.9449652520415
 20
-148.5947197436673
 10
102.8920830363429
 20
-148.4021389060418
 10
102.8920830363429
 20
-148.4021389060418
 10
103.0379828301433
 20
-148.3556301169909
 10
103.1036118991373
 20
-148.3323757224655
 10
103.158561172127
 20
-148.3111883852312
 10
103.158561172127
 20
-148.3111883852312
 10
103.158561172127
 20
-147.8986382008725
 10
103.158561172127
 20
-147.8986382008725
 10
103.158561172127
 20
-147.8986382008725
 10
103.1056789564284
 20
-147.8986382008725
 10
103.1056789564284
 20
-147.8986382008725
 10
103.1056789564284
 20
-147.8986382008725
 10
103.0274752889132
 20
-147.8986382008725
 10
103.0274752889132
 20
-147.8986382008725
 10
102.9597791626281
 20
-147.8986382008725
 10
102.9513386786892
 20
-147.8986382008725
 10
102.9153374308684
 20
-147.9050116275202
 10
102.9153374308684
 20
-147.9050116275202
 10
102.9153374308684
 20
-147.7103637326036
 10
102.9153374308684
 20
-147.7103637326036
 10
102.9428981947503
 20
-147.7167371592513
 10
102.9513386786892
 20
-147.7167371592513
 10
103.0211018622655
 20
-147.7167371592513
 10
103.0211018622655
 20
-147.7167371592513
 10
103.1544270575447
 20
-147.7167371592513
 10
103.1544270575447
 20
-147.7167371592513
 10
103.1544270575447
 20
-147.646973975675
 10
103.1544270575447
 20
-147.5644639388033
 10
103.1521877454793
 20
-147.5601575694468
 10
103.1437472615404
 20
-147.3803235851167
 10
103.1437472615404
 20
-147.3613755599478
 10
103.1416802042493
 20
-147.314866770897
 10
103.1416802042493
 20
-147.314866770897
 10
103.3575154364002
 20
-147.3233072548358
 10
103.3575154364002
 20
-147.3233072548358
 10
103.3680229776302
 20
-147.3233072548358
 10
103.3892103148645
 20
-147.325374312127
 10
103.3892103148645
 20
-147.3422552800047
 10
103.3892103148645
 20
-147.3613755599478
 10
103.3743964042779
 20
-147.3718831011779
 10
103.3490749524613
 20
-147.391003381121
 10
103.3490749524613
 20
-147.4416462847542
 10
103.3427015258136
 20
-147.6702283702005
 10
103.3447685831047
 20
-147.7167371592513
 10
103.4737874090274
 20
-147.7167371592513
 10
103.4865342623228
 20
-147.7167371592513
 10
103.5838582097811
 20
-147.7082966753125
 10
103.5838582097811
 20
-147.7082966753125
 10
103.5838582097811
 20
-147.9029445702291
 10
103.5838582097811
 20
-147.9029445702291
 10
103.5457899046691
 20
-147.9007052581637
 10
103.4780937783839
 20
-147.8965711435814
 10
103.3427015258136
 20
-147.8986382008725
 10
103.3427015258136
 20
-147.8986382008725
 10
103.3427015258136
 20
-148.2371188322983
 10
103.3427015258136
 20
-148.2371188322983
 10
103.3976507988033
 20
-148.2138644377729
 10
103.4632798677973
 20
-148.1863036738909
 10
103.5118557141394
 20
-148.1630492793654
 10
103.5118557141394
 20
-148.1630492793654
 10
103.5118557141394
 20
-147.9854546071009
 10
103.5118557141394
 20
-147.9854546071009
 10
103.6260606294754
 20
-147.998029205622
 10
103.744571914168
 20
-147.998029205622
 10
103.8610161415695
 20
-147.998029205622
 10
103.8375894922697
 20
-147.9029445702291
 10
103.810200983162
 20
-147.8204345333574
 10
103.7466389714591
 20
-147.6871093380782
 10
103.7021972396994
 20
-147.6891763953694
 10
103.619859457602
 20
-147.6934827647259
 10
103.5816188977157
 20
-147.6955498220171
 10
103.5816188977157
 20
-147.6955498220171
 10
103.5816188977157
 20
-147.515715837687
 10
103.5816188977157
 20
-147.515715837687
 10
103.706503609056
 20
-147.5241563216259
 10
103.8799641667383
 20
-147.5284626909824
 10
103.9624742036101
 20
-147.5284626909824
 10
103.9624742036101
 20
-147.5284626909824
 10
104.0449842404818
 20
-147.5284626909824
 10
104.0449842404818
 20
-147.5284626909824
 10
104.0449842404818
 20
-147.3655096745301
 10
104.0449842404818
 20
-147.3550021333001
 10
104.0429171831906
 20
-147.3000528603104
 10
104.0429171831906
 20
-147.3000528603104
 10
104.2671928992804
 20
-147.325374312127
 10
104.2671928992804
 20
-147.325374312127
 10
104.2713270138627
 20
-147.325374312127
 10
104.292514351097
 20
-147.3274413694181
 10
104.292514351097
 20
-147.3443223372958
 10
104.292514351097
 20
-147.3591362478824
 10
104.282006809867
 20
-147.3677489865955
 10
104.254446045985
 20
-147.3825628971821
 10
104.2480726193373
 20
-147.4480197114019
 10
104.2460055620461
 20
-147.4692070486361
 10
104.2460055620461
 20
-147.5284626909824
 10
104.2460055620461
 20
-147.5284626909824
 10
104.341090197439
 20
-147.5284626909824
 10
104.341090197439
 20
-147.5284626909824
 10
104.4236002343107
 20
-147.5284626909824
 10
104.5970607919931
 20
-147.5241563216259
 10
104.7219455033334
 20
-147.515715837687
 10
104.7219455033334
 20
-147.515715837687
 10
104.7219455033334
 20
-147.6955498220171
 10
104.7219455033334
 20
-147.6955498220171
 10
104.6923176821602
 20
-147.6934827647259
 10
104.5738063974676
 20
-147.6891763953694
 10
104.5336710350645
 20
-147.6871093380782
 10
104.5188571244779
 20
-147.7379244964857
 10
104.4850951887225
 20
-147.8500623545305
 10
104.4194661197284
 20
-147.9895887216831
 10
104.4616685394228
 20
-147.9895887216831
 10
104.7388264712111
 20
-147.9706406965143
 10
104.8001491708486
 20
-147.9684013844488
 10
104.8001491708486
 20
-147.9684013844488
 10
104.8001491708486
 20
-148.1525417381354
 10
104.8001491708486
 20
-148.1525417381354
 10
104.7706936044497
 20
-148.1525417381354
 10
104.7536403817977
 20
-148.1482353687789
 10
104.5908596201196
 20
-148.1482353687789
 97
        0
 97
        1
330
EC
 75
     2
 76
     1
 98
        1
 10
0.0
 20
0.0
450
        0
451
        0
460
0.0
461
0.0
452
        0
462
0.0
453
        0
470

  0
SPLINE
  5
EE
330
E6
100
AcDbEntity
  8
レイヤー 1
100
AcDbSpline
210
0.0
220
0.0
230
1.0
 70
    11
 71
     3
 72
    17
 73
    13
 74
     0
 42
0.0000000001
 43
0.0000000001
 40
0.0
 40
0.0
 40
0.0
 40
0.0
 40
1.0
 40
1.0
 40
1.0
 40
2.0
 40
2.0
 40
2.0
 40
3.0
 40
3.0
 40
3.0
 40
4.0
 40
4.0
 40
4.0
 40
4.0
 10
106.4472493223465
 20
-148.9480142856796
 30
0.0
 10
106.4472493223465
 20
-148.9480142856796
 30
0.0
 10
105.7406602383218
 20
-148.9480142856796
 30
0.0
 10
105.7406602383218
 20
-148.9480142856796
 30
0.0
 10
105.7406602383218
 20
-148.9480142856796
 30
0.0
 10
105.7406602383218
 20
-149.0623914557899
 30
0.0
 10
105.7406602383218
 20
-149.0623914557899
 30
0.0
 10
105.7406602383218
 20
-149.0623914557899
 30
0.0
 10
106.4472493223465
 20
-149.0623914557899
 30
0.0
 10
106.4472493223465
 20
-149.0623914557899
 30
0.0
 10
106.4472493223465
 20
-149.0623914557899
 30
0.0
 10
106.4472493223465
 20
-148.9480142856796
 30
0.0
 10
106.4472493223465
 20
-148.9480142856796
 30
0.0
  0
SPLINE
  5
EF
330
E6
100
AcDbEntity
  8
レイヤー 1
100
AcDbSpline
210
0.0
220
0.0
230
1.0
 70
    11
 71
     3
 72
    17
 73
    13
 74
     0
 42
0.0000000001
 43
0.0000000001
 40
0.0
 40
0.0
 40
0.0
 40
0.0
 40
1.0
 40
1.0
 40
1.0
 40
2.0
 40
2.0
 40
2.0
 40
3.0
 40
3.0
 40
3.0
 40
4.0
 40
4.0
 40
4.0
 40
4.0
 10
106.4472493223465
 20
-148.7046182896467
 30
0.0
 10
106.4472493223465
 20
-148.7046182896467
 30
0.0
 10
105.7406602383218
 20
-148.7046182896467
 30
0.0
 10
105.7406602383218
 20
-148.7046182896467
 30
0.0
 10
105.7406602383218
 20
-148.7046182896467
 30
0.0
 10
105.7406602383218
 20
-148.818995459757
 30
0.0
 10
105.7406602383218
 20
-148.818995459757
 30
0.0
 10
105.7406602383218
 20
-148.818995459757
 30
0.0
 10
106.4472493223465
 20
-148.818995459757
 30
0.0
 10
106.4472493223465
 20
-148.818995459757
 30
0.0
 10
106.4472493223465
 20
-148.818995459757
 30
0.0
 10
106.4472493223465
 20
-148.7046182896467
 30
0.0
 10
106.4472493223465
 20
-148.7046182896467
 30
0.0
  0
SPLINE
  5
F0
330
E6
100
AcDbEntity
  8
レイヤー 1
100
AcDbSpline
210
0.0
220
0.0
230
1.0
 70
    11
 71
     3
 72
    17
 73
    13
 74
     0
 42
0.0000000001
 43
0.0000000001
 40
0.0
 40
0.0
 40
0.0
 40
0.0
 40
1.0
 40
1.0
 40
1.0
 40
2.0
 40
2.0
 40
2.0
 40
3.0
 40
3.0
 40
3.0
 40
4.0
 40
4.0
 40
4.0
 40
4.0
 10
106.4472493223465
 20
-148.4719020896181
 30
0.0
 10
106.4472493223465
 20
-148.4719020896181
 30
0.0
 10
105.7406602383218
 20
-148.4719020896181
 30
0.0
 10
105.7406602383218
 20
-148.4719020896181
 30
0.0
 10
105.7406602383218
 20
-148.4719020896181
 30
0.0
 10
105.7406602383218
 20
-148.5799058330807
 30
0.0
 10
105.7406602383218
 20
-148.5799058330807
 30
0.0
 10
105.7406602383218
 20
-148.5799058330807
 30
0.0
 10
106.4472493223465
 20
-148.5799058330807
 30
0.0
 10
106.4472493223465
 20
-148.5799058330807
 30
0.0
 10
106.4472493223465
 20
-148.5799058330807
 30
0.0
 10
106.4472493223465
 20
-148.4719020896181
 30
0.0
 10
106.4472493223465
 20
-148.4719020896181
 30
0.0
  0
SPLINE
  5
F1
330
E6
100
AcDbEntity
  8
レイヤー 1
100
AcDbSpline
210
0.0
220
0.0
230
1.0
 70
     9
 71
     3
 72
   203
 73
   199
 74
     0
 42
0.0000000001
 43
0.0000000001
 40
0.0
 40
0.0
 40
0.0
 40
0.0
 40
1.0
 40
1.0
 40
1.0
 40
2.0
 40
2.0
 40
2.0
 40
3.0
 40
3.0
 40
3.0
 40
4.0
 40
4.0
 40
4.0
 40
5.0
 40
5.0
 40
5.0
 40
6.0
 40
6.0
 40
6.0
 40
7.0
 40
7.0
 40
7.0
 40
8.0
 40
8.0
 40
8.0
 40
9.0
 40
9.0
 40
9.0
 40
10.0
 40
10.0
 40
10.0
 40
11.0
 40
11.0
 40
11.0
 40
12.0
 40
12.0
 40
12.0
 40
13.0
 40
13.0
 40
13.0
 40
14.0
 40
14.0
 40
14.0
 40
15.0
 40
15.0
 40
15.0
 40
16.0
 40
16.0
 40
16.0
 40
17.0
 40
17.0
 40
17.0
 40
18.0
 40
18.0
 40
18.0
 40
19.0
 40
19.0
 40
19.0
 40
20.0
 40
20.0
 40
20.0
 40
21.0
 40
21.0
 40
21.0
 40
22.0
 40
22.0
 40
22.0
 40
23.0
 40
23.0
 40
23.0
 40
24.0
 40
24.0
 40
24.0
 40
25.0
 40
25.0
 40
25.0
 40
26.0
 40
26.0
 40
26.0
 40
27.0
 40
27.0
 40
27.0
 40
28.0
 40
28.0
 40
28.0
 40
29.0
 40
29.0
 40
29.0
 40
30.0
 40
30.0
 40
30.0
 40
31.0
 40
31.0
 40
31.0
 40
32.0
 40
32.0
 40
32.0
 40
33.0
 40
33.0
 40
33.0
 40
34.0
 40
34.0
 40
34.0
 40
35.0
 40
35.0
 40
35.0
 40
36.0
 40
36.0
 40
36.0
 40
37.0
 40
37.0
 40
37.0
 40
38.0
 40
38.0
 40
38.0
 40
39.0
 40
39.0
 40
39.0
 40
40.0
 40
40.0
 40
40.0
 40
41.0
 40
41.0
 40
41.0
 40
42.0
 40
42.0
 40
42.0
 40
43.0
 40
43.0
 40
43.0
 40
44.0
 40
44.0
 40
44.0
 40
45.0
 40
45.0
 40
45.0
 40
46.0
 40
46.0
 40
46.0
 40
47.0
 40
47.0
 40
47.0
 40
48.0
 40
48.0
 40
48.0
 40
49.0
 40
49.0
 40
49.0
 40
50.0
 40
50.0
 40
50.0
 40
51.0
 40
51.0
 40
51.0
 40
52.0
 40
52.0
 40
52.0
 40
53.0
 40
53.0
 40
53.0
 40
54.0
 40
54.0
 40
54.0
 40
55.0
 40
55.0
 40
55.0
 40
56.0
 40
56.0
 40
56.0
 40
57.0
 40
57.0
 40
57.0
 40
58.0
 40
58.0
 40
58.0
 40
59.0
 40
59.0
 40
59.0
 40
60.0
 40
60.0
 40
60.0
 40
61.0
 40
61.0
 40
61.0
 40
62.0
 40
62.0
 40
62.0
 40
63.0
 40
63.0
 40
63.0
 40
64.0
 40
64.0
 40
64.0
 40
65.0
 40
65.0
 40
65.0
 40
66.0
 40
66.0
 40
66.0
 40
66.0
 10
106.282229248603
 20
-148.215931495064
 30
0.0
 10
106.282229248603
 20
-148.215931495064
 30
0.0
 10
105.723779270444
 20
-148.215931495064
 30
0.0
 10
105.723779270444
 20
-148.215931495064
 30
0.0
 10
105.7130994744398
 20
-148.2603732268238
 30
0.0
 10
105.7044867357266
 20
-148.2920681052881
 30
0.0
 10
105.6920843919797
 20
-148.3303086651743
 30
0.0
 10
105.7172335890221
 20
-148.3303086651743
 30
0.0
 10
105.7320474996086
 20
-148.3323757224655
 30
0.0
 10
105.7385931810306
 20
-148.3323757224655
 30
0.0
 10
105.7385931810306
 20
-148.3323757224655
 30
0.0
 10
105.9266953945253
 20
-148.3323757224655
 30
0.0
 10
105.9266953945253
 20
-148.3323757224655
 30
0.0
 10
105.9266953945253
 20
-148.3323757224655
 30
0.0
 10
106.3011772737719
 20
-148.3323757224655
 30
0.0
 10
106.3011772737719
 20
-148.3323757224655
 30
0.0
 10
106.3518201774051
 20
-148.3323757224655
 30
0.0
 10
106.6353515358411
 20
-148.3196288691701
 30
0.0
 10
106.6670464143054
 20
-148.3196288691701
 30
0.0
 10
106.6649793570143
 20
-148.3471896330521
 30
0.0
 10
106.6629122997231
 20
-148.3661376582209
 30
0.0
 10
106.6629122997231
 20
-148.3957654793941
 30
0.0
 10
106.660845242432
 20
-148.4274603578584
 30
0.0
 10
106.660845242432
 20
-148.5628526104287
 30
0.0
 10
106.660845242432
 20
-148.5904133743107
 30
0.0
 10
106.660845242432
 20
-148.5904133743107
 30
0.0
 10
106.660845242432
 20
-148.8358764276348
 30
0.0
 10
106.660845242432
 20
-148.8358764276348
 30
0.0
 10
106.660845242432
 20
-148.8804904141687
 30
0.0
 10
106.6649793570143
 20
-149.0772053663765
 30
0.0
 10
106.6694579811451
 20
-149.2294785868246
 30
0.0
 10
106.6694579811451
 20
-149.2294785868246
 30
0.0
 10
106.4427706982157
 20
-149.2294785868246
 30
0.0
 10
106.4427706982157
 20
-149.2294785868246
 30
0.0
 10
106.4427706982157
 20
-149.2294785868246
 30
0.0
 10
106.4451822650553
 20
-149.1957166510691
 30
0.0
 10
106.4451822650553
 20
-149.1957166510691
 30
0.0
 10
106.4451822650553
 20
-149.1957166510691
 30
0.0
 10
105.7427272956129
 20
-149.1957166510691
 30
0.0
 10
105.7427272956129
 20
-149.1957166510691
 30
0.0
 10
105.7427272956129
 20
-149.1957166510691
 30
0.0
 10
105.7447943529041
 20
-149.2294785868246
 30
0.0
 10
105.7447943529041
 20
-149.2294785868246
 30
0.0
 10
105.7447943529041
 20
-149.2294785868246
 30
0.0
 10
105.5270643182363
 20
-149.2294785868246
 30
0.0
 10
105.5270643182363
 20
-149.2294785868246
 30
0.0
 10
105.5311984328186
 20
-149.1743570590606
 30
0.0
 10
105.5311984328186
 20
-149.1616102057651
 30
0.0
 10
105.537399604692
 20
-149.0475775452034
 30
0.0
 10
105.5394666619832
 20
-149.0200167813214
 30
0.0
 10
105.5418782288228
 20
-148.8866915860422
 30
0.0
 10
105.5418782288228
 20
-148.8675713060991
 30
0.0
 10
105.5418782288228
 20
-148.8675713060991
 30
0.0
 10
105.5418782288228
 20
-148.6644829272436
 30
0.0
 10
105.5418782288228
 20
-148.6644829272436
 30
0.0
 10
105.402179606896
 20
-148.9142523499242
 30
0.0
 10
105.2330254185702
 20
-149.0455104879122
 30
0.0
 10
105.127260987173
 20
-149.110967302132
 30
0.0
 10
105.127260987173
 20
-149.110967302132
 30
0.0
 10
104.9536281747164
 20
-148.9714409349794
 30
0.0
 10
104.9536281747164
 20
-148.9714409349794
 30
0.0
 10
105.0425116382359
 20
-148.9204535217977
 30
0.0
 10
105.1863443747451
 20
-148.8336371155694
 30
0.0
 10
105.3239759393808
 20
-148.639161475427
 30
0.0
 10
105.4149264601914
 20
-148.5122097067955
 30
0.0
 10
105.4805555291854
 20
-148.3683769702864
 30
0.0
 10
105.5143174649408
 20
-148.215931495064
 30
0.0
 10
105.2859076342688
 20
-148.2181708071295
 30
0.0
 10
105.1060736499387
 20
-148.2245442337772
 30
0.0
 10
105.0108167597716
 20
-148.2266112910683
 30
0.0
 10
105.0108167597716
 20
-148.2266112910683
 30
0.0
 10
105.0108167597716
 20
-148.0488443640294
 30
0.0
 10
105.0108167597716
 20
-148.0488443640294
 30
0.0
 10
105.2075317119793
 20
-148.0552177906772
 30
0.0
 10
105.4908908156411
 20
-148.0595241600337
 30
0.0
 10
105.641096978798
 20
-148.0595241600337
 30
0.0
 10
105.641096978798
 20
-148.0595241600337
 30
0.0
 10
105.8546928988835
 20
-148.0595241600337
 30
0.0
 10
105.8546928988835
 20
-148.0595241600337
 30
0.0
 10
105.8546928988835
 20
-148.0595241600337
 30
0.0
 10
105.8546928988835
 20
-147.9515204165711
 30
0.0
 10
105.8546928988835
 20
-147.9515204165711
 30
0.0
 10
105.8546928988835
 20
-147.9515204165711
 30
0.0
 10
105.7089653598575
 20
-147.9515204165711
 30
0.0
 10
105.7089653598575
 20
-147.9515204165711
 30
0.0
 10
105.5394666619832
 20
-147.9515204165711
 30
0.0
 10
105.3704847284317
 20
-147.9558267859277
 30
0.0
 10
105.203397597397
 20
-147.9622002125754
 30
0.0
 10
105.203397597397
 20
-147.9622002125754
 30
0.0
 10
105.203397597397
 20
-147.7908067121842
 30
0.0
 10
105.203397597397
 20
-147.7908067121842
 30
0.0
 10
105.3577378751362
 20
-147.8013142534142
 30
0.0
 10
105.543945286114
 20
-147.8013142534142
 30
0.0
 10
105.7089653598575
 20
-147.8013142534142
 30
0.0
 10
105.7089653598575
 20
-147.8013142534142
 30
0.0
 10
105.8546928988835
 20
-147.8013142534142
 30
0.0
 10
105.8546928988835
 20
-147.8013142534142
 30
0.0
 10
105.8546928988835
 20
-147.8013142534142
 30
0.0
 10
105.8546928988835
 20
-147.6829752234959
 30
0.0
 10
105.8546928988835
 20
-147.6829752234959
 30
0.0
 10
105.8546928988835
 20
-147.6829752234959
 30
0.0
 10
105.723779270444
 20
-147.6829752234959
 30
0.0
 10
105.723779270444
 20
-147.6829752234959
 30
0.0
 10
105.6772704813932
 20
-147.6829752234959
 30
0.0
 10
105.4741821025377
 20
-147.6914157074348
 30
0.0
 10
105.4318074280691
 20
-147.6914157074348
 30
0.0
 10
105.2287190492136
 20
-147.6955498220171
 30
0.0
 10
105.1525824389896
 20
-147.6976168793082
 30
0.0
 10
105.0743787714744
 20
-147.6998561913736
 30
0.0
 10
105.0743787714744
 20
-147.6998561913736
 30
0.0
 10
105.0743787714744
 20
-147.515715837687
 30
0.0
 10
105.0743787714744
 20
-147.515715837687
 30
0.0
 10
105.1885836868105
 20
-147.5241563216259
 30
0.0
 10
105.2330254185702
 20
-147.5241563216259
 30
0.0
 10
105.6159477817557
 20
-147.532769060339
 30
0.0
 10
105.5522135152786
 20
-147.4375121701719
 30
0.0
 10
105.5246527513966
 20
-147.4099514062898
 30
0.0
 10
105.48882375835
 20
-147.373950158469
 30
0.0
 10
105.48882375835
 20
-147.373950158469
 30
0.0
 10
105.6645236280977
 20
-147.2914401215972
 30
0.0
 10
105.6645236280977
 20
-147.2914401215972
 30
0.0
 10
105.7044867357266
 20
-147.3274413694181
 30
0.0
 10
105.7489284674864
 20
-147.3698160438867
 30
0.0
 10
105.8229980204192
 20
-147.4797145898661
 30
0.0
 10
105.8229980204192
 20
-147.4797145898661
 30
0.0
 10
105.7089653598575
 20
-147.5348361176302
 30
0.0
 10
105.7089653598575
 20
-147.5348361176302
 30
0.0
 10
105.7089653598575
 20
-147.5348361176302
 30
0.0
 10
105.7193006463132
 20
-147.5348361176302
 30
0.0
 10
105.7193006463132
 20
-147.5348361176302
 30
0.0
 10
105.7193006463132
 20
-147.5348361176302
 30
0.0
 10
106.2419216314256
 20
-147.5348361176302
 30
0.0
 10
106.2419216314256
 20
-147.5348361176302
 30
0.0
 10
106.2419216314256
 20
-147.5348361176302
 30
0.0
 10
106.1468369960327
 20
-147.4903943858705
 30
0.0
 10
106.1468369960327
 20
-147.4903943858705
 30
0.0
 10
106.1743977599147
 20
-147.4523260807584
 30
0.0
 10
106.2312418354213
 20
-147.3718831011779
 30
0.0
 10
106.2460557460079
 20
-147.297813548245
 30
0.0
 10
106.2460557460079
 20
-147.297813548245
 30
0.0
 10
106.4599961756419
 20
-147.3613755599478
 30
0.0
 10
106.4599961756419
 20
-147.3613755599478
 30
0.0
 10
106.4682644048065
 20
-147.363442617239
 30
0.0
 10
106.4896239968151
 20
-147.373950158469
 30
0.0
 10
106.4896239968151
 20
-147.3951374957033
 30
0.0
 10
106.4896239968151
 20
-147.4332058008153
 30
0.0
 10
106.4238226730468
 20
-147.4332058008153
 30
0.0
 10
106.4048746478779
 20
-147.4332058008153
 30
0.0
 10
106.3941948518736
 20
-147.4523260807584
 30
0.0
 10
106.3711127121225
 20
-147.4924614431616
 30
0.0
 10
106.3414848909493
 20
-147.532769060339
 30
0.0
 10
106.7411159672383
 20
-147.5263956336913
 30
0.0
 10
106.7707437884115
 20
-147.5241563216259
 30
0.0
 10
106.8468803986355
 20
-147.5179551497524
 30
0.0
 10
106.8468803986355
 20
-147.5179551497524
 30
0.0
 10
106.8468803986355
 20
-147.6998561913736
 30
0.0
 10
106.8468803986355
 20
-147.6998561913736
 30
0.0
 10
106.8279323734666
 20
-147.6998561913736
 30
0.0
 10
106.8024386668758
 20
-147.6976168793082
 30
0.0
 10
106.5826415749168
 20
-147.6891763953694
 30
0.0
 10
106.5316541617351
 20
-147.6871093380782
 30
0.0
 10
106.3118570697762
 20
-147.6829752234959
 30
0.0
 10
106.2674153380165
 20
-147.6829752234959
 30
0.0
 10
106.2674153380165
 20
-147.6829752234959
 30
0.0
 10
106.0514078510913
 20
-147.6829752234959
 30
0.0
 10
106.0514078510913
 20
-147.6829752234959
 30
0.0
 10
106.0514078510913
 20
-147.6829752234959
 30
0.0
 10
106.0514078510913
 20
-147.8013142534142
 30
0.0
 10
106.0514078510913
 20
-147.8013142534142
 30
0.0
 10
106.0514078510913
 20
-147.8013142534142
 30
0.0
 10
106.2250406635479
 20
-147.8013142534142
 30
0.0
 10
106.2250406635479
 20
-147.8013142534142
 30
0.0
 10
106.3879936800002
 20
-147.8013142534142
 30
0.0
 10
106.578162950786
 20
-147.8013142534142
 30
0.0
 10
106.7349147953649
 20
-147.7908067121842
 30
0.0
 10
106.7349147953649
 20
-147.7908067121842
 30
0.0
 10
106.7349147953649
 20
-147.9622002125754
 30
0.0
 10
106.7349147953649
 20
-147.9622002125754
 30
0.0
 10
106.5254529898617
 20
-147.9537597286365
 30
0.0
 10
106.3287380376539
 20
-147.9515204165711
 30
0.0
 10
106.2250406635479
 20
-147.9515204165711
 30
0.0
 10
106.2250406635479
 20
-147.9515204165711
 30
0.0
 10
106.0514078510913
 20
-147.9515204165711
 30
0.0
 10
106.0514078510913
 20
-147.9515204165711
 30
0.0
 10
106.0514078510913
 20
-147.9515204165711
 30
0.0
 10
106.0514078510913
 20
-148.0595241600337
 30
0.0
 10
106.0514078510913
 20
-148.0595241600337
 30
0.0
 10
106.0514078510913
 20
-148.0595241600337
 30
0.0
 10
106.282229248603
 20
-148.0595241600337
 30
0.0
 10
106.282229248603
 20
-148.0595241600337
 30
0.0
 10
106.4155544438822
 20
-148.0595241600337
 30
0.0
 10
106.7032199169006
 20
-148.0552177906772
 30
0.0
 10
106.9126817224038
 20
-148.0488443640294
 30
0.0
 10
106.9126817224038
 20
-148.0488443640294
 30
0.0
 10
106.9126817224038
 20
-148.2266112910683
 30
0.0
 10
106.9126817224038
 20
-148.2266112910683
 30
0.0
 10
106.7201008847783
 20
-148.2202378644206
 30
0.0
 10
106.4069417051691
 20
-148.215931495064
 30
0.0
 10
106.282229248603
 20
-148.215931495064
 30
0.0
  0
HATCH
  5
F2
330
E6
100
AcDbEntity
  8
レイヤー 1
 62
    18
420
        0
440
 33554687
100
AcDbHatch
 10
0.0
 20
0.0
 30
0.0
210
0.0
220
0.0
230
1.0
  2
SOLID
 70
     1
 71
     1
 91
        4
 92
        1
 93
        1
 72
     4
 94
        3
 73
     0
 74
     0
 95
       17
 96
       13
 40
0.0
 40
0.0
 40
0.0
 40
0.0
 40
1.0
 40
1.0
 40
1.0
 40
2.0
 40
2.0
 40
2.0
 40
3.0
 40
3.0
 40
3.0
 40
4.0
 40
4.0
 40
4.0
 40
4.0
 10
106.4472493223465
 20
-148.9480142856796
 10
106.4472493223465
 20
-148.9480142856796
 10
105.7406602383218
 20
-148.9480142856796
 10
105.7406602383218
 20
-148.9480142856796
 10
105.7406602383218
 20
-148.9480142856796
 10
105.7406602383218
 20
-149.0623914557899
 10
105.7406602383218
 20
-149.0623914557899
 10
105.7406602383218
 20
-149.0623914557899
 10
106.4472493223465
 20
-149.0623914557899
 10
106.4472493223465
 20
-149.0623914557899
 10
106.4472493223465
 20
-149.0623914557899
 10
106.4472493223465
 20
-148.9480142856796
 10
106.4472493223465
 20
-148.9480142856796
 97
        0
 97
        1
330
EE
 92
        1
 93
        1
 72
     4
 94
        3
 73
     0
 74
     0
 95
       17
 96
       13
 40
0.0
 40
0.0
 40
0.0
 40
0.0
 40
1.0
 40
1.0
 40
1.0
 40
2.0
 40
2.0
 40
2.0
 40
3.0
 40
3.0
 40
3.0
 40
4.0
 40
4.0
 40
4.0
 40
4.0
 10
106.4472493223465
 20
-148.7046182896467
 10
106.4472493223465
 20
-148.7046182896467
 10
105.7406602383218
 20
-148.7046182896467
 10
105.7406602383218
 20
-148.7046182896467
 10
105.7406602383218
 20
-148.7046182896467
 10
105.7406602383218
 20
-148.818995459757
 10
105.7406602383218
 20
-148.818995459757
 10
105.7406602383218
 20
-148.818995459757
 10
106.4472493223465
 20
-148.818995459757
 10
106.4472493223465
 20
-148.818995459757
 10
106.4472493223465
 20
-148.818995459757
 10
106.4472493223465
 20
-148.7046182896467
 10
106.4472493223465
 20
-148.7046182896467
 97
        0
 97
        1
330
EF
 92
        1
 93
        1
 72
     4
 94
        3
 73
     0
 74
     0
 95
       17
 96
       13
 40
0.0
 40
0.0
 40
0.0
 40
0.0
 40
1.0
 40
1.0
 40
1.0
 40
2.0
 40
2.0
 40
2.0
 40
3.0
 40
3.0
 40
3.0
 40
4.0
 40
4.0
 40
4.0
 40
4.0
 10
106.4472493223465
 20
-148.4719020896181
 10
106.4472493223465
 20
-148.4719020896181
 10
105.7406602383218
 20
-148.4719020896181
 10
105.7406602383218
 20
-148.4719020896181
 10
105.7406602383218
 20
-148.4719020896181
 10
105.7406602383218
 20
-148.5799058330807
 10
105.7406602383218
 20
-148.5799058330807
 10
105.7406602383218
 20
-148.5799058330807
 10
106.4472493223465
 20
-148.5799058330807
 10
106.4472493223465
 20
-148.5799058330807
 10
106.4472493223465
 20
-148.5799058330807
 10
106.4472493223465
 20
-148.4719020896181
 10
106.4472493223465
 20
-148.4719020896181
 97
        0
 97
        1
330
F0
 92
        1
 93
        1
 72
     4
 94
        3
 73
     0
 74
     0
 95
      203
 96
      199
 40
0.0
 40
0.0
 40
0.0
 40
0.0
 40
1.0
 40
1.0
 40
1.0
 40
2.0
 40
2.0
 40
2.0
 40
3.0
 40
3.0
 40
3.0
 40
4.0
 40
4.0
 40
4.0
 40
5.0
 40
5.0
 40
5.0
 40
6.0
 40
6.0
 40
6.0
 40
7.0
 40
7.0
 40
7.0
 40
8.0
 40
8.0
 40
8.0
 40
9.0
 40
9.0
 40
9.0
 40
10.0
 40
10.0
 40
10.0
 40
11.0
 40
11.0
 40
11.0
 40
12.0
 40
12.0
 40
12.0
 40
13.0
 40
13.0
 40
13.0
 40
14.0
 40
14.0
 40
14.0
 40
15.0
 40
15.0
 40
15.0
 40
16.0
 40
16.0
 40
16.0
 40
17.0
 40
17.0
 40
17.0
 40
18.0
 40
18.0
 40
18.0
 40
19.0
 40
19.0
 40
19.0
 40
20.0
 40
20.0
 40
20.0
 40
21.0
 40
21.0
 40
21.0
 40
22.0
 40
22.0
 40
22.0
 40
23.0
 40
23.0
 40
23.0
 40
24.0
 40
24.0
 40
24.0
 40
25.0
 40
25.0
 40
25.0
 40
26.0
 40
26.0
 40
26.0
 40
27.0
 40
27.0
 40
27.0
 40
28.0
 40
28.0
 40
28.0
 40
29.0
 40
29.0
 40
29.0
 40
30.0
 40
30.0
 40
30.0
 40
31.0
 40
31.0
 40
31.0
 40
32.0
 40
32.0
 40
32.0
 40
33.0
 40
33.0
 40
33.0
 40
34.0
 40
34.0
 40
34.0
 40
35.0
 40
35.0
 40
35.0
 40
36.0
 40
36.0
 40
36.0
 40
37.0
 40
37.0
 40
37.0
 40
38.0
 40
38.0
 40
38.0
 40
39.0
 40
39.0
 40
39.0
 40
40.0
 40
40.0
 40
40.0
 40
41.0
 40
41.0
 40
41.0
 40
42.0
 40
42.0
 40
42.0
 40
43.0
 40
43.0
 40
43.0
 40
44.0
 40
44.0
 40
44.0
 40
45.0
 40
45.0
 40
45.0
 40
46.0
 40
46.0
 40
46.0
 40
47.0
 40
47.0
 40
47.0
 40
48.0
 40
48.0
 40
48.0
 40
49.0
 40
49.0
 40
49.0
 40
50.0
 40
50.0
 40
50.0
 40
51.0
 40
51.0
 40
51.0
 40
52.0
 40
52.0
 40
52.0
 40
53.0
 40
53.0
 40
53.0
 40
54.0
 40
54.0
 40
54.0
 40
55.0
 40
55.0
 40
55.0
 40
56.0
 40
56.0
 40
56.0
 40
57.0
 40
57.0
 40
57.0
 40
58.0
 40
58.0
 40
58.0
 40
59.0
 40
59.0
 40
59.0
 40
60.0
 40
60.0
 40
60.0
 40
61.0
 40
61.0
 40
61.0
 40
62.0
 40
62.0
 40
62.0
 40
63.0
 40
63.0
 40
63.0
 40
64.0
 40
64.0
 40
64.0
 40
65.0
 40
65.0
 40
65.0
 40
66.0
 40
66.0
 40
66.0
 40
66.0
 10
106.282229248603
 20
-148.215931495064
 10
106.282229248603
 20
-148.215931495064
 10
105.723779270444
 20
-148.215931495064
 10
105.723779270444
 20
-148.215931495064
 10
105.7130994744398
 20
-148.2603732268238
 10
105.7044867357266
 20
-148.2920681052881
 10
105.6920843919797
 20
-148.3303086651743
 10
105.7172335890221
 20
-148.3303086651743
 10
105.7320474996086
 20
-148.3323757224655
 10
105.7385931810306
 20
-148.3323757224655
 10
105.7385931810306
 20
-148.3323757224655
 10
105.9266953945253
 20
-148.3323757224655
 10
105.9266953945253
 20
-148.3323757224655
 10
105.9266953945253
 20
-148.3323757224655
 10
106.3011772737719
 20
-148.3323757224655
 10
106.3011772737719
 20
-148.3323757224655
 10
106.3518201774051
 20
-148.3323757224655
 10
106.6353515358411
 20
-148.3196288691701
 10
106.6670464143054
 20
-148.3196288691701
 10
106.6649793570143
 20
-148.3471896330521
 10
106.6629122997231
 20
-148.3661376582209
 10
106.6629122997231
 20
-148.3957654793941
 10
106.660845242432
 20
-148.4274603578584
 10
106.660845242432
 20
-148.5628526104287
 10
106.660845242432
 20
-148.5904133743107
 10
106.660845242432
 20
-148.5904133743107
 10
106.660845242432
 20
-148.8358764276348
 10
106.660845242432
 20
-148.8358764276348
 10
106.660845242432
 20
-148.8804904141687
 10
106.6649793570143
 20
-149.0772053663765
 10
106.6694579811451
 20
-149.2294785868246
 10
106.6694579811451
 20
-149.2294785868246
 10
106.4427706982157
 20
-149.2294785868246
 10
106.4427706982157
 20
-149.2294785868246
 10
106.4427706982157
 20
-149.2294785868246
 10
106.4451822650553
 20
-149.1957166510691
 10
106.4451822650553
 20
-149.1957166510691
 10
106.4451822650553
 20
-149.1957166510691
 10
105.7427272956129
 20
-149.1957166510691
 10
105.7427272956129
 20
-149.1957166510691
 10
105.7427272956129
 20
-149.1957166510691
 10
105.7447943529041
 20
-149.2294785868246
 10
105.7447943529041
 20
-149.2294785868246
 10
105.7447943529041
 20
-149.2294785868246
 10
105.5270643182363
 20
-149.2294785868246
 10
105.5270643182363
 20
-149.2294785868246
 10
105.5311984328186
 20
-149.1743570590606
 10
105.5311984328186
 20
-149.1616102057651
 10
105.537399604692
 20
-149.0475775452034
 10
105.5394666619832
 20
-149.0200167813214
 10
105.5418782288228
 20
-148.8866915860422
 10
105.5418782288228
 20
-148.8675713060991
 10
105.5418782288228
 20
-148.8675713060991
 10
105.5418782288228
 20
-148.6644829272436
 10
105.5418782288228
 20
-148.6644829272436
 10
105.402179606896
 20
-148.9142523499242
 10
105.2330254185702
 20
-149.0455104879122
 10
105.127260987173
 20
-149.110967302132
 10
105.127260987173
 20
-149.110967302132
 10
104.9536281747164
 20
-148.9714409349794
 10
104.9536281747164
 20
-148.9714409349794
 10
105.0425116382359
 20
-148.9204535217977
 10
105.1863443747451
 20
-148.8336371155694
 10
105.3239759393808
 20
-148.639161475427
 10
105.4149264601914
 20
-148.5122097067955
 10
105.4805555291854
 20
-148.3683769702864
 10
105.5143174649408
 20
-148.215931495064
 10
105.2859076342688
 20
-148.2181708071295
 10
105.1060736499387
 20
-148.2245442337772
 10
105.0108167597716
 20
-148.2266112910683
 10
105.0108167597716
 20
-148.2266112910683
 10
105.0108167597716
 20
-148.0488443640294
 10
105.0108167597716
 20
-148.0488443640294
 10
105.2075317119793
 20
-148.0552177906772
 10
105.4908908156411
 20
-148.0595241600337
 10
105.641096978798
 20
-148.0595241600337
 10
105.641096978798
 20
-148.0595241600337
 10
105.8546928988835
 20
-148.0595241600337
 10
105.8546928988835
 20
-148.0595241600337
 10
105.8546928988835
 20
-148.0595241600337
 10
105.8546928988835
 20
-147.9515204165711
 10
105.8546928988835
 20
-147.9515204165711
 10
105.8546928988835
 20
-147.9515204165711
 10
105.7089653598575
 20
-147.9515204165711
 10
105.7089653598575
 20
-147.9515204165711
 10
105.5394666619832
 20
-147.9515204165711
 10
105.3704847284317
 20
-147.9558267859277
 10
105.203397597397
 20
-147.9622002125754
 10
105.203397597397
 20
-147.9622002125754
 10
105.203397597397
 20
-147.7908067121842
 10
105.203397597397
 20
-147.7908067121842
 10
105.3577378751362
 20
-147.8013142534142
 10
105.543945286114
 20
-147.8013142534142
 10
105.7089653598575
 20
-147.8013142534142
 10
105.7089653598575
 20
-147.8013142534142
 10
105.8546928988835
 20
-147.8013142534142
 10
105.8546928988835
 20
-147.8013142534142
 10
105.8546928988835
 20
-147.8013142534142
 10
105.8546928988835
 20
-147.6829752234959
 10
105.8546928988835
 20
-147.6829752234959
 10
105.8546928988835
 20
-147.6829752234959
 10
105.723779270444
 20
-147.6829752234959
 10
105.723779270444
 20
-147.6829752234959
 10
105.6772704813932
 20
-147.6829752234959
 10
105.4741821025377
 20
-147.6914157074348
 10
105.4318074280691
 20
-147.6914157074348
 10
105.2287190492136
 20
-147.6955498220171
 10
105.1525824389896
 20
-147.6976168793082
 10
105.0743787714744
 20
-147.6998561913736
 10
105.0743787714744
 20
-147.6998561913736
 10
105.0743787714744
 20
-147.515715837687
 10
105.0743787714744
 20
-147.515715837687
 10
105.1885836868105
 20
-147.5241563216259
 10
105.2330254185702
 20
-147.5241563216259
 10
105.6159477817557
 20
-147.532769060339
 10
105.5522135152786
 20
-147.4375121701719
 10
105.5246527513966
 20
-147.4099514062898
 10
105.48882375835
 20
-147.373950158469
 10
105.48882375835
 20
-147.373950158469
 10
105.6645236280977
 20
-147.2914401215972
 10
105.6645236280977
 20
-147.2914401215972
 10
105.7044867357266
 20
-147.3274413694181
 10
105.7489284674864
 20
-147.3698160438867
 10
105.8229980204192
 20
-147.4797145898661
 10
105.8229980204192
 20
-147.4797145898661
 10
105.7089653598575
 20
-147.5348361176302
 10
105.7089653598575
 20
-147.5348361176302
 10
105.7089653598575
 20
-147.5348361176302
 10
105.7193006463132
 20
-147.5348361176302
 10
105.7193006463132
 20
-147.5348361176302
 10
105.7193006463132
 20
-147.5348361176302
 10
106.2419216314256
 20
-147.5348361176302
 10
106.2419216314256
 20
-147.5348361176302
 10
106.2419216314256
 20
-147.5348361176302
 10
106.1468369960327
 20
-147.4903943858705
 10
106.1468369960327
 20
-147.4903943858705
 10
106.1743977599147
 20
-147.4523260807584
 10
106.2312418354213
 20
-147.3718831011779
 10
106.2460557460079
 20
-147.297813548245
 10
106.2460557460079
 20
-147.297813548245
 10
106.4599961756419
 20
-147.3613755599478
 10
106.4599961756419
 20
-147.3613755599478
 10
106.4682644048065
 20
-147.363442617239
 10
106.4896239968151
 20
-147.373950158469
 10
106.4896239968151
 20
-147.3951374957033
 10
106.4896239968151
 20
-147.4332058008153
 10
106.4238226730468
 20
-147.4332058008153
 10
106.4048746478779
 20
-147.4332058008153
 10
106.3941948518736
 20
-147.4523260807584
 10
106.3711127121225
 20
-147.4924614431616
 10
106.3414848909493
 20
-147.532769060339
 10
106.7411159672383
 20
-147.5263956336913
 10
106.7707437884115
 20
-147.5241563216259
 10
106.8468803986355
 20
-147.5179551497524
 10
106.8468803986355
 20
-147.5179551497524
 10
106.8468803986355
 20
-147.6998561913736
 10
106.8468803986355
 20
-147.6998561913736
 10
106.8279323734666
 20
-147.6998561913736
 10
106.8024386668758
 20
-147.6976168793082
 10
106.5826415749168
 20
-147.6891763953694
 10
106.5316541617351
 20
-147.6871093380782
 10
106.3118570697762
 20
-147.6829752234959
 10
106.2674153380165
 20
-147.6829752234959
 10
106.2674153380165
 20
-147.6829752234959
 10
106.0514078510913
 20
-147.6829752234959
 10
106.0514078510913
 20
-147.6829752234959
 10
106.0514078510913
 20
-147.6829752234959
 10
106.0514078510913
 20
-147.8013142534142
 10
106.0514078510913
 20
-147.8013142534142
 10
106.0514078510913
 20
-147.8013142534142
 10
106.2250406635479
 20
-147.8013142534142
 10
106.2250406635479
 20
-147.8013142534142
 10
106.3879936800002
 20
-147.8013142534142
 10
106.578162950786
 20
-147.8013142534142
 10
106.7349147953649
 20
-147.7908067121842
 10
106.7349147953649
 20
-147.7908067121842
 10
106.7349147953649
 20
-147.9622002125754
 10
106.7349147953649
 20
-147.9622002125754
 10
106.5254529898617
 20
-147.9537597286365
 10
106.3287380376539
 20
-147.9515204165711
 10
106.2250406635479
 20
-147.9515204165711
 10
106.2250406635479
 20
-147.9515204165711
 10
106.0514078510913
 20
-147.9515204165711
 10
106.0514078510913
 20
-147.9515204165711
 10
106.0514078510913
 20
-147.9515204165711
 10
106.0514078510913
 20
-148.0595241600337
 10
106.0514078510913
 20
-148.0595241600337
 10
106.0514078510913
 20
-148.0595241600337
 10
106.282229248603
 20
-148.0595241600337
 10
106.282229248603
 20
-148.0595241600337
 10
106.4155544438822
 20
-148.0595241600337
 10
106.7032199169006
 20
-148.0552177906772
 10
106.9126817224038
 20
-148.0488443640294
 10
106.9126817224038
 20
-148.0488443640294
 10
106.9126817224038
 20
-148.2266112910683
 10
106.9126817224038
 20
-148.2266112910683
 10
106.7201008847783
 20
-148.2202378644206
 10
106.4069417051691
 20
-148.215931495064
 10
106.282229248603
 20
-148.215931495064
 97
        0
 97
        1
330
F1
 75
     2
 76
     1
 98
        1
 10
0.0
 20
0.0
450
        0
451
        0
460
0.0
461
0.0
452
        0
462
0.0
453
        0
470

  0
SPLINE
  5
F3
330
E6
100
AcDbEntity
  8
レイヤー 1
100
AcDbSpline
210
0.0
220
0.0
230
1.0
 70
     9
 71
     3
 72
    29
 73
    25
 74
     0
 42
0.0000000001
 43
0.0000000001
 40
0.0
 40
0.0
 40
0.0
 40
0.0
 40
1.0
 40
1.0
 40
1.0
 40
2.0
 40
2.0
 40
2.0
 40
3.0
 40
3.0
 40
3.0
 40
4.0
 40
4.0
 40
4.0
 40
5.0
 40
5.0
 40
5.0
 40
6.0
 40
6.0
 40
6.0
 40
7.0
 40
7.0
 40
7.0
 40
8.0
 40
8.0
 40
8.0
 40
8.0
 10
108.157739230773
 20
-147.6638549435528
 30
0.0
 10
108.157739230773
 20
-147.6638549435528
 30
0.0
 10
107.8042724339864
 20
-147.6638549435528
 30
0.0
 10
107.8042724339864
 20
-147.6638549435528
 30
0.0
 10
107.6923068307158
 20
-147.6638549435528
 30
0.0
 10
107.5527804635632
 20
-147.6702283702005
 30
0.0
 10
107.4446044653263
 20
-147.6829752234959
 30
0.0
 10
107.4446044653263
 20
-147.6829752234959
 30
0.0
 10
107.4446044653263
 20
-147.4480197114019
 30
0.0
 10
107.4446044653263
 20
-147.4480197114019
 30
0.0
 10
107.5631157500189
 20
-147.4628336219884
 30
0.0
 10
107.7470838489313
 20
-147.467139991345
 30
0.0
 10
107.8042724339864
 20
-147.467139991345
 30
0.0
 10
107.8042724339864
 20
-147.467139991345
 30
0.0
 10
108.157739230773
 20
-147.467139991345
 30
0.0
 10
108.157739230773
 20
-147.467139991345
 30
0.0
 10
108.1766872559419
 20
-147.467139991345
 30
0.0
 10
108.3799478895717
 20
-147.467139991345
 30
0.0
 10
108.5215413140154
 20
-147.4480197114019
 30
0.0
 10
108.5215413140154
 20
-147.4480197114019
 30
0.0
 10
108.5215413140154
 20
-147.6829752234959
 30
0.0
 10
108.5215413140154
 20
-147.6829752234959
 30
0.0
 10
108.3651339789851
 20
-147.6638549435528
 30
0.0
 10
108.1746201986508
 20
-147.6638549435528
 30
0.0
 10
108.157739230773
 20
-147.6638549435528
 30
0.0
  0
SPLINE
  5
F4
330
E6
100
AcDbEntity
  8
レイヤー 1
100
AcDbSpline
210
0.0
220
0.0
230
1.0
 70
     9
 71
     3
 72
    47
 73
    43
 74
     0
 42
0.0000000001
 43
0.0000000001
 40
0.0
 40
0.0
 40
0.0
 40
0.0
 40
1.0
 40
1.0
 40
1.0
 40
2.0
 40
2.0
 40
2.0
 40
3.0
 40
3.0
 40
3.0
 40
4.0
 40
4.0
 40
4.0
 40
5.0
 40
5.0
 40
5.0
 40
6.0
 40
6.0
 40
6.0
 40
7.0
 40
7.0
 40
7.0
 40
8.0
 40
8.0
 40
8.0
 40
9.0
 40
9.0
 40
9.0
 40
10.0
 40
10.0
 40
10.0
 40
11.0
 40
11.0
 40
11.0
 40
12.0
 40
12.0
 40
12.0
 40
13.0
 40
13.0
 40
13.0
 40
14.0
 40
14.0
 40
14.0
 40
14.0
 10
108.2590250380394
 20
-148.1926771005386
 30
0.0
 10
108.2590250380394
 20
-148.1926771005386
 30
0.0
 10
108.157739230773
 20
-148.1926771005386
 30
0.0
 10
108.157739230773
 20
-148.1926771005386
 30
0.0
 10
108.157739230773
 20
-148.2794935067669
 30
0.0
 10
108.1363796387645
 20
-148.6687892966002
 30
0.0
 10
107.9396646865567
 20
-148.8887586433333
 30
0.0
 10
107.7873914661087
 20
-149.0579128316591
 30
0.0
 10
107.5799967178967
 20
-149.1278482700097
 30
0.0
 10
107.495591878508
 20
-149.1554090338917
 30
0.0
 10
107.495591878508
 20
-149.1554090338917
 30
0.0
 10
107.3009439835914
 20
-148.9883219028571
 30
0.0
 10
107.3009439835914
 20
-148.9883219028571
 30
0.0
 10
107.3980956762754
 20
-148.9755750495616
 30
0.0
 10
107.5737955460232
 20
-148.9521484002619
 30
0.0
 10
107.7618977595178
 20
-148.763873931993
 30
0.0
 10
107.8359673124507
 20
-148.6920436911256
 30
0.0
 10
107.9396646865567
 20
-148.5523450691987
 30
0.0
 10
107.9396646865567
 20
-148.1926771005386
 30
0.0
 10
107.9396646865567
 20
-148.1926771005386
 30
0.0
 10
107.7091877985935
 20
-148.1926771005386
 30
0.0
 10
107.7091877985935
 20
-148.1926771005386
 30
0.0
 10
107.52315264239
 20
-148.1926771005386
 30
0.0
 10
107.336772976638
 20
-148.1969834698952
 30
0.0
 10
107.1507378204345
 20
-148.2117973804817
 30
0.0
 10
107.1507378204345
 20
-148.2117973804817
 30
0.0
 10
107.1507378204345
 20
-147.9918280337486
 30
0.0
 10
107.1507378204345
 20
-147.9918280337486
 30
0.0
 10
107.3388400339292
 20
-148.0066419443351
 30
0.0
 10
107.6244384496564
 20
-148.0107760589174
 30
0.0
 10
107.7091877985935
 20
-148.0107760589174
 30
0.0
 10
107.7091877985935
 20
-148.0107760589174
 30
0.0
 10
108.2590250380394
 20
-148.0107760589174
 30
0.0
 10
108.2590250380394
 20
-148.0107760589174
 30
0.0
 10
108.2783175727568
 20
-148.0107760589174
 30
0.0
 10
108.5956108669483
 20
-148.0107760589174
 30
0.0
 10
108.8240206976204
 20
-147.9918280337486
 30
0.0
 10
108.8240206976204
 20
-147.9918280337486
 30
0.0
 10
108.8240206976204
 20
-148.2117973804817
 30
0.0
 10
108.8240206976204
 20
-148.2117973804817
 30
0.0
 10
108.6359184841257
 20
-148.1969834698952
 30
0.0
 10
108.4474717610826
 20
-148.1926771005386
 30
0.0
 10
108.2590250380394
 20
-148.1926771005386
 30
0.0
  0
HATCH
  5
F5
330
E6
100
AcDbEntity
  8
レイヤー 1
 62
    18
420
        0
440
 33554687
100
AcDbHatch
 10
0.0
 20
0.0
 30
0.0
210
0.0
220
0.0
230
1.0
  2
SOLID
 70
     1
 71
     1
 91
        2
 92
        1
 93
        1
 72
     4
 94
        3
 73
     0
 74
     0
 95
       29
 96
       25
 40
0.0
 40
0.0
 40
0.0
 40
0.0
 40
1.0
 40
1.0
 40
1.0
 40
2.0
 40
2.0
 40
2.0
 40
3.0
 40
3.0
 40
3.0
 40
4.0
 40
4.0
 40
4.0
 40
5.0
 40
5.0
 40
5.0
 40
6.0
 40
6.0
 40
6.0
 40
7.0
 40
7.0
 40
7.0
 40
8.0
 40
8.0
 40
8.0
 40
8.0
 10
108.157739230773
 20
-147.6638549435528
 10
108.157739230773
 20
-147.6638549435528
 10
107.8042724339864
 20
-147.6638549435528
 10
107.8042724339864
 20
-147.6638549435528
 10
107.6923068307158
 20
-147.6638549435528
 10
107.5527804635632
 20
-147.6702283702005
 10
107.4446044653263
 20
-147.6829752234959
 10
107.4446044653263
 20
-147.6829752234959
 10
107.4446044653263
 20
-147.4480197114019
 10
107.4446044653263
 20
-147.4480197114019
 10
107.5631157500189
 20
-147.4628336219884
 10
107.7470838489313
 20
-147.467139991345
 10
107.8042724339864
 20
-147.467139991345
 10
107.8042724339864
 20
-147.467139991345
 10
108.157739230773
 20
-147.467139991345
 10
108.157739230773
 20
-147.467139991345
 10
108.1766872559419
 20
-147.467139991345
 10
108.3799478895717
 20
-147.467139991345
 10
108.5215413140154
 20
-147.4480197114019
 10
108.5215413140154
 20
-147.4480197114019
 10
108.5215413140154
 20
-147.6829752234959
 10
108.5215413140154
 20
-147.6829752234959
 10
108.3651339789851
 20
-147.6638549435528
 10
108.1746201986508
 20
-147.6638549435528
 10
108.157739230773
 20
-147.6638549435528
 97
        0
 97
        1
330
F3
 92
        1
 93
        1
 72
     4
 94
        3
 73
     0
 74
     0
 95
       47
 96
       43
 40
0.0
 40
0.0
 40
0.0
 40
0.0
 40
1.0
 40
1.0
 40
1.0
 40
2.0
 40
2.0
 40
2.0
 40
3.0
 40
3.0
 40
3.0
 40
4.0
 40
4.0
 40
4.0
 40
5.0
 40
5.0
 40
5.0
 40
6.0
 40
6.0
 40
6.0
 40
7.0
 40
7.0
 40
7.0
 40
8.0
 40
8.0
 40
8.0
 40
9.0
 40
9.0
 40
9.0
 40
10.0
 40
10.0
 40
10.0
 40
11.0
 40
11.0
 40
11.0
 40
12.0
 40
12.0
 40
12.0
 40
13.0
 40
13.0
 40
13.0
 40
14.0
 40
14.0
 40
14.0
 40
14.0
 10
108.2590250380394
 20
-148.1926771005386
 10
108.2590250380394
 20
-148.1926771005386
 10
108.157739230773
 20
-148.1926771005386
 10
108.157739230773
 20
-148.1926771005386
 10
108.157739230773
 20
-148.2794935067669
 10
108.1363796387645
 20
-148.6687892966002
 10
107.9396646865567
 20
-148.8887586433333
 10
107.7873914661087
 20
-149.0579128316591
 10
107.5799967178967
 20
-149.1278482700097
 10
107.495591878508
 20
-149.1554090338917
 10
107.495591878508
 20
-149.1554090338917
 10
107.3009439835914
 20
-148.9883219028571
 10
107.3009439835914
 20
-148.9883219028571
 10
107.3980956762754
 20
-148.9755750495616
 10
107.5737955460232
 20
-148.9521484002619
 10
107.7618977595178
 20
-148.763873931993
 10
107.8359673124507
 20
-148.6920436911256
 10
107.9396646865567
 20
-148.5523450691987
 10
107.9396646865567
 20
-148.1926771005386
 10
107.9396646865567
 20
-148.1926771005386
 10
107.7091877985935
 20
-148.1926771005386
 10
107.7091877985935
 20
-148.1926771005386
 10
107.52315264239
 20
-148.1926771005386
 10
107.336772976638
 20
-148.1969834698952
 10
107.1507378204345
 20
-148.2117973804817
 10
107.1507378204345
 20
-148.2117973804817
 10
107.1507378204345
 20
-147.9918280337486
 10
107.1507378204345
 20
-147.9918280337486
 10
107.3388400339292
 20
-148.0066419443351
 10
107.6244384496564
 20
-148.0107760589174
 10
107.7091877985935
 20
-148.0107760589174
 10
107.7091877985935
 20
-148.0107760589174
 10
108.2590250380394
 20
-148.0107760589174
 10
108.2590250380394
 20
-148.0107760589174
 10
108.2783175727568
 20
-148.0107760589174
 10
108.5956108669483
 20
-148.0107760589174
 10
108.8240206976204
 20
-147.9918280337486
 10
108.8240206976204
 20
-147.9918280337486
 10
108.8240206976204
 20
-148.2117973804817
 10
108.8240206976204
 20
-148.2117973804817
 10
108.6359184841257
 20
-148.1969834698952
 10
108.4474717610826
 20
-148.1926771005386
 10
108.2590250380394
 20
-148.1926771005386
 97
        0
 97
        1
330
F4
 75
     2
 76
     1
 98
        1
 10
0.0
 20
0.0
450
        0
451
        0
460
0.0
461
0.0
452
        0
462
0.0
453
        0
470

  0
SPLINE
  5
F6
330
E6
100
AcDbEntity
  8
レイヤー 1
100
AcDbSpline
210
0.0
220
0.0
230
1.0
 70
     9
 71
     3
 72
    29
 73
    25
 74
     0
 42
0.0000000001
 43
0.0000000001
 40
0.0
 40
0.0
 40
0.0
 40
0.0
 40
1.0
 40
1.0
 40
1.0
 40
2.0
 40
2.0
 40
2.0
 40
3.0
 40
3.0
 40
3.0
 40
4.0
 40
4.0
 40
4.0
 40
5.0
 40
5.0
 40
5.0
 40
6.0
 40
6.0
 40
6.0
 40
7.0
 40
7.0
 40
7.0
 40
8.0
 40
8.0
 40
8.0
 40
8.0
 10
110.1049071990362
 20
-148.3556301169909
 30
0.0
 10
110.1049071990362
 20
-148.3556301169909
 30
0.0
 10
109.6205267738101
 20
-148.3556301169909
 30
0.0
 10
109.6205267738101
 20
-148.3556301169909
 30
0.0
 10
109.5929660099281
 20
-148.3556301169909
 30
0.0
 10
109.2756727157366
 20
-148.3556301169909
 30
0.0
 10
109.0641438529423
 20
-148.3809515688075
 30
0.0
 10
109.0641438529423
 20
-148.3809515688075
 30
0.0
 10
109.0641438529423
 20
-148.1504746808443
 30
0.0
 10
109.0641438529423
 20
-148.1504746808443
 30
0.0
 10
109.2229627548123
 20
-148.1737290753698
 30
0.0
 10
109.4131320255981
 20
-148.1757961326609
 30
0.0
 10
109.6205267738101
 20
-148.1757961326609
 30
0.0
 10
109.6205267738101
 20
-148.1757961326609
 30
0.0
 10
110.1049071990362
 20
-148.1757961326609
 30
0.0
 10
110.1049071990362
 20
-148.1757961326609
 30
0.0
 10
110.2912868647883
 20
-148.1757961326609
 30
0.0
 10
110.4773220209918
 20
-148.1737290753698
 30
0.0
 10
110.6612901199041
 20
-148.1504746808443
 30
0.0
 10
110.6612901199041
 20
-148.1504746808443
 30
0.0
 10
110.6612901199041
 20
-148.3809515688075
 30
0.0
 10
110.6612901199041
 20
-148.3809515688075
 30
0.0
 10
110.4773220209918
 20
-148.3576971742821
 30
0.0
 10
110.2299641651508
 20
-148.3556301169909
 30
0.0
 10
110.1049071990362
 20
-148.3556301169909
 30
0.0
  0
HATCH
  5
F7
330
E6
100
AcDbEntity
  8
レイヤー 1
 62
    18
420
        0
440
 33554687
100
AcDbHatch
 10
0.0
 20
0.0
 30
0.0
210
0.0
220
0.0
230
1.0
  2
SOLID
 70
     1
 71
     1
 91
        1
 92
        1
 93
        1
 72
     4
 94
        3
 73
     0
 74
     0
 95
       29
 96
       25
 40
0.0
 40
0.0
 40
0.0
 40
0.0
 40
1.0
 40
1.0
 40
1.0
 40
2.0
 40
2.0
 40
2.0
 40
3.0
 40
3.0
 40
3.0
 40
4.0
 40
4.0
 40
4.0
 40
5.0
 40
5.0
 40
5.0
 40
6.0
 40
6.0
 40
6.0
 40
7.0
 40
7.0
 40
7.0
 40
8.0
 40
8.0
 40
8.0
 40
8.0
 10
110.1049071990362
 20
-148.3556301169909
 10
110.1049071990362
 20
-148.3556301169909
 10
109.6205267738101
 20
-148.3556301169909
 10
109.6205267738101
 20
-148.3556301169909
 10
109.5929660099281
 20
-148.3556301169909
 10
109.2756727157366
 20
-148.3556301169909
 10
109.0641438529423
 20
-148.3809515688075
 10
109.0641438529423
 20
-148.3809515688075
 10
109.0641438529423
 20
-148.1504746808443
 10
109.0641438529423
 20
-148.1504746808443
 10
109.2229627548123
 20
-148.1737290753698
 10
109.4131320255981
 20
-148.1757961326609
 10
109.6205267738101
 20
-148.1757961326609
 10
109.6205267738101
 20
-148.1757961326609
 10
110.1049071990362
 20
-148.1757961326609
 10
110.1049071990362
 20
-148.1757961326609
 10
110.2912868647883
 20
-148.1757961326609
 10
110.4773220209918
 20
-148.1737290753698
 10
110.6612901199041
 20
-148.1504746808443
 10
110.6612901199041
 20
-148.1504746808443
 10
110.6612901199041
 20
-148.3809515688075
 10
110.6612901199041
 20
-148.3809515688075
 10
110.4773220209918
 20
-148.3576971742821
 10
110.2299641651508
 20
-148.3556301169909
 10
110.1049071990362
 20
-148.3556301169909
 97
        0
 97
        1
330
F6
 75
     2
 76
     1
 98
        1
 10
0.0
 20
0.0
450
        0
451
        0
460
0.0
461
0.0
452
        0
462
0.0
453
        0
470

  0
SPLINE
  5
F8
330
E6
100
AcDbEntity
  8
レイヤー 1
100
AcDbSpline
210
0.0
220
0.0
230
1.0
 70
     9
 71
     3
 72
    47
 73
    43
 74
     0
 42
0.0000000001
 43
0.0000000001
 40
0.0
 40
0.0
 40
0.0
 40
0.0
 40
1.0
 40
1.0
 40
1.0
 40
2.0
 40
2.0
 40
2.0
 40
3.0
 40
3.0
 40
3.0
 40
4.0
 40
4.0
 40
4.0
 40
5.0
 40
5.0
 40
5.0
 40
6.0
 40
6.0
 40
6.0
 40
7.0
 40
7.0
 40
7.0
 40
8.0
 40
8.0
 40
8.0
 40
9.0
 40
9.0
 40
9.0
 40
10.0
 40
10.0
 40
10.0
 40
11.0
 40
11.0
 40
11.0
 40
12.0
 40
12.0
 40
12.0
 40
13.0
 40
13.0
 40
13.0
 40
14.0
 40
14.0
 40
14.0
 40
14.0
 10
112.3252712392798
 20
-147.7611788910111
 30
0.0
 10
112.2553358009292
 20
-148.0404038800906
 30
0.0
 10
112.1791991907052
 20
-148.3451225757609
 30
0.0
 10
111.866040011096
 20
-148.677229780539
 30
0.0
 10
111.6290174417108
 20
-148.9269992032196
 30
0.0
 10
111.383726643161
 20
-149.0262179531948
 30
0.0
 10
111.2779622117638
 20
-149.0685926276634
 30
0.0
 10
111.2779622117638
 20
-149.0685926276634
 30
0.0
 10
111.0833143168472
 20
-148.8866915860422
 30
0.0
 10
111.0833143168472
 20
-148.8866915860422
 30
0.0
 10
111.2693494730507
 20
-148.8400105422171
 30
0.0
 10
111.6314290085504
 20
-148.7469929641153
 30
0.0
 10
111.9273627107334
 20
-148.2519327428849
 30
0.0
 10
112.0882486698946
 20
-147.9854546071009
 30
0.0
 10
112.10099552319
 20
-147.8119940494185
 30
0.0
 10
112.1092637523546
 20
-147.7210435286079
 30
0.0
 10
112.1092637523546
 20
-147.7210435286079
 30
0.0
 10
111.6038682446685
 20
-147.7210435286079
 30
0.0
 10
111.6038682446685
 20
-147.7210435286079
 30
0.0
 10
111.4853569599759
 20
-147.7210435286079
 30
0.0
 10
111.0643662916783
 20
-147.7399915537768
 30
0.0
 10
110.9120930712303
 20
-147.7504990950068
 30
0.0
 10
110.9120930712303
 20
-147.7504990950068
 30
0.0
 10
110.9120930712303
 20
-147.5412095442779
 30
0.0
 10
110.9120930712303
 20
-147.5412095442779
 30
0.0
 10
111.0536864956741
 20
-147.553784142799
 30
0.0
 10
111.3310166822367
 20
-147.5580905121556
 30
0.0
 10
111.4471164000896
 20
-147.5580905121556
 30
0.0
 10
111.4471164000896
 20
-147.5580905121556
 30
0.0
 10
111.8026502541674
 20
-147.5580905121556
 30
0.0
 10
111.8026502541674
 20
-147.5580905121556
 30
0.0
 10
111.8302110180494
 20
-147.5580905121556
 30
0.0
 10
111.990752467662
 20
-147.5560234548645
 30
0.0
 10
112.10099552319
 20
-147.5412095442779
 30
0.0
 10
112.1581841082452
 20
-147.5348361176302
 30
0.0
 10
112.1750650761229
 20
-147.515715837687
 30
0.0
 10
112.198147215874
 20
-147.4924614431616
 30
0.0
 10
112.198147215874
 20
-147.4924614431616
 30
0.0
 10
112.3865939389172
 20
-147.6426676063185
 30
0.0
 10
112.3865939389172
 20
-147.6426676063185
 30
0.0
 10
112.3717800283307
 20
-147.6722954274916
 30
0.0
 10
112.3611002323264
 20
-147.6914157074348
 30
0.0
 10
112.3252712392798
 20
-147.7611788910111
 30
0.0
  0
HATCH
  5
F9
330
E6
100
AcDbEntity
  8
レイヤー 1
 62
    18
420
        0
440
 33554687
100
AcDbHatch
 10
0.0
 20
0.0
 30
0.0
210
0.0
220
0.0
230
1.0
  2
SOLID
 70
     1
 71
     1
 91
        1
 92
        1
 93
        1
 72
     4
 94
        3
 73
     0
 74
     0
 95
       47
 96
       43
 40
0.0
 40
0.0
 40
0.0
 40
0.0
 40
1.0
 40
1.0
 40
1.0
 40
2.0
 40
2.0
 40
2.0
 40
3.0
 40
3.0
 40
3.0
 40
4.0
 40
4.0
 40
4.0
 40
5.0
 40
5.0
 40
5.0
 40
6.0
 40
6.0
 40
6.0
 40
7.0
 40
7.0
 40
7.0
 40
8.0
 40
8.0
 40
8.0
 40
9.0
 40
9.0
 40
9.0
 40
10.0
 40
10.0
 40
10.0
 40
11.0
 40
11.0
 40
11.0
 40
12.0
 40
12.0
 40
12.0
 40
13.0
 40
13.0
 40
13.0
 40
14.0
 40
14.0
 40
14.0
 40
14.0
 10
112.3252712392798
 20
-147.7611788910111
 10
112.2553358009292
 20
-148.0404038800906
 10
112.1791991907052
 20
-148.3451225757609
 10
111.866040011096
 20
-148.677229780539
 10
111.6290174417108
 20
-148.9269992032196
 10
111.383726643161
 20
-149.0262179531948
 10
111.2779622117638
 20
-149.0685926276634
 10
111.2779622117638
 20
-149.0685926276634
 10
111.0833143168472
 20
-148.8866915860422
 10
111.0833143168472
 20
-148.8866915860422
 10
111.2693494730507
 20
-148.8400105422171
 10
111.6314290085504
 20
-148.7469929641153
 10
111.9273627107334
 20
-148.2519327428849
 10
112.0882486698946
 20
-147.9854546071009
 10
112.10099552319
 20
-147.8119940494185
 10
112.1092637523546
 20
-147.7210435286079
 10
112.1092637523546
 20
-147.7210435286079
 10
111.6038682446685
 20
-147.7210435286079
 10
111.6038682446685
 20
-147.7210435286079
 10
111.4853569599759
 20
-147.7210435286079
 10
111.0643662916783
 20
-147.7399915537768
 10
110.9120930712303
 20
-147.7504990950068
 10
110.9120930712303
 20
-147.7504990950068
 10
110.9120930712303
 20
-147.5412095442779
 10
110.9120930712303
 20
-147.5412095442779
 10
111.0536864956741
 20
-147.553784142799
 10
111.3310166822367
 20
-147.5580905121556
 10
111.4471164000896
 20
-147.5580905121556
 10
111.4471164000896
 20
-147.5580905121556
 10
111.8026502541674
 20
-147.5580905121556
 10
111.8026502541674
 20
-147.5580905121556
 10
111.8302110180494
 20
-147.5580905121556
 10
111.990752467662
 20
-147.5560234548645
 10
112.10099552319
 20
-147.5412095442779
 10
112.1581841082452
 20
-147.5348361176302
 10
112.1750650761229
 20
-147.515715837687
 10
112.198147215874
 20
-147.4924614431616
 10
112.198147215874
 20
-147.4924614431616
 10
112.3865939389172
 20
-147.6426676063185
 10
112.3865939389172
 20
-147.6426676063185
 10
112.3717800283307
 20
-147.6722954274916
 10
112.3611002323264
 20
-147.6914157074348
 10
112.3252712392798
 20
-147.7611788910111
 97
        0
 97
        1
330
F8
 75
     2
 76
     1
 98
        1
 10
0.0
 20
0.0
450
        0
451
        0
460
0.0
461
0.0
452
        0
462
0.0
453
        0
470

  0
SPLINE
  5
FA
330
E6
100
AcDbEntity
  8
レイヤー 1
100
AcDbSpline
210
0.0
220
0.0
230
1.0
 70
    11
 71
     3
 72
    17
 73
    13
 74
     0
 42
0.0000000001
 43
0.0000000001
 40
0.0
 40
0.0
 40
0.0
 40
0.0
 40
1.0
 40
1.0
 40
1.0
 40
2.0
 40
2.0
 40
2.0
 40
3.0
 40
3.0
 40
3.0
 40
4.0
 40
4.0
 40
4.0
 40
4.0
 10
112.7156005577586
 20
-147.543276601569
 30
0.0
 10
112.7156005577586
 20
-147.6025322439153
 30
0.0
 10
112.7621093468095
 20
-147.6490410329662
 30
0.0
 10
112.8213649891558
 20
-147.6490410329662
 30
0.0
 10
112.8806206315021
 20
-147.6490410329662
 30
0.0
 10
112.9291964778441
 20
-147.6025322439153
 30
0.0
 10
112.9291964778441
 20
-147.543276601569
 30
0.0
 10
112.9291964778441
 20
-147.4840209592227
 30
0.0
 10
112.8806206315021
 20
-147.4354451128807
 30
0.0
 10
112.8213649891558
 20
-147.4354451128807
 30
0.0
 10
112.7621093468095
 20
-147.4354451128807
 30
0.0
 10
112.7156005577586
 20
-147.4840209592227
 30
0.0
 10
112.7156005577586
 20
-147.543276601569
 30
0.0
  0
SPLINE
  5
FB
330
E6
100
AcDbEntity
  8
レイヤー 1
100
AcDbSpline
210
0.0
220
0.0
230
1.0
 70
     9
 71
     3
 72
    17
 73
    13
 74
     0
 42
0.0000000001
 43
0.0000000001
 40
0.0
 40
0.0
 40
0.0
 40
0.0
 40
1.0
 40
1.0
 40
1.0
 40
2.0
 40
2.0
 40
2.0
 40
3.0
 40
3.0
 40
3.0
 40
4.0
 40
4.0
 40
4.0
 40
4.0
 10
113.0304822851104
 20
-147.543276601569
 30
0.0
 10
113.0304822851104
 20
-147.657481516905
 30
0.0
 10
112.9374647070087
 20
-147.7527384070722
 30
0.0
 10
112.8213649891558
 20
-147.7527384070722
 30
0.0
 10
112.7069878190455
 20
-147.7527384070722
 30
0.0
 10
112.6119031836526
 20
-147.657481516905
 30
0.0
 10
112.6119031836526
 20
-147.543276601569
 30
0.0
 10
112.6119031836526
 20
-147.4268323741676
 30
0.0
 10
112.7069878190455
 20
-147.3338147960658
 30
0.0
 10
112.8213649891558
 20
-147.3338147960658
 30
0.0
 10
112.9353976497175
 20
-147.3338147960658
 30
0.0
 10
113.0304822851104
 20
-147.4268323741676
 30
0.0
 10
113.0304822851104
 20
-147.543276601569
 30
0.0
  0
HATCH
  5
FC
330
E6
100
AcDbEntity
  8
レイヤー 1
 62
    18
420
        0
440
 33554687
100
AcDbHatch
 10
0.0
 20
0.0
 30
0.0
210
0.0
220
0.0
230
1.0
  2
SOLID
 70
     1
 71
     1
 91
        2
 92
        1
 93
        1
 72
     4
 94
        3
 73
     0
 74
     0
 95
       17
 96
       13
 40
0.0
 40
0.0
 40
0.0
 40
0.0
 40
1.0
 40
1.0
 40
1.0
 40
2.0
 40
2.0
 40
2.0
 40
3.0
 40
3.0
 40
3.0
 40
4.0
 40
4.0
 40
4.0
 40
4.0
 10
112.7156005577586
 20
-147.543276601569
 10
112.7156005577586
 20
-147.6025322439153
 10
112.7621093468095
 20
-147.6490410329662
 10
112.8213649891558
 20
-147.6490410329662
 10
112.8806206315021
 20
-147.6490410329662
 10
112.9291964778441
 20
-147.6025322439153
 10
112.9291964778441
 20
-147.543276601569
 10
112.9291964778441
 20
-147.4840209592227
 10
112.8806206315021
 20
-147.4354451128807
 10
112.8213649891558
 20
-147.4354451128807
 10
112.7621093468095
 20
-147.4354451128807
 10
112.7156005577586
 20
-147.4840209592227
 10
112.7156005577586
 20
-147.543276601569
 97
        0
 97
        1
330
FA
 92
        1
 93
        1
 72
     4
 94
        3
 73
     0
 74
     0
 95
       17
 96
       13
 40
0.0
 40
0.0
 40
0.0
 40
0.0
 40
1.0
 40
1.0
 40
1.0
 40
2.0
 40
2.0
 40
2.0
 40
3.0
 40
3.0
 40
3.0
 40
4.0
 40
4.0
 40
4.0
 40
4.0
 10
113.0304822851104
 20
-147.543276601569
 10
113.0304822851104
 20
-147.657481516905
 10
112.9374647070087
 20
-147.7527384070722
 10
112.8213649891558
 20
-147.7527384070722
 10
112.7069878190455
 20
-147.7527384070722
 10
112.6119031836526
 20
-147.657481516905
 10
112.6119031836526
 20
-147.543276601569
 10
112.6119031836526
 20
-147.4268323741676
 10
112.7069878190455
 20
-147.3338147960658
 10
112.8213649891558
 20
-147.3338147960658
 10
112.9353976497175
 20
-147.3338147960658
 10
113.0304822851104
 20
-147.4268323741676
 10
113.0304822851104
 20
-147.543276601569
 97
        0
 97
        1
330
FB
 75
     2
 76
     1
 98
        1
 10
0.0
 20
0.0
450
        0
451
        0
460
0.0
461
0.0
452
        0
462
0.0
453
        0
470

  0
ENDBLK
  5
E9
330
E6
100
AcDbEntity
  8
0
100
AcDbBlockEnd
  0
ENDSEC
  0
SECTION
  2
ENTITIES
  0
INSERT
  5
7A
330
70
100
AcDbEntity
  8
レイヤー 1
100
AcDbBlockReference
  2
Block_0
 10
0.0
 20
0.0
 30
0.0
  0
LINE
  5
D9
330
70
100
AcDbEntity
  8
レイヤー 1
  6
AI-Linetype-0
 62
   154
420
    23468
370
    25
100
AcDbLine
 10
103.3165694779146
 20
-151.4197663676851
 30
0.0
 11
113.2509267849638
 21
-151.4197663676851
 31
0.0
  0
INSERT
  5
DC
330
70
100
AcDbEntity
  8
レイヤー 1
100
AcDbBlockReference
  2
Block_10
 10
0.0
 20
0.0
 30
0.0
  0
INSERT
  5
E3
330
70
100
AcDbEntity
  8
レイヤー 1
100
AcDbBlockReference
  2
Block_11
 10
0.0
 20
0.0
 30
0.0
  0
ENDSEC
  0
SECTION
  2
OBJECTS
  0
DICTIONARY
  5
C
330
0
100
AcDbDictionary
281
     1
  3
ACAD_COLOR
350
63
  3
ACAD_DETAILVIEWSTYLE
350
6A
  3
ACAD_GROUP
350
D
  3
ACAD_LAYOUT
350
62
  3
ACAD_MATERIAL
350
10
  3
ACAD_MLEADERSTYLE
350
66
  3
ACAD_MLINESTYLE
350
5F
  3
ACAD_PLOTSETTINGS
350
61
  3
ACAD_PLOTSTYLENAME
350
E
  3
ACAD_SCALELIST
350
42
  3
ACAD_SECTIONVIEWSTYLE
350
68
  3
ACAD_TABLESTYLE
350
64
  3
ACAD_VISUALSTYLE
350
29
  3
ACDB_RECOMPOSE_DATA
350
105
  3
AcDbVariableDictionary
350
FD
  0
DICTIONARY
  5
63
102
{ACAD_REACTORS
330
C
102
}
330
C
100
AcDbDictionary
281
     1
  0
DICTIONARY
  5
6A
102
{ACAD_REACTORS
330
C
102
}
330
C
100
AcDbDictionary
281
     1
  3
Imperial24
350
6B
  0
DICTIONARY
  5
D
102
{ACAD_REACTORS
330
C
102
}
330
C
100
AcDbDictionary
281
     1
  0
DICTIONARY
  5
62
102
{ACAD_REACTORS
330
C
102
}
330
C
100
AcDbDictionary
281
     1
  3
Layout1
350
6F
  3
Layout2
350
77
  3
Model
350
73
  0
DICTIONARY
  5
10
102
{ACAD_REACTORS
330
C
102
}
330
C
100
AcDbDictionary
281
     1
  3
ByBlock
350
19
  3
ByLayer
350
11
  3
Global
350
21
  0
DICTIONARY
  5
66
102
{ACAD_REACTORS
330
C
102
}
330
C
100
AcDbDictionary
281
     1
  3
Standard
350
67
  0
DICTIONARY
  5
5F
102
{ACAD_REACTORS
330
C
102
}
330
C
100
AcDbDictionary
281
     1
  3
Standard
350
60
  0
DICTIONARY
  5
61
102
{ACAD_REACTORS
330
C
102
}
330
C
100
AcDbDictionary
281
     1
  0
ACDBDICTIONARYWDFLT
  5
E
102
{ACAD_REACTORS
330
C
102
}
330
C
100
AcDbDictionary
281
     1
  3
Normal
350
F
100
AcDbDictionaryWithDefault
340
F
  0
DICTIONARY
  5
42
102
{ACAD_REACTORS
330
C
102
}
330
C
100
AcDbDictionary
281
     1
  3
A0
350
43
  3
A1
350
44
  3
A2
350
45
  3
A3
350
46
  3
A4
350
47
  3
A5
350
48
  3
A6
350
49
  3
A7
350
4A
  3
A8
350
4B
  3
A9
350
4C
  3
B0
350
4D
  3
B1
350
4E
  3
B2
350
4F
  3
B3
350
50
  3
B4
350
51
  3
B5
350
52
  3
B6
350
53
  0
DICTIONARY
  5
68
102
{ACAD_REACTORS
330
C
102
}
330
C
100
AcDbDictionary
281
     1
  3
Imperial24
350
69
  0
DICTIONARY
  5
64
102
{ACAD_REACTORS
330
C
102
}
330
C
100
AcDbDictionary
281
     1
  3
Standard
350
65
  0
DICTIONARY
  5
29
102
{ACAD_REACTORS
330
C
102
}
330
C
100
AcDbDictionary
281
     1
  3
2dWireframe
350
2F
  3
Basic
350
2E
  3
Brighten
350
35
  3
ColorChange
350
39
  3
Conceptual
350
32
  3
Dim
350
34
  3
EdgeColorOff
350
41
  3
Facepattern
350
38
  3
Flat
350
2A
  3
FlatWithEdges
350
2B
  3
Gouraud
350
2C
  3
GouraudWithEdges
350
2D
  3
Hidden
350
31
  3
JitterOff
350
3F
  3
Linepattern
350
37
  3
OverhangOff
350
40
  3
Realistic
350
33
  3
Shaded
350
3E
  3
Shaded with edges
350
3D
  3
Shades of Gray
350
3A
  3
Sketchy
350
3B
  3
Thicken
350
36
  3
Wireframe
350
30
  3
X-Ray
350
3C
  0
XRECORD
  5
105
102
{ACAD_REACTORS
330
C
102
}
330
C
100
AcDbXrecord
280
     1
 90
        1
330
65
  0
DICTIONARY
  5
FD
102
{ACAD_REACTORS
330
C
102
}
330
C
100
AcDbDictionary
281
     1
  3
CANNOSCALE
350
102
  3
CMLEADERSTYLE
350
FF
  3
CTABLESTYLE
350
FE
  3
CVIEWDETAILSTYLE
350
100
  3
CVIEWSECTIONSTYLE
350
101
  0
ACDBDETAILVIEWSTYLE
  5
6B
102
{ACAD_XDICTIONARY
360
13A
102
}
102
{ACAD_REACTORS
330
6A
102
}
330
6A
100
AcDbModelDocViewStyle
 70
     0
  3
Imperial24
290
     0
100
AcDbDetailViewStyle
 70
     0
 71
     0
 90
        3
 71
     1
340
55
 62
   256
 40
0.24
340
0
 62
   256
 40
0.24
300

 40
0.36
280
     3
 71
     2
340
5D
 90
       25
 62
   256
 71
     3
340
55
 62
   256
 40
0.24
 90
        1
 40
0.75
 90
        1
300
%<\AcVar ViewType \f "%tc1">% %<\AcVar ViewDetailId>%\PSCALE %<\AcVar ViewScale \f "%sn">%
 71
     4
340
5D
 90
       25
 62
   256
340
5D
 90
       25
 62
   256
280
     0
  0
LAYOUT
  5
6F
102
{ACAD_REACTORS
330
62
102
}
330
62
100
AcDbPlotSettings
  1

  2

  4

  6

 40
0.0
 41
0.0
 42
0.0
 43
0.0
 44
0.0
 45
0.0
 46
0.0
 47
0.0
 48
0.0
 49
0.0
140
0.0
141
0.0
142
1.0
143
1.0
 70
   688
 72
     0
 73
     0
 74
     5
  7

 75
    16
147
1.0
 76
     0
 77
     2
 78
   300
148
0.0
149
0.0
100
AcDbLayout
  1
Layout1
 70
     1
 71
     1
 10
0.0
 20
0.0
 11
12.0
 21
9.0
 12
0.0
 22
0.0
 32
0.0
 14
0.0
 24
0.0
 34
0.0
 15
0.0
 25
0.0
 35
0.0
146
0.0
 13
0.0
 23
0.0
 33
0.0
 16
1.0
 26
0.0
 36
0.0
 17
0.0
 27
1.0
 37
0.0
 76
     0
330
6C
  0
LAYOUT
  5
77
102
{ACAD_REACTORS
330
62
102
}
330
62
100
AcDbPlotSettings
  1

  2

  4

  6

 40
0.0
 41
0.0
 42
0.0
 43
0.0
 44
0.0
 45
0.0
 46
0.0
 47
0.0
 48
0.0
 49
0.0
140
0.0
141
0.0
142
1.0
143
1.0
 70
   688
 72
     0
 73
     0
 74
     5
  7

 75
    16
147
1.0
 76
     0
 77
     2
 78
   300
148
0.0
149
0.0
100
AcDbLayout
  1
Layout2
 70
     1
 71
     2
 10
0.0
 20
0.0
 11
12.0
 21
9.0
 12
0.0
 22
0.0
 32
0.0
 14
0.0
 24
0.0
 34
0.0
 15
0.0
 25
0.0
 35
0.0
146
0.0
 13
0.0
 23
0.0
 33
0.0
 16
1.0
 26
0.0
 36
0.0
 17
0.0
 27
1.0
 37
0.0
 76
     0
330
74
  0
LAYOUT
  5
73
102
{ACAD_REACTORS
330
62
102
}
330
62
100
AcDbPlotSettings
  1

  2

  4

  6

 40
0.0
 41
0.0
 42
0.0
 43
0.0
 44
0.0
 45
0.0
 46
0.0
 47
0.0
 48
0.0
 49
0.0
140
0.0
141
0.0
142
1.0
143
1.0
 70
  1712
 72
     0
 73
     0
 74
     0
  7

 75
     0
147
1.0
 76
     0
 77
     2
 78
   300
148
0.0
149
0.0
100
AcDbLayout
  1
Model
 70
     1
 71
     0
 10
0.0
 20
0.0
 11
12.0
 21
9.0
 12
0.0
 22
0.0
 32
0.0
 14
0.0
 24
0.0
 34
0.0
 15
0.0
 25
0.0
 35
0.0
146
0.0
 13
0.0
 23
0.0
 33
0.0
 16
1.0
 26
0.0
 36
0.0
 17
0.0
 27
1.0
 37
0.0
 76
     0
330
70
  0
MATERIAL
  5
19
102
{ACAD_XDICTIONARY
360
1A
102
}
102
{ACAD_REACTORS
330
10
102
}
330
10
100
AcDbMaterial
  1
ByBlock
 72
     0
 43
0.0208333333333333
 43
0.0
 43
0.0
 43
0.0
 43
0.0
 43
0.0208333333333333
 43
0.0
 43
0.0
 43
0.0
 43
0.0
 43
1.0
 43
0.0
 43
0.0
 43
0.0
 43
0.0
 43
1.0
 77
     0
 47
0.0208333333333333
 47
0.0
 47
0.0
 47
0.0
 47
0.0
 47
0.0208333333333333
 47
0.0
 47
0.0
 47
0.0
 47
0.0
 47
1.0
 47
0.0
 47
0.0
 47
0.0
 47
0.0
 47
1.0
171
     0
 49
0.0208333333333333
 49
0.0
 49
0.0
 49
0.0
 49
0.0
 49
0.0208333333333333
 49
0.0
 49
0.0
 49
0.0
 49
0.0
 49
1.0
 49
0.0
 49
0.0
 49
0.0
 49
0.0
 49
1.0
175
     0
142
0.0208333333333333
142
0.0
142
0.0
142
0.0
142
0.0
142
0.0208333333333333
142
0.0
142
0.0
142
0.0
142
0.0
142
1.0
142
0.0
142
0.0
142
0.0
142
0.0
142
1.0
179
     0
144
0.0208333333333333
144
0.0
144
0.0
144
0.0
144
0.0
144
0.0208333333333333
144
0.0
144
0.0
144
0.0
144
0.0
144
1.0
144
0.0
144
0.0
144
0.0
144
0.0
144
1.0
147
0.0208333333333333
147
0.0
147
0.0
147
0.0
147
0.0
147
0.0208333333333333
147
0.0
147
0.0
147
0.0
147
0.0
147
1.0
147
0.0
147
0.0
147
0.0
147
0.0
147
1.0
  0
MATERIAL
  5
11
102
{ACAD_XDICTIONARY
360
12
102
}
102
{ACAD_REACTORS
330
10
102
}
330
10
100
AcDbMaterial
  1
ByLayer
 72
     0
 43
0.0208333333333333
 43
0.0
 43
0.0
 43
0.0
 43
0.0
 43
0.0208333333333333
 43
0.0
 43
0.0
 43
0.0
 43
0.0
 43
1.0
 43
0.0
 43
0.0
 43
0.0
 43
0.0
 43
1.0
 77
     0
 47
0.0208333333333333
 47
0.0
 47
0.0
 47
0.0
 47
0.0
 47
0.0208333333333333
 47
0.0
 47
0.0
 47
0.0
 47
0.0
 47
1.0
 47
0.0
 47
0.0
 47
0.0
 47
0.0
 47
1.0
171
     0
 49
0.0208333333333333
 49
0.0
 49
0.0
 49
0.0
 49
0.0
 49
0.0208333333333333
 49
0.0
 49
0.0
 49
0.0
 49
0.0
 49
1.0
 49
0.0
 49
0.0
 49
0.0
 49
0.0
 49
1.0
175
     0
142
0.0208333333333333
142
0.0
142
0.0
142
0.0
142
0.0
142
0.0208333333333333
142
0.0
142
0.0
142
0.0
142
0.0
142
1.0
142
0.0
142
0.0
142
0.0
142
0.0
142
1.0
179
     0
144
0.0208333333333333
144
0.0
144
0.0
144
0.0
144
0.0
144
0.0208333333333333
144
0.0
144
0.0
144
0.0
144
0.0
144
1.0
144
0.0
144
0.0
144
0.0
144
0.0
144
1.0
147
0.0208333333333333
147
0.0
147
0.0
147
0.0
147
0.0
147
0.0208333333333333
147
0.0
147
0.0
147
0.0
147
0.0
147
1.0
147
0.0
147
0.0
147
0.0
147
0.0
147
1.0
  0
MATERIAL
  5
21
102
{ACAD_XDICTIONARY
360
22
102
}
102
{ACAD_REACTORS
330
10
102
}
330
10
100
AcDbMaterial
  1
Global
 72
     0
 43
0.0208333333333333
 43
0.0
 43
0.0
 43
0.0
 43
0.0
 43
0.0208333333333333
 43
0.0
 43
0.0
 43
0.0
 43
0.0
 43
1.0
 43
0.0
 43
0.0
 43
0.0
 43
0.0
 43
1.0
 77
     0
 47
0.0208333333333333
 47
0.0
 47
0.0
 47
0.0
 47
0.0
 47
0.0208333333333333
 47
0.0
 47
0.0
 47
0.0
 47
0.0
 47
1.0
 47
0.0
 47
0.0
 47
0.0
 47
0.0
 47
1.0
171
     0
 49
0.0208333333333333
 49
0.0
 49
0.0
 49
0.0
 49
0.0
 49
0.0208333333333333
 49
0.0
 49
0.0
 49
0.0
 49
0.0
 49
1.0
 49
0.0
 49
0.0
 49
0.0
 49
0.0
 49
1.0
175
     0
142
0.0208333333333333
142
0.0
142
0.0
142
0.0
142
0.0
142
0.0208333333333333
142
0.0
142
0.0
142
0.0
142
0.0
142
1.0
142
0.0
142
0.0
142
0.0
142
0.0
142
1.0
179
     0
144
0.0208333333333333
144
0.0
144
0.0
144
0.0
144
0.0
144
0.0208333333333333
144
0.0
144
0.0
144
0.0
144
0.0
144
1.0
144
0.0
144
0.0
144
0.0
144
0.0
144
1.0
147
0.0208333333333333
147
0.0
147
0.0
147
0.0
147
0.0
147
0.0208333333333333
147
0.0
147
0.0
147
0.0
147
0.0
147
1.0
147
0.0
147
0.0
147
0.0
147
0.0
147
1.0
  0
MLEADERSTYLE
  5
67
102
{ACAD_XDICTIONARY
360
136
102
}
102
{ACAD_REACTORS
330
66
102
}
330
66
100
AcDbMLeaderStyle
179
     2
170
     2
171
     1
172
     0
 90
        2
 40
0.0
 41
0.0
173
     1
 91
-1056964608
340
5B
 92
       -2
290
     1
 42
0.09
291
     1
 43
0.36
  3
Standard
 44
0.18
300

342
55
174
     1
178
     6
175
     1
176
     0
 93
-1056964608
 45
0.18
292
     0
297
     0
 46
0.18
 94
-1056964608
 47
1.0
 49
1.0
140
1.0
293
     1
141
0.0
294
     1
177
     0
142
1.0
295
     0
296
     0
143
0.125
271
     0
272
     9
273
     9
  0
MLINESTYLE
  5
60
102
{ACAD_REACTORS
330
5F
102
}
330
5F
100
AcDbMlineStyle
  2
STANDARD
 70
     0
  3

 62
   256
 51
90.0
 52
90.0
 71
     2
 49
0.5
 62
   256
  6
BYLAYER
 49
-0.5
 62
   256
  6
BYLAYER
  0
ACDBPLACEHOLDER
  5
F
102
{ACAD_REACTORS
330
E
102
}
330
E
  0
SCALE
  5
43
102
{ACAD_REACTORS
330
42
102
}
330
42
100
AcDbScale
 70
     0
300
1:1
140
1.0
141
1.0
290
     1
  0
SCALE
  5
44
102
{ACAD_REACTORS
330
42
102
}
330
42
100
AcDbScale
 70
     0
300
1/128" = 1'-0"
140
0.0078125
141
12.0
290
     0
  0
SCALE
  5
45
102
{ACAD_REACTORS
330
42
102
}
330
42
100
AcDbScale
 70
     0
300
1/64" = 1'-0"
140
0.015625
141
12.0
290
     0
  0
SCALE
  5
46
102
{ACAD_REACTORS
330
42
102
}
330
42
100
AcDbScale
 70
     0
300
1/32" = 1'-0"
140
0.03125
141
12.0
290
     0
  0
SCALE
  5
47
102
{ACAD_REACTORS
330
42
102
}
330
42
100
AcDbScale
 70
     0
300
1/16" = 1'-0"
140
0.0625
141
12.0
290
     0
  0
SCALE
  5
48
102
{ACAD_REACTORS
330
42
102
}
330
42
100
AcDbScale
 70
     0
300
3/32" = 1'-0"
140
0.09375
141
12.0
290
     0
  0
SCALE
  5
49
102
{ACAD_REACTORS
330
42
102
}
330
42
100
AcDbScale
 70
     0
300
1/8" = 1'-0"
140
0.125
141
12.0
290
     0
  0
SCALE
  5
4A
102
{ACAD_REACTORS
330
42
102
}
330
42
100
AcDbScale
 70
     0
300
3/16" = 1'-0"
140
0.1875
141
12.0
290
     0
  0
SCALE
  5
4B
102
{ACAD_REACTORS
330
42
102
}
330
42
100
AcDbScale
 70
     0
300
1/4" = 1'-0"
140
0.25
141
12.0
290
     0
  0
SCALE
  5
4C
102
{ACAD_REACTORS
330
42
102
}
330
42
100
AcDbScale
 70
     0
300
3/8" = 1'-0"
140
0.375
141
12.0
290
     0
  0
SCALE
  5
4D
102
{ACAD_REACTORS
330
42
102
}
330
42
100
AcDbScale
 70
     0
300
1/2" = 1'-0"
140
0.5
141
12.0
290
     0
  0
SCALE
  5
4E
102
{ACAD_REACTORS
330
42
102
}
330
42
100
AcDbScale
 70
     0
300
3/4" = 1'-0"
140
0.75
141
12.0
290
     0
  0
SCALE
  5
4F
102
{ACAD_REACTORS
330
42
102
}
330
42
100
AcDbScale
 70
     0
300
1" = 1'-0"
140
1.0
141
12.0
290
     0
  0
SCALE
  5
50
102
{ACAD_REACTORS
330
42
102
}
330
42
100
AcDbScale
 70
     0
300
1-1/2" = 1'-0"
140
1.5
141
12.0
290
     0
  0
SCALE
  5
51
102
{ACAD_REACTORS
330
42
102
}
330
42
100
AcDbScale
 70
     0
300
3" = 1'-0"
140
3.0
141
12.0
290
     0
  0
SCALE
  5
52
102
{ACAD_REACTORS
330
42
102
}
330
42
100
AcDbScale
 70
     0
300
6" = 1'-0"
140
6.0
141
12.0
290
     0
  0
SCALE
  5
53
102
{ACAD_REACTORS
330
42
102
}
330
42
100
AcDbScale
 70
     0
300
1'-0" = 1'-0"
140
12.0
141
12.0
290
     0
  0
ACDBSECTIONVIEWSTYLE
  5
69
102
{ACAD_XDICTIONARY
360
138
102
}
102
{ACAD_REACTORS
330
68
102
}
330
68
100
AcDbModelDocViewStyle
 70
     0
  3
Imperial24
290
     0
100
AcDbSectionViewStyle
 70
     0
 71
     0
 90
       78
 71
     1
340
55
 62
   256
 40
0.24
340
0
340
0
 62
   256
 40
0.24
300
I, O, Q, S, X, Z
 40
0.48
 90
        3
 40
0.18
 90
        1
 71
     2
340
5D
 90
       25
 62
   256
340
5D
 90
       50
 62
   256
 40
0.24
 40
0.0
 40
0.24
 71
     3
340
55
 62
   256
 40
0.24
 90
        1
 40
0.75
 90
        1
300
%<\AcVar ViewType \f "%tc1">% %<\AcVar ViewSectionStartId>%-%<\AcVar ViewSectionEndId>%\PSCALE %<\AcVar ViewScale \f "%sn">%
 71
     4
 62
   256
 62
   257
300
ANSI31
 40
1.0
 90
        0
290
     0
290
     0
 90
        6
 40
0.0
 40
1.570796326794896
 40
0.2617993877991494
 40
1.308996938995747
 40
-0.2617993877991494
 40
1.832595714594046
  0
TABLESTYLE
  5
65
102
{ACAD_XDICTIONARY
360
103
102
}
102
{ACAD_REACTORS
330
64
102
}
330
64
100
AcDbTableStyle
280
     0
  3
Standard
 70
     0
 71
     0
 40
0.06
 41
0.06
280
     0
281
     0
  7
Standard
140
0.18
170
     2
 62
     0
 63
     7
283
     0
 90
      512
 91
        0
  1

274
    -2
284
     1
 64
     0
275
    -2
285
     1
 65
     0
276
    -2
286
     1
 66
     0
277
    -2
287
     1
 67
     0
278
    -2
288
     1
 68
     0
279
    -2
289
     1
 69
     0
  7
Standard
140
0.25
170
     5
 62
     0
 63
     7
283
     0
 90
      512
 91
        0
  1

274
    -2
284
     1
 64
     0
275
    -2
285
     1
 65
     0
276
    -2
286
     1
 66
     0
277
    -2
287
     1
 67
     0
278
    -2
288
     1
 68
     0
279
    -2
289
     1
 69
     0
  7
Standard
140
0.18
170
     5
 62
     0
 63
     7
283
     0
 90
      512
 91
        0
  1

274
    -2
284
     1
 64
     0
275
    -2
285
     1
 65
     0
276
    -2
286
     1
 66
     0
277
    -2
287
     1
 67
     0
278
    -2
288
     1
 68
     0
279
    -2
289
     1
 69
     0
  0
VISUALSTYLE
  5
2F
102
{ACAD_XDICTIONARY
360
110
102
}
102
{ACAD_REACTORS
330
29
102
}
330
29
100
AcDbVisualStyle
  2
2dWireframe
 70
     4
177
     2
291
     0
 71
     0
176
     1
 72
     2
176
     1
 73
     0
176
     1
 90
        0
176
     1
 40
0.6
176
     1
 41
30.0
176
     1
 63
     7
421
 16777215
176
     1
 74
     1
176
     1
 91
        4
176
     1
 64
     7
176
     1
 65
   257
176
     1
 75
     1
176
     1
175
     1
176
     1
 42
1.0
176
     1
 92
        0
176
     1
 66
   257
176
     1
 43
1.0
176
     1
 76
     1
176
     1
 77
     6
176
     1
 78
     2
176
     1
 67
     7
176
     1
 79
     5
176
     1
170
     0
176
     1
171
     0
176
     1
290
     0
176
     1
 93
        1
176
     1
 44
0.0
176
     1
173
     0
176
     1
1001
ACAD
1000
AcDbSavedByObjectVersion
1070
     0
  0
VISUALSTYLE
  5
2E
102
{ACAD_XDICTIONARY
360
10E
102
}
102
{ACAD_REACTORS
330
29
102
}
330
29
100
AcDbVisualStyle
  2
Basic
 70
     7
177
     2
291
     1
 71
     1
176
     1
 72
     0
176
     1
 73
     1
176
     1
 90
        0
176
     1
 40
0.6
176
     1
 41
30.0
176
     1
 63
     7
421
 16777215
176
     1
 74
     0
176
     1
 91
        4
176
     1
 64
     7
176
     1
 65
   257
176
     1
 75
     1
176
     1
175
     1
176
     1
 42
1.0
176
     1
 92
        8
176
     1
 66
     7
176
     1
 43
1.0
176
     1
 76
     1
176
     1
 77
     6
176
     1
 78
     2
176
     1
 67
     7
176
     1
 79
     5
176
     1
170
     0
176
     1
171
     0
176
     1
290
     0
176
     1
 93
        1
176
     1
 44
0.0
176
     1
173
     0
176
     1
1001
ACAD
1000
AcDbSavedByObjectVersion
1070
     0
  0
VISUALSTYLE
  5
35
102
{ACAD_XDICTIONARY
360
11C
102
}
102
{ACAD_REACTORS
330
29
102
}
330
29
100
AcDbVisualStyle
  2
Brighten
 70
    12
177
     2
291
     1
 71
     2
176
     1
 72
     2
176
     1
 73
     0
176
     1
 90
        0
176
     1
 40
0.6
176
     1
 41
30.0
176
     1
 63
     7
421
 16777215
176
     1
 74
     1
176
     1
 91
        4
176
     1
 64
     7
176
     1
 65
   257
176
     1
 75
     1
176
     1
175
     1
176
     1
 42
1.0
176
     1
 92
        8
176
     1
 66
     7
176
     1
 43
1.0
176
     1
 76
     1
176
     1
 77
     6
176
     1
 78
     2
176
     1
 67
     7
176
     1
 79
     5
176
     1
170
     0
176
     1
171
     0
176
     1
290
     0
176
     1
 93
        1
176
     1
 44
50.0
176
     1
173
     0
176
     1
1001
ACAD
1000
AcDbSavedByObjectVersion
1070
     0
  0
VISUALSTYLE
  5
39
102
{ACAD_XDICTIONARY
360
124
102
}
102
{ACAD_REACTORS
330
29
102
}
330
29
100
AcDbVisualStyle
  2
ColorChange
 70
    16
177
     2
291
     1
 71
     2
176
     1
 72
     2
176
     1
 73
     3
176
     1
 90
        0
176
     1
 40
0.6
176
     1
 41
30.0
176
     1
 63
     8
421
  8421504
176
     1
 74
     1
176
     1
 91
        4
176
     1
 64
     7
176
     1
 65
   257
176
     1
 75
     1
176
     1
175
     1
176
     1
 42
1.0
176
     1
 92
        8
176
     1
 66
     8
424
  8421504
176
     1
 43
1.0
176
     1
 76
     1
176
     1
 77
     6
176
     1
 78
     2
176
     1
 67
     7
176
     1
 79
     5
176
     1
170
     0
176
     1
171
     0
176
     1
290
     0
176
     1
 93
        1
176
     1
 44
0.0
176
     1
173
     0
176
     1
1001
ACAD
1000
AcDbSavedByObjectVersion
1070
     0
  0
VISUALSTYLE
  5
32
102
{ACAD_XDICTIONARY
360
116
102
}
102
{ACAD_REACTORS
330
29
102
}
330
29
100
AcDbVisualStyle
  2
Conceptual
 70
     9
177
     2
291
     0
 71
     3
176
     1
 72
     2
176
     1
 73
     0
176
     1
 90
        0
176
     1
 40
0.6
176
     1
 41
30.0
176
     1
 63
     7
421
 16777215
176
     1
 74
     2
176
     1
 91
        2
176
     1
 64
     7
176
     1
 65
   257
176
     1
 75
     1
176
     1
175
     1
176
     1
 42
179.0
176
     1
 92
        8
176
     1
 66
     7
176
     1
 43
1.0
176
     1
 76
     1
176
     1
 77
     6
176
     1
 78
     2
176
     1
 67
     7
176
     1
 79
     3
176
     1
170
     0
176
     1
171
     0
176
     1
290
     0
176
     1
 93
        1
176
     1
 44
0.0
176
     1
173
     0
176
     1
1001
ACAD
1000
AcDbSavedByObjectVersion
1070
     0
  0
VISUALSTYLE
  5
34
102
{ACAD_XDICTIONARY
360
11A
102
}
102
{ACAD_REACTORS
330
29
102
}
330
29
100
AcDbVisualStyle
  2
Dim
 70
    11
177
     2
291
     1
 71
     2
176
     1
 72
     2
176
     1
 73
     0
176
     1
 90
        0
176
     1
 40
0.6
176
     1
 41
30.0
176
     1
 63
     7
421
 16777215
176
     1
 74
     1
176
     1
 91
        4
176
     1
 64
     7
176
     1
 65
   257
176
     1
 75
     1
176
     1
175
     1
176
     1
 42
1.0
176
     1
 92
        8
176
     1
 66
     7
176
     1
 43
1.0
176
     1
 76
     1
176
     1
 77
     6
176
     1
 78
     2
176
     1
 67
     7
176
     1
 79
     5
176
     1
170
     0
176
     1
171
     0
176
     1
290
     0
176
     1
 93
        1
176
     1
 44
-50.0
176
     1
173
     0
176
     1
1001
ACAD
1000
AcDbSavedByObjectVersion
1070
     0
  0
VISUALSTYLE
  5
41
102
{ACAD_XDICTIONARY
360
134
102
}
102
{ACAD_REACTORS
330
29
102
}
330
29
100
AcDbVisualStyle
  2
EdgeColorOff
 70
    22
177
     2
291
     1
 71
     2
176
     0
 72
     2
176
     0
 73
     0
176
     0
 90
        0
176
     0
 40
0.6
176
     0
 41
30.0
176
     0
 63
     7
421
 16777215
176
     0
 74
     1
176
     0
 91
        4
176
     0
 64
     7
176
     0
 65
   257
176
     0
 75
     1
176
     0
175
     1
176
     0
 42
1.0
176
     0
 92
        8
176
     2
 66
     7
176
     0
 43
1.0
176
     0
 76
     1
176
     0
 77
     6
176
     0
 78
     2
176
     0
 67
     7
176
     0
 79
     5
176
     0
170
     0
176
     0
171
     0
176
     0
290
     0
176
     0
 93
        1
176
     0
 44
0.0
176
     0
173
     0
176
     0
1001
ACAD
1000
AcDbSavedByObjectVersion
1070
     0
  0
VISUALSTYLE
  5
38
102
{ACAD_XDICTIONARY
360
122
102
}
102
{ACAD_REACTORS
330
29
102
}
330
29
100
AcDbVisualStyle
  2
Facepattern
 70
    15
177
     2
291
     1
 71
     2
176
     1
 72
     2
176
     1
 73
     0
176
     1
 90
        0
176
     1
 40
0.6
176
     1
 41
30.0
176
     1
 63
     7
421
 16777215
176
     1
 74
     1
176
     1
 91
        4
176
     1
 64
     7
176
     1
 65
   257
176
     1
 75
     1
176
     1
175
     1
176
     1
 42
1.0
176
     1
 92
        8
176
     1
 66
     7
176
     1
 43
1.0
176
     1
 76
     1
176
     1
 77
     6
176
     1
 78
     2
176
     1
 67
     7
176
     1
 79
     5
176
     1
170
     0
176
     1
171
     0
176
     1
290
     0
176
     1
 93
        1
176
     1
 44
0.0
176
     1
173
     0
176
     1
1001
ACAD
1000
AcDbSavedByObjectVersion
1070
     0
  0
VISUALSTYLE
  5
2A
102
{ACAD_XDICTIONARY
360
106
102
}
102
{ACAD_REACTORS
330
29
102
}
330
29
100
AcDbVisualStyle
  2
Flat
 70
     0
177
     2
291
     1
 71
     2
176
     1
 72
     1
176
     1
 73
     1
176
     1
 90
        2
176
     1
 40
0.6
176
     1
 41
30.0
176
     1
 63
     7
421
 16777215
176
     1
 74
     0
176
     1
 91
        0
176
     1
 64
     7
176
     1
 65
   257
176
     1
 75
     1
176
     1
175
     1
176
     1
 42
1.0
176
     1
 92
        8
176
     1
 66
     7
176
     1
 43
1.0
176
     1
 76
     1
176
     1
 77
     6
176
     1
 78
     2
176
     1
 67
     7
176
     1
 79
     5
176
     1
170
     0
176
     1
171
     0
176
     1
290
     0
176
     1
 93
       13
176
     1
 44
0.0
176
     1
173
     0
176
     1
1001
ACAD
1000
AcDbSavedByObjectVersion
1070
     0
  0
VISUALSTYLE
  5
2B
102
{ACAD_XDICTIONARY
360
108
102
}
102
{ACAD_REACTORS
330
29
102
}
330
29
100
AcDbVisualStyle
  2
FlatWithEdges
 70
     1
177
     2
291
     1
 71
     2
176
     1
 72
     1
176
     1
 73
     1
176
     1
 90
        2
176
     1
 40
0.6
176
     1
 41
30.0
176
     1
 63
     7
421
 16777215
176
     1
 74
     1
176
     1
 91
        0
176
     1
 64
     7
176
     1
 65
   257
176
     1
 75
     1
176
     1
175
     1
176
     1
 42
1.0
176
     1
 92
        0
176
     1
 66
   257
176
     1
 43
1.0
176
     1
 76
     1
176
     1
 77
     6
176
     1
 78
     2
176
     1
 67
     7
176
     1
 79
     5
176
     1
170
     0
176
     1
171
     0
176
     1
290
     0
176
     1
 93
       13
176
     1
 44
0.0
176
     1
173
     0
176
     1
1001
ACAD
1000
AcDbSavedByObjectVersion
1070
     0
  0
VISUALSTYLE
  5
2C
102
{ACAD_XDICTIONARY
360
10A
102
}
102
{ACAD_REACTORS
330
29
102
}
330
29
100
AcDbVisualStyle
  2
Gouraud
 70
     2
177
     2
291
     1
 71
     2
176
     1
 72
     2
176
     1
 73
     1
176
     1
 90
        2
176
     1
 40
0.6
176
     1
 41
30.0
176
     1
 63
     7
421
 16777215
176
     1
 74
     0
176
     1
 91
        0
176
     1
 64
     7
176
     1
 65
   257
176
     1
 75
     1
176
     1
175
     1
176
     1
 42
1.0
176
     1
 92
        0
176
     1
 66
     7
176
     1
 43
1.0
176
     1
 76
     1
176
     1
 77
     6
176
     1
 78
     2
176
     1
 67
     7
176
     1
 79
     5
176
     1
170
     0
176
     1
171
     0
176
     1
290
     0
176
     1
 93
       13
176
     1
 44
0.0
176
     1
173
     0
176
     1
1001
ACAD
1000
AcDbSavedByObjectVersion
1070
     0
  0
VISUALSTYLE
  5
2D
102
{ACAD_XDICTIONARY
360
10C
102
}
102
{ACAD_REACTORS
330
29
102
}
330
29
100
AcDbVisualStyle
  2
GouraudWithEdges
 70
     3
177
     2
291
     1
 71
     2
176
     1
 72
     2
176
     1
 73
     1
176
     1
 90
        2
176
     1
 40
0.6
176
     1
 41
30.0
176
     1
 63
     7
421
 16777215
176
     1
 74
     1
176
     1
 91
        0
176
     1
 64
     7
176
     1
 65
   257
176
     1
 75
     1
176
     1
175
     1
176
     1
 42
1.0
176
     1
 92
        0
176
     1
 66
   257
176
     1
 43
1.0
176
     1
 76
     1
176
     1
 77
     6
176
     1
 78
     2
176
     1
 67
     7
176
     1
 79
     5
176
     1
170
     0
176
     1
171
     0
176
     1
290
     0
176
     1
 93
       13
176
     1
 44
0.0
176
     1
173
     0
176
     1
1001
ACAD
1000
AcDbSavedByObjectVersion
1070
     0
  0
VISUALSTYLE
  5
31
102
{ACAD_XDICTIONARY
360
114
102
}
102
{ACAD_REACTORS
330
29
102
}
330
29
100
AcDbVisualStyle
  2
Hidden
 70
     6
177
     2
291
     0
 71
     1
176
     1
 72
     2
176
     1
 73
     2
176
     1
 90
        0
176
     1
 40
0.6
176
     1
 41
30.0
176
     1
 63
     7
421
 16777215
176
     1
 74
     2
176
     1
 91
        2
176
     1
 64
     7
176
     1
 65
   257
176
     1
 75
     2
176
     1
175
     1
176
     1
 42
40.0
176
     1
 92
        0
176
     1
 66
   257
176
     1
 43
1.0
176
     1
 76
     1
176
     1
 77
     6
176
     1
 78
     2
176
     1
 67
     7
176
     1
 79
     3
176
     1
170
     0
176
     1
171
     0
176
     1
290
     0
176
     1
 93
        1
176
     1
 44
0.0
176
     1
173
     0
176
     1
1001
ACAD
1000
AcDbSavedByObjectVersion
1070
     0
  0
VISUALSTYLE
  5
3F
102
{ACAD_XDICTIONARY
360
130
102
}
102
{ACAD_REACTORS
330
29
102
}
330
29
100
AcDbVisualStyle
  2
JitterOff
 70
    20
177
     2
291
     1
 71
     2
176
     0
 72
     2
176
     0
 73
     0
176
     0
 90
        0
176
     0
 40
0.6
176
     0
 41
30.0
176
     0
 63
     7
421
 16777215
176
     0
 74
     1
176
     0
 91
        4
176
     0
 64
     7
176
     0
 65
   257
176
     0
 75
     1
176
     0
175
     1
176
     0
 42
1.0
176
     0
 92
       10
176
     2
 66
     7
176
     0
 43
1.0
176
     0
 76
     1
176
     0
 77
     6
176
     0
 78
     2
176
     0
 67
     7
176
     0
 79
     5
176
     0
170
     0
176
     0
171
     0
176
     0
290
     0
176
     0
 93
        1
176
     0
 44
0.0
176
     0
173
     0
176
     0
1001
ACAD
1000
AcDbSavedByObjectVersion
1070
     0
  0
VISUALSTYLE
  5
37
102
{ACAD_XDICTIONARY
360
120
102
}
102
{ACAD_REACTORS
330
29
102
}
330
29
100
AcDbVisualStyle
  2
Linepattern
 70
    14
177
     2
291
     1
 71
     2
176
     1
 72
     2
176
     1
 73
     0
176
     1
 90
        0
176
     1
 40
0.6
176
     1
 41
30.0
176
     1
 63
     7
421
 16777215
176
     1
 74
     1
176
     1
 91
        4
176
     1
 64
     7
176
     1
 65
   257
176
     1
 75
     7
176
     1
175
     7
176
     1
 42
1.0
176
     1
 92
        8
176
     1
 66
     7
176
     1
 43
1.0
176
     1
 76
     1
176
     1
 77
     6
176
     1
 78
     2
176
     1
 67
     7
176
     1
 79
     5
176
     1
170
     0
176
     1
171
     0
176
     1
290
     0
176
     1
 93
        1
176
     1
 44
0.0
176
     1
173
     0
176
     1
1001
ACAD
1000
AcDbSavedByObjectVersion
1070
     0
  0
VISUALSTYLE
  5
40
102
{ACAD_XDICTIONARY
360
132
102
}
102
{ACAD_REACTORS
330
29
102
}
330
29
100
AcDbVisualStyle
  2
OverhangOff
 70
    21
177
     2
291
     1
 71
     2
176
     0
 72
     2
176
     0
 73
     0
176
     0
 90
        0
176
     0
 40
0.6
176
     0
 41
30.0
176
     0
 63
     7
421
 16777215
176
     0
 74
     1
176
     0
 91
        4
176
     0
 64
     7
176
     0
 65
   257
176
     0
 75
     1
176
     0
175
     1
176
     0
 42
1.0
176
     0
 92
        9
176
     2
 66
     7
176
     0
 43
1.0
176
     0
 76
     1
176
     0
 77
     6
176
     0
 78
     2
176
     0
 67
     7
176
     0
 79
     5
176
     0
170
     0
176
     0
171
     0
176
     0
290
     0
176
     0
 93
        1
176
     0
 44
0.0
176
     0
173
     0
176
     0
1001
ACAD
1000
AcDbSavedByObjectVersion
1070
     0
  0
VISUALSTYLE
  5
33
102
{ACAD_XDICTIONARY
360
118
102
}
102
{ACAD_REACTORS
330
29
102
}
330
29
100
AcDbVisualStyle
  2
Realistic
 70
     8
177
     2
291
     0
 71
     2
176
     1
 72
     3
176
     1
 73
     0
176
     1
 90
        2
176
     1
 40
0.6
176
     1
 41
30.0
176
     1
 63
     7
421
 16777215
176
     1
 74
     0
176
     1
 91
        0
176
     1
 64
     7
176
     1
 65
   257
176
     1
 75
     1
176
     1
175
     1
176
     1
 42
1.0
176
     1
 92
        8
176
     1
 66
   257
176
     1
 43
1.0
176
     1
 76
     1
176
     1
 77
     6
176
     1
 78
     2
176
     1
 67
     7
176
     1
 79
     3
176
     1
170
     0
176
     1
171
     0
176
     1
290
     0
176
     1
 93
       13
176
     1
 44
0.0
176
     1
173
     0
176
     1
1001
ACAD
1000
AcDbSavedByObjectVersion
1070
     0
  0
VISUALSTYLE
  5
3E
102
{ACAD_XDICTIONARY
360
12E
102
}
102
{ACAD_REACTORS
330
29
102
}
330
29
100
AcDbVisualStyle
  2
Shaded
 70
    27
177
     2
291
     0
 71
     2
176
     1
 72
     2
176
     1
 73
     1
176
     1
 90
        2
176
     1
 40
0.6
176
     1
 41
30.0
176
     1
 63
     7
421
 16777215
176
     1
 74
     0
176
     1
 91
        4
176
     1
 64
     7
176
     1
 65
   257
176
     1
 75
     1
176
     1
175
     1
176
     1
 42
1.0
176
     1
 92
        8
176
     1
 66
   257
176
     1
 43
1.0
176
     1
 76
     1
176
     1
 77
     6
176
     1
 78
     2
176
     1
 67
     8
425
  7895160
176
     1
 79
     3
176
     1
170
     0
176
     1
171
     0
176
     1
290
     0
176
     1
 93
        5
176
     1
 44
0.0
176
     1
173
     0
176
     1
1001
ACAD
1000
AcDbSavedByObjectVersion
1070
     0
  0
VISUALSTYLE
  5
3D
102
{ACAD_XDICTIONARY
360
12C
102
}
102
{ACAD_REACTORS
330
29
102
}
330
29
100
AcDbVisualStyle
  2
Shaded with edges
 70
    26
177
     2
291
     0
 71
     2
176
     1
 72
     2
176
     1
 73
     1
176
     1
 90
        2
176
     1
 40
0.6
176
     1
 41
30.0
176
     1
 63
     7
421
 16777215
176
     1
 74
     1
176
     1
 91
        2
176
     1
 64
     7
176
     1
 65
   257
176
     1
 75
     2
176
     1
175
     1
176
     1
 42
1.0
176
     1
 92
        8
176
     1
 66
   257
176
     1
 43
1.0
176
     1
 76
     1
176
     1
 77
     6
176
     1
 78
     2
176
     1
 67
     7
176
     1
 79
     3
176
     1
170
     0
176
     1
171
     0
176
     1
290
     0
176
     1
 93
        5
176
     1
 44
0.0
176
     1
173
     0
176
     1
1001
ACAD
1000
AcDbSavedByObjectVersion
1070
     0
  0
VISUALSTYLE
  5
3A
102
{ACAD_XDICTIONARY
360
126
102
}
102
{ACAD_REACTORS
330
29
102
}
330
29
100
AcDbVisualStyle
  2
Shades of Gray
 70
    23
177
     2
291
     0
 71
     2
176
     1
 72
     2
176
     1
 73
     3
176
     1
 90
        0
176
     1
 40
0.6
176
     1
 41
30.0
176
     1
 63
     7
421
 16777215
176
     1
 74
     2
176
     1
 91
        2
176
     1
 64
     7
176
     1
 65
     7
176
     1
 75
     1
176
     1
175
     1
176
     1
 42
40.0
176
     1
 92
        8
176
     1
 66
     7
176
     1
 43
1.0
176
     1
 76
     1
176
     1
 77
     6
176
     1
 78
     2
176
     1
 67
     7
176
     1
 79
     3
176
     1
170
     0
176
     1
171
     0
176
     1
290
     0
176
     1
 93
        1
176
     1
 44
0.0
176
     1
173
     0
176
     1
1001
ACAD
1000
AcDbSavedByObjectVersion
1070
     0
  0
VISUALSTYLE
  5
3B
102
{ACAD_XDICTIONARY
360
128
102
}
102
{ACAD_REACTORS
330
29
102
}
330
29
100
AcDbVisualStyle
  2
Sketchy
 70
    24
177
     2
291
     0
 71
     1
176
     1
 72
     2
176
     1
 73
     2
176
     1
 90
        0
176
     1
 40
0.6
176
     1
 41
30.0
176
     1
 63
     7
421
 16777215
176
     1
 74
     2
176
     1
 91
        2
176
     1
 64
     7
176
     1
 65
     7
176
     1
 75
     1
176
     1
175
     1
176
     1
 42
40.0
176
     1
 92
       11
176
     1
 66
     7
176
     1
 43
1.0
176
     1
 76
     1
176
     1
 77
     6
176
     1
 78
     2
176
     1
 67
     7
176
     1
 79
     6
176
     1
170
     0
176
     1
171
     0
176
     1
290
     0
176
     1
 93
        1
176
     1
 44
0.0
176
     1
173
     0
176
     1
1001
ACAD
1000
AcDbSavedByObjectVersion
1070
     0
  0
VISUALSTYLE
  5
36
102
{ACAD_XDICTIONARY
360
11E
102
}
102
{ACAD_REACTORS
330
29
102
}
330
29
100
AcDbVisualStyle
  2
Thicken
 70
    13
177
     2
291
     1
 71
     2
176
     1
 72
     2
176
     1
 73
     0
176
     1
 90
        0
176
     1
 40
0.6
176
     1
 41
30.0
176
     1
 63
     7
421
 16777215
176
     1
 74
     1
176
     1
 91
        4
176
     1
 64
     7
176
     1
 65
   257
176
     1
 75
     1
176
     1
175
     1
176
     1
 42
1.0
176
     1
 92
       12
176
     1
 66
     7
176
     1
 43
1.0
176
     1
 76
     1
176
     1
 77
     6
176
     1
 78
     2
176
     1
 67
     7
176
     1
 79
     5
176
     1
170
     0
176
     1
171
     0
176
     1
290
     0
176
     1
 93
        1
176
     1
 44
0.0
176
     1
173
     0
176
     1
1001
ACAD
1000
AcDbSavedByObjectVersion
1070
     0
  0
VISUALSTYLE
  5
30
102
{ACAD_XDICTIONARY
360
112
102
}
102
{ACAD_REACTORS
330
29
102
}
330
29
100
AcDbVisualStyle
  2
Wireframe
 70
     5
177
     2
291
     0
 71
     0
176
     1
 72
     2
176
     1
 73
     0
176
     1
 90
        0
176
     1
 40
0.6
176
     1
 41
30.0
176
     1
 63
     7
421
 16777215
176
     1
 74
     1
176
     1
 91
        4
176
     1
 64
     7
176
     1
 65
   257
176
     1
 75
     1
176
     1
175
     1
176
     1
 42
1.0
176
     1
 92
        0
176
     1
 66
   257
176
     1
 43
1.0
176
     1
 76
     1
176
     1
 77
     6
176
     1
 78
     2
176
     1
 67
     7
176
     1
 79
     3
176
     1
170
     0
176
     1
171
     0
176
     1
290
     0
176
     1
 93
        1
176
     1
 44
0.0
176
     1
173
     0
176
     1
1001
ACAD
1000
AcDbSavedByObjectVersion
1070
     0
  0
VISUALSTYLE
  5
3C
102
{ACAD_XDICTIONARY
360
12A
102
}
102
{ACAD_REACTORS
330
29
102
}
330
29
100
AcDbVisualStyle
  2
X-Ray
 70
    25
177
     2
291
     0
 71
     2
176
     1
 72
     2
176
     1
 73
     1
176
     1
 90
        1
176
     1
 40
0.5
176
     1
 41
30.0
176
     1
 63
     7
421
 16777215
176
     1
 74
     1
176
     1
 91
        0
176
     1
 64
     7
176
     1
 65
   257
176
     1
 75
     1
176
     1
175
     1
176
     1
 42
1.0
176
     1
 92
        8
176
     1
 66
     7
176
     1
 43
1.0
176
     1
 76
     1
176
     1
 77
     6
176
     1
 78
     2
176
     1
 67
     7
176
     1
 79
     3
176
     1
170
     0
176
     1
171
     0
176
     1
290
     0
176
     1
 93
       13
176
     1
 44
0.0
176
     1
173
     0
176
     1
1001
ACAD
1000
AcDbSavedByObjectVersion
1070
     0
  0
DICTIONARYVAR
  5
102
102
{ACAD_REACTORS
330
FD
102
}
330
FD
100
DictionaryVariables
280
     0
  1
1:1
  0
DICTIONARYVAR
  5
FF
102
{ACAD_REACTORS
330
FD
102
}
330
FD
100
DictionaryVariables
280
     0
  1
STANDARD
  0
DICTIONARYVAR
  5
FE
102
{ACAD_REACTORS
330
FD
102
}
330
FD
100
DictionaryVariables
280
     0
  1
STANDARD
  0
DICTIONARYVAR
  5
100
102
{ACAD_REACTORS
330
FD
102
}
330
FD
100
DictionaryVariables
280
     0
  1
Imperial24
  0
DICTIONARYVAR
  5
101
102
{ACAD_REACTORS
330
FD
102
}
330
FD
100
DictionaryVariables
280
     0
  1
Imperial24
  0
DICTIONARY
  5
13A
330
6B
100
AcDbDictionary
280
     1
281
     1
  3
ACAD_XREC_ROUNDTRIP
360
13B
  0
DICTIONARY
  5
1A
330
19
100
AcDbDictionary
280
     1
281
     1
  3
BUMPTILE
360
1C
  3
DIFFUSETILE
360
1B
  3
OPACITYTILE
360
1F
  3
REFLECTIONTILE
360
1E
  3
REFRACTIONTILE
360
20
  3
SPECULARTILE
360
1D
  0
DICTIONARY
  5
12
330
11
100
AcDbDictionary
280
     1
281
     1
  3
BUMPTILE
360
14
  3
DIFFUSETILE
360
13
  3
OPACITYTILE
360
17
  3
REFLECTIONTILE
360
16
  3
REFRACTIONTILE
360
18
  3
SPECULARTILE
360
15
  0
DICTIONARY
  5
22
330
21
100
AcDbDictionary
280
     1
281
     1
  3
BUMPTILE
360
24
  3
DIFFUSETILE
360
23
  3
OPACITYTILE
360
27
  3
REFLECTIONTILE
360
26
  3
REFRACTIONTILE
360
28
  3
SPECULARTILE
360
25
  0
DICTIONARY
  5
136
330
67
100
AcDbDictionary
280
     1
281
     1
  3
ACAD_XREC_ROUNDTRIP
360
137
  0
DICTIONARY
  5
138
330
69
100
AcDbDictionary
280
     1
281
     1
  3
ACAD_XREC_ROUNDTRIP
360
139
  0
DICTIONARY
  5
103
330
65
100
AcDbDictionary
280
     1
281
     1
  3
ACAD_ROUNDTRIP_2008_TABLESTYLE_CELLSTYLEMAP
360
104
  0
DICTIONARY
  5
110
330
2F
100
AcDbDictionary
280
     1
281
     1
  3
ACAD_XREC_ROUNDTRIP
360
111
  0
DICTIONARY
  5
10E
330
2E
100
AcDbDictionary
280
     1
281
     1
  3
ACAD_XREC_ROUNDTRIP
360
10F
  0
DICTIONARY
  5
11C
330
35
100
AcDbDictionary
280
     1
281
     1
  3
ACAD_XREC_ROUNDTRIP
360
11D
  0
DICTIONARY
  5
124
330
39
100
AcDbDictionary
280
     1
281
     1
  3
ACAD_XREC_ROUNDTRIP
360
125
  0
DICTIONARY
  5
116
330
32
100
AcDbDictionary
280
     1
281
     1
  3
ACAD_XREC_ROUNDTRIP
360
117
  0
DICTIONARY
  5
11A
330
34
100
AcDbDictionary
280
     1
281
     1
  3
ACAD_XREC_ROUNDTRIP
360
11B
  0
DICTIONARY
  5
134
330
41
100
AcDbDictionary
280
     1
281
     1
  3
ACAD_XREC_ROUNDTRIP
360
135
  0
DICTIONARY
  5
122
330
38
100
AcDbDictionary
280
     1
281
     1
  3
ACAD_XREC_ROUNDTRIP
360
123
  0
DICTIONARY
  5
106
330
2A
100
AcDbDictionary
280
     1
281
     1
  3
ACAD_XREC_ROUNDTRIP
360
107
  0
DICTIONARY
  5
108
330
2B
100
AcDbDictionary
280
     1
281
     1
  3
ACAD_XREC_ROUNDTRIP
360
109
  0
DICTIONARY
  5
10A
330
2C
100
AcDbDictionary
280
     1
281
     1
  3
ACAD_XREC_ROUNDTRIP
360
10B
  0
DICTIONARY
  5
10C
330
2D
100
AcDbDictionary
280
     1
281
     1
  3
ACAD_XREC_ROUNDTRIP
360
10D
  0
DICTIONARY
  5
114
330
31
100
AcDbDictionary
280
     1
281
     1
  3
ACAD_XREC_ROUNDTRIP
360
115
  0
DICTIONARY
  5
130
330
3F
100
AcDbDictionary
280
     1
281
     1
  3
ACAD_XREC_ROUNDTRIP
360
131
  0
DICTIONARY
  5
120
330
37
100
AcDbDictionary
280
     1
281
     1
  3
ACAD_XREC_ROUNDTRIP
360
121
  0
DICTIONARY
  5
132
330
40
100
AcDbDictionary
280
     1
281
     1
  3
ACAD_XREC_ROUNDTRIP
360
133
  0
DICTIONARY
  5
118
330
33
100
AcDbDictionary
280
     1
281
     1
  3
ACAD_XREC_ROUNDTRIP
360
119
  0
DICTIONARY
  5
12E
330
3E
100
AcDbDictionary
280
     1
281
     1
  3
ACAD_XREC_ROUNDTRIP
360
12F
  0
DICTIONARY
  5
12C
330
3D
100
AcDbDictionary
280
     1
281
     1
  3
ACAD_XREC_ROUNDTRIP
360
12D
  0
DICTIONARY
  5
126
330
3A
100
AcDbDictionary
280
     1
281
     1
  3
ACAD_XREC_ROUNDTRIP
360
127
  0
DICTIONARY
  5
128
330
3B
100
AcDbDictionary
280
     1
281
     1
  3
ACAD_XREC_ROUNDTRIP
360
129
  0
DICTIONARY
  5
11E
330
36
100
AcDbDictionary
280
     1
281
     1
  3
ACAD_XREC_ROUNDTRIP
360
11F
  0
DICTIONARY
  5
112
330
30
100
AcDbDictionary
280
     1
281
     1
  3
ACAD_XREC_ROUNDTRIP
360
113
  0
DICTIONARY
  5
12A
330
3C
100
AcDbDictionary
280
     1
281
     1
  3
ACAD_XREC_ROUNDTRIP
360
12B
  0
XRECORD
  5
13B
102
{ACAD_REACTORS
330
13A
102
}
330
13A
100
AcDbXrecord
280
     1
102
DISPLAYNAME
  1
Imperial24
102
FLAGS
 90
        0
  0
XRECORD
  5
1C
102
{ACAD_REACTORS
330
1A
102
}
330
1A
100
AcDbXrecord
280
     1
270
     1
271
     1
  0
XRECORD
  5
1B
102
{ACAD_REACTORS
330
1A
102
}
330
1A
100
AcDbXrecord
280
     1
270
     1
271
     1
  0
XRECORD
  5
1F
102
{ACAD_REACTORS
330
1A
102
}
330
1A
100
AcDbXrecord
280
     1
270
     1
271
     1
  0
XRECORD
  5
1E
102
{ACAD_REACTORS
330
1A
102
}
330
1A
100
AcDbXrecord
280
     1
270
     1
271
     1
  0
XRECORD
  5
20
102
{ACAD_REACTORS
330
1A
102
}
330
1A
100
AcDbXrecord
280
     1
270
     1
271
     1
  0
XRECORD
  5
1D
102
{ACAD_REACTORS
330
1A
102
}
330
1A
100
AcDbXrecord
280
     1
270
     1
271
     1
  0
XRECORD
  5
14
102
{ACAD_REACTORS
330
12
102
}
330
12
100
AcDbXrecord
280
     1
270
     1
271
     1
  0
XRECORD
  5
13
102
{ACAD_REACTORS
330
12
102
}
330
12
100
AcDbXrecord
280
     1
270
     1
271
     1
  0
XRECORD
  5
17
102
{ACAD_REACTORS
330
12
102
}
330
12
100
AcDbXrecord
280
     1
270
     1
271
     1
  0
XRECORD
  5
16
102
{ACAD_REACTORS
330
12
102
}
330
12
100
AcDbXrecord
280
     1
270
     1
271
     1
  0
XRECORD
  5
18
102
{ACAD_REACTORS
330
12
102
}
330
12
100
AcDbXrecord
280
     1
270
     1
271
     1
  0
XRECORD
  5
15
102
{ACAD_REACTORS
330
12
102
}
330
12
100
AcDbXrecord
280
     1
270
     1
271
     1
  0
XRECORD
  5
24
102
{ACAD_REACTORS
330
22
102
}
330
22
100
AcDbXrecord
280
     1
270
     1
271
     1
  0
XRECORD
  5
23
102
{ACAD_REACTORS
330
22
102
}
330
22
100
AcDbXrecord
280
     1
270
     1
271
     1
  0
XRECORD
  5
27
102
{ACAD_REACTORS
330
22
102
}
330
22
100
AcDbXrecord
280
     1
270
     1
271
     1
  0
XRECORD
  5
26
102
{ACAD_REACTORS
330
22
102
}
330
22
100
AcDbXrecord
280
     1
270
     1
271
     1
  0
XRECORD
  5
28
102
{ACAD_REACTORS
330
22
102
}
330
22
100
AcDbXrecord
280
     1
270
     1
271
     1
  0
XRECORD
  5
25
102
{ACAD_REACTORS
330
22
102
}
330
22
100
AcDbXrecord
280
     1
270
     1
271
     1
  0
XRECORD
  5
137
102
{ACAD_REACTORS
330
136
102
}
330
136
100
AcDbXrecord
280
     1
102
ACAD_ROUNDTRIP_2012_MLEADER_STYLE
298
     1
  0
XRECORD
  5
139
102
{ACAD_REACTORS
330
138
102
}
330
138
100
AcDbXrecord
280
     1
102
DISPLAYNAME
  1
Imperial24
102
FLAGS
 90
        0
  0
CELLSTYLEMAP
  5
104
102
{ACAD_REACTORS
330
103
102
}
330
103
100
AcDbCellStyleMap
 90
        3
300
CELLSTYLE
  1
TABLEFORMAT_BEGIN
 90
        5
170
     1
 91
        0
 92
    32768
 62
   257
 93
        1
300
CONTENTFORMAT
  1
CONTENTFORMAT_BEGIN
 90
        0
 91
        0
 92
      512
 93
        0
300

 40
0.0
140
1.0
 94
        5
 62
     0
340
55
144
0.25
309
CONTENTFORMAT_END
171
     0
 94
        0
309
TABLEFORMAT_END
  1
CELLSTYLE_BEGIN
 90
        1
 91
        1
300
_TITLE
309
CELLSTYLE_END
300
CELLSTYLE
  1
TABLEFORMAT_BEGIN
 90
        5
170
     1
 91
        0
 92
        0
 62
   257
 93
        1
300
CONTENTFORMAT
  1
CONTENTFORMAT_BEGIN
 90
        0
 91
        0
 92
      512
 93
        0
300

 40
0.0
140
1.0
 94
        5
 62
     0
340
55
144
0.18
309
CONTENTFORMAT_END
171
     0
 94
        0
309
TABLEFORMAT_END
  1
CELLSTYLE_BEGIN
 90
        2
 91
        1
300
_HEADER
309
CELLSTYLE_END
300
CELLSTYLE
  1
TABLEFORMAT_BEGIN
 90
        5
170
     1
 91
        0
 92
        0
 62
   257
 93
        1
300
CONTENTFORMAT
  1
CONTENTFORMAT_BEGIN
 90
        0
 91
        0
 92
      512
 93
        0
300

 40
0.0
140
1.0
 94
        2
 62
     0
340
55
144
0.18
309
CONTENTFORMAT_END
171
     0
 94
        0
309
TABLEFORMAT_END
  1
CELLSTYLE_BEGIN
 90
        3
 91
        2
300
_DATA
309
CELLSTYLE_END
  0
XRECORD
  5
111
102
{ACAD_REACTORS
330
110
102
}
330
110
100
AcDbXrecord
280
     1
102
RTVSPost2010Prop28
280
     1
102
RTVSPost2010PropOp28
 70
     1
102
RTVSPost2010Prop29
280
     1
102
RTVSPost2010PropOp29
 70
     1
102
RTVSPost2010Prop30
280
     0
102
RTVSPost2010PropOp30
 70
     1
102
RTVSPost2010Prop31
280
     0
102
RTVSPost2010PropOp31
 70
     1
102
RTVSPost2010Prop32
280
     0
102
RTVSPost2010PropOp32
 70
     1
102
RTVSPost2010Prop33
280
     0
102
RTVSPost2010PropOp33
 70
     1
102
RTVSPost2010Prop34
280
     0
102
RTVSPost2010PropOp34
 70
     1
102
RTVSPost2010Prop35
280
     0
102
RTVSPost2010PropOp35
 70
     1
102
RTVSPost2010Prop36
280
     0
102
RTVSPost2010PropOp36
 70
     1
102
RTVSPost2010Prop37
 90
       50
102
RTVSPost2010PropOp37
 70
     1
102
RTVSPost2010Prop38
140
0.0
102
RTVSPost2010PropOp38
 70
     1
102
RTVSPost2010Prop39
140
1.0
102
RTVSPost2010PropOp39
 70
     1
102
RTVSPost2010Prop40
 90
        0
102
RTVSPost2010PropOp40
 70
     1
102
RTVSPost2010Prop41ColorIndex
 90
       18
102
RTVSPost2010Prop41ColorRGB
 90
        0
102
RTVSPost2010PropOp41
 70
     1
102
RTVSPost2010Prop42
 90
       50
102
RTVSPost2010PropOp42
 70
     1
102
RTVSPost2010Prop43
 90
        3
102
RTVSPost2010PropOp43
 70
     1
102
RTVSPost2010Prop44ColorIndex
 90
        5
102
RTVSPost2010Prop44ColorRGB
 90
      255
102
RTVSPost2010PropOp44
 70
     1
102
RTVSPost2010Prop45
280
     0
102
RTVSPost2010PropOp45
 70
     1
102
RTVSPost2010Prop46
 90
       50
102
RTVSPost2010PropOp46
 70
     1
102
RTVSPost2010Prop47
 90
       50
102
RTVSPost2010PropOp47
 70
     1
102
RTVSPost2010Prop48
 90
       50
102
RTVSPost2010PropOp48
 70
     1
102
RTVSPost2010Prop49
280
     0
102
RTVSPost2010PropOp49
 70
     1
102
RTVSPost2010Prop50
 90
       50
102
RTVSPost2010PropOp50
 70
     1
102
RTVSPost2010Prop51ColorIndex
 90
      256
102
RTVSPost2010Prop51ColorRGB
 90
-16777216
102
RTVSPost2010PropOp51
 70
     0
102
RTVSPost2010Prop52
140
1.0
102
RTVSPost2010PropOp52
 70
     0
102
RTVSPost2010Prop53
 90
        2
102
RTVSPost2010PropOp53
 70
     1
102
RTVSPost2010Prop54
  1
strokes_ogs.tif
102
RTVSPost2010PropOp54
 70
     1
102
RTVSPost2010Prop55
280
     0
102
RTVSPost2010PropOp55
 70
     1
102
RTVSPost2010Prop56
140
1.0
102
RTVSPost2010PropOp56
 70
     1
102
RTVSPost2010Prop57
140
1.0
102
RTVSPost2010PropOp57
 70
     1
  0
XRECORD
  5
10F
102
{ACAD_REACTORS
330
10E
102
}
330
10E
100
AcDbXrecord
280
     1
102
RTVSPost2010Prop28
280
     0
102
RTVSPost2010PropOp28
 70
     1
102
RTVSPost2010Prop29
280
     1
102
RTVSPost2010PropOp29
 70
     1
102
RTVSPost2010Prop30
280
     1
102
RTVSPost2010PropOp30
 70
     1
102
RTVSPost2010Prop31
280
     0
102
RTVSPost2010PropOp31
 70
     1
102
RTVSPost2010Prop32
280
     0
102
RTVSPost2010PropOp32
 70
     1
102
RTVSPost2010Prop33
280
     0
102
RTVSPost2010PropOp33
 70
     1
102
RTVSPost2010Prop34
280
     0
102
RTVSPost2010PropOp34
 70
     1
102
RTVSPost2010Prop35
280
     0
102
RTVSPost2010PropOp35
 70
     1
102
RTVSPost2010Prop36
280
     0
102
RTVSPost2010PropOp36
 70
     1
102
RTVSPost2010Prop37
 90
       50
102
RTVSPost2010PropOp37
 70
     1
102
RTVSPost2010Prop38
140
0.0
102
RTVSPost2010PropOp38
 70
     1
102
RTVSPost2010Prop39
140
1.0
102
RTVSPost2010PropOp39
 70
     1
102
RTVSPost2010Prop40
 90
        0
102
RTVSPost2010PropOp40
 70
     1
102
RTVSPost2010Prop41ColorIndex
 90
       18
102
RTVSPost2010Prop41ColorRGB
 90
        0
102
RTVSPost2010PropOp41
 70
     1
102
RTVSPost2010Prop42
 90
       50
102
RTVSPost2010PropOp42
 70
     1
102
RTVSPost2010Prop43
 90
        3
102
RTVSPost2010PropOp43
 70
     1
102
RTVSPost2010Prop44ColorIndex
 90
        5
102
RTVSPost2010Prop44ColorRGB
 90
      255
102
RTVSPost2010PropOp44
 70
     1
102
RTVSPost2010Prop45
280
     0
102
RTVSPost2010PropOp45
 70
     1
102
RTVSPost2010Prop46
 90
       50
102
RTVSPost2010PropOp46
 70
     1
102
RTVSPost2010Prop47
 90
       50
102
RTVSPost2010PropOp47
 70
     1
102
RTVSPost2010Prop48
 90
       50
102
RTVSPost2010PropOp48
 70
     1
102
RTVSPost2010Prop49
280
     0
102
RTVSPost2010PropOp49
 70
     1
102
RTVSPost2010Prop50
 90
       50
102
RTVSPost2010PropOp50
 70
     1
102
RTVSPost2010Prop51ColorIndex
 90
      256
102
RTVSPost2010Prop51ColorRGB
 90
-16777216
102
RTVSPost2010PropOp51
 70
     0
102
RTVSPost2010Prop52
140
1.0
102
RTVSPost2010PropOp52
 70
     0
102
RTVSPost2010Prop53
 90
        2
102
RTVSPost2010PropOp53
 70
     1
102
RTVSPost2010Prop54
  1
strokes_ogs.tif
102
RTVSPost2010PropOp54
 70
     1
102
RTVSPost2010Prop55
280
     0
102
RTVSPost2010PropOp55
 70
     1
102
RTVSPost2010Prop56
140
1.0
102
RTVSPost2010PropOp56
 70
     1
102
RTVSPost2010Prop57
140
1.0
102
RTVSPost2010PropOp57
 70
     1
  0
XRECORD
  5
11D
102
{ACAD_REACTORS
330
11C
102
}
330
11C
100
AcDbXrecord
280
     1
102
RTVSPost2010Prop28
280
     0
102
RTVSPost2010PropOp28
 70
     1
102
RTVSPost2010Prop29
280
     1
102
RTVSPost2010PropOp29
 70
     1
102
RTVSPost2010Prop30
280
     1
102
RTVSPost2010PropOp30
 70
     1
102
RTVSPost2010Prop31
280
     0
102
RTVSPost2010PropOp31
 70
     1
102
RTVSPost2010Prop32
280
     0
102
RTVSPost2010PropOp32
 70
     1
102
RTVSPost2010Prop33
280
     0
102
RTVSPost2010PropOp33
 70
     1
102
RTVSPost2010Prop34
280
     0
102
RTVSPost2010PropOp34
 70
     1
102
RTVSPost2010Prop35
280
     0
102
RTVSPost2010PropOp35
 70
     1
102
RTVSPost2010Prop36
280
     0
102
RTVSPost2010PropOp36
 70
     1
102
RTVSPost2010Prop37
 90
       50
102
RTVSPost2010PropOp37
 70
     1
102
RTVSPost2010Prop38
140
0.0
102
RTVSPost2010PropOp38
 70
     1
102
RTVSPost2010Prop39
140
1.0
102
RTVSPost2010PropOp39
 70
     1
102
RTVSPost2010Prop40
 90
        0
102
RTVSPost2010PropOp40
 70
     1
102
RTVSPost2010Prop41ColorIndex
 90
       18
102
RTVSPost2010Prop41ColorRGB
 90
        0
102
RTVSPost2010PropOp41
 70
     1
102
RTVSPost2010Prop42
 90
       50
102
RTVSPost2010PropOp42
 70
     1
102
RTVSPost2010Prop43
 90
        3
102
RTVSPost2010PropOp43
 70
     1
102
RTVSPost2010Prop44ColorIndex
 90
        5
102
RTVSPost2010Prop44ColorRGB
 90
      255
102
RTVSPost2010PropOp44
 70
     1
102
RTVSPost2010Prop45
280
     0
102
RTVSPost2010PropOp45
 70
     1
102
RTVSPost2010Prop46
 90
       50
102
RTVSPost2010PropOp46
 70
     1
102
RTVSPost2010Prop47
 90
       50
102
RTVSPost2010PropOp47
 70
     1
102
RTVSPost2010Prop48
 90
       50
102
RTVSPost2010PropOp48
 70
     1
102
RTVSPost2010Prop49
280
     0
102
RTVSPost2010PropOp49
 70
     1
102
RTVSPost2010Prop50
 90
       50
102
RTVSPost2010PropOp50
 70
     1
102
RTVSPost2010Prop51ColorIndex
 90
      256
102
RTVSPost2010Prop51ColorRGB
 90
-16777216
102
RTVSPost2010PropOp51
 70
     0
102
RTVSPost2010Prop52
140
1.0
102
RTVSPost2010PropOp52
 70
     0
102
RTVSPost2010Prop53
 90
        2
102
RTVSPost2010PropOp53
 70
     1
102
RTVSPost2010Prop54
  1
strokes_ogs.tif
102
RTVSPost2010PropOp54
 70
     1
102
RTVSPost2010Prop55
280
     0
102
RTVSPost2010PropOp55
 70
     1
102
RTVSPost2010Prop56
140
1.0
102
RTVSPost2010PropOp56
 70
     1
102
RTVSPost2010Prop57
140
1.0
102
RTVSPost2010PropOp57
 70
     1
  0
XRECORD
  5
125
102
{ACAD_REACTORS
330
124
102
}
330
124
100
AcDbXrecord
280
     1
102
RTVSPost2010Prop28
280
     0
102
RTVSPost2010PropOp28
 70
     1
102
RTVSPost2010Prop29
280
     1
102
RTVSPost2010PropOp29
 70
     1
102
RTVSPost2010Prop30
280
     1
102
RTVSPost2010PropOp30
 70
     1
102
RTVSPost2010Prop31
280
     0
102
RTVSPost2010PropOp31
 70
     1
102
RTVSPost2010Prop32
280
     0
102
RTVSPost2010PropOp32
 70
     1
102
RTVSPost2010Prop33
280
     0
102
RTVSPost2010PropOp33
 70
     1
102
RTVSPost2010Prop34
280
     0
102
RTVSPost2010PropOp34
 70
     1
102
RTVSPost2010Prop35
280
     0
102
RTVSPost2010PropOp35
 70
     1
102
RTVSPost2010Prop36
280
     0
102
RTVSPost2010PropOp36
 70
     1
102
RTVSPost2010Prop37
 90
       50
102
RTVSPost2010PropOp37
 70
     1
102
RTVSPost2010Prop38
140
0.0
102
RTVSPost2010PropOp38
 70
     1
102
RTVSPost2010Prop39
140
1.0
102
RTVSPost2010PropOp39
 70
     1
102
RTVSPost2010Prop40
 90
        0
102
RTVSPost2010PropOp40
 70
     1
102
RTVSPost2010Prop41ColorIndex
 90
       18
102
RTVSPost2010Prop41ColorRGB
 90
        0
102
RTVSPost2010PropOp41
 70
     1
102
RTVSPost2010Prop42
 90
       50
102
RTVSPost2010PropOp42
 70
     1
102
RTVSPost2010Prop43
 90
        3
102
RTVSPost2010PropOp43
 70
     1
102
RTVSPost2010Prop44ColorIndex
 90
        5
102
RTVSPost2010Prop44ColorRGB
 90
      255
102
RTVSPost2010PropOp44
 70
     1
102
RTVSPost2010Prop45
280
     0
102
RTVSPost2010PropOp45
 70
     1
102
RTVSPost2010Prop46
 90
       50
102
RTVSPost2010PropOp46
 70
     1
102
RTVSPost2010Prop47
 90
       50
102
RTVSPost2010PropOp47
 70
     1
102
RTVSPost2010Prop48
 90
       50
102
RTVSPost2010PropOp48
 70
     1
102
RTVSPost2010Prop49
280
     0
102
RTVSPost2010PropOp49
 70
     1
102
RTVSPost2010Prop50
 90
       50
102
RTVSPost2010PropOp50
 70
     1
102
RTVSPost2010Prop51ColorIndex
 90
      256
102
RTVSPost2010Prop51ColorRGB
 90
-16777216
102
RTVSPost2010PropOp51
 70
     0
102
RTVSPost2010Prop52
140
1.0
102
RTVSPost2010PropOp52
 70
     0
102
RTVSPost2010Prop53
 90
        2
102
RTVSPost2010PropOp53
 70
     1
102
RTVSPost2010Prop54
  1
strokes_ogs.tif
102
RTVSPost2010PropOp54
 70
     1
102
RTVSPost2010Prop55
280
     0
102
RTVSPost2010PropOp55
 70
     1
102
RTVSPost2010Prop56
140
1.0
102
RTVSPost2010PropOp56
 70
     1
102
RTVSPost2010Prop57
140
1.0
102
RTVSPost2010PropOp57
 70
     1
  0
XRECORD
  5
117
102
{ACAD_REACTORS
330
116
102
}
330
116
100
AcDbXrecord
280
     1
102
RTVSPost2010Prop28
280
     0
102
RTVSPost2010PropOp28
 70
     1
102
RTVSPost2010Prop29
280
     1
102
RTVSPost2010PropOp29
 70
     1
102
RTVSPost2010Prop30
280
     1
102
RTVSPost2010PropOp30
 70
     1
102
RTVSPost2010Prop31
280
     0
102
RTVSPost2010PropOp31
 70
     1
102
RTVSPost2010Prop32
280
     0
102
RTVSPost2010PropOp32
 70
     1
102
RTVSPost2010Prop33
280
     0
102
RTVSPost2010PropOp33
 70
     1
102
RTVSPost2010Prop34
280
     0
102
RTVSPost2010PropOp34
 70
     1
102
RTVSPost2010Prop35
280
     0
102
RTVSPost2010PropOp35
 70
     1
102
RTVSPost2010Prop36
280
     0
102
RTVSPost2010PropOp36
 70
     1
102
RTVSPost2010Prop37
 90
       50
102
RTVSPost2010PropOp37
 70
     1
102
RTVSPost2010Prop38
140
0.0
102
RTVSPost2010PropOp38
 70
     1
102
RTVSPost2010Prop39
140
1.0
102
RTVSPost2010PropOp39
 70
     1
102
RTVSPost2010Prop40
 90
        0
102
RTVSPost2010PropOp40
 70
     1
102
RTVSPost2010Prop41ColorIndex
 90
       18
102
RTVSPost2010Prop41ColorRGB
 90
        0
102
RTVSPost2010PropOp41
 70
     1
102
RTVSPost2010Prop42
 90
       50
102
RTVSPost2010PropOp42
 70
     1
102
RTVSPost2010Prop43
 90
        3
102
RTVSPost2010PropOp43
 70
     1
102
RTVSPost2010Prop44ColorIndex
 90
        5
102
RTVSPost2010Prop44ColorRGB
 90
      255
102
RTVSPost2010PropOp44
 70
     1
102
RTVSPost2010Prop45
280
     0
102
RTVSPost2010PropOp45
 70
     1
102
RTVSPost2010Prop46
 90
       50
102
RTVSPost2010PropOp46
 70
     1
102
RTVSPost2010Prop47
 90
       50
102
RTVSPost2010PropOp47
 70
     1
102
RTVSPost2010Prop48
 90
       50
102
RTVSPost2010PropOp48
 70
     1
102
RTVSPost2010Prop49
280
     0
102
RTVSPost2010PropOp49
 70
     1
102
RTVSPost2010Prop50
 90
       50
102
RTVSPost2010PropOp50
 70
     1
102
RTVSPost2010Prop51ColorIndex
 90
      256
102
RTVSPost2010Prop51ColorRGB
 90
-16777216
102
RTVSPost2010PropOp51
 70
     0
102
RTVSPost2010Prop52
140
1.0
102
RTVSPost2010PropOp52
 70
     0
102
RTVSPost2010Prop53
 90
        2
102
RTVSPost2010PropOp53
 70
     1
102
RTVSPost2010Prop54
  1
strokes_ogs.tif
102
RTVSPost2010PropOp54
 70
     1
102
RTVSPost2010Prop55
280
     0
102
RTVSPost2010PropOp55
 70
     1
102
RTVSPost2010Prop56
140
1.0
102
RTVSPost2010PropOp56
 70
     1
102
RTVSPost2010Prop57
140
1.0
102
RTVSPost2010PropOp57
 70
     1
  0
XRECORD
  5
11B
102
{ACAD_REACTORS
330
11A
102
}
330
11A
100
AcDbXrecord
280
     1
102
RTVSPost2010Prop28
280
     0
102
RTVSPost2010PropOp28
 70
     1
102
RTVSPost2010Prop29
280
     1
102
RTVSPost2010PropOp29
 70
     1
102
RTVSPost2010Prop30
280
     1
102
RTVSPost2010PropOp30
 70
     1
102
RTVSPost2010Prop31
280
     0
102
RTVSPost2010PropOp31
 70
     1
102
RTVSPost2010Prop32
280
     0
102
RTVSPost2010PropOp32
 70
     1
102
RTVSPost2010Prop33
280
     0
102
RTVSPost2010PropOp33
 70
     1
102
RTVSPost2010Prop34
280
     0
102
RTVSPost2010PropOp34
 70
     1
102
RTVSPost2010Prop35
280
     0
102
RTVSPost2010PropOp35
 70
     1
102
RTVSPost2010Prop36
280
     0
102
RTVSPost2010PropOp36
 70
     1
102
RTVSPost2010Prop37
 90
       50
102
RTVSPost2010PropOp37
 70
     1
102
RTVSPost2010Prop38
140
0.0
102
RTVSPost2010PropOp38
 70
     1
102
RTVSPost2010Prop39
140
1.0
102
RTVSPost2010PropOp39
 70
     1
102
RTVSPost2010Prop40
 90
        0
102
RTVSPost2010PropOp40
 70
     1
102
RTVSPost2010Prop41ColorIndex
 90
       18
102
RTVSPost2010Prop41ColorRGB
 90
        0
102
RTVSPost2010PropOp41
 70
     1
102
RTVSPost2010Prop42
 90
       50
102
RTVSPost2010PropOp42
 70
     1
102
RTVSPost2010Prop43
 90
        3
102
RTVSPost2010PropOp43
 70
     1
102
RTVSPost2010Prop44ColorIndex
 90
        5
102
RTVSPost2010Prop44ColorRGB
 90
      255
102
RTVSPost2010PropOp44
 70
     1
102
RTVSPost2010Prop45
280
     0
102
RTVSPost2010PropOp45
 70
     1
102
RTVSPost2010Prop46
 90
       50
102
RTVSPost2010PropOp46
 70
     1
102
RTVSPost2010Prop47
 90
       50
102
RTVSPost2010PropOp47
 70
     1
102
RTVSPost2010Prop48
 90
       50
102
RTVSPost2010PropOp48
 70
     1
102
RTVSPost2010Prop49
280
     0
102
RTVSPost2010PropOp49
 70
     1
102
RTVSPost2010Prop50
 90
       50
102
RTVSPost2010PropOp50
 70
     1
102
RTVSPost2010Prop51ColorIndex
 90
      256
102
RTVSPost2010Prop51ColorRGB
 90
-16777216
102
RTVSPost2010PropOp51
 70
     0
102
RTVSPost2010Prop52
140
1.0
102
RTVSPost2010PropOp52
 70
     0
102
RTVSPost2010Prop53
 90
        2
102
RTVSPost2010PropOp53
 70
     1
102
RTVSPost2010Prop54
  1
strokes_ogs.tif
102
RTVSPost2010PropOp54
 70
     1
102
RTVSPost2010Prop55
280
     0
102
RTVSPost2010PropOp55
 70
     1
102
RTVSPost2010Prop56
140
1.0
102
RTVSPost2010PropOp56
 70
     1
102
RTVSPost2010Prop57
140
1.0
102
RTVSPost2010PropOp57
 70
     1
  0
XRECORD
  5
135
102
{ACAD_REACTORS
330
134
102
}
330
134
100
AcDbXrecord
280
     1
102
RTVSPost2010Prop28
280
     0
102
RTVSPost2010PropOp28
 70
     0
102
RTVSPost2010Prop29
280
     1
102
RTVSPost2010PropOp29
 70
     0
102
RTVSPost2010Prop30
280
     1
102
RTVSPost2010PropOp30
 70
     0
102
RTVSPost2010Prop31
280
     0
102
RTVSPost2010PropOp31
 70
     0
102
RTVSPost2010Prop32
280
     0
102
RTVSPost2010PropOp32
 70
     0
102
RTVSPost2010Prop33
280
     0
102
RTVSPost2010PropOp33
 70
     0
102
RTVSPost2010Prop34
280
     0
102
RTVSPost2010PropOp34
 70
     0
102
RTVSPost2010Prop35
280
     0
102
RTVSPost2010PropOp35
 70
     0
102
RTVSPost2010Prop36
280
     0
102
RTVSPost2010PropOp36
 70
     0
102
RTVSPost2010Prop37
 90
       50
102
RTVSPost2010PropOp37
 70
     0
102
RTVSPost2010Prop38
140
0.0
102
RTVSPost2010PropOp38
 70
     0
102
RTVSPost2010Prop39
140
1.0
102
RTVSPost2010PropOp39
 70
     0
102
RTVSPost2010Prop40
 90
        0
102
RTVSPost2010PropOp40
 70
     0
102
RTVSPost2010Prop41ColorIndex
 90
       18
102
RTVSPost2010Prop41ColorRGB
 90
        0
102
RTVSPost2010PropOp41
 70
     0
102
RTVSPost2010Prop42
 90
       50
102
RTVSPost2010PropOp42
 70
     0
102
RTVSPost2010Prop43
 90
        3
102
RTVSPost2010PropOp43
 70
     0
102
RTVSPost2010Prop44ColorIndex
 90
        5
102
RTVSPost2010Prop44ColorRGB
 90
      255
102
RTVSPost2010PropOp44
 70
     0
102
RTVSPost2010Prop45
280
     0
102
RTVSPost2010PropOp45
 70
     0
102
RTVSPost2010Prop46
 90
       50
102
RTVSPost2010PropOp46
 70
     0
102
RTVSPost2010Prop47
 90
       50
102
RTVSPost2010PropOp47
 70
     0
102
RTVSPost2010Prop48
 90
       50
102
RTVSPost2010PropOp48
 70
     0
102
RTVSPost2010Prop49
280
     0
102
RTVSPost2010PropOp49
 70
     0
102
RTVSPost2010Prop50
 90
       50
102
RTVSPost2010PropOp50
 70
     0
102
RTVSPost2010Prop51ColorIndex
 90
      256
102
RTVSPost2010Prop51ColorRGB
 90
-16777216
102
RTVSPost2010PropOp51
 70
     0
102
RTVSPost2010Prop52
140
1.0
102
RTVSPost2010PropOp52
 70
     0
102
RTVSPost2010Prop53
 90
        2
102
RTVSPost2010PropOp53
 70
     0
102
RTVSPost2010Prop54
  1
strokes_ogs.tif
102
RTVSPost2010PropOp54
 70
     0
102
RTVSPost2010Prop55
280
     0
102
RTVSPost2010PropOp55
 70
     0
102
RTVSPost2010Prop56
140
1.0
102
RTVSPost2010PropOp56
 70
     0
102
RTVSPost2010Prop57
140
1.0
102
RTVSPost2010PropOp57
 70
     0
  0
XRECORD
  5
123
102
{ACAD_REACTORS
330
122
102
}
330
122
100
AcDbXrecord
280
     1
102
RTVSPost2010Prop28
280
     0
102
RTVSPost2010PropOp28
 70
     1
102
RTVSPost2010Prop29
280
     1
102
RTVSPost2010PropOp29
 70
     1
102
RTVSPost2010Prop30
280
     1
102
RTVSPost2010PropOp30
 70
     1
102
RTVSPost2010Prop31
280
     0
102
RTVSPost2010PropOp31
 70
     1
102
RTVSPost2010Prop32
280
     0
102
RTVSPost2010PropOp32
 70
     1
102
RTVSPost2010Prop33
280
     0
102
RTVSPost2010PropOp33
 70
     1
102
RTVSPost2010Prop34
280
     0
102
RTVSPost2010PropOp34
 70
     1
102
RTVSPost2010Prop35
280
     0
102
RTVSPost2010PropOp35
 70
     1
102
RTVSPost2010Prop36
280
     0
102
RTVSPost2010PropOp36
 70
     1
102
RTVSPost2010Prop37
 90
       50
102
RTVSPost2010PropOp37
 70
     1
102
RTVSPost2010Prop38
140
0.0
102
RTVSPost2010PropOp38
 70
     1
102
RTVSPost2010Prop39
140
1.0
102
RTVSPost2010PropOp39
 70
     1
102
RTVSPost2010Prop40
 90
        0
102
RTVSPost2010PropOp40
 70
     1
102
RTVSPost2010Prop41ColorIndex
 90
       18
102
RTVSPost2010Prop41ColorRGB
 90
        0
102
RTVSPost2010PropOp41
 70
     1
102
RTVSPost2010Prop42
 90
       50
102
RTVSPost2010PropOp42
 70
     1
102
RTVSPost2010Prop43
 90
        3
102
RTVSPost2010PropOp43
 70
     1
102
RTVSPost2010Prop44ColorIndex
 90
        5
102
RTVSPost2010Prop44ColorRGB
 90
      255
102
RTVSPost2010PropOp44
 70
     1
102
RTVSPost2010Prop45
280
     0
102
RTVSPost2010PropOp45
 70
     1
102
RTVSPost2010Prop46
 90
       50
102
RTVSPost2010PropOp46
 70
     1
102
RTVSPost2010Prop47
 90
       50
102
RTVSPost2010PropOp47
 70
     1
102
RTVSPost2010Prop48
 90
       50
102
RTVSPost2010PropOp48
 70
     1
102
RTVSPost2010Prop49
280
     0
102
RTVSPost2010PropOp49
 70
     1
102
RTVSPost2010Prop50
 90
       50
102
RTVSPost2010PropOp50
 70
     1
102
RTVSPost2010Prop51ColorIndex
 90
      256
102
RTVSPost2010Prop51ColorRGB
 90
-16777216
102
RTVSPost2010PropOp51
 70
     0
102
RTVSPost2010Prop52
140
1.0
102
RTVSPost2010PropOp52
 70
     0
102
RTVSPost2010Prop53
 90
        2
102
RTVSPost2010PropOp53
 70
     1
102
RTVSPost2010Prop54
  1
strokes_ogs.tif
102
RTVSPost2010PropOp54
 70
     1
102
RTVSPost2010Prop55
280
     0
102
RTVSPost2010PropOp55
 70
     1
102
RTVSPost2010Prop56
140
1.0
102
RTVSPost2010PropOp56
 70
     1
102
RTVSPost2010Prop57
140
1.0
102
RTVSPost2010PropOp57
 70
     1
  0
XRECORD
  5
107
102
{ACAD_REACTORS
330
106
102
}
330
106
100
AcDbXrecord
280
     1
102
RTVSPost2010Prop28
280
     0
102
RTVSPost2010PropOp28
 70
     1
102
RTVSPost2010Prop29
280
     1
102
RTVSPost2010PropOp29
 70
     1
102
RTVSPost2010Prop30
280
     1
102
RTVSPost2010PropOp30
 70
     1
102
RTVSPost2010Prop31
280
     0
102
RTVSPost2010PropOp31
 70
     1
102
RTVSPost2010Prop32
280
     0
102
RTVSPost2010PropOp32
 70
     1
102
RTVSPost2010Prop33
280
     0
102
RTVSPost2010PropOp33
 70
     1
102
RTVSPost2010Prop34
280
     0
102
RTVSPost2010PropOp34
 70
     1
102
RTVSPost2010Prop35
280
     0
102
RTVSPost2010PropOp35
 70
     1
102
RTVSPost2010Prop36
280
     0
102
RTVSPost2010PropOp36
 70
     1
102
RTVSPost2010Prop37
 90
       50
102
RTVSPost2010PropOp37
 70
     1
102
RTVSPost2010Prop38
140
0.0
102
RTVSPost2010PropOp38
 70
     1
102
RTVSPost2010Prop39
140
1.0
102
RTVSPost2010PropOp39
 70
     1
102
RTVSPost2010Prop40
 90
        0
102
RTVSPost2010PropOp40
 70
     1
102
RTVSPost2010Prop41ColorIndex
 90
       18
102
RTVSPost2010Prop41ColorRGB
 90
        0
102
RTVSPost2010PropOp41
 70
     1
102
RTVSPost2010Prop42
 90
       50
102
RTVSPost2010PropOp42
 70
     1
102
RTVSPost2010Prop43
 90
        3
102
RTVSPost2010PropOp43
 70
     1
102
RTVSPost2010Prop44ColorIndex
 90
        5
102
RTVSPost2010Prop44ColorRGB
 90
      255
102
RTVSPost2010PropOp44
 70
     1
102
RTVSPost2010Prop45
280
     0
102
RTVSPost2010PropOp45
 70
     1
102
RTVSPost2010Prop46
 90
       50
102
RTVSPost2010PropOp46
 70
     1
102
RTVSPost2010Prop47
 90
       50
102
RTVSPost2010PropOp47
 70
     1
102
RTVSPost2010Prop48
 90
       50
102
RTVSPost2010PropOp48
 70
     1
102
RTVSPost2010Prop49
280
     0
102
RTVSPost2010PropOp49
 70
     1
102
RTVSPost2010Prop50
 90
       50
102
RTVSPost2010PropOp50
 70
     1
102
RTVSPost2010Prop51ColorIndex
 90
      256
102
RTVSPost2010Prop51ColorRGB
 90
-16777216
102
RTVSPost2010PropOp51
 70
     0
102
RTVSPost2010Prop52
140
1.0
102
RTVSPost2010PropOp52
 70
     0
102
RTVSPost2010Prop53
 90
        2
102
RTVSPost2010PropOp53
 70
     1
102
RTVSPost2010Prop54
  1
strokes_ogs.tif
102
RTVSPost2010PropOp54
 70
     1
102
RTVSPost2010Prop55
280
     0
102
RTVSPost2010PropOp55
 70
     1
102
RTVSPost2010Prop56
140
1.0
102
RTVSPost2010PropOp56
 70
     1
102
RTVSPost2010Prop57
140
1.0
102
RTVSPost2010PropOp57
 70
     1
  0
XRECORD
  5
109
102
{ACAD_REACTORS
330
108
102
}
330
108
100
AcDbXrecord
280
     1
102
RTVSPost2010Prop28
280
     0
102
RTVSPost2010PropOp28
 70
     1
102
RTVSPost2010Prop29
280
     1
102
RTVSPost2010PropOp29
 70
     1
102
RTVSPost2010Prop30
280
     1
102
RTVSPost2010PropOp30
 70
     1
102
RTVSPost2010Prop31
280
     0
102
RTVSPost2010PropOp31
 70
     1
102
RTVSPost2010Prop32
280
     0
102
RTVSPost2010PropOp32
 70
     1
102
RTVSPost2010Prop33
280
     0
102
RTVSPost2010PropOp33
 70
     1
102
RTVSPost2010Prop34
280
     0
102
RTVSPost2010PropOp34
 70
     1
102
RTVSPost2010Prop35
280
     0
102
RTVSPost2010PropOp35
 70
     1
102
RTVSPost2010Prop36
280
     0
102
RTVSPost2010PropOp36
 70
     1
102
RTVSPost2010Prop37
 90
       50
102
RTVSPost2010PropOp37
 70
     1
102
RTVSPost2010Prop38
140
0.0
102
RTVSPost2010PropOp38
 70
     1
102
RTVSPost2010Prop39
140
1.0
102
RTVSPost2010PropOp39
 70
     1
102
RTVSPost2010Prop40
 90
        0
102
RTVSPost2010PropOp40
 70
     1
102
RTVSPost2010Prop41ColorIndex
 90
       18
102
RTVSPost2010Prop41ColorRGB
 90
        0
102
RTVSPost2010PropOp41
 70
     1
102
RTVSPost2010Prop42
 90
       50
102
RTVSPost2010PropOp42
 70
     1
102
RTVSPost2010Prop43
 90
        3
102
RTVSPost2010PropOp43
 70
     1
102
RTVSPost2010Prop44ColorIndex
 90
        5
102
RTVSPost2010Prop44ColorRGB
 90
      255
102
RTVSPost2010PropOp44
 70
     1
102
RTVSPost2010Prop45
280
     0
102
RTVSPost2010PropOp45
 70
     1
102
RTVSPost2010Prop46
 90
       50
102
RTVSPost2010PropOp46
 70
     1
102
RTVSPost2010Prop47
 90
       50
102
RTVSPost2010PropOp47
 70
     1
102
RTVSPost2010Prop48
 90
       50
102
RTVSPost2010PropOp48
 70
     1
102
RTVSPost2010Prop49
280
     0
102
RTVSPost2010PropOp49
 70
     1
102
RTVSPost2010Prop50
 90
       50
102
RTVSPost2010PropOp50
 70
     1
102
RTVSPost2010Prop51ColorIndex
 90
      256
102
RTVSPost2010Prop51ColorRGB
 90
-16777216
102
RTVSPost2010PropOp51
 70
     0
102
RTVSPost2010Prop52
140
1.0
102
RTVSPost2010PropOp52
 70
     0
102
RTVSPost2010Prop53
 90
        2
102
RTVSPost2010PropOp53
 70
     1
102
RTVSPost2010Prop54
  1
strokes_ogs.tif
102
RTVSPost2010PropOp54
 70
     1
102
RTVSPost2010Prop55
280
     0
102
RTVSPost2010PropOp55
 70
     1
102
RTVSPost2010Prop56
140
1.0
102
RTVSPost2010PropOp56
 70
     1
102
RTVSPost2010Prop57
140
1.0
102
RTVSPost2010PropOp57
 70
     1
  0
XRECORD
  5
10B
102
{ACAD_REACTORS
330
10A
102
}
330
10A
100
AcDbXrecord
280
     1
102
RTVSPost2010Prop28
280
     0
102
RTVSPost2010PropOp28
 70
     1
102
RTVSPost2010Prop29
280
     1
102
RTVSPost2010PropOp29
 70
     1
102
RTVSPost2010Prop30
280
     1
102
RTVSPost2010PropOp30
 70
     1
102
RTVSPost2010Prop31
280
     0
102
RTVSPost2010PropOp31
 70
     1
102
RTVSPost2010Prop32
280
     0
102
RTVSPost2010PropOp32
 70
     1
102
RTVSPost2010Prop33
280
     0
102
RTVSPost2010PropOp33
 70
     1
102
RTVSPost2010Prop34
280
     0
102
RTVSPost2010PropOp34
 70
     1
102
RTVSPost2010Prop35
280
     0
102
RTVSPost2010PropOp35
 70
     1
102
RTVSPost2010Prop36
280
     0
102
RTVSPost2010PropOp36
 70
     1
102
RTVSPost2010Prop37
 90
       50
102
RTVSPost2010PropOp37
 70
     1
102
RTVSPost2010Prop38
140
0.0
102
RTVSPost2010PropOp38
 70
     1
102
RTVSPost2010Prop39
140
1.0
102
RTVSPost2010PropOp39
 70
     1
102
RTVSPost2010Prop40
 90
        0
102
RTVSPost2010PropOp40
 70
     1
102
RTVSPost2010Prop41ColorIndex
 90
       18
102
RTVSPost2010Prop41ColorRGB
 90
        0
102
RTVSPost2010PropOp41
 70
     1
102
RTVSPost2010Prop42
 90
       50
102
RTVSPost2010PropOp42
 70
     1
102
RTVSPost2010Prop43
 90
        3
102
RTVSPost2010PropOp43
 70
     1
102
RTVSPost2010Prop44ColorIndex
 90
        5
102
RTVSPost2010Prop44ColorRGB
 90
      255
102
RTVSPost2010PropOp44
 70
     1
102
RTVSPost2010Prop45
280
     0
102
RTVSPost2010PropOp45
 70
     1
102
RTVSPost2010Prop46
 90
       50
102
RTVSPost2010PropOp46
 70
     1
102
RTVSPost2010Prop47
 90
       50
102
RTVSPost2010PropOp47
 70
     1
102
RTVSPost2010Prop48
 90
       50
102
RTVSPost2010PropOp48
 70
     1
102
RTVSPost2010Prop49
280
     0
102
RTVSPost2010PropOp49
 70
     1
102
RTVSPost2010Prop50
 90
       50
102
RTVSPost2010PropOp50
 70
     1
102
RTVSPost2010Prop51ColorIndex
 90
      256
102
RTVSPost2010Prop51ColorRGB
 90
-16777216
102
RTVSPost2010PropOp51
 70
     0
102
RTVSPost2010Prop52
140
1.0
102
RTVSPost2010PropOp52
 70
     0
102
RTVSPost2010Prop53
 90
        2
102
RTVSPost2010PropOp53
 70
     1
102
RTVSPost2010Prop54
  1
strokes_ogs.tif
102
RTVSPost2010PropOp54
 70
     1
102
RTVSPost2010Prop55
280
     0
102
RTVSPost2010PropOp55
 70
     1
102
RTVSPost2010Prop56
140
1.0
102
RTVSPost2010PropOp56
 70
     1
102
RTVSPost2010Prop57
140
1.0
102
RTVSPost2010PropOp57
 70
     1
  0
XRECORD
  5
10D
102
{ACAD_REACTORS
330
10C
102
}
330
10C
100
AcDbXrecord
280
     1
102
RTVSPost2010Prop28
280
     0
102
RTVSPost2010PropOp28
 70
     1
102
RTVSPost2010Prop29
280
     1
102
RTVSPost2010PropOp29
 70
     1
102
RTVSPost2010Prop30
280
     1
102
RTVSPost2010PropOp30
 70
     1
102
RTVSPost2010Prop31
280
     0
102
RTVSPost2010PropOp31
 70
     1
102
RTVSPost2010Prop32
280
     0
102
RTVSPost2010PropOp32
 70
     1
102
RTVSPost2010Prop33
280
     0
102
RTVSPost2010PropOp33
 70
     1
102
RTVSPost2010Prop34
280
     0
102
RTVSPost2010PropOp34
 70
     1
102
RTVSPost2010Prop35
280
     0
102
RTVSPost2010PropOp35
 70
     1
102
RTVSPost2010Prop36
280
     0
102
RTVSPost2010PropOp36
 70
     1
102
RTVSPost2010Prop37
 90
       50
102
RTVSPost2010PropOp37
 70
     1
102
RTVSPost2010Prop38
140
0.0
102
RTVSPost2010PropOp38
 70
     1
102
RTVSPost2010Prop39
140
1.0
102
RTVSPost2010PropOp39
 70
     1
102
RTVSPost2010Prop40
 90
        0
102
RTVSPost2010PropOp40
 70
     1
102
RTVSPost2010Prop41ColorIndex
 90
       18
102
RTVSPost2010Prop41ColorRGB
 90
        0
102
RTVSPost2010PropOp41
 70
     1
102
RTVSPost2010Prop42
 90
       50
102
RTVSPost2010PropOp42
 70
     1
102
RTVSPost2010Prop43
 90
        3
102
RTVSPost2010PropOp43
 70
     1
102
RTVSPost2010Prop44ColorIndex
 90
        5
102
RTVSPost2010Prop44ColorRGB
 90
      255
102
RTVSPost2010PropOp44
 70
     1
102
RTVSPost2010Prop45
280
     0
102
RTVSPost2010PropOp45
 70
     1
102
RTVSPost2010Prop46
 90
       50
102
RTVSPost2010PropOp46
 70
     1
102
RTVSPost2010Prop47
 90
       50
102
RTVSPost2010PropOp47
 70
     1
102
RTVSPost2010Prop48
 90
       50
102
RTVSPost2010PropOp48
 70
     1
102
RTVSPost2010Prop49
280
     0
102
RTVSPost2010PropOp49
 70
     1
102
RTVSPost2010Prop50
 90
       50
102
RTVSPost2010PropOp50
 70
     1
102
RTVSPost2010Prop51ColorIndex
 90
      256
102
RTVSPost2010Prop51ColorRGB
 90
-16777216
102
RTVSPost2010PropOp51
 70
     0
102
RTVSPost2010Prop52
140
1.0
102
RTVSPost2010PropOp52
 70
     0
102
RTVSPost2010Prop53
 90
        2
102
RTVSPost2010PropOp53
 70
     1
102
RTVSPost2010Prop54
  1
strokes_ogs.tif
102
RTVSPost2010PropOp54
 70
     1
102
RTVSPost2010Prop55
280
     0
102
RTVSPost2010PropOp55
 70
     1
102
RTVSPost2010Prop56
140
1.0
102
RTVSPost2010PropOp56
 70
     1
102
RTVSPost2010Prop57
140
1.0
102
RTVSPost2010PropOp57
 70
     1
  0
XRECORD
  5
115
102
{ACAD_REACTORS
330
114
102
}
330
114
100
AcDbXrecord
280
     1
102
RTVSPost2010Prop28
280
     0
102
RTVSPost2010PropOp28
 70
     1
102
RTVSPost2010Prop29
280
     1
102
RTVSPost2010PropOp29
 70
     1
102
RTVSPost2010Prop30
280
     1
102
RTVSPost2010PropOp30
 70
     1
102
RTVSPost2010Prop31
280
     0
102
RTVSPost2010PropOp31
 70
     1
102
RTVSPost2010Prop32
280
     0
102
RTVSPost2010PropOp32
 70
     1
102
RTVSPost2010Prop33
280
     0
102
RTVSPost2010PropOp33
 70
     1
102
RTVSPost2010Prop34
280
     0
102
RTVSPost2010PropOp34
 70
     1
102
RTVSPost2010Prop35
280
     0
102
RTVSPost2010PropOp35
 70
     1
102
RTVSPost2010Prop36
280
     0
102
RTVSPost2010PropOp36
 70
     1
102
RTVSPost2010Prop37
 90
       50
102
RTVSPost2010PropOp37
 70
     1
102
RTVSPost2010Prop38
140
0.0
102
RTVSPost2010PropOp38
 70
     1
102
RTVSPost2010Prop39
140
1.0
102
RTVSPost2010PropOp39
 70
     1
102
RTVSPost2010Prop40
 90
        0
102
RTVSPost2010PropOp40
 70
     1
102
RTVSPost2010Prop41ColorIndex
 90
       18
102
RTVSPost2010Prop41ColorRGB
 90
        0
102
RTVSPost2010PropOp41
 70
     1
102
RTVSPost2010Prop42
 90
       50
102
RTVSPost2010PropOp42
 70
     1
102
RTVSPost2010Prop43
 90
        3
102
RTVSPost2010PropOp43
 70
     1
102
RTVSPost2010Prop44ColorIndex
 90
        5
102
RTVSPost2010Prop44ColorRGB
 90
      255
102
RTVSPost2010PropOp44
 70
     1
102
RTVSPost2010Prop45
280
     0
102
RTVSPost2010PropOp45
 70
     1
102
RTVSPost2010Prop46
 90
       50
102
RTVSPost2010PropOp46
 70
     1
102
RTVSPost2010Prop47
 90
       50
102
RTVSPost2010PropOp47
 70
     1
102
RTVSPost2010Prop48
 90
       50
102
RTVSPost2010PropOp48
 70
     1
102
RTVSPost2010Prop49
280
     0
102
RTVSPost2010PropOp49
 70
     1
102
RTVSPost2010Prop50
 90
       50
102
RTVSPost2010PropOp50
 70
     1
102
RTVSPost2010Prop51ColorIndex
 90
      256
102
RTVSPost2010Prop51ColorRGB
 90
-16777216
102
RTVSPost2010PropOp51
 70
     0
102
RTVSPost2010Prop52
140
1.0
102
RTVSPost2010PropOp52
 70
     0
102
RTVSPost2010Prop53
 90
        2
102
RTVSPost2010PropOp53
 70
     1
102
RTVSPost2010Prop54
  1
strokes_ogs.tif
102
RTVSPost2010PropOp54
 70
     1
102
RTVSPost2010Prop55
280
     0
102
RTVSPost2010PropOp55
 70
     1
102
RTVSPost2010Prop56
140
1.0
102
RTVSPost2010PropOp56
 70
     1
102
RTVSPost2010Prop57
140
1.0
102
RTVSPost2010PropOp57
 70
     1
  0
XRECORD
  5
131
102
{ACAD_REACTORS
330
130
102
}
330
130
100
AcDbXrecord
280
     1
102
RTVSPost2010Prop28
280
     0
102
RTVSPost2010PropOp28
 70
     0
102
RTVSPost2010Prop29
280
     1
102
RTVSPost2010PropOp29
 70
     0
102
RTVSPost2010Prop30
280
     1
102
RTVSPost2010PropOp30
 70
     0
102
RTVSPost2010Prop31
280
     0
102
RTVSPost2010PropOp31
 70
     0
102
RTVSPost2010Prop32
280
     0
102
RTVSPost2010PropOp32
 70
     0
102
RTVSPost2010Prop33
280
     0
102
RTVSPost2010PropOp33
 70
     0
102
RTVSPost2010Prop34
280
     0
102
RTVSPost2010PropOp34
 70
     0
102
RTVSPost2010Prop35
280
     0
102
RTVSPost2010PropOp35
 70
     0
102
RTVSPost2010Prop36
280
     0
102
RTVSPost2010PropOp36
 70
     0
102
RTVSPost2010Prop37
 90
       50
102
RTVSPost2010PropOp37
 70
     0
102
RTVSPost2010Prop38
140
0.0
102
RTVSPost2010PropOp38
 70
     0
102
RTVSPost2010Prop39
140
1.0
102
RTVSPost2010PropOp39
 70
     0
102
RTVSPost2010Prop40
 90
        0
102
RTVSPost2010PropOp40
 70
     0
102
RTVSPost2010Prop41ColorIndex
 90
       18
102
RTVSPost2010Prop41ColorRGB
 90
        0
102
RTVSPost2010PropOp41
 70
     0
102
RTVSPost2010Prop42
 90
       50
102
RTVSPost2010PropOp42
 70
     0
102
RTVSPost2010Prop43
 90
        3
102
RTVSPost2010PropOp43
 70
     0
102
RTVSPost2010Prop44ColorIndex
 90
        5
102
RTVSPost2010Prop44ColorRGB
 90
      255
102
RTVSPost2010PropOp44
 70
     0
102
RTVSPost2010Prop45
280
     0
102
RTVSPost2010PropOp45
 70
     0
102
RTVSPost2010Prop46
 90
       50
102
RTVSPost2010PropOp46
 70
     0
102
RTVSPost2010Prop47
 90
       50
102
RTVSPost2010PropOp47
 70
     0
102
RTVSPost2010Prop48
 90
       50
102
RTVSPost2010PropOp48
 70
     0
102
RTVSPost2010Prop49
280
     0
102
RTVSPost2010PropOp49
 70
     0
102
RTVSPost2010Prop50
 90
       50
102
RTVSPost2010PropOp50
 70
     0
102
RTVSPost2010Prop51ColorIndex
 90
      256
102
RTVSPost2010Prop51ColorRGB
 90
-16777216
102
RTVSPost2010PropOp51
 70
     0
102
RTVSPost2010Prop52
140
1.0
102
RTVSPost2010PropOp52
 70
     0
102
RTVSPost2010Prop53
 90
        2
102
RTVSPost2010PropOp53
 70
     0
102
RTVSPost2010Prop54
  1
strokes_ogs.tif
102
RTVSPost2010PropOp54
 70
     0
102
RTVSPost2010Prop55
280
     0
102
RTVSPost2010PropOp55
 70
     0
102
RTVSPost2010Prop56
140
1.0
102
RTVSPost2010PropOp56
 70
     0
102
RTVSPost2010Prop57
140
1.0
102
RTVSPost2010PropOp57
 70
     0
  0
XRECORD
  5
121
102
{ACAD_REACTORS
330
120
102
}
330
120
100
AcDbXrecord
280
     1
102
RTVSPost2010Prop28
280
     0
102
RTVSPost2010PropOp28
 70
     1
102
RTVSPost2010Prop29
280
     1
102
RTVSPost2010PropOp29
 70
     1
102
RTVSPost2010Prop30
280
     1
102
RTVSPost2010PropOp30
 70
     1
102
RTVSPost2010Prop31
280
     0
102
RTVSPost2010PropOp31
 70
     1
102
RTVSPost2010Prop32
280
     0
102
RTVSPost2010PropOp32
 70
     1
102
RTVSPost2010Prop33
280
     0
102
RTVSPost2010PropOp33
 70
     1
102
RTVSPost2010Prop34
280
     0
102
RTVSPost2010PropOp34
 70
     1
102
RTVSPost2010Prop35
280
     0
102
RTVSPost2010PropOp35
 70
     1
102
RTVSPost2010Prop36
280
     0
102
RTVSPost2010PropOp36
 70
     1
102
RTVSPost2010Prop37
 90
       50
102
RTVSPost2010PropOp37
 70
     1
102
RTVSPost2010Prop38
140
0.0
102
RTVSPost2010PropOp38
 70
     1
102
RTVSPost2010Prop39
140
1.0
102
RTVSPost2010PropOp39
 70
     1
102
RTVSPost2010Prop40
 90
        0
102
RTVSPost2010PropOp40
 70
     1
102
RTVSPost2010Prop41ColorIndex
 90
       18
102
RTVSPost2010Prop41ColorRGB
 90
        0
102
RTVSPost2010PropOp41
 70
     1
102
RTVSPost2010Prop42
 90
       50
102
RTVSPost2010PropOp42
 70
     1
102
RTVSPost2010Prop43
 90
        3
102
RTVSPost2010PropOp43
 70
     1
102
RTVSPost2010Prop44ColorIndex
 90
        5
102
RTVSPost2010Prop44ColorRGB
 90
      255
102
RTVSPost2010PropOp44
 70
     1
102
RTVSPost2010Prop45
280
     0
102
RTVSPost2010PropOp45
 70
     1
102
RTVSPost2010Prop46
 90
       50
102
RTVSPost2010PropOp46
 70
     1
102
RTVSPost2010Prop47
 90
       50
102
RTVSPost2010PropOp47
 70
     1
102
RTVSPost2010Prop48
 90
       50
102
RTVSPost2010PropOp48
 70
     1
102
RTVSPost2010Prop49
280
     0
102
RTVSPost2010PropOp49
 70
     1
102
RTVSPost2010Prop50
 90
       50
102
RTVSPost2010PropOp50
 70
     1
102
RTVSPost2010Prop51ColorIndex
 90
      256
102
RTVSPost2010Prop51ColorRGB
 90
-16777216
102
RTVSPost2010PropOp51
 70
     0
102
RTVSPost2010Prop52
140
1.0
102
RTVSPost2010PropOp52
 70
     0
102
RTVSPost2010Prop53
 90
        2
102
RTVSPost2010PropOp53
 70
     1
102
RTVSPost2010Prop54
  1
strokes_ogs.tif
102
RTVSPost2010PropOp54
 70
     1
102
RTVSPost2010Prop55
280
     0
102
RTVSPost2010PropOp55
 70
     1
102
RTVSPost2010Prop56
140
1.0
102
RTVSPost2010PropOp56
 70
     1
102
RTVSPost2010Prop57
140
1.0
102
RTVSPost2010PropOp57
 70
     1
  0
XRECORD
  5
133
102
{ACAD_REACTORS
330
132
102
}
330
132
100
AcDbXrecord
280
     1
102
RTVSPost2010Prop28
280
     0
102
RTVSPost2010PropOp28
 70
     0
102
RTVSPost2010Prop29
280
     1
102
RTVSPost2010PropOp29
 70
     0
102
RTVSPost2010Prop30
280
     1
102
RTVSPost2010PropOp30
 70
     0
102
RTVSPost2010Prop31
280
     0
102
RTVSPost2010PropOp31
 70
     0
102
RTVSPost2010Prop32
280
     0
102
RTVSPost2010PropOp32
 70
     0
102
RTVSPost2010Prop33
280
     0
102
RTVSPost2010PropOp33
 70
     0
102
RTVSPost2010Prop34
280
     0
102
RTVSPost2010PropOp34
 70
     0
102
RTVSPost2010Prop35
280
     0
102
RTVSPost2010PropOp35
 70
     0
102
RTVSPost2010Prop36
280
     0
102
RTVSPost2010PropOp36
 70
     0
102
RTVSPost2010Prop37
 90
       50
102
RTVSPost2010PropOp37
 70
     0
102
RTVSPost2010Prop38
140
0.0
102
RTVSPost2010PropOp38
 70
     0
102
RTVSPost2010Prop39
140
1.0
102
RTVSPost2010PropOp39
 70
     0
102
RTVSPost2010Prop40
 90
        0
102
RTVSPost2010PropOp40
 70
     0
102
RTVSPost2010Prop41ColorIndex
 90
       18
102
RTVSPost2010Prop41ColorRGB
 90
        0
102
RTVSPost2010PropOp41
 70
     0
102
RTVSPost2010Prop42
 90
       50
102
RTVSPost2010PropOp42
 70
     0
102
RTVSPost2010Prop43
 90
        3
102
RTVSPost2010PropOp43
 70
     0
102
RTVSPost2010Prop44ColorIndex
 90
        5
102
RTVSPost2010Prop44ColorRGB
 90
      255
102
RTVSPost2010PropOp44
 70
     0
102
RTVSPost2010Prop45
280
     0
102
RTVSPost2010PropOp45
 70
     0
102
RTVSPost2010Prop46
 90
       50
102
RTVSPost2010PropOp46
 70
     0
102
RTVSPost2010Prop47
 90
       50
102
RTVSPost2010PropOp47
 70
     0
102
RTVSPost2010Prop48
 90
       50
102
RTVSPost2010PropOp48
 70
     0
102
RTVSPost2010Prop49
280
     0
102
RTVSPost2010PropOp49
 70
     0
102
RTVSPost2010Prop50
 90
       50
102
RTVSPost2010PropOp50
 70
     0
102
RTVSPost2010Prop51ColorIndex
 90
      256
102
RTVSPost2010Prop51ColorRGB
 90
-16777216
102
RTVSPost2010PropOp51
 70
     0
102
RTVSPost2010Prop52
140
1.0
102
RTVSPost2010PropOp52
 70
     0
102
RTVSPost2010Prop53
 90
        2
102
RTVSPost2010PropOp53
 70
     0
102
RTVSPost2010Prop54
  1
strokes_ogs.tif
102
RTVSPost2010PropOp54
 70
     0
102
RTVSPost2010Prop55
280
     0
102
RTVSPost2010PropOp55
 70
     0
102
RTVSPost2010Prop56
140
1.0
102
RTVSPost2010PropOp56
 70
     0
102
RTVSPost2010Prop57
140
1.0
102
RTVSPost2010PropOp57
 70
     0
  0
XRECORD
  5
119
102
{ACAD_REACTORS
330
118
102
}
330
118
100
AcDbXrecord
280
     1
102
RTVSPost2010Prop28
280
     0
102
RTVSPost2010PropOp28
 70
     1
102
RTVSPost2010Prop29
280
     1
102
RTVSPost2010PropOp29
 70
     1
102
RTVSPost2010Prop30
280
     1
102
RTVSPost2010PropOp30
 70
     1
102
RTVSPost2010Prop31
280
     0
102
RTVSPost2010PropOp31
 70
     1
102
RTVSPost2010Prop32
280
     0
102
RTVSPost2010PropOp32
 70
     1
102
RTVSPost2010Prop33
280
     0
102
RTVSPost2010PropOp33
 70
     1
102
RTVSPost2010Prop34
280
     0
102
RTVSPost2010PropOp34
 70
     1
102
RTVSPost2010Prop35
280
     0
102
RTVSPost2010PropOp35
 70
     1
102
RTVSPost2010Prop36
280
     0
102
RTVSPost2010PropOp36
 70
     1
102
RTVSPost2010Prop37
 90
       50
102
RTVSPost2010PropOp37
 70
     1
102
RTVSPost2010Prop38
140
0.0
102
RTVSPost2010PropOp38
 70
     1
102
RTVSPost2010Prop39
140
1.0
102
RTVSPost2010PropOp39
 70
     1
102
RTVSPost2010Prop40
 90
        0
102
RTVSPost2010PropOp40
 70
     1
102
RTVSPost2010Prop41ColorIndex
 90
       18
102
RTVSPost2010Prop41ColorRGB
 90
        0
102
RTVSPost2010PropOp41
 70
     1
102
RTVSPost2010Prop42
 90
       50
102
RTVSPost2010PropOp42
 70
     1
102
RTVSPost2010Prop43
 90
        3
102
RTVSPost2010PropOp43
 70
     1
102
RTVSPost2010Prop44ColorIndex
 90
        5
102
RTVSPost2010Prop44ColorRGB
 90
      255
102
RTVSPost2010PropOp44
 70
     1
102
RTVSPost2010Prop45
280
     0
102
RTVSPost2010PropOp45
 70
     1
102
RTVSPost2010Prop46
 90
       50
102
RTVSPost2010PropOp46
 70
     1
102
RTVSPost2010Prop47
 90
       50
102
RTVSPost2010PropOp47
 70
     1
102
RTVSPost2010Prop48
 90
       50
102
RTVSPost2010PropOp48
 70
     1
102
RTVSPost2010Prop49
280
     0
102
RTVSPost2010PropOp49
 70
     1
102
RTVSPost2010Prop50
 90
       50
102
RTVSPost2010PropOp50
 70
     1
102
RTVSPost2010Prop51ColorIndex
 90
      256
102
RTVSPost2010Prop51ColorRGB
 90
-16777216
102
RTVSPost2010PropOp51
 70
     0
102
RTVSPost2010Prop52
140
1.0
102
RTVSPost2010PropOp52
 70
     0
102
RTVSPost2010Prop53
 90
        2
102
RTVSPost2010PropOp53
 70
     1
102
RTVSPost2010Prop54
  1
strokes_ogs.tif
102
RTVSPost2010PropOp54
 70
     1
102
RTVSPost2010Prop55
280
     0
102
RTVSPost2010PropOp55
 70
     1
102
RTVSPost2010Prop56
140
1.0
102
RTVSPost2010PropOp56
 70
     1
102
RTVSPost2010Prop57
140
1.0
102
RTVSPost2010PropOp57
 70
     1
  0
XRECORD
  5
12F
102
{ACAD_REACTORS
330
12E
102
}
330
12E
100
AcDbXrecord
280
     1
102
RTVSPost2010Prop28
280
     0
102
RTVSPost2010PropOp28
 70
     1
102
RTVSPost2010Prop29
280
     1
102
RTVSPost2010PropOp29
 70
     1
102
RTVSPost2010Prop30
280
     1
102
RTVSPost2010PropOp30
 70
     1
102
RTVSPost2010Prop31
280
     0
102
RTVSPost2010PropOp31
 70
     1
102
RTVSPost2010Prop32
280
     0
102
RTVSPost2010PropOp32
 70
     1
102
RTVSPost2010Prop33
280
     0
102
RTVSPost2010PropOp33
 70
     1
102
RTVSPost2010Prop34
280
     0
102
RTVSPost2010PropOp34
 70
     1
102
RTVSPost2010Prop35
280
     0
102
RTVSPost2010PropOp35
 70
     1
102
RTVSPost2010Prop36
280
     0
102
RTVSPost2010PropOp36
 70
     1
102
RTVSPost2010Prop37
 90
       50
102
RTVSPost2010PropOp37
 70
     1
102
RTVSPost2010Prop38
140
0.0
102
RTVSPost2010PropOp38
 70
     1
102
RTVSPost2010Prop39
140
1.0
102
RTVSPost2010PropOp39
 70
     1
102
RTVSPost2010Prop40
 90
        0
102
RTVSPost2010PropOp40
 70
     1
102
RTVSPost2010Prop41ColorIndex
 90
       18
102
RTVSPost2010Prop41ColorRGB
 90
        0
102
RTVSPost2010PropOp41
 70
     1
102
RTVSPost2010Prop42
 90
       50
102
RTVSPost2010PropOp42
 70
     1
102
RTVSPost2010Prop43
 90
        3
102
RTVSPost2010PropOp43
 70
     1
102
RTVSPost2010Prop44ColorIndex
 90
        5
102
RTVSPost2010Prop44ColorRGB
 90
      255
102
RTVSPost2010PropOp44
 70
     1
102
RTVSPost2010Prop45
280
     0
102
RTVSPost2010PropOp45
 70
     1
102
RTVSPost2010Prop46
 90
       50
102
RTVSPost2010PropOp46
 70
     1
102
RTVSPost2010Prop47
 90
       50
102
RTVSPost2010PropOp47
 70
     1
102
RTVSPost2010Prop48
 90
       50
102
RTVSPost2010PropOp48
 70
     1
102
RTVSPost2010Prop49
280
     0
102
RTVSPost2010PropOp49
 70
     1
102
RTVSPost2010Prop50
 90
       50
102
RTVSPost2010PropOp50
 70
     1
102
RTVSPost2010Prop51ColorIndex
 90
      256
102
RTVSPost2010Prop51ColorRGB
 90
-16777216
102
RTVSPost2010PropOp51
 70
     0
102
RTVSPost2010Prop52
140
1.0
102
RTVSPost2010PropOp52
 70
     0
102
RTVSPost2010Prop53
 90
        2
102
RTVSPost2010PropOp53
 70
     1
102
RTVSPost2010Prop54
  1
strokes_ogs.tif
102
RTVSPost2010PropOp54
 70
     1
102
RTVSPost2010Prop55
280
     0
102
RTVSPost2010PropOp55
 70
     1
102
RTVSPost2010Prop56
140
1.0
102
RTVSPost2010PropOp56
 70
     1
102
RTVSPost2010Prop57
140
1.0
102
RTVSPost2010PropOp57
 70
     1
  0
XRECORD
  5
12D
102
{ACAD_REACTORS
330
12C
102
}
330
12C
100
AcDbXrecord
280
     1
102
RTVSPost2010Prop28
280
     0
102
RTVSPost2010PropOp28
 70
     1
102
RTVSPost2010Prop29
280
     1
102
RTVSPost2010PropOp29
 70
     1
102
RTVSPost2010Prop30
280
     1
102
RTVSPost2010PropOp30
 70
     1
102
RTVSPost2010Prop31
280
     0
102
RTVSPost2010PropOp31
 70
     1
102
RTVSPost2010Prop32
280
     0
102
RTVSPost2010PropOp32
 70
     1
102
RTVSPost2010Prop33
280
     0
102
RTVSPost2010PropOp33
 70
     1
102
RTVSPost2010Prop34
280
     0
102
RTVSPost2010PropOp34
 70
     1
102
RTVSPost2010Prop35
280
     0
102
RTVSPost2010PropOp35
 70
     1
102
RTVSPost2010Prop36
280
     0
102
RTVSPost2010PropOp36
 70
     1
102
RTVSPost2010Prop37
 90
       50
102
RTVSPost2010PropOp37
 70
     1
102
RTVSPost2010Prop38
140
0.0
102
RTVSPost2010PropOp38
 70
     1
102
RTVSPost2010Prop39
140
1.0
102
RTVSPost2010PropOp39
 70
     1
102
RTVSPost2010Prop40
 90
        0
102
RTVSPost2010PropOp40
 70
     1
102
RTVSPost2010Prop41ColorIndex
 90
       18
102
RTVSPost2010Prop41ColorRGB
 90
        0
102
RTVSPost2010PropOp41
 70
     1
102
RTVSPost2010Prop42
 90
       50
102
RTVSPost2010PropOp42
 70
     1
102
RTVSPost2010Prop43
 90
        3
102
RTVSPost2010PropOp43
 70
     1
102
RTVSPost2010Prop44ColorIndex
 90
        5
102
RTVSPost2010Prop44ColorRGB
 90
      255
102
RTVSPost2010PropOp44
 70
     1
102
RTVSPost2010Prop45
280
     0
102
RTVSPost2010PropOp45
 70
     1
102
RTVSPost2010Prop46
 90
       50
102
RTVSPost2010PropOp46
 70
     1
102
RTVSPost2010Prop47
 90
       50
102
RTVSPost2010PropOp47
 70
     1
102
RTVSPost2010Prop48
 90
       50
102
RTVSPost2010PropOp48
 70
     1
102
RTVSPost2010Prop49
280
     0
102
RTVSPost2010PropOp49
 70
     1
102
RTVSPost2010Prop50
 90
       50
102
RTVSPost2010PropOp50
 70
     1
102
RTVSPost2010Prop51ColorIndex
 90
      256
102
RTVSPost2010Prop51ColorRGB
 90
-16777216
102
RTVSPost2010PropOp51
 70
     0
102
RTVSPost2010Prop52
140
1.0
102
RTVSPost2010PropOp52
 70
     0
102
RTVSPost2010Prop53
 90
        2
102
RTVSPost2010PropOp53
 70
     1
102
RTVSPost2010Prop54
  1
strokes_ogs.tif
102
RTVSPost2010PropOp54
 70
     1
102
RTVSPost2010Prop55
280
     0
102
RTVSPost2010PropOp55
 70
     1
102
RTVSPost2010Prop56
140
1.0
102
RTVSPost2010PropOp56
 70
     1
102
RTVSPost2010Prop57
140
1.0
102
RTVSPost2010PropOp57
 70
     1
  0
XRECORD
  5
127
102
{ACAD_REACTORS
330
126
102
}
330
126
100
AcDbXrecord
280
     1
102
RTVSPost2010Prop28
280
     0
102
RTVSPost2010PropOp28
 70
     1
102
RTVSPost2010Prop29
280
     1
102
RTVSPost2010PropOp29
 70
     1
102
RTVSPost2010Prop30
280
     1
102
RTVSPost2010PropOp30
 70
     1
102
RTVSPost2010Prop31
280
     0
102
RTVSPost2010PropOp31
 70
     1
102
RTVSPost2010Prop32
280
     0
102
RTVSPost2010PropOp32
 70
     1
102
RTVSPost2010Prop33
280
     0
102
RTVSPost2010PropOp33
 70
     1
102
RTVSPost2010Prop34
280
     0
102
RTVSPost2010PropOp34
 70
     1
102
RTVSPost2010Prop35
280
     0
102
RTVSPost2010PropOp35
 70
     1
102
RTVSPost2010Prop36
280
     0
102
RTVSPost2010PropOp36
 70
     1
102
RTVSPost2010Prop37
 90
       50
102
RTVSPost2010PropOp37
 70
     1
102
RTVSPost2010Prop38
140
0.0
102
RTVSPost2010PropOp38
 70
     1
102
RTVSPost2010Prop39
140
1.0
102
RTVSPost2010PropOp39
 70
     1
102
RTVSPost2010Prop40
 90
        0
102
RTVSPost2010PropOp40
 70
     1
102
RTVSPost2010Prop41ColorIndex
 90
       18
102
RTVSPost2010Prop41ColorRGB
 90
        0
102
RTVSPost2010PropOp41
 70
     1
102
RTVSPost2010Prop42
 90
       50
102
RTVSPost2010PropOp42
 70
     1
102
RTVSPost2010Prop43
 90
        3
102
RTVSPost2010PropOp43
 70
     1
102
RTVSPost2010Prop44ColorIndex
 90
        5
102
RTVSPost2010Prop44ColorRGB
 90
      255
102
RTVSPost2010PropOp44
 70
     1
102
RTVSPost2010Prop45
280
     0
102
RTVSPost2010PropOp45
 70
     1
102
RTVSPost2010Prop46
 90
       50
102
RTVSPost2010PropOp46
 70
     1
102
RTVSPost2010Prop47
 90
       50
102
RTVSPost2010PropOp47
 70
     1
102
RTVSPost2010Prop48
 90
       50
102
RTVSPost2010PropOp48
 70
     1
102
RTVSPost2010Prop49
280
     0
102
RTVSPost2010PropOp49
 70
     1
102
RTVSPost2010Prop50
 90
       50
102
RTVSPost2010PropOp50
 70
     1
102
RTVSPost2010Prop51ColorIndex
 90
      256
102
RTVSPost2010Prop51ColorRGB
 90
-16777216
102
RTVSPost2010PropOp51
 70
     0
102
RTVSPost2010Prop52
140
1.0
102
RTVSPost2010PropOp52
 70
     0
102
RTVSPost2010Prop53
 90
        2
102
RTVSPost2010PropOp53
 70
     1
102
RTVSPost2010Prop54
  1
strokes_ogs.tif
102
RTVSPost2010PropOp54
 70
     1
102
RTVSPost2010Prop55
280
     0
102
RTVSPost2010PropOp55
 70
     1
102
RTVSPost2010Prop56
140
1.0
102
RTVSPost2010PropOp56
 70
     1
102
RTVSPost2010Prop57
140
1.0
102
RTVSPost2010PropOp57
 70
     1
  0
XRECORD
  5
129
102
{ACAD_REACTORS
330
128
102
}
330
128
100
AcDbXrecord
280
     1
102
RTVSPost2010Prop28
280
     0
102
RTVSPost2010PropOp28
 70
     1
102
RTVSPost2010Prop29
280
     1
102
RTVSPost2010PropOp29
 70
     1
102
RTVSPost2010Prop30
280
     1
102
RTVSPost2010PropOp30
 70
     1
102
RTVSPost2010Prop31
280
     0
102
RTVSPost2010PropOp31
 70
     1
102
RTVSPost2010Prop32
280
     0
102
RTVSPost2010PropOp32
 70
     1
102
RTVSPost2010Prop33
280
     0
102
RTVSPost2010PropOp33
 70
     1
102
RTVSPost2010Prop34
280
     0
102
RTVSPost2010PropOp34
 70
     1
102
RTVSPost2010Prop35
280
     0
102
RTVSPost2010PropOp35
 70
     1
102
RTVSPost2010Prop36
280
     0
102
RTVSPost2010PropOp36
 70
     1
102
RTVSPost2010Prop37
 90
       50
102
RTVSPost2010PropOp37
 70
     1
102
RTVSPost2010Prop38
140
0.0
102
RTVSPost2010PropOp38
 70
     1
102
RTVSPost2010Prop39
140
1.0
102
RTVSPost2010PropOp39
 70
     1
102
RTVSPost2010Prop40
 90
        0
102
RTVSPost2010PropOp40
 70
     1
102
RTVSPost2010Prop41ColorIndex
 90
       18
102
RTVSPost2010Prop41ColorRGB
 90
        0
102
RTVSPost2010PropOp41
 70
     1
102
RTVSPost2010Prop42
 90
       50
102
RTVSPost2010PropOp42
 70
     1
102
RTVSPost2010Prop43
 90
        3
102
RTVSPost2010PropOp43
 70
     1
102
RTVSPost2010Prop44ColorIndex
 90
        5
102
RTVSPost2010Prop44ColorRGB
 90
      255
102
RTVSPost2010PropOp44
 70
     1
102
RTVSPost2010Prop45
280
     0
102
RTVSPost2010PropOp45
 70
     1
102
RTVSPost2010Prop46
 90
       50
102
RTVSPost2010PropOp46
 70
     1
102
RTVSPost2010Prop47
 90
       50
102
RTVSPost2010PropOp47
 70
     1
102
RTVSPost2010Prop48
 90
       50
102
RTVSPost2010PropOp48
 70
     1
102
RTVSPost2010Prop49
280
     0
102
RTVSPost2010PropOp49
 70
     1
102
RTVSPost2010Prop50
 90
       50
102
RTVSPost2010PropOp50
 70
     1
102
RTVSPost2010Prop51ColorIndex
 90
      256
102
RTVSPost2010Prop51ColorRGB
 90
-16777216
102
RTVSPost2010PropOp51
 70
     0
102
RTVSPost2010Prop52
140
1.0
102
RTVSPost2010PropOp52
 70
     0
102
RTVSPost2010Prop53
 90
        2
102
RTVSPost2010PropOp53
 70
     1
102
RTVSPost2010Prop54
  1
strokes_ogs.tif
102
RTVSPost2010PropOp54
 70
     1
102
RTVSPost2010Prop55
280
     0
102
RTVSPost2010PropOp55
 70
     1
102
RTVSPost2010Prop56
140
1.0
102
RTVSPost2010PropOp56
 70
     1
102
RTVSPost2010Prop57
140
1.0
102
RTVSPost2010PropOp57
 70
     1
  0
XRECORD
  5
11F
102
{ACAD_REACTORS
330
11E
102
}
330
11E
100
AcDbXrecord
280
     1
102
RTVSPost2010Prop28
280
     0
102
RTVSPost2010PropOp28
 70
     1
102
RTVSPost2010Prop29
280
     1
102
RTVSPost2010PropOp29
 70
     1
102
RTVSPost2010Prop30
280
     1
102
RTVSPost2010PropOp30
 70
     1
102
RTVSPost2010Prop31
280
     0
102
RTVSPost2010PropOp31
 70
     1
102
RTVSPost2010Prop32
280
     0
102
RTVSPost2010PropOp32
 70
     1
102
RTVSPost2010Prop33
280
     0
102
RTVSPost2010PropOp33
 70
     1
102
RTVSPost2010Prop34
280
     0
102
RTVSPost2010PropOp34
 70
     1
102
RTVSPost2010Prop35
280
     0
102
RTVSPost2010PropOp35
 70
     1
102
RTVSPost2010Prop36
280
     0
102
RTVSPost2010PropOp36
 70
     1
102
RTVSPost2010Prop37
 90
       50
102
RTVSPost2010PropOp37
 70
     1
102
RTVSPost2010Prop38
140
0.0
102
RTVSPost2010PropOp38
 70
     1
102
RTVSPost2010Prop39
140
1.0
102
RTVSPost2010PropOp39
 70
     1
102
RTVSPost2010Prop40
 90
        0
102
RTVSPost2010PropOp40
 70
     1
102
RTVSPost2010Prop41ColorIndex
 90
       18
102
RTVSPost2010Prop41ColorRGB
 90
        0
102
RTVSPost2010PropOp41
 70
     1
102
RTVSPost2010Prop42
 90
       50
102
RTVSPost2010PropOp42
 70
     1
102
RTVSPost2010Prop43
 90
        3
102
RTVSPost2010PropOp43
 70
     1
102
RTVSPost2010Prop44ColorIndex
 90
        5
102
RTVSPost2010Prop44ColorRGB
 90
      255
102
RTVSPost2010PropOp44
 70
     1
102
RTVSPost2010Prop45
280
     0
102
RTVSPost2010PropOp45
 70
     1
102
RTVSPost2010Prop46
 90
       50
102
RTVSPost2010PropOp46
 70
     1
102
RTVSPost2010Prop47
 90
       50
102
RTVSPost2010PropOp47
 70
     1
102
RTVSPost2010Prop48
 90
       50
102
RTVSPost2010PropOp48
 70
     1
102
RTVSPost2010Prop49
280
     0
102
RTVSPost2010PropOp49
 70
     1
102
RTVSPost2010Prop50
 90
       50
102
RTVSPost2010PropOp50
 70
     1
102
RTVSPost2010Prop51ColorIndex
 90
      256
102
RTVSPost2010Prop51ColorRGB
 90
-16777216
102
RTVSPost2010PropOp51
 70
     0
102
RTVSPost2010Prop52
140
1.0
102
RTVSPost2010PropOp52
 70
     0
102
RTVSPost2010Prop53
 90
        2
102
RTVSPost2010PropOp53
 70
     1
102
RTVSPost2010Prop54
  1
strokes_ogs.tif
102
RTVSPost2010PropOp54
 70
     1
102
RTVSPost2010Prop55
280
     0
102
RTVSPost2010PropOp55
 70
     1
102
RTVSPost2010Prop56
140
1.0
102
RTVSPost2010PropOp56
 70
     1
102
RTVSPost2010Prop57
140
1.0
102
RTVSPost2010PropOp57
 70
     1
  0
XRECORD
  5
113
102
{ACAD_REACTORS
330
112
102
}
330
112
100
AcDbXrecord
280
     1
102
RTVSPost2010Prop28
280
     0
102
RTVSPost2010PropOp28
 70
     1
102
RTVSPost2010Prop29
280
     1
102
RTVSPost2010PropOp29
 70
     1
102
RTVSPost2010Prop30
280
     1
102
RTVSPost2010PropOp30
 70
     1
102
RTVSPost2010Prop31
280
     0
102
RTVSPost2010PropOp31
 70
     1
102
RTVSPost2010Prop32
280
     0
102
RTVSPost2010PropOp32
 70
     1
102
RTVSPost2010Prop33
280
     0
102
RTVSPost2010PropOp33
 70
     1
102
RTVSPost2010Prop34
280
     0
102
RTVSPost2010PropOp34
 70
     1
102
RTVSPost2010Prop35
280
     0
102
RTVSPost2010PropOp35
 70
     1
102
RTVSPost2010Prop36
280
     0
102
RTVSPost2010PropOp36
 70
     1
102
RTVSPost2010Prop37
 90
       50
102
RTVSPost2010PropOp37
 70
     1
102
RTVSPost2010Prop38
140
0.0
102
RTVSPost2010PropOp38
 70
     1
102
RTVSPost2010Prop39
140
1.0
102
RTVSPost2010PropOp39
 70
     1
102
RTVSPost2010Prop40
 90
        0
102
RTVSPost2010PropOp40
 70
     1
102
RTVSPost2010Prop41ColorIndex
 90
       18
102
RTVSPost2010Prop41ColorRGB
 90
        0
102
RTVSPost2010PropOp41
 70
     1
102
RTVSPost2010Prop42
 90
       50
102
RTVSPost2010PropOp42
 70
     1
102
RTVSPost2010Prop43
 90
        3
102
RTVSPost2010PropOp43
 70
     1
102
RTVSPost2010Prop44ColorIndex
 90
        5
102
RTVSPost2010Prop44ColorRGB
 90
      255
102
RTVSPost2010PropOp44
 70
     1
102
RTVSPost2010Prop45
280
     0
102
RTVSPost2010PropOp45
 70
     1
102
RTVSPost2010Prop46
 90
       50
102
RTVSPost2010PropOp46
 70
     1
102
RTVSPost2010Prop47
 90
       50
102
RTVSPost2010PropOp47
 70
     1
102
RTVSPost2010Prop48
 90
       50
102
RTVSPost2010PropOp48
 70
     1
102
RTVSPost2010Prop49
280
     0
102
RTVSPost2010PropOp49
 70
     1
102
RTVSPost2010Prop50
 90
       50
102
RTVSPost2010PropOp50
 70
     1
102
RTVSPost2010Prop51ColorIndex
 90
      256
102
RTVSPost2010Prop51ColorRGB
 90
-16777216
102
RTVSPost2010PropOp51
 70
     0
102
RTVSPost2010Prop52
140
1.0
102
RTVSPost2010PropOp52
 70
     0
102
RTVSPost2010Prop53
 90
        2
102
RTVSPost2010PropOp53
 70
     1
102
RTVSPost2010Prop54
  1
strokes_ogs.tif
102
RTVSPost2010PropOp54
 70
     1
102
RTVSPost2010Prop55
280
     0
102
RTVSPost2010PropOp55
 70
     1
102
RTVSPost2010Prop56
140
1.0
102
RTVSPost2010PropOp56
 70
     1
102
RTVSPost2010Prop57
140
1.0
102
RTVSPost2010PropOp57
 70
     1
  0
XRECORD
  5
12B
102
{ACAD_REACTORS
330
12A
102
}
330
12A
100
AcDbXrecord
280
     1
102
RTVSPost2010Prop28
280
     0
102
RTVSPost2010PropOp28
 70
     1
102
RTVSPost2010Prop29
280
     1
102
RTVSPost2010PropOp29
 70
     1
102
RTVSPost2010Prop30
280
     1
102
RTVSPost2010PropOp30
 70
     1
102
RTVSPost2010Prop31
280
     0
102
RTVSPost2010PropOp31
 70
     1
102
RTVSPost2010Prop32
280
     0
102
RTVSPost2010PropOp32
 70
     1
102
RTVSPost2010Prop33
280
     0
102
RTVSPost2010PropOp33
 70
     1
102
RTVSPost2010Prop34
280
     0
102
RTVSPost2010PropOp34
 70
     1
102
RTVSPost2010Prop35
280
     0
102
RTVSPost2010PropOp35
 70
     1
102
RTVSPost2010Prop36
280
     0
102
RTVSPost2010PropOp36
 70
     1
102
RTVSPost2010Prop37
 90
       50
102
RTVSPost2010PropOp37
 70
     1
102
RTVSPost2010Prop38
140
0.0
102
RTVSPost2010PropOp38
 70
     1
102
RTVSPost2010Prop39
140
1.0
102
RTVSPost2010PropOp39
 70
     1
102
RTVSPost2010Prop40
 90
        0
102
RTVSPost2010PropOp40
 70
     1
102
RTVSPost2010Prop41ColorIndex
 90
       18
102
RTVSPost2010Prop41ColorRGB
 90
        0
102
RTVSPost2010PropOp41
 70
     1
102
RTVSPost2010Prop42
 90
       50
102
RTVSPost2010PropOp42
 70
     1
102
RTVSPost2010Prop43
 90
        3
102
RTVSPost2010PropOp43
 70
     1
102
RTVSPost2010Prop44ColorIndex
 90
        5
102
RTVSPost2010Prop44ColorRGB
 90
      255
102
RTVSPost2010PropOp44
 70
     1
102
RTVSPost2010Prop45
280
     0
102
RTVSPost2010PropOp45
 70
     1
102
RTVSPost2010Prop46
 90
       50
102
RTVSPost2010PropOp46
 70
     1
102
RTVSPost2010Prop47
 90
       50
102
RTVSPost2010PropOp47
 70
     1
102
RTVSPost2010Prop48
 90
       50
102
RTVSPost2010PropOp48
 70
     1
102
RTVSPost2010Prop49
280
     0
102
RTVSPost2010PropOp49
 70
     1
102
RTVSPost2010Prop50
 90
       50
102
RTVSPost2010PropOp50
 70
     1
102
RTVSPost2010Prop51ColorIndex
 90
      256
102
RTVSPost2010Prop51ColorRGB
 90
-16777216
102
RTVSPost2010PropOp51
 70
     0
102
RTVSPost2010Prop52
140
1.0
102
RTVSPost2010PropOp52
 70
     0
102
RTVSPost2010Prop53
 90
        2
102
RTVSPost2010PropOp53
 70
     1
102
RTVSPost2010Prop54
  1
strokes_ogs.tif
102
RTVSPost2010PropOp54
 70
     1
102
RTVSPost2010Prop55
280
     0
102
RTVSPost2010PropOp55
 70
     1
102
RTVSPost2010Prop56
140
1.0
102
RTVSPost2010PropOp56
 70
     1
102
RTVSPost2010Prop57
140
1.0
102
RTVSPost2010PropOp57
 70
     1
  0
ENDSEC
  0
EOF
