  0
SECTION
  2
HEADER
  9
$ACADVER
  1
AC1024
  9
$ACADMAINTVER
 70
     6
  9
$DWGCODEPAGE
  3
UNDEFINED
  9
$INSBASE
 10
0.0
 20
0.0
 30
0.0
  9
$EXTMIN
 10
1.000000000000000E+20
 20
1.000000000000000E+20
 30
1.000000000000000E+20
  9
$EXTMAX
 10
-1.000000000000000E+20
 20
-1.000000000000000E+20
 30
-1.000000000000000E+20
  9
$LIMMIN
 10
0.0
 20
0.0
  9
$LIMMAX
 10
12.0
 20
9.0
  9
$ORTHOMODE
 70
     0
  9
$REGENMODE
 70
     1
  9
$FILLMODE
 70
     1
  9
$QTEXTMODE
 70
     0
  9
$MIRRTEXT
 70
     1
  9
$LTSCALE
 40
1.0
  9
$ATTMODE
 70
     1
  9
$TEXTSIZE
 40
0.2
  9
$TRACEWID
 40
0.05
  9
$TEXTSTYLE
  7
Standard
  9
$CLAYER
  8
0
  9
$CELTYPE
  6
ByLayer
  9
$CECOLOR
 62
   256
  9
$CELTSCALE
 40
1.0
  9
$DISPSILH
 70
     0
  9
$DIMSCALE
 40
1.0
  9
$DIMASZ
 40
0.18
  9
$DIMEXO
 40
0.0625
  9
$DIMDLI
 40
0.38
  9
$DIMRND
 40
0.0
  9
$DIMDLE
 40
0.0
  9
$DIMEXE
 40
0.18
  9
$DIMTP
 40
0.0
  9
$DIMTM
 40
0.0
  9
$DIMTXT
 40
0.18
  9
$DIMCEN
 40
0.09
  9
$DIMTSZ
 40
0.0
  9
$DIMTOL
 70
     0
  9
$DIMLIM
 70
     0
  9
$DIMTIH
 70
     1
  9
$DIMTOH
 70
     1
  9
$DIMSE1
 70
     0
  9
$DIMSE2
 70
     0
  9
$DIMTAD
 70
     0
  9
$DIMZIN
 70
     0
  9
$DIMBLK
  1

  9
$DIMASO
 70
     1
  9
$DIMSHO
 70
     1
  9
$DIMPOST
  1

  9
$DIMAPOST
  1

  9
$DIMALT
 70
     0
  9
$DIMALTD
 70
     2
  9
$DIMALTF
 40
25.4
  9
$DIMLFAC
 40
1.0
  9
$DIMTOFL
 70
     0
  9
$DIMTVP
 40
0.0
  9
$DIMTIX
 70
     0
  9
$DIMSOXD
 70
     0
  9
$DIMSAH
 70
     0
  9
$DIMBLK1
  1

  9
$DIMBLK2
  1

  9
$DIMSTYLE
  2
Standard
  9
$DIMCLRD
 70
     0
  9
$DIMCLRE
 70
     0
  9
$DIMCLRT
 70
     0
  9
$DIMTFAC
 40
1.0
  9
$DIMGAP
 40
0.09
  9
$DIMJUST
 70
     0
  9
$DIMSD1
 70
     0
  9
$DIMSD2
 70
     0
  9
$DIMTOLJ
 70
     1
  9
$DIMTZIN
 70
     0
  9
$DIMALTZ
 70
     0
  9
$DIMALTTZ
 70
     0
  9
$DIMUPT
 70
     0
  9
$DIMDEC
 70
     4
  9
$DIMTDEC
 70
     4
  9
$DIMALTU
 70
     2
  9
$DIMALTTD
 70
     2
  9
$DIMTXSTY
  7
Standard
  9
$DIMAUNIT
 70
     0
  9
$DIMADEC
 70
     0
  9
$DIMALTRND
 40
0.0
  9
$DIMAZIN
 70
     0
  9
$DIMDSEP
 70
    46
  9
$DIMATFIT
 70
     3
  9
$DIMFRAC
 70
     0
  9
$DIMLDRBLK
  1

  9
$DIMLUNIT
 70
     2
  9
$DIMLWD
 70
    -2
  9
$DIMLWE
 70
    -2
  9
$DIMTMOVE
 70
     0
  9
$DIMFXL
 40
1.0
  9
$DIMFXLON
 70
     0
  9
$DIMJOGANG
 40
0.7853981633974483
  9
$DIMTFILL
 70
     0
  9
$DIMTFILLCLR
 70
     0
  9
$DIMARCSYM
 70
     0
  9
$DIMLTYPE
  6

  9
$DIMLTEX1
  6

  9
$DIMLTEX2
  6

  9
$DIMTXTDIRECTION
 70
     0
  9
$LUNITS
 70
     2
  9
$LUPREC
 70
     4
  9
$SKETCHINC
 40
0.1
  9
$FILLETRAD
 40
0.5
  9
$AUNITS
 70
     0
  9
$AUPREC
 70
     0
  9
$MENU
  1
.
  9
$ELEVATION
 40
0.0
  9
$PELEVATION
 40
0.0
  9
$THICKNESS
 40
0.0
  9
$LIMCHECK
 70
     0
  9
$CHAMFERA
 40
0.5
  9
$CHAMFERB
 40
0.5
  9
$CHAMFERC
 40
1.0
  9
$CHAMFERD
 40
0.0
  9
$SKPOLY
 70
     0
  9
$TDCREATE
 40
2457917.586956019
  9
$TDUCREATE
 40
2457917.211956019
  9
$TDUPDATE
 40
2457917.586956019
  9
$TDUUPDATE
 40
2457917.211956019
  9
$TDINDWG
 40
0.0000000116
  9
$TDUSRTIMER
 40
0.0000000116
  9
$USRTIMER
 70
     1
  9
$ANGBASE
 50
0.0
  9
$ANGDIR
 70
     0
  9
$PDMODE
 70
     0
  9
$PDSIZE
 40
0.0
  9
$PLINEWID
 40
0.0
  9
$SPLFRAME
 70
     0
  9
$SPLINETYPE
 70
     6
  9
$SPLINESEGS
 70
     8
  9
$HANDSEED
  5
F6
  9
$SURFTAB1
 70
     6
  9
$SURFTAB2
 70
     6
  9
$SURFTYPE
 70
     6
  9
$SURFU
 70
     6
  9
$SURFV
 70
     6
  9
$UCSBASE
  2

  9
$UCSNAME
  2

  9
$UCSORG
 10
0.0
 20
0.0
 30
0.0
  9
$UCSXDIR
 10
1.0
 20
0.0
 30
0.0
  9
$UCSYDIR
 10
0.0
 20
1.0
 30
0.0
  9
$UCSORTHOREF
  2

  9
$UCSORTHOVIEW
 70
     0
  9
$UCSORGTOP
 10
0.0
 20
0.0
 30
0.0
  9
$UCSORGBOTTOM
 10
0.0
 20
0.0
 30
0.0
  9
$UCSORGLEFT
 10
0.0
 20
0.0
 30
0.0
  9
$UCSORGRIGHT
 10
0.0
 20
0.0
 30
0.0
  9
$UCSORGFRONT
 10
0.0
 20
0.0
 30
0.0
  9
$UCSORGBACK
 10
0.0
 20
0.0
 30
0.0
  9
$PUCSBASE
  2

  9
$PUCSNAME
  2

  9
$PUCSORG
 10
0.0
 20
0.0
 30
0.0
  9
$PUCSXDIR
 10
1.0
 20
0.0
 30
0.0
  9
$PUCSYDIR
 10
0.0
 20
1.0
 30
0.0
  9
$PUCSORTHOREF
  2

  9
$PUCSORTHOVIEW
 70
     0
  9
$PUCSORGTOP
 10
0.0
 20
0.0
 30
0.0
  9
$PUCSORGBOTTOM
 10
0.0
 20
0.0
 30
0.0
  9
$PUCSORGLEFT
 10
0.0
 20
0.0
 30
0.0
  9
$PUCSORGRIGHT
 10
0.0
 20
0.0
 30
0.0
  9
$PUCSORGFRONT
 10
0.0
 20
0.0
 30
0.0
  9
$PUCSORGBACK
 10
0.0
 20
0.0
 30
0.0
  9
$USERI1
 70
     0
  9
$USERI2
 70
     0
  9
$USERI3
 70
     0
  9
$USERI4
 70
     0
  9
$USERI5
 70
     0
  9
$USERR1
 40
0.0
  9
$USERR2
 40
0.0
  9
$USERR3
 40
0.0
  9
$USERR4
 40
0.0
  9
$USERR5
 40
0.0
  9
$WORLDVIEW
 70
     1
  9
$SHADEDGE
 70
     3
  9
$SHADEDIF
 70
    70
  9
$TILEMODE
 70
     1
  9
$MAXACTVP
 70
    64
  9
$PINSBASE
 10
0.0
 20
0.0
 30
0.0
  9
$PLIMCHECK
 70
     0
  9
$PEXTMIN
 10
1.000000000000000E+20
 20
1.000000000000000E+20
 30
1.000000000000000E+20
  9
$PEXTMAX
 10
-1.000000000000000E+20
 20
-1.000000000000000E+20
 30
-1.000000000000000E+20
  9
$PLIMMIN
 10
0.0
 20
0.0
  9
$PLIMMAX
 10
12.0
 20
9.0
  9
$UNITMODE
 70
     0
  9
$VISRETAIN
 70
     1
  9
$PLINEGEN
 70
     0
  9
$PSLTSCALE
 70
     1
  9
$TREEDEPTH
 70
  3020
  9
$CMLSTYLE
  2
Standard
  9
$CMLJUST
 70
     0
  9
$CMLSCALE
 40
1.0
  9
$PROXYGRAPHICS
 70
     1
  9
$MEASUREMENT
 70
     0
  9
$CELWEIGHT
370
    -1
  9
$ENDCAPS
280
     0
  9
$JOINSTYLE
280
     0
  9
$LWDISPLAY
290
     1
  9
$INSUNITS
 70
     1
  9
$HYPERLINKBASE
  1

  9
$STYLESHEET
  1

  9
$XEDIT
290
     1
  9
$CEPSNTYPE
380
     0
  9
$PSTYLEMODE
290
     1
  9
$FINGERPRINTGUID
  2
{9A7FD9E9-655D-8687-3F5B-B6DBDBC505D4}
  9
$VERSIONGUID
  2
{FAEB1C32-E019-11D5-929B-00C0DF256EC4}
  9
$EXTNAMES
290
     1
  9
$PSVPSCALE
 40
0.0
  9
$OLESTARTUP
290
     0
  9
$SORTENTS
280
   127
  9
$INDEXCTL
280
     0
  9
$HIDETEXT
280
     1
  9
$XCLIPFRAME
280
     2
  9
$HALOGAP
280
     0
  9
$OBSCOLOR
 70
   257
  9
$OBSLTYPE
280
     0
  9
$INTERSECTIONDISPLAY
280
     0
  9
$INTERSECTIONCOLOR
 70
   257
  9
$DIMASSOC
280
     2
  9
$PROJECTNAME
  1

  9
$CAMERADISPLAY
290
     0
  9
$LENSLENGTH
 40
50.0
  9
$CAMERAHEIGHT
 40
0.0
  9
$STEPSPERSEC
 40
2.0
  9
$STEPSIZE
 40
6.0
  9
$3DDWFPREC
 40
2.0
  9
$PSOLWIDTH
 40
0.25
  9
$PSOLHEIGHT
 40
4.0
  9
$LOFTANG1
 40
1.570796326794897
  9
$LOFTANG2
 40
1.570796326794897
  9
$LOFTMAG1
 40
0.0
  9
$LOFTMAG2
 40
0.0
  9
$LOFTPARAM
 70
     7
  9
$LOFTNORMALS
280
     1
  9
$LATITUDE
 40
37.795
  9
$LONGITUDE
 40
-122.394
  9
$NORTHDIRECTION
 40
0.0
  9
$TIMEZONE
 70
 -8000
  9
$LIGHTGLYPHDISPLAY
280
     1
  9
$TILEMODELIGHTSYNCH
280
     1
  9
$CMATERIAL
347
3C
  9
$SOLIDHIST
280
     1
  9
$SHOWHIST
280
     1
  9
$DWFFRAME
280
     2
  9
$DGNFRAME
280
     2
  9
$REALWORLDSCALE
290
     1
  9
$INTERFERECOLOR
 62
   256
  9
$CSHADOW
280
     0
  9
$SHADOWPLANELOCATION
 40
0.0
  0
ENDSEC
  0
SECTION
  2
CLASSES
  0
CLASS
  1
ACDBDICTIONARYWDFLT
  2
AcDbDictionaryWithDefault
  3
ObjectDBX Classes
 90
        0
 91
        4
280
     0
281
     0
  0
CLASS
  1
VISUALSTYLE
  2
AcDbVisualStyle
  3
ObjectDBX Classes
 90
     4095
 91
        4
280
     0
281
     0
  0
CLASS
  1
MATERIAL
  2
AcDbMaterial
  3
ObjectDBX Classes
 90
     1153
 91
        4
280
     0
281
     0
  0
CLASS
  1
SUN
  2
AcDbSun
  3
SCENEOE
 90
     1024
 91
        4
280
     0
281
     0
  0
ENDSEC
  0
SECTION
  2
TABLES
  0
TABLE
  2
VPORT
  5
8
330
0
100
AcDbSymbolTable
 70
     1
  0
VPORT
  5
29
330
8
100
AcDbSymbolTableRecord
100
AcDbViewportTableRecord
  2
*Active
 70
     0
 10
0.0
 20
0.0
 11
1.0
 21
1.0
 12
0.0
 22
0.0
 13
0.0
 23
0.0
 14
0.5
 24
0.5
 15
0.5
 25
0.5
 16
0.0
 26
0.0
 36
1.0
 17
105.0008280156501
 27
-148.4999710739862
 37
0.0
 40
296.9999421479724
 41
0.7070764206636528
 42
50.0
 43
0.0
 44
0.0
 50
0.0
 51
0.0
 71
     0
 72
   100
 73
     1
 74
     3
 75
     0
 76
     0
 77
     0
 78
     0
281
     0
 65
     1
110
0.0
120
0.0
130
0.0
111
1.0
121
0.0
131
0.0
112
0.0
122
1.0
132
0.0
 79
     0
146
0.0
 60
     3
 61
     5
292
     1
282
     1
141
0.0
142
0.0
 63
   250
361
3F
  0
ENDTAB
  0
TABLE
  2
LTYPE
  5
5
330
0
100
AcDbSymbolTable
 70
     1
  0
LTYPE
  5
14
330
5
100
AcDbSymbolTableRecord
100
AcDbLinetypeTableRecord
  2
ByBlock
 70
     0
  3

 72
    65
 73
     0
 40
0.0
  0
LTYPE
  5
15
330
5
100
AcDbSymbolTableRecord
100
AcDbLinetypeTableRecord
  2
ByLayer
 70
     0
  3

 72
    65
 73
     0
 40
0.0
  0
LTYPE
  5
16
330
5
100
AcDbSymbolTableRecord
100
AcDbLinetypeTableRecord
  2
Continuous
 70
     0
  3
Solid line
 72
    65
 73
     0
 40
0.0
  0
ENDTAB
  0
TABLE
  2
LAYER
  5
2
330
0
100
AcDbSymbolTable
 70
     2
  0
LAYER
  5
10
330
2
100
AcDbSymbolTableRecord
100
AcDbLayerTableRecord
  2
0
 70
     0
 62
     7
  6
Continuous
370
    -3
390
F
347
3E
  0
LAYER
  5
40
330
2
100
AcDbSymbolTableRecord
100
AcDbLayerTableRecord
  2
_U+30EC_U+30A4_U+30E4_U+30FC 1
 70
     0
 62
     7
  6
Continuous
370
    -3
390
F
347
3E
  0
ENDTAB
  0
TABLE
  2
STYLE
  5
3
330
0
100
AcDbSymbolTable
 70
     1
  0
STYLE
  5
11
330
3
100
AcDbSymbolTableRecord
100
AcDbTextStyleTableRecord
  2
Standard
 70
     0
 40
0.0
 41
1.0
 50
0.0
 71
     0
 42
0.2
  3
txt
  4

  0
ENDTAB
  0
TABLE
  2
VIEW
  5
6
330
0
100
AcDbSymbolTable
 70
     0
  0
ENDTAB
  0
TABLE
  2
UCS
  5
7
330
0
100
AcDbSymbolTable
 70
     0
  0
ENDTAB
  0
TABLE
  2
APPID
  5
9
330
0
100
AcDbSymbolTable
 70
     1
  0
APPID
  5
12
330
9
100
AcDbSymbolTableRecord
100
AcDbRegAppTableRecord
  2
ACAD
 70
     0
  0
ENDTAB
  0
TABLE
  2
DIMSTYLE
  5
A
330
0
100
AcDbSymbolTable
 70
     1
100
AcDbDimStyleTable
  0
DIMSTYLE
105
27
330
A
100
AcDbSymbolTableRecord
100
AcDbDimStyleTableRecord
  2
Standard
 70
     0
178
     0
340
11
  0
ENDTAB
  0
TABLE
  2
BLOCK_RECORD
  5
1
330
0
100
AcDbSymbolTable
 70
     7
  0
BLOCK_RECORD
  5
1F
330
1
100
AcDbSymbolTableRecord
100
AcDbBlockTableRecord
  2
*Model_Space
340
22
 70
     0
280
     1
281
     0
  0
BLOCK_RECORD
  5
1B
330
1
100
AcDbSymbolTableRecord
100
AcDbBlockTableRecord
  2
*Paper_Space
340
1E
 70
     0
280
     1
281
     0
  0
BLOCK_RECORD
  5
23
330
1
100
AcDbSymbolTableRecord
100
AcDbBlockTableRecord
  2
*Paper_Space0
340
26
 70
     0
280
     1
281
     0
  0
BLOCK_RECORD
  5
41
330
1
100
AcDbSymbolTableRecord
100
AcDbBlockTableRecord
  2
block 2
340
0
102
{BLKREFS
331
42
102
}
 70
     0
280
     1
281
     0
  0
BLOCK_RECORD
  5
79
330
1
100
AcDbSymbolTableRecord
100
AcDbBlockTableRecord
  2
block 3
340
0
102
{BLKREFS
331
7A
102
}
 70
     0
280
     1
281
     0
  0
BLOCK_RECORD
  5
87
330
1
100
AcDbSymbolTableRecord
100
AcDbBlockTableRecord
  2
block 4
340
0
102
{BLKREFS
331
88
102
}
 70
     0
280
     1
281
     0
  0
BLOCK_RECORD
  5
9F
330
1
100
AcDbSymbolTableRecord
100
AcDbBlockTableRecord
  2
block 5
340
0
102
{BLKREFS
331
A0
102
}
 70
     0
280
     1
281
     0
  0
BLOCK_RECORD
  5
D3
330
1
100
AcDbSymbolTableRecord
100
AcDbBlockTableRecord
  2
block 6
340
0
102
{BLKREFS
331
D4
102
}
 70
     0
280
     1
281
     0
  0
BLOCK_RECORD
  5
EC
330
1
100
AcDbSymbolTableRecord
100
AcDbBlockTableRecord
  2
block 7
340
0
102
{BLKREFS
331
ED
102
}
 70
     0
280
     1
281
     0
  0
ENDTAB
  0
ENDSEC
  0
SECTION
  2
BLOCKS
  0
BLOCK
  5
20
330
1F
100
AcDbEntity
  8
0
100
AcDbBlockBegin
  2
*Model_Space
 70
     0
 10
0.0
 20
0.0
 30
0.0
  3
*Model_Space
  1

  0
ENDBLK
  5
21
330
1F
100
AcDbEntity
  8
0
100
AcDbBlockEnd
  0
BLOCK
  5
1C
330
1B
100
AcDbEntity
 67
     1
  8
0
100
AcDbBlockBegin
  2
*Paper_Space
 70
     0
 10
0.0
 20
0.0
 30
0.0
  3
*Paper_Space
  1

  0
ENDBLK
  5
1D
330
1B
100
AcDbEntity
 67
     1
  8
0
100
AcDbBlockEnd
  0
BLOCK
  5
24
330
23
100
AcDbEntity
  8
0
100
AcDbBlockBegin
  2
*Paper_Space0
 70
     0
 10
0.0
 20
0.0
 30
0.0
  3
*Paper_Space0
  1

  0
ENDBLK
  5
25
330
23
100
AcDbEntity
  8
0
100
AcDbBlockEnd
  0
BLOCK
  5
43
330
41
100
AcDbEntity
  8
0
100
AcDbBlockBegin
  2
block 2
 70
     0
 10
0.0
 20
0.0
 30
0.0
  3
block 2
  1

  0
POLYLINE
  5
45
330
41
100
AcDbEntity
  8
_U+30EC_U+30A4_U+30E4_U+30FC 1
 62
   179
420
  2234388
370
    25
100
AcDb2dPolyline
 66
     1
 10
0.0
 20
0.0
 30
0.0
  0
VERTEX
  5
46
330
45
100
AcDbEntity
  8
_U+30EC_U+30A4_U+30E4_U+30FC 1
 62
   179
420
  2234388
370
    25
100
AcDbVertex
100
AcDb2dVertex
 10
93.29680817535568
 20
-143.8987257973586
 30
0.0
  0
VERTEX
  5
47
330
45
100
AcDbEntity
  8
_U+30EC_U+30A4_U+30E4_U+30FC 1
 62
   179
420
  2234388
370
    25
100
AcDbVertex
100
AcDb2dVertex
 10
97.39679140408973
 20
-143.8987257973586
 30
0.0
  0
SEQEND
  5
48
330
45
100
AcDbEntity
  8
_U+30EC_U+30A4_U+30E4_U+30FC 1
 62
   179
420
  2234388
370
    25
  0
POLYLINE
  5
49
330
41
100
AcDbEntity
  8
_U+30EC_U+30A4_U+30E4_U+30FC 1
 62
   179
420
  2234388
370
    25
100
AcDb2dPolyline
 66
     1
 10
0.0
 20
0.0
 30
0.0
  0
VERTEX
  5
4A
330
49
100
AcDbEntity
  8
_U+30EC_U+30A4_U+30E4_U+30FC 1
 62
   179
420
  2234388
370
    25
100
AcDbVertex
100
AcDb2dVertex
 10
96.29679504326408
 20
-144.9983694081949
 30
0.0
  0
VERTEX
  5
4B
330
49
100
AcDbEntity
  8
_U+30EC_U+30A4_U+30E4_U+30FC 1
 62
   179
420
  2234388
370
    25
100
AcDbVertex
100
AcDb2dVertex
 10
96.29679504326408
 20
-152.9987696839725
 30
0.0
  0
SEQEND
  5
4C
330
49
100
AcDbEntity
  8
_U+30EC_U+30A4_U+30E4_U+30FC 1
 62
   179
420
  2234388
370
    25
  0
POLYLINE
  5
4D
330
41
100
AcDbEntity
  8
_U+30EC_U+30A4_U+30E4_U+30FC 1
 62
   179
420
  2234388
370
    25
100
AcDb2dPolyline
 66
     1
 10
0.0
 20
0.0
 30
0.0
  0
VERTEX
  5
4E
330
4D
100
AcDbEntity
  8
_U+30EC_U+30A4_U+30E4_U+30FC 1
 62
   179
420
  2234388
370
    25
100
AcDbVertex
100
AcDb2dVertex
 10
93.29680817535568
 20
-144.9983694081949
 30
0.0
  0
VERTEX
  5
4F
330
4D
100
AcDbEntity
  8
_U+30EC_U+30A4_U+30E4_U+30FC 1
 62
   179
420
  2234388
370
    25
100
AcDbVertex
100
AcDb2dVertex
 10
96.29679504326408
 20
-144.9983694081949
 30
0.0
  0
SEQEND
  5
50
330
4D
100
AcDbEntity
  8
_U+30EC_U+30A4_U+30E4_U+30FC 1
 62
   179
420
  2234388
370
    25
  0
POLYLINE
  5
51
330
41
100
AcDbEntity
  8
_U+30EC_U+30A4_U+30E4_U+30FC 1
 62
   179
420
  2234388
370
    25
100
AcDb2dPolyline
 66
     1
 10
0.0
 20
0.0
 30
0.0
  0
VERTEX
  5
52
330
51
100
AcDbEntity
  8
_U+30EC_U+30A4_U+30E4_U+30FC 1
 62
   179
420
  2234388
370
    25
100
AcDbVertex
100
AcDb2dVertex
 10
93.23669719891294
 20
-143.8987257973586
 30
0.0
  0
VERTEX
  5
53
330
51
100
AcDbEntity
  8
_U+30EC_U+30A4_U+30E4_U+30FC 1
 62
   179
420
  2234388
370
    25
100
AcDbVertex
100
AcDb2dVertex
 10
93.23669719891294
 20
-144.9983694081949
 30
0.0
  0
SEQEND
  5
54
330
51
100
AcDbEntity
  8
_U+30EC_U+30A4_U+30E4_U+30FC 1
 62
   179
420
  2234388
370
    25
  0
POLYLINE
  5
55
330
41
100
AcDbEntity
  8
_U+30EC_U+30A4_U+30E4_U+30FC 1
 62
   179
420
  2234388
370
    25
100
AcDb2dPolyline
 66
     1
 10
0.0
 20
0.0
 30
0.0
  0
VERTEX
  5
56
330
55
100
AcDbEntity
  8
_U+30EC_U+30A4_U+30E4_U+30FC 1
 62
   179
420
  2234388
370
    25
100
AcDbVertex
100
AcDb2dVertex
 10
97.39679140408973
 20
-143.8987257973586
 30
0.0
  0
VERTEX
  5
57
330
55
100
AcDbEntity
  8
_U+30EC_U+30A4_U+30E4_U+30FC 1
 62
   179
420
  2234388
370
    25
100
AcDbVertex
100
AcDb2dVertex
 10
97.39679140408973
 20
-151.8990907953583
 30
0.0
  0
SEQEND
  5
58
330
55
100
AcDbEntity
  8
_U+30EC_U+30A4_U+30E4_U+30FC 1
 62
   179
420
  2234388
370
    25
  0
POLYLINE
  5
59
330
41
100
AcDbEntity
  8
_U+30EC_U+30A4_U+30E4_U+30FC 1
 62
   179
420
  2234388
370
    25
100
AcDb2dPolyline
 66
     1
 10
0.0
 20
0.0
 30
0.0
  0
VERTEX
  5
5A
330
59
100
AcDbEntity
  8
_U+30EC_U+30A4_U+30E4_U+30FC 1
 62
   179
420
  2234388
370
    25
100
AcDbVertex
100
AcDb2dVertex
 10
113.2968029428911
 20
-151.8990907953583
 30
0.0
  0
VERTEX
  5
5B
330
59
100
AcDbEntity
  8
_U+30EC_U+30A4_U+30E4_U+30FC 1
 62
   179
420
  2234388
370
    25
100
AcDbVertex
100
AcDb2dVertex
 10
113.2968029428911
 20
-152.2987174619255
 30
0.0
  0
SEQEND
  5
5C
330
59
100
AcDbEntity
  8
_U+30EC_U+30A4_U+30E4_U+30FC 1
 62
   179
420
  2234388
370
    25
  0
POLYLINE
  5
5D
330
41
100
AcDbEntity
  8
_U+30EC_U+30A4_U+30E4_U+30FC 1
 62
   179
420
  2234388
370
    25
100
AcDb2dPolyline
 66
     1
 10
0.0
 20
0.0
 30
0.0
  0
VERTEX
  5
5E
330
5D
100
AcDbEntity
  8
_U+30EC_U+30A4_U+30E4_U+30FC 1
 62
   179
420
  2234388
370
    25
100
AcDbVertex
100
AcDb2dVertex
 10
97.39679140408973
 20
-151.8990907953583
 30
0.0
  0
VERTEX
  5
5F
330
5D
100
AcDbEntity
  8
_U+30EC_U+30A4_U+30E4_U+30FC 1
 62
   179
420
  2234388
370
    25
100
AcDbVertex
100
AcDb2dVertex
 10
113.2968029428911
 20
-151.8990907953583
 30
0.0
  0
SEQEND
  5
60
330
5D
100
AcDbEntity
  8
_U+30EC_U+30A4_U+30E4_U+30FC 1
 62
   179
420
  2234388
370
    25
  0
POLYLINE
  5
61
330
41
100
AcDbEntity
  8
_U+30EC_U+30A4_U+30E4_U+30FC 1
 62
   179
420
  2234388
370
    25
100
AcDb2dPolyline
 66
     1
 10
0.0
 20
0.0
 30
0.0
  0
VERTEX
  5
62
330
61
100
AcDbEntity
  8
_U+30EC_U+30A4_U+30E4_U+30FC 1
 62
   179
420
  2234388
370
    25
100
AcDbVertex
100
AcDb2dVertex
 10
113.2968029428911
 20
-152.2987174619255
 30
0.0
  0
VERTEX
  5
63
330
61
100
AcDbEntity
  8
_U+30EC_U+30A4_U+30E4_U+30FC 1
 62
   179
420
  2234388
370
    25
100
AcDbVertex
100
AcDb2dVertex
 10
96.29679504326408
 20
-152.9987696839725
 30
0.0
  0
SEQEND
  5
64
330
61
100
AcDbEntity
  8
_U+30EC_U+30A4_U+30E4_U+30FC 1
 62
   179
420
  2234388
370
    25
  0
SPLINE
  5
65
330
41
100
AcDbEntity
  8
_U+30EC_U+30A4_U+30E4_U+30FC 1
 62
   179
420
  2234388
370
     9
100
AcDbSpline
210
0.0
220
0.0
230
1.0
 70
    11
 71
     3
 72
    17
 73
    13
 74
     0
 42
0.0000000001
 43
0.0000000001
 12
1.0
 22
0.0
 32
0.0
 13
1.0
 23
0.0
 33
0.0
 40
0.0
 40
0.0
 40
0.0
 40
0.0
 40
1.0
 40
1.0
 40
1.0
 40
2.0
 40
2.0
 40
2.0
 40
3.0
 40
3.0
 40
3.0
 40
4.0
 40
4.0
 40
4.0
 40
4.0
 10
117.3971389493939
 20
-143.8987257973586
 30
0.0
 10
117.3971389493939
 20
-143.8435866307059
 30
0.0
 10
117.3523361727592
 20
-143.798819130717
 30
0.0
 10
117.2965267297385
 20
-143.798819130717
 30
0.0
 10
117.2414228422554
 20
-143.798819130717
 30
0.0
 10
117.1966200656207
 20
-143.8435866307059
 30
0.0
 10
117.1966200656207
 20
-143.8987257973586
 30
0.0
 10
117.1966200656207
 20
-143.9538296862338
 30
0.0
 10
117.2414228422554
 20
-143.9986324640003
 30
0.0
 10
117.2965267297385
 20
-143.9986324640003
 30
0.0
 10
117.3523361727592
 20
-143.9986324640003
 30
0.0
 10
117.3971389493939
 20
-143.9538296862338
 30
0.0
 10
117.3971389493939
 20
-143.8987257973586
 30
0.0
  0
SPLINE
  5
66
330
41
100
AcDbEntity
  8
_U+30EC_U+30A4_U+30E4_U+30FC 1
 62
   179
420
  2234388
370
     9
100
AcDbSpline
210
0.0
220
0.0
230
1.0
 70
    11
 71
     3
 72
    17
 73
    13
 74
     0
 42
0.0000000001
 43
0.0000000001
 12
1.0
 22
0.0
 32
0.0
 13
1.0
 23
0.0
 33
0.0
 40
0.0
 40
0.0
 40
0.0
 40
0.0
 40
1.0
 40
1.0
 40
1.0
 40
2.0
 40
2.0
 40
2.0
 40
3.0
 40
3.0
 40
3.0
 40
4.0
 40
4.0
 40
4.0
 40
4.0
 10
117.3971389493939
 20
-151.8990907953583
 30
0.0
 10
117.3971389493939
 20
-151.8432813509278
 30
0.0
 10
117.3523361727592
 20
-151.7984785731618
 30
0.0
 10
117.2965267297385
 20
-151.7984785731618
 30
0.0
 10
117.2414228422554
 20
-151.7984785731618
 30
0.0
 10
117.1966200656207
 20
-151.8432813509278
 30
0.0
 10
117.1966200656207
 20
-151.8990907953583
 30
0.0
 10
117.1966200656207
 20
-151.9541946842338
 30
0.0
 10
117.2414228422554
 20
-151.9989974620006
 30
0.0
 10
117.2965267297385
 20
-151.9989974620006
 30
0.0
 10
117.3523361727592
 20
-151.9989974620006
 30
0.0
 10
117.3971389493939
 20
-151.9541946842338
 30
0.0
 10
117.3971389493939
 20
-151.8990907953583
 30
0.0
  0
SPLINE
  5
67
330
41
100
AcDbEntity
  8
_U+30EC_U+30A4_U+30E4_U+30FC 1
 62
   179
420
  2234388
370
     9
100
AcDbSpline
210
0.0
220
0.0
230
1.0
 70
    11
 71
     3
 72
    17
 73
    13
 74
     0
 42
0.0000000001
 43
0.0000000001
 12
1.0
 22
0.0
 32
0.0
 13
1.0
 23
0.0
 33
0.0
 40
0.0
 40
0.0
 40
0.0
 40
0.0
 40
1.0
 40
1.0
 40
1.0
 40
2.0
 40
2.0
 40
2.0
 40
3.0
 40
3.0
 40
3.0
 40
4.0
 40
4.0
 40
4.0
 40
4.0
 10
117.3971389493939
 20
-152.2987174619255
 30
0.0
 10
117.3971389493939
 20
-152.2435782952724
 30
0.0
 10
117.3523361727592
 20
-152.1988107952838
 30
0.0
 10
117.2965267297385
 20
-152.1988107952838
 30
0.0
 10
117.2414228422554
 20
-152.1988107952838
 30
0.0
 10
117.1966200656207
 20
-152.2435782952724
 30
0.0
 10
117.1966200656207
 20
-152.2987174619255
 30
0.0
 10
117.1966200656207
 20
-152.3538213508004
 30
0.0
 10
117.2414228422554
 20
-152.3986241285671
 30
0.0
 10
117.2965267297385
 20
-152.3986241285671
 30
0.0
 10
117.3523361727592
 20
-152.3986241285671
 30
0.0
 10
117.3971389493939
 20
-152.3538213508004
 30
0.0
 10
117.3971389493939
 20
-152.2987174619255
 30
0.0
  0
SPLINE
  5
68
330
41
100
AcDbEntity
  8
_U+30EC_U+30A4_U+30E4_U+30FC 1
 62
   179
420
  2234388
370
     9
100
AcDbSpline
210
0.0
220
0.0
230
1.0
 70
    11
 71
     3
 72
    17
 73
    13
 74
     0
 42
0.0000000001
 43
0.0000000001
 12
1.0
 22
0.0
 32
0.0
 13
1.0
 23
0.0
 33
0.0
 40
0.0
 40
0.0
 40
0.0
 40
0.0
 40
1.0
 40
1.0
 40
1.0
 40
2.0
 40
2.0
 40
2.0
 40
3.0
 40
3.0
 40
3.0
 40
4.0
 40
4.0
 40
4.0
 40
4.0
 10
113.3967096070089
 20
-156.9985288496393
 30
0.0
 10
113.3967096070089
 20
-156.9433896829863
 30
0.0
 10
113.3519068303742
 20
-156.8986221829977
 30
0.0
 10
113.2968029428911
 20
-156.8986221829977
 30
0.0
 10
113.2416666383563
 20
-156.8986221829977
 30
0.0
 10
113.1968638605895
 20
-156.9433896829863
 30
0.0
 10
113.1968638605895
 20
-156.9985288496393
 30
0.0
 10
113.1968638605895
 20
-157.0536327385143
 30
0.0
 10
113.2416666383563
 20
-157.098435516281
 30
0.0
 10
113.2968029428911
 20
-157.098435516281
 30
0.0
 10
113.3519068303742
 20
-157.098435516281
 30
0.0
 10
113.3967096070089
 20
-157.0536327385143
 30
0.0
 10
113.3967096070089
 20
-156.9985288496393
 30
0.0
  0
SPLINE
  5
69
330
41
100
AcDbEntity
  8
_U+30EC_U+30A4_U+30E4_U+30FC 1
 62
   179
420
  2234388
370
     9
100
AcDbSpline
210
0.0
220
0.0
230
1.0
 70
    11
 71
     3
 72
    17
 73
    13
 74
     0
 42
0.0000000001
 43
0.0000000001
 12
1.0
 22
0.0
 32
0.0
 13
1.0
 23
0.0
 33
0.0
 40
0.0
 40
0.0
 40
0.0
 40
0.0
 40
1.0
 40
1.0
 40
1.0
 40
2.0
 40
2.0
 40
2.0
 40
3.0
 40
3.0
 40
3.0
 40
4.0
 40
4.0
 40
4.0
 40
4.0
 10
93.24978289877762
 20
-156.9985288496393
 30
0.0
 10
93.24978289877762
 20
-156.9433896829863
 30
0.0
 10
93.20498012214286
 20
-156.8986221829977
 30
0.0
 10
93.1496998457754
 20
-156.8986221829977
 30
0.0
 10
93.09438429163106
 20
-156.8986221829977
 30
0.0
 10
93.04979318165756
 20
-156.9433896829863
 30
0.0
 10
93.04979318165756
 20
-156.9985288496393
 30
0.0
 10
93.04979318165756
 20
-157.0536327385143
 30
0.0
 10
93.09438429163106
 20
-157.098435516281
 30
0.0
 10
93.1496998457754
 20
-157.098435516281
 30
0.0
 10
93.20498012214286
 20
-157.098435516281
 30
0.0
 10
93.24978289877762
 20
-157.0536327385143
 30
0.0
 10
93.24978289877762
 20
-156.9985288496393
 30
0.0
  0
SPLINE
  5
6A
330
41
100
AcDbEntity
  8
_U+30EC_U+30A4_U+30E4_U+30FC 1
 62
   179
420
  2234388
370
     9
100
AcDbSpline
210
0.0
220
0.0
230
1.0
 70
    11
 71
     3
 72
    17
 73
    13
 74
     0
 42
0.0000000001
 43
0.0000000001
 12
1.0
 22
0.0
 32
0.0
 13
1.0
 23
0.0
 33
0.0
 40
0.0
 40
0.0
 40
0.0
 40
0.0
 40
1.0
 40
1.0
 40
1.0
 40
2.0
 40
2.0
 40
2.0
 40
3.0
 40
3.0
 40
3.0
 40
4.0
 40
4.0
 40
4.0
 40
4.0
 10
90.3949993604981
 20
-143.8987257973586
 30
0.0
 10
90.3949993604981
 20
-143.8435866307059
 30
0.0
 10
90.35019658386334
 20
-143.798819130717
 30
0.0
 10
90.29509269638027
 20
-143.798819130717
 30
0.0
 10
90.23981242001281
 20
-143.798819130717
 30
0.0
 10
90.19500964337804
 20
-143.8435866307059
 30
0.0
 10
90.19500964337804
 20
-143.8987257973586
 30
0.0
 10
90.19500964337804
 20
-143.9538296862338
 30
0.0
 10
90.23981242001281
 20
-143.9986324640003
 30
0.0
 10
90.29509269638027
 20
-143.9986324640003
 30
0.0
 10
90.35019658386334
 20
-143.9986324640003
 30
0.0
 10
90.3949993604981
 20
-143.9538296862338
 30
0.0
 10
90.3949993604981
 20
-143.8987257973586
 30
0.0
  0
SPLINE
  5
6B
330
41
100
AcDbEntity
  8
_U+30EC_U+30A4_U+30E4_U+30FC 1
 62
   179
420
  2234388
370
     9
100
AcDbSpline
210
0.0
220
0.0
230
1.0
 70
    11
 71
     3
 72
    17
 73
    13
 74
     0
 42
0.0000000001
 43
0.0000000001
 12
1.0
 22
0.0
 32
0.0
 13
1.0
 23
0.0
 33
0.0
 40
0.0
 40
0.0
 40
0.0
 40
0.0
 40
1.0
 40
1.0
 40
1.0
 40
2.0
 40
2.0
 40
2.0
 40
3.0
 40
3.0
 40
3.0
 40
4.0
 40
4.0
 40
4.0
 40
4.0
 10
90.3949993604981
 20
-144.9983694081949
 30
0.0
 10
90.3949993604981
 20
-144.9432655193197
 30
0.0
 10
90.35019658386334
 20
-144.8984627415533
 30
0.0
 10
90.29509269638027
 20
-144.8984627415533
 30
0.0
 10
90.23981242001281
 20
-144.8984627415533
 30
0.0
 10
90.19500964337804
 20
-144.9432655193197
 30
0.0
 10
90.19500964337804
 20
-144.9983694081949
 30
0.0
 10
90.19500964337804
 20
-145.0538613526255
 30
0.0
 10
90.23981242001281
 20
-145.0986288526144
 30
0.0
 10
90.29509269638027
 20
-145.0986288526144
 30
0.0
 10
90.35019658386334
 20
-145.0986288526144
 30
0.0
 10
90.3949993604981
 20
-145.0538613526255
 30
0.0
 10
90.3949993604981
 20
-144.9983694081949
 30
0.0
  0
SPLINE
  5
6C
330
41
100
AcDbEntity
  8
_U+30EC_U+30A4_U+30E4_U+30FC 1
 62
   179
420
  2234388
370
     9
100
AcDbSpline
210
0.0
220
0.0
230
1.0
 70
    11
 71
     3
 72
    17
 73
    13
 74
     0
 42
0.0000000001
 43
0.0000000001
 12
1.0
 22
0.0
 32
0.0
 13
1.0
 23
0.0
 33
0.0
 40
0.0
 40
0.0
 40
0.0
 40
0.0
 40
1.0
 40
1.0
 40
1.0
 40
2.0
 40
2.0
 40
2.0
 40
3.0
 40
3.0
 40
3.0
 40
4.0
 40
4.0
 40
4.0
 40
4.0
 10
96.39688053145642
 20
-156.9985288496393
 30
0.0
 10
96.39688053145642
 20
-156.9433896829863
 30
0.0
 10
96.35207775368968
 20
-156.8986221829977
 30
0.0
 10
96.29679504326408
 20
-156.8986221829977
 30
0.0
 10
96.24165830927282
 20
-156.8986221829977
 30
0.0
 10
96.19688837914624
 20
-156.9433896829863
 30
0.0
 10
96.19688837914624
 20
-156.9985288496393
 30
0.0
 10
96.19688837914624
 20
-157.0536327385143
 30
0.0
 10
96.24165830927282
 20
-157.098435516281
 30
0.0
 10
96.29679504326408
 20
-157.098435516281
 30
0.0
 10
96.35207775368968
 20
-157.098435516281
 30
0.0
 10
96.39688053145642
 20
-157.0536327385143
 30
0.0
 10
96.39688053145642
 20
-156.9985288496393
 30
0.0
  0
POLYLINE
  5
6D
330
41
100
AcDbEntity
  8
_U+30EC_U+30A4_U+30E4_U+30FC 1
 62
   179
420
  2234388
370
     9
100
AcDb2dPolyline
 66
     1
 10
0.0
 20
0.0
 30
0.0
  0
VERTEX
  5
6E
330
6D
100
AcDbEntity
  8
_U+30EC_U+30A4_U+30E4_U+30FC 1
 62
   179
420
  2234388
370
     9
100
AcDbVertex
100
AcDb2dVertex
 10
93.29680817535568
 20
-156.9985288496393
 30
0.0
  0
VERTEX
  5
6F
330
6D
100
AcDbEntity
  8
_U+30EC_U+30A4_U+30E4_U+30FC 1
 62
   179
420
  2234388
370
     9
100
AcDbVertex
100
AcDb2dVertex
 10
96.29679504326408
 20
-156.9985288496393
 30
0.0
  0
SEQEND
  5
70
330
6D
100
AcDbEntity
  8
_U+30EC_U+30A4_U+30E4_U+30FC 1
 62
   179
420
  2234388
370
     9
  0
POLYLINE
  5
71
330
41
100
AcDbEntity
  8
_U+30EC_U+30A4_U+30E4_U+30FC 1
 62
   179
420
  2234388
370
     9
100
AcDb2dPolyline
 66
     1
 10
0.0
 20
0.0
 30
0.0
  0
VERTEX
  5
72
330
71
100
AcDbEntity
  8
_U+30EC_U+30A4_U+30E4_U+30FC 1
 62
   179
420
  2234388
370
     9
100
AcDbVertex
100
AcDb2dVertex
 10
93.1496998457754
 20
-147.0385538521293
 30
0.0
  0
VERTEX
  5
73
330
71
100
AcDbEntity
  8
_U+30EC_U+30A4_U+30E4_U+30FC 1
 62
   179
420
  2234388
370
     9
100
AcDbVertex
100
AcDb2dVertex
 10
93.1496998457754
 20
-157.9989713493893
 30
0.0
  0
SEQEND
  5
74
330
71
100
AcDbEntity
  8
_U+30EC_U+30A4_U+30E4_U+30FC 1
 62
   179
420
  2234388
370
     9
  0
POLYLINE
  5
75
330
41
100
AcDbEntity
  8
_U+30EC_U+30A4_U+30E4_U+30FC 1
 62
   179
420
  2234388
370
     9
100
AcDb2dPolyline
 66
     1
 10
0.0
 20
0.0
 30
0.0
  0
VERTEX
  5
76
330
75
100
AcDbEntity
  8
_U+30EC_U+30A4_U+30E4_U+30FC 1
 62
   179
420
  2234388
370
     9
100
AcDbVertex
100
AcDb2dVertex
 10
96.29679504326408
 20
-155.5384874611156
 30
0.0
  0
VERTEX
  5
77
330
75
100
AcDbEntity
  8
_U+30EC_U+30A4_U+30E4_U+30FC 1
 62
   179
420
  2234388
370
     9
100
AcDbVertex
100
AcDb2dVertex
 10
96.29679504326408
 20
-157.9989713493893
 30
0.0
  0
SEQEND
  5
78
330
75
100
AcDbEntity
  8
_U+30EC_U+30A4_U+30E4_U+30FC 1
 62
   179
420
  2234388
370
     9
  0
INSERT
  5
7A
330
41
100
AcDbEntity
  8
_U+30EC_U+30A4_U+30E4_U+30FC 1
100
AcDbBlockReference
  2
block 3
 10
0.0
 20
0.0
 30
0.0
  0
POLYLINE
  5
7F
330
41
100
AcDbEntity
  8
_U+30EC_U+30A4_U+30E4_U+30FC 1
 62
   179
420
  2234388
370
     9
100
AcDb2dPolyline
 66
     1
 10
0.0
 20
0.0
 30
0.0
  0
VERTEX
  5
80
330
7F
100
AcDbEntity
  8
_U+30EC_U+30A4_U+30E4_U+30FC 1
 62
   179
420
  2234388
370
     9
100
AcDbVertex
100
AcDb2dVertex
 10
96.29679504326408
 20
-156.9985288496393
 30
0.0
  0
VERTEX
  5
81
330
7F
100
AcDbEntity
  8
_U+30EC_U+30A4_U+30E4_U+30FC 1
 62
   179
420
  2234388
370
     9
100
AcDbVertex
100
AcDb2dVertex
 10
113.2968029428911
 20
-156.9985288496393
 30
0.0
  0
SEQEND
  5
82
330
7F
100
AcDbEntity
  8
_U+30EC_U+30A4_U+30E4_U+30FC 1
 62
   179
420
  2234388
370
     9
  0
POLYLINE
  5
83
330
41
100
AcDbEntity
  8
_U+30EC_U+30A4_U+30E4_U+30FC 1
 62
   179
420
  2234388
370
     9
100
AcDb2dPolyline
 66
     1
 10
0.0
 20
0.0
 30
0.0
  0
VERTEX
  5
84
330
83
100
AcDbEntity
  8
_U+30EC_U+30A4_U+30E4_U+30FC 1
 62
   179
420
  2234388
370
     9
100
AcDbVertex
100
AcDb2dVertex
 10
113.2968029428911
 20
-154.838435239068
 30
0.0
  0
VERTEX
  5
85
330
83
100
AcDbEntity
  8
_U+30EC_U+30A4_U+30E4_U+30FC 1
 62
   179
420
  2234388
370
     9
100
AcDbVertex
100
AcDb2dVertex
 10
113.2968029428911
 20
-157.9989713493893
 30
0.0
  0
SEQEND
  5
86
330
83
100
AcDbEntity
  8
_U+30EC_U+30A4_U+30E4_U+30FC 1
 62
   179
420
  2234388
370
     9
  0
INSERT
  5
88
330
41
100
AcDbEntity
  8
_U+30EC_U+30A4_U+30E4_U+30FC 1
100
AcDbBlockReference
  2
block 4
 10
0.0
 20
0.0
 30
0.0
  0
POLYLINE
  5
8F
330
41
100
AcDbEntity
  8
_U+30EC_U+30A4_U+30E4_U+30FC 1
 62
   179
420
  2234388
370
     9
100
AcDb2dPolyline
 66
     1
 10
0.0
 20
0.0
 30
0.0
  0
VERTEX
  5
90
330
8F
100
AcDbEntity
  8
_U+30EC_U+30A4_U+30E4_U+30FC 1
 62
   179
420
  2234388
370
     9
100
AcDbVertex
100
AcDb2dVertex
 10
117.2965267297385
 20
-152.2987174619255
 30
0.0
  0
VERTEX
  5
91
330
8F
100
AcDbEntity
  8
_U+30EC_U+30A4_U+30E4_U+30FC 1
 62
   179
420
  2234388
370
     9
100
AcDbVertex
100
AcDb2dVertex
 10
117.2965267297385
 20
-153.2984896838974
 30
0.0
  0
SEQEND
  5
92
330
8F
100
AcDbEntity
  8
_U+30EC_U+30A4_U+30E4_U+30FC 1
 62
   179
420
  2234388
370
     9
  0
POLYLINE
  5
93
330
41
100
AcDbEntity
  8
_U+30EC_U+30A4_U+30E4_U+30FC 1
 62
   179
420
  2234388
370
     9
100
AcDb2dPolyline
 66
     1
 10
0.0
 20
0.0
 30
0.0
  0
VERTEX
  5
94
330
93
100
AcDbEntity
  8
_U+30EC_U+30A4_U+30E4_U+30FC 1
 62
   179
420
  2234388
370
     9
100
AcDbVertex
100
AcDb2dVertex
 10
117.2965267297385
 20
-151.8990907953583
 30
0.0
  0
VERTEX
  5
95
330
93
100
AcDbEntity
  8
_U+30EC_U+30A4_U+30E4_U+30FC 1
 62
   179
420
  2234388
370
     9
100
AcDbVertex
100
AcDb2dVertex
 10
117.2965267297385
 20
-152.2987174619255
 30
0.0
  0
SEQEND
  5
96
330
93
100
AcDbEntity
  8
_U+30EC_U+30A4_U+30E4_U+30FC 1
 62
   179
420
  2234388
370
     9
  0
POLYLINE
  5
97
330
41
100
AcDbEntity
  8
_U+30EC_U+30A4_U+30E4_U+30FC 1
 62
   179
420
  2234388
370
     9
100
AcDb2dPolyline
 66
     1
 10
0.0
 20
0.0
 30
0.0
  0
VERTEX
  5
98
330
97
100
AcDbEntity
  8
_U+30EC_U+30A4_U+30E4_U+30FC 1
 62
   179
420
  2234388
370
     9
100
AcDbVertex
100
AcDb2dVertex
 10
115.8365206558753
 20
-151.8990907953583
 30
0.0
  0
VERTEX
  5
99
330
97
100
AcDbEntity
  8
_U+30EC_U+30A4_U+30E4_U+30FC 1
 62
   179
420
  2234388
370
     9
100
AcDbVertex
100
AcDb2dVertex
 10
118.297004481992
 20
-151.8990907953583
 30
0.0
  0
SEQEND
  5
9A
330
97
100
AcDbEntity
  8
_U+30EC_U+30A4_U+30E4_U+30FC 1
 62
   179
420
  2234388
370
     9
  0
POLYLINE
  5
9B
330
41
100
AcDbEntity
  8
_U+30EC_U+30A4_U+30E4_U+30FC 1
 62
   179
420
  2234388
370
     9
100
AcDb2dPolyline
 66
     1
 10
0.0
 20
0.0
 30
0.0
  0
VERTEX
  5
9C
330
9B
100
AcDbEntity
  8
_U+30EC_U+30A4_U+30E4_U+30FC 1
 62
   179
420
  2234388
370
     9
100
AcDbVertex
100
AcDb2dVertex
 10
115.8365206558753
 20
-152.2987174619255
 30
0.0
  0
VERTEX
  5
9D
330
9B
100
AcDbEntity
  8
_U+30EC_U+30A4_U+30E4_U+30FC 1
 62
   179
420
  2234388
370
     9
100
AcDbVertex
100
AcDb2dVertex
 10
118.297004481992
 20
-152.2987174619255
 30
0.0
  0
SEQEND
  5
9E
330
9B
100
AcDbEntity
  8
_U+30EC_U+30A4_U+30E4_U+30FC 1
 62
   179
420
  2234388
370
     9
  0
INSERT
  5
A0
330
41
100
AcDbEntity
  8
_U+30EC_U+30A4_U+30E4_U+30FC 1
100
AcDbBlockReference
  2
block 5
 10
0.0
 20
0.0
 30
0.0
  0
POLYLINE
  5
C3
330
41
100
AcDbEntity
  8
_U+30EC_U+30A4_U+30E4_U+30FC 1
 62
   179
420
  2234388
370
     9
100
AcDb2dPolyline
 66
     1
 10
0.0
 20
0.0
 30
0.0
  0
VERTEX
  5
C4
330
C3
100
AcDbEntity
  8
_U+30EC_U+30A4_U+30E4_U+30FC 1
 62
   179
420
  2234388
370
     9
100
AcDbVertex
100
AcDb2dVertex
 10
90.29509269638027
 20
-143.8987257973586
 30
0.0
  0
VERTEX
  5
C5
330
C3
100
AcDbEntity
  8
_U+30EC_U+30A4_U+30E4_U+30FC 1
 62
   179
420
  2234388
370
     9
100
AcDbVertex
100
AcDb2dVertex
 10
90.29509269638027
 20
-142.8986007976086
 30
0.0
  0
SEQEND
  5
C6
330
C3
100
AcDbEntity
  8
_U+30EC_U+30A4_U+30E4_U+30FC 1
 62
   179
420
  2234388
370
     9
  0
POLYLINE
  5
C7
330
41
100
AcDbEntity
  8
_U+30EC_U+30A4_U+30E4_U+30FC 1
 62
   179
420
  2234388
370
     9
100
AcDb2dPolyline
 66
     1
 10
0.0
 20
0.0
 30
0.0
  0
VERTEX
  5
C8
330
C7
100
AcDbEntity
  8
_U+30EC_U+30A4_U+30E4_U+30FC 1
 62
   179
420
  2234388
370
     9
100
AcDbVertex
100
AcDb2dVertex
 10
90.29509269638027
 20
-143.8987257973586
 30
0.0
  0
VERTEX
  5
C9
330
C7
100
AcDbEntity
  8
_U+30EC_U+30A4_U+30E4_U+30FC 1
 62
   179
420
  2234388
370
     9
100
AcDbVertex
100
AcDb2dVertex
 10
90.29509269638027
 20
-145.9988471857224
 30
0.0
  0
SEQEND
  5
CA
330
C7
100
AcDbEntity
  8
_U+30EC_U+30A4_U+30E4_U+30FC 1
 62
   179
420
  2234388
370
     9
  0
POLYLINE
  5
CB
330
41
100
AcDbEntity
  8
_U+30EC_U+30A4_U+30E4_U+30FC 1
 62
   179
420
  2234388
370
     9
100
AcDb2dPolyline
 66
     1
 10
0.0
 20
0.0
 30
0.0
  0
VERTEX
  5
CC
330
CB
100
AcDbEntity
  8
_U+30EC_U+30A4_U+30E4_U+30FC 1
 62
   179
420
  2234388
370
     9
100
AcDbVertex
100
AcDb2dVertex
 10
91.75495765913601
 20
-143.8987257973586
 30
0.0
  0
VERTEX
  5
CD
330
CB
100
AcDbEntity
  8
_U+30EC_U+30A4_U+30E4_U+30FC 1
 62
   179
420
  2234388
370
     9
100
AcDbVertex
100
AcDb2dVertex
 10
89.29496772189559
 20
-143.8987257973586
 30
0.0
  0
SEQEND
  5
CE
330
CB
100
AcDbEntity
  8
_U+30EC_U+30A4_U+30E4_U+30FC 1
 62
   179
420
  2234388
370
     9
  0
POLYLINE
  5
CF
330
41
100
AcDbEntity
  8
_U+30EC_U+30A4_U+30E4_U+30FC 1
 62
   179
420
  2234388
370
     9
100
AcDb2dPolyline
 66
     1
 10
0.0
 20
0.0
 30
0.0
  0
VERTEX
  5
D0
330
CF
100
AcDbEntity
  8
_U+30EC_U+30A4_U+30E4_U+30FC 1
 62
   179
420
  2234388
370
     9
100
AcDbVertex
100
AcDb2dVertex
 10
91.75495765913601
 20
-144.9983694081949
 30
0.0
  0
VERTEX
  5
D1
330
CF
100
AcDbEntity
  8
_U+30EC_U+30A4_U+30E4_U+30FC 1
 62
   179
420
  2234388
370
     9
100
AcDbVertex
100
AcDb2dVertex
 10
89.29496772189559
 20
-144.9983694081949
 30
0.0
  0
SEQEND
  5
D2
330
CF
100
AcDbEntity
  8
_U+30EC_U+30A4_U+30E4_U+30FC 1
 62
   179
420
  2234388
370
     9
  0
INSERT
  5
D4
330
41
100
AcDbEntity
  8
_U+30EC_U+30A4_U+30E4_U+30FC 1
100
AcDbBlockReference
  2
block 6
 10
0.0
 20
0.0
 30
0.0
  0
POLYLINE
  5
E4
330
41
100
AcDbEntity
  8
_U+30EC_U+30A4_U+30E4_U+30FC 1
 62
   179
420
  2234388
370
     9
100
AcDb2dPolyline
 66
     1
 10
0.0
 20
0.0
 30
0.0
  0
VERTEX
  5
E5
330
E4
100
AcDbEntity
  8
_U+30EC_U+30A4_U+30E4_U+30FC 1
 62
   179
420
  2234388
370
     9
100
AcDbVertex
100
AcDb2dVertex
 10
117.2965267297385
 20
-143.8987257973586
 30
0.0
  0
VERTEX
  5
E6
330
E4
100
AcDbEntity
  8
_U+30EC_U+30A4_U+30E4_U+30FC 1
 62
   179
420
  2234388
370
     9
100
AcDbVertex
100
AcDb2dVertex
 10
117.2965267297385
 20
-151.8990907953583
 30
0.0
  0
SEQEND
  5
E7
330
E4
100
AcDbEntity
  8
_U+30EC_U+30A4_U+30E4_U+30FC 1
 62
   179
420
  2234388
370
     9
  0
POLYLINE
  5
E8
330
41
100
AcDbEntity
  8
_U+30EC_U+30A4_U+30E4_U+30FC 1
 62
   179
420
  2234388
370
     9
100
AcDb2dPolyline
 66
     1
 10
0.0
 20
0.0
 30
0.0
  0
VERTEX
  5
E9
330
E8
100
AcDbEntity
  8
_U+30EC_U+30A4_U+30E4_U+30FC 1
 62
   179
420
  2234388
370
     9
100
AcDbVertex
100
AcDb2dVertex
 10
99.93686189484269
 20
-143.8987257973586
 30
0.0
  0
VERTEX
  5
EA
330
E8
100
AcDbEntity
  8
_U+30EC_U+30A4_U+30E4_U+30FC 1
 62
   179
420
  2234388
370
     9
100
AcDbVertex
100
AcDb2dVertex
 10
118.297004481992
 20
-143.8987257973586
 30
0.0
  0
SEQEND
  5
EB
330
E8
100
AcDbEntity
  8
_U+30EC_U+30A4_U+30E4_U+30FC 1
 62
   179
420
  2234388
370
     9
  0
INSERT
  5
ED
330
41
100
AcDbEntity
  8
_U+30EC_U+30A4_U+30E4_U+30FC 1
100
AcDbBlockReference
  2
block 7
 10
0.0
 20
0.0
 30
0.0
  0
ENDBLK
  5
44
330
41
100
AcDbEntity
  8
0
100
AcDbBlockEnd
  0
BLOCK
  5
7B
330
79
100
AcDbEntity
  8
0
100
AcDbBlockBegin
  2
block 3
 70
     0
 10
0.0
 20
0.0
 30
0.0
  3
block 3
  1

  0
SPLINE
  5
7D
330
79
100
AcDbEntity
  8
_U+30EC_U+30A4_U+30E4_U+30FC 1
370
     0
100
AcDbSpline
210
0.0
220
0.0
230
1.0
 70
    11
 71
     3
 72
    62
 73
    58
 74
     0
 42
0.0000000001
 43
0.0000000001
 12
1.0
 22
0.0
 32
0.0
 13
1.0
 23
0.0
 33
0.0
 40
0.0
 40
0.0
 40
0.0
 40
0.0
 40
1.0
 40
1.0
 40
1.0
 40
2.0
 40
2.0
 40
2.0
 40
3.0
 40
3.0
 40
3.0
 40
4.0
 40
4.0
 40
4.0
 40
5.0
 40
5.0
 40
5.0
 40
6.0
 40
6.0
 40
6.0
 40
7.0
 40
7.0
 40
7.0
 40
8.0
 40
8.0
 40
8.0
 40
9.0
 40
9.0
 40
9.0
 40
10.0
 40
10.0
 40
10.0
 40
11.0
 40
11.0
 40
11.0
 40
12.0
 40
12.0
 40
12.0
 40
13.0
 40
13.0
 40
13.0
 40
14.0
 40
14.0
 40
14.0
 40
15.0
 40
15.0
 40
15.0
 40
16.0
 40
16.0
 40
16.0
 40
17.0
 40
17.0
 40
17.0
 40
18.0
 40
18.0
 40
18.0
 40
19.0
 40
19.0
 40
19.0
 40
19.0
 10
94.85105791899558
 20
-156.4528102907479
 30
0.0
 10
94.76992592031795
 20
-156.4528102907479
 30
0.0
 10
94.58423527366297
 20
-156.4317952082879
 30
0.0
 10
94.47778182316875
 20
-156.2457600520844
 30
0.0
 10
94.41473657578868
 20
-156.1334499392653
 30
0.0
 10
94.41111922552916
 20
-156.0342311892901
 30
0.0
 10
94.40750187526966
 20
-155.9494818403529
 30
0.0
 10
94.40750187526966
 20
-155.9494818403529
 30
0.0
 10
94.59508732444151
 20
-155.9494818403529
 30
0.0
 10
94.59508732444151
 20
-155.9494818403529
 30
0.0
 10
94.59680987218414
 20
-156.0235513932858
 30
0.0
 10
94.60593937522005
 20
-156.2581623958313
 30
0.0
 10
94.84761282351032
 20
-156.2581623958313
 30
0.0
 10
94.96474607000881
 20
-156.2581623958313
 30
0.0
 10
95.09462616980274
 20
-156.1885714670292
 30
0.0
 10
95.09462616980274
 20
-155.9601616363572
 30
0.0
 10
95.09462616980274
 20
-155.8437174089557
 30
0.0
 10
95.06207001746712
 20
-155.7951415626137
 30
0.0
 10
95.03502601790791
 20
-155.7634466841494
 30
0.0
 10
94.97198077052784
 20
-155.6893771312166
 30
0.0
 10
94.87276202055264
 20
-155.6766302779211
 30
0.0
 10
94.82590872195325
 20
-155.6766302779211
 30
0.0
 10
94.80971677317258
 20
-155.6766302779211
 30
0.0
 10
94.77905542335385
 20
-155.6786973352123
 30
0.0
 10
94.75562877405416
 20
-155.6828314497946
 30
0.0
 10
94.75562877405416
 20
-155.6828314497946
 30
0.0
 10
94.75562877405416
 20
-155.488183554878
 30
0.0
 10
94.75562877405416
 20
-155.488183554878
 30
0.0
 10
94.7880126716155
 20
-155.4947292362999
 30
0.0
 10
94.82401391943637
 20
-155.4967962935911
 30
0.0
 10
94.82952607221276
 20
-155.4967962935911
 30
0.0
 10
94.88533661907381
 20
-155.4967962935911
 30
0.0
 10
95.0548353169481
 20
-155.4754367015825
 30
0.0
 10
95.0548353169481
 20
-155.2387586417459
 30
0.0
 10
95.0548353169481
 20
-155.060991714707
 30
0.0
 10
94.94304196845174
 20
-155.005870186943
 30
0.0
 10
94.84933537125295
 20
-155.005870186943
 30
0.0
 10
94.62385387174335
 20
-155.005870186943
 30
0.0
 10
94.61679142599858
 20
-155.2387586417459
 30
0.0
 10
94.61317407573907
 20
-155.3104166278391
 30
0.0
 10
94.61317407573907
 20
-155.3104166278391
 30
0.0
 10
94.44005802760526
 20
-155.3104166278391
 30
0.0
 10
94.44005802760526
 20
-155.3104166278391
 30
0.0
 10
94.44712047335003
 20
-155.185704171273
 30
0.0
 10
94.47071937742399
 20
-154.8091552347352
 30
0.0
 10
94.86018742203149
 20
-154.8091552347352
 30
0.0
 10
95.05121796668858
 20
-154.8091552347352
 30
0.0
 10
95.256890167158
 20
-154.9362792581409
 30
0.0
 10
95.256890167158
 20
-155.2322129603239
 30
0.0
 10
95.256890167158
 20
-155.4185926260759
 30
0.0
 10
95.17575816848037
 20
-155.5009304081734
 30
0.0
 10
95.09100881954322
 20
-155.5622531078108
 30
0.0
 10
95.14320201614476
 20
-155.5898138716928
 30
0.0
 10
95.29840356775526
 20
-155.6700845964992
 30
0.0
 10
95.29840356775526
 20
-155.9474147830618
 30
0.0
 10
95.29840356775526
 20
-156.2857231597133
 30
0.0
 10
95.08739146928372
 20
-156.4528102907479
 30
0.0
 10
94.85105791899558
 20
-156.4528102907479
 30
0.0
  0
HATCH
  5
7E
330
79
100
AcDbEntity
  8
_U+30EC_U+30A4_U+30E4_U+30FC 1
 62
   179
420
  2234388
100
AcDbHatch
 10
0.0
 20
0.0
 30
0.0
210
0.0
220
0.0
230
1.0
  2
SOLID
 70
     1
 71
     0
 91
        1
 92
        1
 93
        1
 72
     4
 94
        3
 73
     0
 74
     1
 95
       62
 96
       58
 40
0.0
 40
0.0
 40
0.0
 40
0.0
 40
1.0
 40
1.0
 40
1.0
 40
2.0
 40
2.0
 40
2.0
 40
3.0
 40
3.0
 40
3.0
 40
4.0
 40
4.0
 40
4.0
 40
5.0
 40
5.0
 40
5.0
 40
6.0
 40
6.0
 40
6.0
 40
7.0
 40
7.0
 40
7.0
 40
8.0
 40
8.0
 40
8.0
 40
9.0
 40
9.0
 40
9.0
 40
10.0
 40
10.0
 40
10.0
 40
11.0
 40
11.0
 40
11.0
 40
12.0
 40
12.0
 40
12.0
 40
13.0
 40
13.0
 40
13.0
 40
14.0
 40
14.0
 40
14.0
 40
15.0
 40
15.0
 40
15.0
 40
16.0
 40
16.0
 40
16.0
 40
17.0
 40
17.0
 40
17.0
 40
18.0
 40
18.0
 40
18.0
 40
19.0
 40
19.0
 40
19.0
 40
19.0
 10
94.85105791899558
 20
-156.4528102907479
 10
94.76992592031795
 20
-156.4528102907479
 10
94.58423527366297
 20
-156.4317952082879
 10
94.47778182316875
 20
-156.2457600520844
 10
94.41473657578868
 20
-156.1334499392653
 10
94.41111922552916
 20
-156.0342311892901
 10
94.40750187526966
 20
-155.9494818403529
 10
94.40750187526966
 20
-155.9494818403529
 10
94.59508732444151
 20
-155.9494818403529
 10
94.59508732444151
 20
-155.9494818403529
 10
94.59680987218414
 20
-156.0235513932858
 10
94.60593937522005
 20
-156.2581623958313
 10
94.84761282351032
 20
-156.2581623958313
 10
94.96474607000881
 20
-156.2581623958313
 10
95.09462616980274
 20
-156.1885714670292
 10
95.09462616980274
 20
-155.9601616363572
 10
95.09462616980274
 20
-155.8437174089557
 10
95.06207001746712
 20
-155.7951415626137
 10
95.03502601790791
 20
-155.7634466841494
 10
94.97198077052784
 20
-155.6893771312166
 10
94.87276202055264
 20
-155.6766302779211
 10
94.82590872195325
 20
-155.6766302779211
 10
94.80971677317258
 20
-155.6766302779211
 10
94.77905542335385
 20
-155.6786973352123
 10
94.75562877405416
 20
-155.6828314497946
 10
94.75562877405416
 20
-155.6828314497946
 10
94.75562877405416
 20
-155.488183554878
 10
94.75562877405416
 20
-155.488183554878
 10
94.7880126716155
 20
-155.4947292362999
 10
94.82401391943637
 20
-155.4967962935911
 10
94.82952607221276
 20
-155.4967962935911
 10
94.88533661907381
 20
-155.4967962935911
 10
95.0548353169481
 20
-155.4754367015825
 10
95.0548353169481
 20
-155.2387586417459
 10
95.0548353169481
 20
-155.060991714707
 10
94.94304196845174
 20
-155.005870186943
 10
94.84933537125295
 20
-155.005870186943
 10
94.62385387174335
 20
-155.005870186943
 10
94.61679142599858
 20
-155.2387586417459
 10
94.61317407573907
 20
-155.3104166278391
 10
94.61317407573907
 20
-155.3104166278391
 10
94.44005802760526
 20
-155.3104166278391
 10
94.44005802760526
 20
-155.3104166278391
 10
94.44712047335003
 20
-155.185704171273
 10
94.47071937742399
 20
-154.8091552347352
 10
94.86018742203149
 20
-154.8091552347352
 10
95.05121796668858
 20
-154.8091552347352
 10
95.256890167158
 20
-154.9362792581409
 10
95.256890167158
 20
-155.2322129603239
 10
95.256890167158
 20
-155.4185926260759
 10
95.17575816848037
 20
-155.5009304081734
 10
95.09100881954322
 20
-155.5622531078108
 10
95.14320201614476
 20
-155.5898138716928
 10
95.29840356775526
 20
-155.6700845964992
 10
95.29840356775526
 20
-155.9474147830618
 10
95.29840356775526
 20
-156.2857231597133
 10
95.08739146928372
 20
-156.4528102907479
 10
94.85105791899558
 20
-156.4528102907479
 97
        0
 97
        0
 75
     2
 76
     1
 98
        0
  0
ENDBLK
  5
7C
330
79
100
AcDbEntity
  8
0
100
AcDbBlockEnd
  0
BLOCK
  5
89
330
87
100
AcDbEntity
  8
0
100
AcDbBlockBegin
  2
block 4
 70
     0
 10
0.0
 20
0.0
 30
0.0
  3
block 4
  1

  0
SPLINE
  5
8B
330
87
100
AcDbEntity
  8
_U+30EC_U+30A4_U+30E4_U+30FC 1
370
     0
100
AcDbSpline
210
0.0
220
0.0
230
1.0
 70
    11
 71
     3
 72
    26
 73
    22
 74
     0
 42
0.0000000001
 43
0.0000000001
 12
1.0
 22
0.0
 32
0.0
 13
1.0
 23
0.0
 33
0.0
 40
0.0
 40
0.0
 40
0.0
 40
0.0
 40
1.0
 40
1.0
 40
1.0
 40
2.0
 40
2.0
 40
2.0
 40
3.0
 40
3.0
 40
3.0
 40
4.0
 40
4.0
 40
4.0
 40
5.0
 40
5.0
 40
5.0
 40
6.0
 40
6.0
 40
6.0
 40
7.0
 40
7.0
 40
7.0
 40
7.0
 10
103.9157931597849
 20
-156.4021673871147
 30
0.0
 10
103.9157931597849
 20
-156.4021673871147
 30
0.0
 10
103.9157931597849
 20
-155.2980142840922
 30
0.0
 10
103.9157931597849
 20
-155.2980142840922
 30
0.0
 10
103.9157931597849
 20
-155.2980142840922
 30
0.0
 10
103.63432885864
 20
-155.2980142840922
 30
0.0
 10
103.63432885864
 20
-155.2980142840922
 30
0.0
 10
103.63432885864
 20
-155.2980142840922
 30
0.0
 10
103.63432885864
 20
-155.1498751782264
 30
0.0
 10
103.63432885864
 20
-155.1498751782264
 30
0.0
 10
103.9175157075276
 20
-155.1350612676399
 30
0.0
 10
103.9571343056079
 20
-154.9721082511875
 30
0.0
 10
103.9824557574245
 20
-154.8577310810772
 30
0.0
 10
103.9824557574245
 20
-154.8577310810772
 30
0.0
 10
104.106823704442
 20
-154.8577310810772
 30
0.0
 10
104.106823704442
 20
-154.8577310810772
 30
0.0
 10
104.106823704442
 20
-154.8577310810772
 30
0.0
 10
104.106823704442
 20
-156.4021673871147
 30
0.0
 10
104.106823704442
 20
-156.4021673871147
 30
0.0
 10
104.106823704442
 20
-156.4021673871147
 30
0.0
 10
103.9157931597849
 20
-156.4021673871147
 30
0.0
 10
103.9157931597849
 20
-156.4021673871147
 30
0.0
  0
HATCH
  5
8C
330
87
100
AcDbEntity
  8
_U+30EC_U+30A4_U+30E4_U+30FC 1
 62
   179
420
  2234388
100
AcDbHatch
 10
0.0
 20
0.0
 30
0.0
210
0.0
220
0.0
230
1.0
  2
SOLID
 70
     1
 71
     0
 91
        1
 92
        1
 93
        1
 72
     4
 94
        3
 73
     0
 74
     1
 95
       26
 96
       22
 40
0.0
 40
0.0
 40
0.0
 40
0.0
 40
1.0
 40
1.0
 40
1.0
 40
2.0
 40
2.0
 40
2.0
 40
3.0
 40
3.0
 40
3.0
 40
4.0
 40
4.0
 40
4.0
 40
5.0
 40
5.0
 40
5.0
 40
6.0
 40
6.0
 40
6.0
 40
7.0
 40
7.0
 40
7.0
 40
7.0
 10
103.9157931597849
 20
-156.4021673871147
 10
103.9157931597849
 20
-156.4021673871147
 10
103.9157931597849
 20
-155.2980142840922
 10
103.9157931597849
 20
-155.2980142840922
 10
103.9157931597849
 20
-155.2980142840922
 10
103.63432885864
 20
-155.2980142840922
 10
103.63432885864
 20
-155.2980142840922
 10
103.63432885864
 20
-155.2980142840922
 10
103.63432885864
 20
-155.1498751782264
 10
103.63432885864
 20
-155.1498751782264
 10
103.9175157075276
 20
-155.1350612676399
 10
103.9571343056079
 20
-154.9721082511875
 10
103.9824557574245
 20
-154.8577310810772
 10
103.9824557574245
 20
-154.8577310810772
 10
104.106823704442
 20
-154.8577310810772
 10
104.106823704442
 20
-154.8577310810772
 10
104.106823704442
 20
-154.8577310810772
 10
104.106823704442
 20
-156.4021673871147
 10
104.106823704442
 20
-156.4021673871147
 10
104.106823704442
 20
-156.4021673871147
 10
103.9157931597849
 20
-156.4021673871147
 10
103.9157931597849
 20
-156.4021673871147
 97
        0
 97
        0
 75
     2
 76
     1
 98
        0
  0
SPLINE
  5
8D
330
87
100
AcDbEntity
  8
_U+30EC_U+30A4_U+30E4_U+30FC 1
370
     0
100
AcDbSpline
210
0.0
220
0.0
230
1.0
 70
    11
 71
     3
 72
    26
 73
    22
 74
     0
 42
0.0000000001
 43
0.0000000001
 12
1.0
 22
0.0
 32
0.0
 13
1.0
 23
0.0
 33
0.0
 40
0.0
 40
0.0
 40
0.0
 40
0.0
 40
1.0
 40
1.0
 40
1.0
 40
2.0
 40
2.0
 40
2.0
 40
3.0
 40
3.0
 40
3.0
 40
4.0
 40
4.0
 40
4.0
 40
5.0
 40
5.0
 40
5.0
 40
6.0
 40
6.0
 40
6.0
 40
7.0
 40
7.0
 40
7.0
 40
7.0
 10
104.8833482268174
 20
-156.4021673871147
 30
0.0
 10
104.8833482268174
 20
-156.4021673871147
 30
0.0
 10
104.6812933766075
 20
-156.4021673871147
 30
0.0
 10
104.6812933766075
 20
-156.4021673871147
 30
0.0
 10
104.7029974781645
 20
-156.0931423220878
 30
0.0
 10
104.8669840232624
 20
-155.5749999611062
 30
0.0
 10
105.21321611953
 20
-155.0692599438716
 30
0.0
 10
105.21321611953
 20
-155.0692599438716
 30
0.0
 10
104.499220080212
 20
-155.0692599438716
 30
0.0
 10
104.499220080212
 20
-155.0692599438716
 30
0.0
 10
104.499220080212
 20
-155.0692599438716
 30
0.0
 10
104.499220080212
 20
-154.8577310810772
 30
0.0
 10
104.499220080212
 20
-154.8577310810772
 30
0.0
 10
104.499220080212
 20
-154.8577310810772
 30
0.0
 10
105.4152709697399
 20
-154.8577310810772
 30
0.0
 10
105.4152709697399
 20
-154.8577310810772
 30
0.0
 10
105.4152709697399
 20
-154.8577310810772
 30
0.0
 10
105.4152709697399
 20
-155.0692599438716
 30
0.0
 10
105.4152709697399
 20
-155.0692599438716
 30
0.0
 10
105.1393188213714
 20
-155.3593369837296
 30
0.0
 10
104.9121147741192
 20
-155.9515488976441
 30
0.0
 10
104.8833482268174
 20
-156.4021673871147
 30
0.0
  0
HATCH
  5
8E
330
87
100
AcDbEntity
  8
_U+30EC_U+30A4_U+30E4_U+30FC 1
 62
   179
420
  2234388
100
AcDbHatch
 10
0.0
 20
0.0
 30
0.0
210
0.0
220
0.0
230
1.0
  2
SOLID
 70
     1
 71
     0
 91
        1
 92
        1
 93
        1
 72
     4
 94
        3
 73
     0
 74
     1
 95
       26
 96
       22
 40
0.0
 40
0.0
 40
0.0
 40
0.0
 40
1.0
 40
1.0
 40
1.0
 40
2.0
 40
2.0
 40
2.0
 40
3.0
 40
3.0
 40
3.0
 40
4.0
 40
4.0
 40
4.0
 40
5.0
 40
5.0
 40
5.0
 40
6.0
 40
6.0
 40
6.0
 40
7.0
 40
7.0
 40
7.0
 40
7.0
 10
104.8833482268174
 20
-156.4021673871147
 10
104.8833482268174
 20
-156.4021673871147
 10
104.6812933766075
 20
-156.4021673871147
 10
104.6812933766075
 20
-156.4021673871147
 10
104.7029974781645
 20
-156.0931423220878
 10
104.8669840232624
 20
-155.5749999611062
 10
105.21321611953
 20
-155.0692599438716
 10
105.21321611953
 20
-155.0692599438716
 10
104.499220080212
 20
-155.0692599438716
 10
104.499220080212
 20
-155.0692599438716
 10
104.499220080212
 20
-155.0692599438716
 10
104.499220080212
 20
-154.8577310810772
 10
104.499220080212
 20
-154.8577310810772
 10
104.499220080212
 20
-154.8577310810772
 10
105.4152709697399
 20
-154.8577310810772
 10
105.4152709697399
 20
-154.8577310810772
 10
105.4152709697399
 20
-154.8577310810772
 10
105.4152709697399
 20
-155.0692599438716
 10
105.4152709697399
 20
-155.0692599438716
 10
105.1393188213714
 20
-155.3593369837296
 10
104.9121147741192
 20
-155.9515488976441
 10
104.8833482268174
 20
-156.4021673871147
 97
        0
 97
        0
 75
     2
 76
     1
 98
        0
  0
ENDBLK
  5
8A
330
87
100
AcDbEntity
  8
0
100
AcDbBlockEnd
  0
BLOCK
  5
A1
330
9F
100
AcDbEntity
  8
0
100
AcDbBlockBegin
  2
block 5
 70
     0
 10
0.0
 20
0.0
 30
0.0
  3
block 5
  1

  0
SPLINE
  5
A3
330
9F
100
AcDbEntity
  8
_U+30EC_U+30A4_U+30E4_U+30FC 1
370
     0
100
AcDbSpline
210
0.0
220
0.0
230
1.0
 70
    11
 71
     3
 72
    29
 73
    25
 74
     0
 42
0.0000000001
 43
0.0000000001
 12
1.0
 22
0.0
 32
0.0
 13
1.0
 23
0.0
 33
0.0
 40
0.0
 40
0.0
 40
0.0
 40
0.0
 40
1.0
 40
1.0
 40
1.0
 40
2.0
 40
2.0
 40
2.0
 40
3.0
 40
3.0
 40
3.0
 40
4.0
 40
4.0
 40
4.0
 40
5.0
 40
5.0
 40
5.0
 40
6.0
 40
6.0
 40
6.0
 40
7.0
 40
7.0
 40
7.0
 40
8.0
 40
8.0
 40
8.0
 40
8.0
 10
121.2267089540683
 20
-153.5093207081505
 30
0.0
 10
121.4361707595715
 20
-153.6009602480581
 30
0.0
 10
121.4551187847404
 20
-153.7490993539238
 30
0.0
 10
121.4551187847404
 20
-153.848318103899
 30
0.0
 10
121.4551187847404
 20
-153.985432904212
 30
0.0
 10
121.4086099956895
 20
-154.1060112461957
 30
0.0
 10
121.2267089540683
 20
-154.1873154996476
 30
0.0
 10
121.0320610591517
 20
-154.27550994407
 30
0.0
 10
120.7950384897665
 20
-154.2920464023992
 30
0.0
 10
120.6324299828627
 20
-154.2920464023992
 30
0.0
 10
120.4884249915793
 20
-154.2920464023992
 30
0.0
 10
120.2365885116075
 20
-154.2775770013612
 30
0.0
 10
120.0378065021086
 20
-154.1873154996476
 30
0.0
 10
119.8348903780274
 20
-154.0953314501915
 30
0.0
 10
119.8114637287277
 20
-153.9582166498785
 30
0.0
 10
119.8114637287277
 20
-153.848318103899
 30
0.0
 10
119.8114637287277
 20
-153.7132703608772
 30
0.0
 10
119.8559054604874
 20
-153.5906249616023
 30
0.0
 10
120.0378065021086
 20
-153.5093207081505
 30
0.0
 10
120.2303873397341
 20
-153.4245713592133
 30
0.0
 10
120.4587971704061
 20
-153.4045898053989
 30
0.0
 10
120.6324299828627
 20
-153.4045898053989
 30
0.0
 10
120.8036512284797
 20
-153.4045898053989
 30
0.0
 10
121.0341281164429
 20
-153.4225043019221
 30
0.0
 10
121.2267089540683
 20
-153.5093207081505
 30
0.0
  0
SPLINE
  5
A4
330
9F
100
AcDbEntity
  8
_U+30EC_U+30A4_U+30E4_U+30FC 1
370
     0
100
AcDbSpline
210
0.0
220
0.0
230
1.0
 70
    11
 71
     3
 72
    17
 73
    13
 74
     0
 42
0.0000000001
 43
0.0000000001
 12
1.0
 22
0.0
 32
0.0
 13
1.0
 23
0.0
 33
0.0
 40
0.0
 40
0.0
 40
0.0
 40
0.0
 40
1.0
 40
1.0
 40
1.0
 40
2.0
 40
2.0
 40
2.0
 40
3.0
 40
3.0
 40
3.0
 40
4.0
 40
4.0
 40
4.0
 40
4.0
 10
120.0040445663532
 20
-153.848318103899
 30
0.0
 10
120.0040445663532
 20
-154.0612250048875
 30
0.0
 10
120.2875759247892
 20
-154.1004990934193
 30
0.0
 10
120.6324299828627
 20
-154.1004990934193
 30
0.0
 10
120.9517903343454
 20
-154.1004990934193
 30
0.0
 10
121.2604708898238
 20
-154.0701822531491
 30
0.0
 10
121.2604708898238
 20
-153.848318103899
 30
0.0
 10
121.2604708898238
 20
-153.6374782602018
 30
0.0
 10
120.9793510982274
 20
-153.5957926048302
 30
0.0
 10
120.6324299828627
 20
-153.5957926048302
 30
0.0
 10
120.3127251218315
 20
-153.5957926048302
 30
0.0
 10
120.0040445663532
 20
-153.6281765023916
 30
0.0
 10
120.0040445663532
 20
-153.848318103899
 30
0.0
  0
HATCH
  5
A5
330
9F
100
AcDbEntity
  8
_U+30EC_U+30A4_U+30E4_U+30FC 1
 62
   179
420
  2234388
100
AcDbHatch
 10
0.0
 20
0.0
 30
0.0
210
0.0
220
0.0
230
1.0
  2
SOLID
 70
     1
 71
     0
 91
        2
 92
        1
 93
        1
 72
     4
 94
        3
 73
     0
 74
     1
 95
       29
 96
       25
 40
0.0
 40
0.0
 40
0.0
 40
0.0
 40
1.0
 40
1.0
 40
1.0
 40
2.0
 40
2.0
 40
2.0
 40
3.0
 40
3.0
 40
3.0
 40
4.0
 40
4.0
 40
4.0
 40
5.0
 40
5.0
 40
5.0
 40
6.0
 40
6.0
 40
6.0
 40
7.0
 40
7.0
 40
7.0
 40
8.0
 40
8.0
 40
8.0
 40
8.0
 10
121.2267089540683
 20
-153.5093207081505
 10
121.4361707595715
 20
-153.6009602480581
 10
121.4551187847404
 20
-153.7490993539238
 10
121.4551187847404
 20
-153.848318103899
 10
121.4551187847404
 20
-153.985432904212
 10
121.4086099956895
 20
-154.1060112461957
 10
121.2267089540683
 20
-154.1873154996476
 10
121.0320610591517
 20
-154.27550994407
 10
120.7950384897665
 20
-154.2920464023992
 10
120.6324299828627
 20
-154.2920464023992
 10
120.4884249915793
 20
-154.2920464023992
 10
120.2365885116075
 20
-154.2775770013612
 10
120.0378065021086
 20
-154.1873154996476
 10
119.8348903780274
 20
-154.0953314501915
 10
119.8114637287277
 20
-153.9582166498785
 10
119.8114637287277
 20
-153.848318103899
 10
119.8114637287277
 20
-153.7132703608772
 10
119.8559054604874
 20
-153.5906249616023
 10
120.0378065021086
 20
-153.5093207081505
 10
120.2303873397341
 20
-153.4245713592133
 10
120.4587971704061
 20
-153.4045898053989
 10
120.6324299828627
 20
-153.4045898053989
 10
120.8036512284797
 20
-153.4045898053989
 10
121.0341281164429
 20
-153.4225043019221
 10
121.2267089540683
 20
-153.5093207081505
 97
        0
 97
        0
 92
        1
 93
        1
 72
     4
 94
        3
 73
     0
 74
     1
 95
       17
 96
       13
 40
0.0
 40
0.0
 40
0.0
 40
0.0
 40
1.0
 40
1.0
 40
1.0
 40
2.0
 40
2.0
 40
2.0
 40
3.0
 40
3.0
 40
3.0
 40
4.0
 40
4.0
 40
4.0
 40
4.0
 10
120.0040445663532
 20
-153.848318103899
 10
120.0040445663532
 20
-154.0612250048875
 10
120.2875759247892
 20
-154.1004990934193
 10
120.6324299828627
 20
-154.1004990934193
 10
120.9517903343454
 20
-154.1004990934193
 10
121.2604708898238
 20
-154.0701822531491
 10
121.2604708898238
 20
-153.848318103899
 10
121.2604708898238
 20
-153.6374782602018
 10
120.9793510982274
 20
-153.5957926048302
 10
120.6324299828627
 20
-153.5957926048302
 10
120.3127251218315
 20
-153.5957926048302
 10
120.0040445663532
 20
-153.6281765023916
 10
120.0040445663532
 20
-153.848318103899
 97
        0
 97
        0
 75
     2
 76
     1
 98
        0
  0
POLYLINE
  5
A6
330
9F
100
AcDbEntity
  8
_U+30EC_U+30A4_U+30E4_U+30FC 1
370
     0
100
AcDb2dPolyline
 66
     1
 10
0.0
 20
0.0
 30
0.0
  0
VERTEX
  5
A7
330
A6
100
AcDbEntity
  8
_U+30EC_U+30A4_U+30E4_U+30FC 1
370
     0
100
AcDbVertex
100
AcDb2dVertex
 10
121.4044758811072
 20
-153.2213107255836
 30
0.0
  0
VERTEX
  5
A8
330
A6
100
AcDbEntity
  8
_U+30EC_U+30A4_U+30E4_U+30FC 1
370
     0
100
AcDbVertex
100
AcDb2dVertex
 10
121.1526394011355
 20
-153.2213107255836
 30
0.0
  0
VERTEX
  5
A9
330
A6
100
AcDbEntity
  8
_U+30EC_U+30A4_U+30E4_U+30FC 1
370
     0
100
AcDbVertex
100
AcDb2dVertex
 10
121.1526394011355
 20
-153.007025786401
 30
0.0
  0
VERTEX
  5
AA
330
A6
100
AcDbEntity
  8
_U+30EC_U+30A4_U+30E4_U+30FC 1
370
     0
100
AcDbVertex
100
AcDb2dVertex
 10
121.4044758811072
 20
-153.007025786401
 30
0.0
  0
VERTEX
  5
AB
330
A6
100
AcDbEntity
  8
_U+30EC_U+30A4_U+30E4_U+30FC 1
370
     0
100
AcDbVertex
100
AcDb2dVertex
 10
121.4044758811072
 20
-153.2213107255836
 30
0.0
  0
SEQEND
  5
AC
330
A6
100
AcDbEntity
  8
_U+30EC_U+30A4_U+30E4_U+30FC 1
370
     0
  0
HATCH
  5
AD
330
9F
100
AcDbEntity
  8
_U+30EC_U+30A4_U+30E4_U+30FC 1
 62
   179
420
  2234388
100
AcDbHatch
 10
0.0
 20
0.0
 30
0.0
210
0.0
220
0.0
230
1.0
  2
SOLID
 70
     1
 71
     0
 91
        1
 92
        1
 93
        4
 72
     1
 10
121.4044758811072
 20
-153.2213107255836
 11
121.1526394011355
 21
-153.2213107255836
 72
     1
 10
121.1526394011355
 20
-153.2213107255836
 11
121.1526394011355
 21
-153.007025786401
 72
     1
 10
121.1526394011355
 20
-153.007025786401
 11
121.4044758811072
 21
-153.007025786401
 72
     1
 10
121.4044758811072
 20
-153.007025786401
 11
121.4044758811072
 21
-153.2213107255836
 97
        0
 75
     2
 76
     1
 98
        0
  0
POLYLINE
  5
AE
330
9F
100
AcDbEntity
  8
_U+30EC_U+30A4_U+30E4_U+30FC 1
370
     0
100
AcDb2dPolyline
 66
     1
 10
0.0
 20
0.0
 30
0.0
  0
VERTEX
  5
AF
330
AE
100
AcDbEntity
  8
_U+30EC_U+30A4_U+30E4_U+30FC 1
370
     0
100
AcDbVertex
100
AcDb2dVertex
 10
121.0575547657426
 20
-152.096831559198
 30
0.0
  0
VERTEX
  5
B0
330
AE
100
AcDbEntity
  8
_U+30EC_U+30A4_U+30E4_U+30FC 1
370
     0
100
AcDbVertex
100
AcDb2dVertex
 10
121.4044758811072
 20
-152.096831559198
 30
0.0
  0
VERTEX
  5
B1
330
AE
100
AcDbEntity
  8
_U+30EC_U+30A4_U+30E4_U+30FC 1
370
     0
100
AcDbVertex
100
AcDb2dVertex
 10
121.4044758811072
 20
-152.2821776963045
 30
0.0
  0
VERTEX
  5
B2
330
AE
100
AcDbEntity
  8
_U+30EC_U+30A4_U+30E4_U+30FC 1
370
     0
100
AcDbVertex
100
AcDb2dVertex
 10
121.0575547657426
 20
-152.2821776963045
 30
0.0
  0
VERTEX
  5
B3
330
AE
100
AcDbEntity
  8
_U+30EC_U+30A4_U+30E4_U+30FC 1
370
     0
100
AcDbVertex
100
AcDb2dVertex
 10
121.0575547657426
 20
-152.841661203109
 30
0.0
  0
VERTEX
  5
B4
330
AE
100
AcDbEntity
  8
_U+30EC_U+30A4_U+30E4_U+30FC 1
370
     0
100
AcDbVertex
100
AcDb2dVertex
 10
120.8332790496528
 20
-152.841661203109
 30
0.0
  0
VERTEX
  5
B5
330
AE
100
AcDbEntity
  8
_U+30EC_U+30A4_U+30E4_U+30FC 1
370
     0
100
AcDbVertex
100
AcDb2dVertex
 10
119.8600395750697
 20
-152.2625406520386
 30
0.0
  0
VERTEX
  5
B6
330
AE
100
AcDbEntity
  8
_U+30EC_U+30A4_U+30E4_U+30FC 1
370
     0
100
AcDbVertex
100
AcDb2dVertex
 10
119.8600395750697
 20
-152.096831559198
 30
0.0
  0
VERTEX
  5
B7
330
AE
100
AcDbEntity
  8
_U+30EC_U+30A4_U+30E4_U+30FC 1
370
     0
100
AcDbVertex
100
AcDb2dVertex
 10
120.8587727562437
 20
-152.096831559198
 30
0.0
  0
VERTEX
  5
B8
330
AE
100
AcDbEntity
  8
_U+30EC_U+30A4_U+30E4_U+30FC 1
370
     0
100
AcDbVertex
100
AcDb2dVertex
 10
120.8587727562437
 20
-151.9197536512562
 30
0.0
  0
VERTEX
  5
B9
330
AE
100
AcDbEntity
  8
_U+30EC_U+30A4_U+30E4_U+30FC 1
370
     0
100
AcDbVertex
100
AcDb2dVertex
 10
121.0575547657426
 20
-151.9197536512562
 30
0.0
  0
VERTEX
  5
BA
330
AE
100
AcDbEntity
  8
_U+30EC_U+30A4_U+30E4_U+30FC 1
370
     0
100
AcDbVertex
100
AcDb2dVertex
 10
121.0575547657426
 20
-152.096831559198
 30
0.0
  0
SEQEND
  5
BB
330
AE
100
AcDbEntity
  8
_U+30EC_U+30A4_U+30E4_U+30FC 1
370
     0
  0
POLYLINE
  5
BC
330
9F
100
AcDbEntity
  8
_U+30EC_U+30A4_U+30E4_U+30FC 1
370
     0
100
AcDb2dPolyline
 66
     1
 10
0.0
 20
0.0
 30
0.0
  0
VERTEX
  5
BD
330
BC
100
AcDbEntity
  8
_U+30EC_U+30A4_U+30E4_U+30FC 1
370
     0
100
AcDbVertex
100
AcDb2dVertex
 10
120.2028265758521
 20
-152.2821776963045
 30
0.0
  0
VERTEX
  5
BE
330
BC
100
AcDbEntity
  8
_U+30EC_U+30A4_U+30E4_U+30FC 1
370
     0
100
AcDbVertex
100
AcDb2dVertex
 10
120.8587727562437
 20
-152.6721625052348
 30
0.0
  0
VERTEX
  5
BF
330
BC
100
AcDbEntity
  8
_U+30EC_U+30A4_U+30E4_U+30FC 1
370
     0
100
AcDbVertex
100
AcDb2dVertex
 10
120.8587727562437
 20
-152.2821776963045
 30
0.0
  0
VERTEX
  5
C0
330
BC
100
AcDbEntity
  8
_U+30EC_U+30A4_U+30E4_U+30FC 1
370
     0
100
AcDbVertex
100
AcDb2dVertex
 10
120.2028265758521
 20
-152.2821776963045
 30
0.0
  0
SEQEND
  5
C1
330
BC
100
AcDbEntity
  8
_U+30EC_U+30A4_U+30E4_U+30FC 1
370
     0
  0
HATCH
  5
C2
330
9F
100
AcDbEntity
  8
_U+30EC_U+30A4_U+30E4_U+30FC 1
 62
   179
420
  2234388
100
AcDbHatch
 10
0.0
 20
0.0
 30
0.0
210
0.0
220
0.0
230
1.0
  2
SOLID
 70
     1
 71
     0
 91
        2
 92
        1
 93
       11
 72
     1
 10
121.0575547657426
 20
-152.096831559198
 11
121.4044758811072
 21
-152.096831559198
 72
     1
 10
121.4044758811072
 20
-152.096831559198
 11
121.4044758811072
 21
-152.2821776963045
 72
     1
 10
121.4044758811072
 20
-152.2821776963045
 11
121.0575547657426
 21
-152.2821776963045
 72
     1
 10
121.0575547657426
 20
-152.2821776963045
 11
121.0575547657426
 21
-152.841661203109
 72
     1
 10
121.0575547657426
 20
-152.841661203109
 11
120.8332790496528
 21
-152.841661203109
 72
     1
 10
120.8332790496528
 20
-152.841661203109
 11
119.8600395750697
 21
-152.2625406520386
 72
     1
 10
119.8600395750697
 20
-152.2625406520386
 11
119.8600395750697
 21
-152.096831559198
 72
     1
 10
119.8600395750697
 20
-152.096831559198
 11
120.8587727562437
 21
-152.096831559198
 72
     1
 10
120.8587727562437
 20
-152.096831559198
 11
120.8587727562437
 21
-151.9197536512562
 72
     1
 10
120.8587727562437
 20
-151.9197536512562
 11
121.0575547657426
 21
-151.9197536512562
 72
     1
 10
121.0575547657426
 20
-151.9197536512562
 11
121.0575547657426
 21
-152.096831559198
 97
        0
 92
        1
 93
        3
 72
     1
 10
120.2028265758521
 20
-152.2821776963045
 11
120.8587727562437
 21
-152.6721625052348
 72
     1
 10
120.8587727562437
 20
-152.6721625052348
 11
120.8587727562437
 21
-152.2821776963045
 72
     1
 10
120.8587727562437
 20
-152.2821776963045
 11
120.2028265758521
 21
-152.2821776963045
 97
        0
 75
     2
 76
     1
 98
        0
  0
ENDBLK
  5
A2
330
9F
100
AcDbEntity
  8
0
100
AcDbBlockEnd
  0
BLOCK
  5
D5
330
D3
100
AcDbEntity
  8
0
100
AcDbBlockBegin
  2
block 6
 70
     0
 10
0.0
 20
0.0
 30
0.0
  3
block 6
  1

  0
SPLINE
  5
D7
330
D3
100
AcDbEntity
  8
_U+30EC_U+30A4_U+30E4_U+30FC 1
370
     0
100
AcDbSpline
210
0.0
220
0.0
230
1.0
 70
    11
 71
     3
 72
    26
 73
    22
 74
     0
 42
0.0000000001
 43
0.0000000001
 12
1.0
 22
0.0
 32
0.0
 13
1.0
 23
0.0
 33
0.0
 40
0.0
 40
0.0
 40
0.0
 40
0.0
 40
1.0
 40
1.0
 40
1.0
 40
2.0
 40
2.0
 40
2.0
 40
3.0
 40
3.0
 40
3.0
 40
4.0
 40
4.0
 40
4.0
 40
5.0
 40
5.0
 40
5.0
 40
6.0
 40
6.0
 40
6.0
 40
7.0
 40
7.0
 40
7.0
 40
7.0
 10
89.69840085648165
 20
-141.841299063932
 30
0.0
 10
89.69840085648165
 20
-141.841299063932
 30
0.0
 10
88.59407549868482
 20
-141.841299063932
 30
0.0
 10
88.59407549868482
 20
-141.841299063932
 30
0.0
 10
88.59407549868482
 20
-141.841299063932
 30
0.0
 10
88.59407549868482
 20
-142.122763365077
 30
0.0
 10
88.59407549868482
 20
-142.122763365077
 30
0.0
 10
88.59407549868482
 20
-142.122763365077
 30
0.0
 10
88.44593639281908
 20
-142.122763365077
 30
0.0
 10
88.44593639281908
 20
-142.122763365077
 30
0.0
 10
88.43129473700677
 20
-141.8395765161894
 30
0.0
 10
88.26834172055445
 20
-141.799957918109
 30
0.0
 10
88.15413680521841
 20
-141.7746364662925
 30
0.0
 10
88.15413680521841
 20
-141.7746364662925
 30
0.0
 10
88.15413680521841
 20
-141.6502685192749
 30
0.0
 10
88.15413680521841
 20
-141.6502685192749
 30
0.0
 10
88.15413680521841
 20
-141.6502685192749
 30
0.0
 10
89.69840085648165
 20
-141.6502685192749
 30
0.0
 10
89.69840085648165
 20
-141.6502685192749
 30
0.0
 10
89.69840085648165
 20
-141.6502685192749
 30
0.0
 10
89.69840085648165
 20
-141.841299063932
 30
0.0
 10
89.69840085648165
 20
-141.841299063932
 30
0.0
  0
HATCH
  5
D8
330
D3
100
AcDbEntity
  8
_U+30EC_U+30A4_U+30E4_U+30FC 1
 62
   179
420
  2234388
100
AcDbHatch
 10
0.0
 20
0.0
 30
0.0
210
0.0
220
0.0
230
1.0
  2
SOLID
 70
     1
 71
     0
 91
        1
 92
        1
 93
        1
 72
     4
 94
        3
 73
     0
 74
     1
 95
       26
 96
       22
 40
0.0
 40
0.0
 40
0.0
 40
0.0
 40
1.0
 40
1.0
 40
1.0
 40
2.0
 40
2.0
 40
2.0
 40
3.0
 40
3.0
 40
3.0
 40
4.0
 40
4.0
 40
4.0
 40
5.0
 40
5.0
 40
5.0
 40
6.0
 40
6.0
 40
6.0
 40
7.0
 40
7.0
 40
7.0
 40
7.0
 10
89.69840085648165
 20
-141.841299063932
 10
89.69840085648165
 20
-141.841299063932
 10
88.59407549868482
 20
-141.841299063932
 10
88.59407549868482
 20
-141.841299063932
 10
88.59407549868482
 20
-141.841299063932
 10
88.59407549868482
 20
-142.122763365077
 10
88.59407549868482
 20
-142.122763365077
 10
88.59407549868482
 20
-142.122763365077
 10
88.44593639281908
 20
-142.122763365077
 10
88.44593639281908
 20
-142.122763365077
 10
88.43129473700677
 20
-141.8395765161894
 10
88.26834172055445
 20
-141.799957918109
 10
88.15413680521841
 20
-141.7746364662925
 10
88.15413680521841
 20
-141.7746364662925
 10
88.15413680521841
 20
-141.6502685192749
 10
88.15413680521841
 20
-141.6502685192749
 10
88.15413680521841
 20
-141.6502685192749
 10
89.69840085648165
 20
-141.6502685192749
 10
89.69840085648165
 20
-141.6502685192749
 10
89.69840085648165
 20
-141.6502685192749
 10
89.69840085648165
 20
-141.841299063932
 10
89.69840085648165
 20
-141.841299063932
 97
        0
 97
        0
 75
     2
 76
     1
 98
        0
  0
POLYLINE
  5
D9
330
D3
100
AcDbEntity
  8
_U+30EC_U+30A4_U+30E4_U+30FC 1
370
     0
100
AcDb2dPolyline
 66
     1
 10
0.0
 20
0.0
 30
0.0
  0
VERTEX
  5
DA
330
D9
100
AcDbEntity
  8
_U+30EC_U+30A4_U+30E4_U+30FC 1
370
     0
100
AcDbVertex
100
AcDb2dVertex
 10
89.69840085648165
 20
-141.1731227945678
 30
0.0
  0
VERTEX
  5
DB
330
D9
100
AcDbEntity
  8
_U+30EC_U+30A4_U+30E4_U+30FC 1
370
     0
100
AcDbVertex
100
AcDb2dVertex
 10
89.44673663128415
 20
-141.1731227945678
 30
0.0
  0
VERTEX
  5
DC
330
D9
100
AcDbEntity
  8
_U+30EC_U+30A4_U+30E4_U+30FC 1
370
     0
100
AcDbVertex
100
AcDb2dVertex
 10
89.44673663128415
 20
-140.9584933458368
 30
0.0
  0
VERTEX
  5
DD
330
D9
100
AcDbEntity
  8
_U+30EC_U+30A4_U+30E4_U+30FC 1
370
     0
100
AcDbVertex
100
AcDb2dVertex
 10
89.69840085648165
 20
-140.9584933458368
 30
0.0
  0
VERTEX
  5
DE
330
D9
100
AcDbEntity
  8
_U+30EC_U+30A4_U+30E4_U+30FC 1
370
     0
100
AcDbVertex
100
AcDb2dVertex
 10
89.69840085648165
 20
-141.1731227945678
 30
0.0
  0
SEQEND
  5
DF
330
D9
100
AcDbEntity
  8
_U+30EC_U+30A4_U+30E4_U+30FC 1
370
     0
  0
HATCH
  5
E0
330
D3
100
AcDbEntity
  8
_U+30EC_U+30A4_U+30E4_U+30FC 1
 62
   179
420
  2234388
100
AcDbHatch
 10
0.0
 20
0.0
 30
0.0
210
0.0
220
0.0
230
1.0
  2
SOLID
 70
     1
 71
     0
 91
        1
 92
        1
 93
        4
 72
     1
 10
89.69840085648165
 20
-141.1731227945678
 11
89.44673663128415
 21
-141.1731227945678
 72
     1
 10
89.44673663128415
 20
-141.1731227945678
 11
89.44673663128415
 21
-140.9584933458368
 72
     1
 10
89.44673663128415
 20
-140.9584933458368
 11
89.69840085648165
 21
-140.9584933458368
 72
     1
 10
89.69840085648165
 20
-140.9584933458368
 11
89.69840085648165
 21
-141.1731227945678
 97
        0
 75
     2
 76
     1
 98
        0
  0
SPLINE
  5
E1
330
D3
100
AcDbEntity
  8
_U+30EC_U+30A4_U+30E4_U+30FC 1
370
     0
100
AcDbSpline
210
0.0
220
0.0
230
1.0
 70
    11
 71
     3
 72
    29
 73
    25
 74
     0
 42
0.0000000001
 43
0.0000000001
 12
1.0
 22
0.0
 32
0.0
 13
1.0
 23
0.0
 33
0.0
 40
0.0
 40
0.0
 40
0.0
 40
0.0
 40
1.0
 40
1.0
 40
1.0
 40
2.0
 40
2.0
 40
2.0
 40
3.0
 40
3.0
 40
3.0
 40
4.0
 40
4.0
 40
4.0
 40
5.0
 40
5.0
 40
5.0
 40
6.0
 40
6.0
 40
6.0
 40
7.0
 40
7.0
 40
7.0
 40
8.0
 40
8.0
 40
8.0
 40
8.0
 10
89.52063392944277
 20
-139.9924885717727
 30
0.0
 10
89.73009573494595
 20
-140.0843003664546
 30
0.0
 10
89.74921601488909
 20
-140.2322672175461
 30
0.0
 10
89.74921601488909
 20
-140.3314859675213
 30
0.0
 10
89.74921601488909
 20
-140.46842851306
 30
0.0
 10
89.70270722583821
 20
-140.5893513645923
 30
0.0
 10
89.52063392944277
 20
-140.6704833632699
 30
0.0
 10
89.32615828930041
 20
-140.7588500624665
 30
0.0
 10
89.08913571991522
 20
-140.7750420112472
 30
0.0
 10
88.9261827034629
 20
-140.7750420112472
 30
0.0
 10
88.78234996695372
 20
-140.7750420112472
 30
0.0
 10
88.53068574175622
 20
-140.7605726102092
 30
0.0
 10
88.33173147748305
 20
-140.6704833632699
 30
0.0
 10
88.12864309862756
 20
-140.5784993138137
 30
0.0
 10
88.10538870410213
 20
-140.4413845135008
 30
0.0
 10
88.10538870410213
 20
-140.3314859675213
 30
0.0
 10
88.10538870410213
 20
-140.1962659697252
 30
0.0
 10
88.14983043586186
 20
-140.0736205704503
 30
0.0
 10
88.33173147748305
 20
-139.9924885717727
 30
0.0
 10
88.5243123151085
 20
-139.9077392228356
 30
0.0
 10
88.75272214578057
 20
-139.8877576690211
 30
0.0
 10
88.9261827034629
 20
-139.8877576690211
 30
0.0
 10
89.09757620385409
 20
-139.8877576690211
 30
0.0
 10
89.32822534659157
 20
-139.9058444203187
 30
0.0
 10
89.52063392944277
 20
-139.9924885717727
 30
0.0
  0
SPLINE
  5
E2
330
D3
100
AcDbEntity
  8
_U+30EC_U+30A4_U+30E4_U+30FC 1
370
     0
100
AcDbSpline
210
0.0
220
0.0
230
1.0
 70
    11
 71
     3
 72
    17
 73
    13
 74
     0
 42
0.0000000001
 43
0.0000000001
 12
1.0
 22
0.0
 32
0.0
 13
1.0
 23
0.0
 33
0.0
 40
0.0
 40
0.0
 40
0.0
 40
0.0
 40
1.0
 40
1.0
 40
1.0
 40
2.0
 40
2.0
 40
2.0
 40
3.0
 40
3.0
 40
3.0
 40
4.0
 40
4.0
 40
4.0
 40
4.0
 10
88.2979695417276
 20
-140.3314859675213
 30
0.0
 10
88.2979695417276
 20
-140.5442206137355
 30
0.0
 10
88.58132864538939
 20
-140.5838392118158
 30
0.0
 10
88.9261827034629
 20
-140.5838392118158
 30
0.0
 10
89.24571530971983
 20
-140.5838392118158
 30
0.0
 10
89.55456811997247
 20
-140.5531778619971
 30
0.0
 10
89.55456811997247
 20
-140.3314859675213
 30
0.0
 10
89.55456811997247
 20
-140.1204738690498
 30
0.0
 10
89.27310381882756
 20
-140.0789604684525
 30
0.0
 10
88.9261827034629
 20
-140.0789604684525
 30
0.0
 10
88.60682235198024
 20
-140.0789604684525
 30
0.0
 10
88.2979695417276
 20
-140.1113443660138
 30
0.0
 10
88.2979695417276
 20
-140.3314859675213
 30
0.0
  0
HATCH
  5
E3
330
D3
100
AcDbEntity
  8
_U+30EC_U+30A4_U+30E4_U+30FC 1
 62
   179
420
  2234388
100
AcDbHatch
 10
0.0
 20
0.0
 30
0.0
210
0.0
220
0.0
230
1.0
  2
SOLID
 70
     1
 71
     0
 91
        2
 92
        1
 93
        1
 72
     4
 94
        3
 73
     0
 74
     1
 95
       29
 96
       25
 40
0.0
 40
0.0
 40
0.0
 40
0.0
 40
1.0
 40
1.0
 40
1.0
 40
2.0
 40
2.0
 40
2.0
 40
3.0
 40
3.0
 40
3.0
 40
4.0
 40
4.0
 40
4.0
 40
5.0
 40
5.0
 40
5.0
 40
6.0
 40
6.0
 40
6.0
 40
7.0
 40
7.0
 40
7.0
 40
8.0
 40
8.0
 40
8.0
 40
8.0
 10
89.52063392944277
 20
-139.9924885717727
 10
89.73009573494595
 20
-140.0843003664546
 10
89.74921601488909
 20
-140.2322672175461
 10
89.74921601488909
 20
-140.3314859675213
 10
89.74921601488909
 20
-140.46842851306
 10
89.70270722583821
 20
-140.5893513645923
 10
89.52063392944277
 20
-140.6704833632699
 10
89.32615828930041
 20
-140.7588500624665
 10
89.08913571991522
 20
-140.7750420112472
 10
88.9261827034629
 20
-140.7750420112472
 10
88.78234996695372
 20
-140.7750420112472
 10
88.53068574175622
 20
-140.7605726102092
 10
88.33173147748305
 20
-140.6704833632699
 10
88.12864309862756
 20
-140.5784993138137
 10
88.10538870410213
 20
-140.4413845135008
 10
88.10538870410213
 20
-140.3314859675213
 10
88.10538870410213
 20
-140.1962659697252
 10
88.14983043586186
 20
-140.0736205704503
 10
88.33173147748305
 20
-139.9924885717727
 10
88.5243123151085
 20
-139.9077392228356
 10
88.75272214578057
 20
-139.8877576690211
 10
88.9261827034629
 20
-139.8877576690211
 10
89.09757620385409
 20
-139.8877576690211
 10
89.32822534659157
 20
-139.9058444203187
 10
89.52063392944277
 20
-139.9924885717727
 97
        0
 97
        0
 92
        1
 93
        1
 72
     4
 94
        3
 73
     0
 74
     1
 95
       17
 96
       13
 40
0.0
 40
0.0
 40
0.0
 40
0.0
 40
1.0
 40
1.0
 40
1.0
 40
2.0
 40
2.0
 40
2.0
 40
3.0
 40
3.0
 40
3.0
 40
4.0
 40
4.0
 40
4.0
 40
4.0
 10
88.2979695417276
 20
-140.3314859675213
 10
88.2979695417276
 20
-140.5442206137355
 10
88.58132864538939
 20
-140.5838392118158
 10
88.9261827034629
 20
-140.5838392118158
 10
89.24571530971983
 20
-140.5838392118158
 10
89.55456811997247
 20
-140.5531778619971
 10
89.55456811997247
 20
-140.3314859675213
 10
89.55456811997247
 20
-140.1204738690498
 10
89.27310381882756
 20
-140.0789604684525
 10
88.9261827034629
 20
-140.0789604684525
 10
88.60682235198024
 20
-140.0789604684525
 10
88.2979695417276
 20
-140.1113443660138
 10
88.2979695417276
 20
-140.3314859675213
 97
        0
 97
        0
 75
     2
 76
     1
 98
        0
  0
ENDBLK
  5
D6
330
D3
100
AcDbEntity
  8
0
100
AcDbBlockEnd
  0
BLOCK
  5
EE
330
EC
100
AcDbEntity
  8
0
100
AcDbBlockBegin
  2
block 7
 70
     0
 10
0.0
 20
0.0
 30
0.0
  3
block 7
  1

  0
SPLINE
  5
F0
330
EC
100
AcDbEntity
  8
_U+30EC_U+30A4_U+30E4_U+30FC 1
370
     0
100
AcDbSpline
210
0.0
220
0.0
230
1.0
 70
    11
 71
     3
 72
    29
 73
    25
 74
     0
 42
0.0000000001
 43
0.0000000001
 12
1.0
 22
0.0
 32
0.0
 13
1.0
 23
0.0
 33
0.0
 40
0.0
 40
0.0
 40
0.0
 40
0.0
 40
1.0
 40
1.0
 40
1.0
 40
2.0
 40
2.0
 40
2.0
 40
3.0
 40
3.0
 40
3.0
 40
4.0
 40
4.0
 40
4.0
 40
5.0
 40
5.0
 40
5.0
 40
6.0
 40
6.0
 40
6.0
 40
7.0
 40
7.0
 40
7.0
 40
8.0
 40
8.0
 40
8.0
 40
8.0
 10
116.7508408996317
 20
-147.8504068640791
 30
0.0
 10
116.7508408996317
 20
-148.0776109113313
 30
0.0
 10
116.6133815897703
 20
-148.293962907805
 30
0.0
 10
116.2643934171145
 20
-148.293962907805
 30
0.0
 10
116.0084228225604
 20
-148.293962907805
 30
0.0
 10
115.9133381871675
 20
-148.173212311047
 30
0.0
 10
115.8520154875301
 20
-148.0829508093334
 30
0.0
 10
115.7927598451838
 20
-148.1894042598277
 30
0.0
 10
115.6783826750735
 20
-148.2543443097246
 30
0.0
 10
115.5174967159123
 20
-148.2543443097246
 30
0.0
 10
115.2425780961894
 20
-148.2543443097246
 30
0.0
 10
115.107185843619
 20
-148.0848456118503
 30
0.0
 10
115.107185843619
 20
-147.8504068640791
 30
0.0
 10
115.107185843619
 20
-147.6087334157888
 30
0.0
 10
115.2511908349025
 20
-147.4464694184335
 30
0.0
 10
115.5174967159123
 20
-147.4464694184335
 30
0.0
 10
115.6783826750735
 20
-147.4464694184335
 30
0.0
 10
115.7927598451838
 20
-147.5131320160731
 30
0.0
 10
115.8520154875301
 20
-147.6195854665673
 30
0.0
 10
115.9026583911632
 20
-147.5437933658918
 30
0.0
 10
115.9977430265561
 20
-147.4085733680958
 30
0.0
 10
116.2602593025322
 20
-147.4085733680958
 30
0.0
 10
116.6347411817788
 20
-147.4085733680958
 30
0.0
 10
116.7508408996317
 20
-147.6466294661265
 30
0.0
 10
116.7508408996317
 20
-147.8504068640791
 30
0.0
  0
SPLINE
  5
F1
330
EC
100
AcDbEntity
  8
_U+30EC_U+30A4_U+30E4_U+30FC 1
370
     0
100
AcDbSpline
210
0.0
220
0.0
230
1.0
 70
    11
 71
     3
 72
    17
 73
    13
 74
     0
 42
0.0000000001
 43
0.0000000001
 12
1.0
 22
0.0
 32
0.0
 13
1.0
 23
0.0
 33
0.0
 40
0.0
 40
0.0
 40
0.0
 40
0.0
 40
1.0
 40
1.0
 40
1.0
 40
2.0
 40
2.0
 40
2.0
 40
3.0
 40
3.0
 40
3.0
 40
4.0
 40
4.0
 40
4.0
 40
4.0
 10
115.2997666812445
 20
-147.8504068640791
 30
0.0
 10
115.2997666812445
 20
-147.9909667598773
 30
0.0
 10
115.3948513166374
 20
-148.0631415102932
 30
0.0
 10
115.5302435692077
 20
-148.0631415102932
 30
0.0
 10
115.6528889684826
 20
-148.0631415102932
 30
0.0
 10
115.7714002531752
 20
-148.0018188106558
 30
0.0
 10
115.7714002531752
 20
-147.8504068640791
 30
0.0
 10
115.7714002531752
 20
-147.6988226627281
 30
0.0
 10
115.6528889684826
 20
-147.6374999630906
 30
0.0
 10
115.5302435692077
 20
-147.6374999630906
 30
0.0
 10
115.3948513166374
 20
-147.6374999630906
 30
0.0
 10
115.2997666812445
 20
-147.7115695160235
 30
0.0
 10
115.2997666812445
 20
-147.8504068640791
 30
0.0
  0
SPLINE
  5
F2
330
EC
100
AcDbEntity
  8
_U+30EC_U+30A4_U+30E4_U+30FC 1
370
     0
100
AcDbSpline
210
0.0
220
0.0
230
1.0
 70
    11
 71
     3
 72
    17
 73
    13
 74
     0
 42
0.0000000001
 43
0.0000000001
 12
1.0
 22
0.0
 32
0.0
 13
1.0
 23
0.0
 33
0.0
 40
0.0
 40
0.0
 40
0.0
 40
0.0
 40
1.0
 40
1.0
 40
1.0
 40
2.0
 40
2.0
 40
2.0
 40
3.0
 40
3.0
 40
3.0
 40
4.0
 40
4.0
 40
4.0
 40
4.0
 10
115.9598469762184
 20
-147.8504068640791
 30
0.0
 10
115.9598469762184
 20
-147.973052263354
 30
0.0
 10
116.0466633824467
 20
-148.1027601083736
 30
0.0
 10
116.2495795065279
 20
-148.1027601083736
 30
0.0
 10
116.4549071974488
 20
-148.1027601083736
 30
0.0
 10
116.5561930047151
 20
-147.9945841101368
 30
0.0
 10
116.5561930047151
 20
-147.8504068640791
 30
0.0
 10
116.5561930047151
 20
-147.691587962209
 30
0.0
 10
116.4335476054402
 20
-147.5978813650103
 30
0.0
 10
116.2557806784013
 20
-147.5978813650103
 30
0.0
 10
116.0339165291512
 20
-147.5978813650103
 30
0.0
 10
115.9598469762184
 20
-147.7367187130658
 30
0.0
 10
115.9598469762184
 20
-147.8504068640791
 30
0.0
  0
HATCH
  5
F3
330
EC
100
AcDbEntity
  8
_U+30EC_U+30A4_U+30E4_U+30FC 1
 62
   179
420
  2234388
100
AcDbHatch
 10
0.0
 20
0.0
 30
0.0
210
0.0
220
0.0
230
1.0
  2
SOLID
 70
     1
 71
     0
 91
        3
 92
        1
 93
        1
 72
     4
 94
        3
 73
     0
 74
     1
 95
       29
 96
       25
 40
0.0
 40
0.0
 40
0.0
 40
0.0
 40
1.0
 40
1.0
 40
1.0
 40
2.0
 40
2.0
 40
2.0
 40
3.0
 40
3.0
 40
3.0
 40
4.0
 40
4.0
 40
4.0
 40
5.0
 40
5.0
 40
5.0
 40
6.0
 40
6.0
 40
6.0
 40
7.0
 40
7.0
 40
7.0
 40
8.0
 40
8.0
 40
8.0
 40
8.0
 10
116.7508408996317
 20
-147.8504068640791
 10
116.7508408996317
 20
-148.0776109113313
 10
116.6133815897703
 20
-148.293962907805
 10
116.2643934171145
 20
-148.293962907805
 10
116.0084228225604
 20
-148.293962907805
 10
115.9133381871675
 20
-148.173212311047
 10
115.8520154875301
 20
-148.0829508093334
 10
115.7927598451838
 20
-148.1894042598277
 10
115.6783826750735
 20
-148.2543443097246
 10
115.5174967159123
 20
-148.2543443097246
 10
115.2425780961894
 20
-148.2543443097246
 10
115.107185843619
 20
-148.0848456118503
 10
115.107185843619
 20
-147.8504068640791
 10
115.107185843619
 20
-147.6087334157888
 10
115.2511908349025
 20
-147.4464694184335
 10
115.5174967159123
 20
-147.4464694184335
 10
115.6783826750735
 20
-147.4464694184335
 10
115.7927598451838
 20
-147.5131320160731
 10
115.8520154875301
 20
-147.6195854665673
 10
115.9026583911632
 20
-147.5437933658918
 10
115.9977430265561
 20
-147.4085733680958
 10
116.2602593025322
 20
-147.4085733680958
 10
116.6347411817788
 20
-147.4085733680958
 10
116.7508408996317
 20
-147.6466294661265
 10
116.7508408996317
 20
-147.8504068640791
 97
        0
 97
        0
 92
        1
 93
        1
 72
     4
 94
        3
 73
     0
 74
     1
 95
       17
 96
       13
 40
0.0
 40
0.0
 40
0.0
 40
0.0
 40
1.0
 40
1.0
 40
1.0
 40
2.0
 40
2.0
 40
2.0
 40
3.0
 40
3.0
 40
3.0
 40
4.0
 40
4.0
 40
4.0
 40
4.0
 10
115.2997666812445
 20
-147.8504068640791
 10
115.2997666812445
 20
-147.9909667598773
 10
115.3948513166374
 20
-148.0631415102932
 10
115.5302435692077
 20
-148.0631415102932
 10
115.6528889684826
 20
-148.0631415102932
 10
115.7714002531752
 20
-148.0018188106558
 10
115.7714002531752
 20
-147.8504068640791
 10
115.7714002531752
 20
-147.6988226627281
 10
115.6528889684826
 20
-147.6374999630906
 10
115.5302435692077
 20
-147.6374999630906
 10
115.3948513166374
 20
-147.6374999630906
 10
115.2997666812445
 20
-147.7115695160235
 10
115.2997666812445
 20
-147.8504068640791
 97
        0
 97
        0
 92
        1
 93
        1
 72
     4
 94
        3
 73
     0
 74
     1
 95
       17
 96
       13
 40
0.0
 40
0.0
 40
0.0
 40
0.0
 40
1.0
 40
1.0
 40
1.0
 40
2.0
 40
2.0
 40
2.0
 40
3.0
 40
3.0
 40
3.0
 40
4.0
 40
4.0
 40
4.0
 40
4.0
 10
115.9598469762184
 20
-147.8504068640791
 10
115.9598469762184
 20
-147.973052263354
 10
116.0466633824467
 20
-148.1027601083736
 10
116.2495795065279
 20
-148.1027601083736
 10
116.4549071974488
 20
-148.1027601083736
 10
116.5561930047151
 20
-147.9945841101368
 10
116.5561930047151
 20
-147.8504068640791
 10
116.5561930047151
 20
-147.691587962209
 10
116.4335476054402
 20
-147.5978813650103
 10
116.2557806784013
 20
-147.5978813650103
 10
116.0339165291512
 20
-147.5978813650103
 10
115.9598469762184
 20
-147.7367187130658
 10
115.9598469762184
 20
-147.8504068640791
 97
        0
 97
        0
 75
     2
 76
     1
 98
        0
  0
ENDBLK
  5
EF
330
EC
100
AcDbEntity
  8
0
100
AcDbBlockEnd
  0
ENDSEC
  0
SECTION
  2
ENTITIES
  0
INSERT
  5
42
330
1F
100
AcDbEntity
  8
_U+30EC_U+30A4_U+30E4_U+30FC 1
100
AcDbBlockReference
  2
block 2
 10
0.0
 20
0.0
 30
0.0
  0
ENDSEC
  0
SECTION
  2
OBJECTS
  0
DICTIONARY
  5
C
330
0
100
AcDbDictionary
281
     1
  3
ACAD_GROUP
350
D
  3
ACAD_LAYOUT
350
1A
  3
ACAD_MATERIAL
350
3B
  3
ACAD_MLEADERSTYLE
350
F5
  3
ACAD_MLINESTYLE
350
17
  3
ACAD_PLOTSETTINGS
350
19
  3
ACAD_PLOTSTYLENAME
350
E
  3
ACAD_TABLESTYLE
350
F4
  3
ACAD_VISUALSTYLE
350
2A
  0
SUN
  5
3F
330
29
100
AcDbSun
 90
        1
290
     0
 63
     7
421
 16777215
 40
1.0
291
     1
 91
  2455826
 92
 54000000
292
     0
 70
     2
 71
   256
280
     1
  0
DICTIONARY
  5
D
102
{ACAD_REACTORS
330
C
102
}
330
C
100
AcDbDictionary
281
     1
  0
DICTIONARY
  5
1A
102
{ACAD_REACTORS
330
C
102
}
330
C
100
AcDbDictionary
281
     1
  3
Layout1
350
1E
  3
Layout2
350
26
  3
Model
350
22
  0
DICTIONARY
  5
3B
102
{ACAD_REACTORS
330
C
102
}
330
C
100
AcDbDictionary
281
     1
  3
ByBlock
350
3D
  3
ByLayer
350
3C
  3
Global
350
3E
  0
DICTIONARY
  5
F5
102
{ACAD_REACTORS
330
C
102
}
330
C
100
AcDbDictionary
281
     1
  0
DICTIONARY
  5
17
102
{ACAD_REACTORS
330
C
102
}
330
C
100
AcDbDictionary
281
     1
  3
Standard
350
18
  0
DICTIONARY
  5
19
102
{ACAD_REACTORS
330
C
102
}
330
C
100
AcDbDictionary
281
     1
  0
ACDBDICTIONARYWDFLT
  5
E
102
{ACAD_REACTORS
330
C
102
}
330
C
100
AcDbDictionary
281
     1
  3
Normal
350
F
100
AcDbDictionaryWithDefault
340
F
  0
DICTIONARY
  5
F4
102
{ACAD_REACTORS
330
C
102
}
330
C
100
AcDbDictionary
281
     1
  0
DICTIONARY
  5
2A
102
{ACAD_REACTORS
330
C
102
}
330
C
100
AcDbDictionary
281
     1
  3
2dWireframe
350
2F
  3
3D Hidden
350
31
  3
3dWireframe
350
30
  3
Basic
350
32
  3
Brighten
350
36
  3
ColorChange
350
3A
  3
Conceptual
350
34
  3
Dim
350
35
  3
Facepattern
350
39
  3
Flat
350
2B
  3
FlatWithEdges
350
2C
  3
Gouraud
350
2D
  3
GouraudWithEdges
350
2E
  3
Linepattern
350
38
  3
Realistic
350
33
  3
Thicken
350
37
  0
LAYOUT
  5
1E
102
{ACAD_REACTORS
330
1A
102
}
330
1A
100
AcDbPlotSettings
  1

  2
none_device
  4

  6

 40
0.0
 41
0.0
 42
0.0
 43
0.0
 44
0.0
 45
0.0
 46
0.0
 47
0.0
 48
0.0
 49
0.0
140
0.0
141
0.0
142
1.0
143
1.0
 70
   688
 72
     0
 73
     0
 74
     5
  7

 75
    16
 76
     0
 77
     2
 78
   300
147
1.0
148
0.0
149
0.0
100
AcDbLayout
  1
Layout1
 70
     1
 71
     1
 10
0.0
 20
0.0
 11
12.0
 21
9.0
 12
0.0
 22
0.0
 32
0.0
 14
1.000000000000000E+20
 24
1.000000000000000E+20
 34
1.000000000000000E+20
 15
-1.000000000000000E+20
 25
-1.000000000000000E+20
 35
-1.000000000000000E+20
146
0.0
 13
0.0
 23
0.0
 33
0.0
 16
1.0
 26
0.0
 36
0.0
 17
0.0
 27
1.0
 37
0.0
 76
     0
330
1B
  0
LAYOUT
  5
26
102
{ACAD_REACTORS
330
1A
102
}
330
1A
100
AcDbPlotSettings
  1

  2
none_device
  4

  6

 40
0.0
 41
0.0
 42
0.0
 43
0.0
 44
0.0
 45
0.0
 46
0.0
 47
0.0
 48
0.0
 49
0.0
140
0.0
141
0.0
142
1.0
143
1.0
 70
   688
 72
     0
 73
     0
 74
     5
  7

 75
    16
 76
     0
 77
     2
 78
   300
147
1.0
148
0.0
149
0.0
100
AcDbLayout
  1
Layout2
 70
     1
 71
     2
 10
0.0
 20
0.0
 11
0.0
 21
0.0
 12
0.0
 22
0.0
 32
0.0
 14
0.0
 24
0.0
 34
0.0
 15
0.0
 25
0.0
 35
0.0
146
0.0
 13
0.0
 23
0.0
 33
0.0
 16
1.0
 26
0.0
 36
0.0
 17
0.0
 27
1.0
 37
0.0
 76
     0
330
23
  0
LAYOUT
  5
22
102
{ACAD_REACTORS
330
1A
102
}
330
1A
100
AcDbPlotSettings
  1

  2
none_device
  4

  6

 40
0.0
 41
0.0
 42
0.0
 43
0.0
 44
0.0
 45
0.0
 46
0.0
 47
0.0
 48
0.0
 49
0.0
140
0.0
141
0.0
142
1.0
143
1.0
 70
  1712
 72
     0
 73
     0
 74
     0
  7

 75
     0
 76
     0
 77
     2
 78
   300
147
1.0
148
0.0
149
0.0
100
AcDbLayout
  1
Model
 70
     1
 71
     0
 10
0.0
 20
0.0
 11
12.0
 21
9.0
 12
0.0
 22
0.0
 32
0.0
 14
1.000000000000000E+20
 24
1.000000000000000E+20
 34
1.000000000000000E+20
 15
-1.000000000000000E+20
 25
-1.000000000000000E+20
 35
-1.000000000000000E+20
146
0.0
 13
0.0
 23
0.0
 33
0.0
 16
1.0
 26
0.0
 36
0.0
 17
0.0
 27
1.0
 37
0.0
 76
     0
330
1F
331
29
  0
MATERIAL
  5
3D
102
{ACAD_REACTORS
330
3B
102
}
330
3B
100
AcDbMaterial
  1
ByBlock
 72
     1
 94
      127
  0
MATERIAL
  5
3C
102
{ACAD_REACTORS
330
3B
102
}
330
3B
100
AcDbMaterial
  1
ByLayer
 72
     1
 94
      127
  0
MATERIAL
  5
3E
102
{ACAD_REACTORS
330
3B
102
}
330
3B
100
AcDbMaterial
  1
Global
 72
     1
 94
      127
  0
MLINESTYLE
  5
18
102
{ACAD_REACTORS
330
17
102
}
330
17
100
AcDbMlineStyle
  2
Standard
 70
     0
  3

 62
   256
 51
90.0
 52
90.0
 71
     2
 49
0.5
 62
   256
  6
BYLAYER
 49
-0.5
 62
   256
  6
BYLAYER
  0
ACDBPLACEHOLDER
  5
F
102
{ACAD_REACTORS
330
E
102
}
330
E
  0
VISUALSTYLE
  5
2F
102
{ACAD_REACTORS
330
2A
102
}
330
2A
100
AcDbVisualStyle
  2
2dWireframe
 70
     4
177
     2
291
     0
 71
     0
176
     1
 72
     2
176
     1
 73
     0
176
     1
 90
        0
176
     1
 40
-0.6
176
     1
 41
-30.0
176
     1
 62
     5
 63
     7
421
 16777215
176
     1
 74
     1
176
     1
 91
        4
176
     1
 64
     7
176
     1
 65
   257
176
     1
 75
     1
176
     1
175
     1
176
     1
 42
1.0
176
     1
 92
        0
176
     1
 66
   257
176
     1
 43
1.0
176
     1
 76
     1
176
     1
 77
     6
176
     1
 78
     2
176
     1
 67
     7
176
     1
 79
     5
176
     1
170
     0
176
     1
171
     0
176
     1
290
     0
176
     1
 93
        1
176
     1
 44
0.0
176
     1
173
     0
176
     1
  0
VISUALSTYLE
  5
31
102
{ACAD_REACTORS
330
2A
102
}
330
2A
100
AcDbVisualStyle
  2
3D Hidden
 70
     6
177
     2
291
     0
 71
     1
176
     1
 72
     2
176
     1
 73
     2
176
     1
 90
        0
176
     1
 40
-0.6
176
     1
 41
-30.0
176
     1
 62
     5
 63
     7
421
 16777215
176
     1
 74
     2
176
     1
 91
        2
176
     1
 64
     7
176
     1
 65
   257
176
     1
 75
     2
176
     1
175
     1
176
     1
 42
40.0
176
     1
 92
        0
176
     1
 66
   257
176
     1
 43
1.0
176
     1
 76
     1
176
     1
 77
     6
176
     1
 78
     2
176
     1
 67
     7
176
     1
 79
     3
176
     1
170
     0
176
     1
171
     0
176
     1
290
     0
176
     1
 93
        1
176
     1
 44
0.0
176
     1
173
     0
176
     1
  0
VISUALSTYLE
  5
30
102
{ACAD_REACTORS
330
2A
102
}
330
2A
100
AcDbVisualStyle
  2
3dWireframe
 70
     5
177
     2
291
     0
 71
     0
176
     1
 72
     2
176
     1
 73
     0
176
     1
 90
        0
176
     1
 40
-0.6
176
     1
 41
-30.0
176
     1
 62
     5
 63
     7
421
 16777215
176
     1
 74
     1
176
     1
 91
        4
176
     1
 64
     7
176
     1
 65
   257
176
     1
 75
     1
176
     1
175
     1
176
     1
 42
1.0
176
     1
 92
        0
176
     1
 66
   257
176
     1
 43
1.0
176
     1
 76
     1
176
     1
 77
     6
176
     1
 78
     2
176
     1
 67
     7
176
     1
 79
     5
176
     1
170
     0
176
     1
171
     0
176
     1
290
     0
176
     1
 93
        1
176
     1
 44
0.0
176
     1
173
     0
176
     1
  0
VISUALSTYLE
  5
32
102
{ACAD_REACTORS
330
2A
102
}
330
2A
100
AcDbVisualStyle
  2
Basic
 70
     7
177
     2
291
     1
 71
     1
176
     1
 72
     0
176
     1
 73
     1
176
     1
 90
        0
176
     1
 40
-0.6
176
     1
 41
-30.0
176
     1
 62
     5
 63
     7
421
 16777215
176
     1
 74
     0
176
     1
 91
        4
176
     1
 64
     7
176
     1
 65
   257
176
     1
 75
     1
176
     1
175
     1
176
     1
 42
1.0
176
     1
 92
        8
176
     1
 66
     7
176
     1
 43
1.0
176
     1
 76
     1
176
     1
 77
     6
176
     1
 78
     2
176
     1
 67
     7
176
     1
 79
     5
176
     1
170
     0
176
     1
171
     0
176
     1
290
     0
176
     1
 93
        1
176
     1
 44
0.0
176
     1
173
     0
176
     1
  0
VISUALSTYLE
  5
36
102
{ACAD_REACTORS
330
2A
102
}
330
2A
100
AcDbVisualStyle
  2
Brighten
 70
    12
177
     2
291
     1
 71
     2
176
     1
 72
     2
176
     1
 73
     0
176
     1
 90
        0
176
     1
 40
-0.6
176
     1
 41
-30.0
176
     1
 62
     5
 63
     7
421
 16777215
176
     1
 74
     1
176
     1
 91
        4
176
     1
 64
     7
176
     1
 65
   257
176
     1
 75
     1
176
     1
175
     1
176
     1
 42
1.0
176
     1
 92
        8
176
     1
 66
     7
176
     1
 43
1.0
176
     1
 76
     1
176
     1
 77
     6
176
     1
 78
     2
176
     1
 67
     7
176
     1
 79
     5
176
     1
170
     0
176
     1
171
     0
176
     1
290
     0
176
     1
 93
        1
176
     1
 44
50.0
176
     1
173
     0
176
     1
  0
VISUALSTYLE
  5
3A
102
{ACAD_REACTORS
330
2A
102
}
330
2A
100
AcDbVisualStyle
  2
ColorChange
 70
    16
177
     2
291
     1
 71
     2
176
     1
 72
     2
176
     1
 73
     3
176
     1
 90
        0
176
     1
 40
-0.6
176
     1
 41
-30.0
176
     1
 62
     5
 63
     8
421
  8421504
176
     1
 74
     1
176
     1
 91
        4
176
     1
 64
     7
176
     1
 65
   257
176
     1
 75
     1
176
     1
175
     1
176
     1
 42
1.0
176
     1
 92
        8
176
     1
 66
     8
424
  8421504
176
     1
 43
1.0
176
     1
 76
     1
176
     1
 77
     6
176
     1
 78
     2
176
     1
 67
     7
176
     1
 79
     5
176
     1
170
     0
176
     1
171
     0
176
     1
290
     0
176
     1
 93
        1
176
     1
 44
0.0
176
     1
173
     0
176
     1
  0
VISUALSTYLE
  5
34
102
{ACAD_REACTORS
330
2A
102
}
330
2A
100
AcDbVisualStyle
  2
Conceptual
 70
     9
177
     2
291
     0
 71
     3
176
     1
 72
     2
176
     1
 73
     0
176
     1
 90
        0
176
     1
 40
-0.6
176
     1
 41
-30.0
176
     1
 62
     5
 63
     7
421
 16777215
176
     1
 74
     2
176
     1
 91
        2
176
     1
 64
     7
176
     1
 65
   257
176
     1
 75
     1
176
     1
175
     1
176
     1
 42
40.0
176
     1
 92
        8
176
     1
 66
     7
176
     1
 43
1.0
176
     1
 76
     1
176
     1
 77
     6
176
     1
 78
     2
176
     1
 67
     7
176
     1
 79
     3
176
     1
170
     0
176
     1
171
     0
176
     1
290
     0
176
     1
 93
        1
176
     1
 44
0.0
176
     1
173
     0
176
     1
  0
VISUALSTYLE
  5
35
102
{ACAD_REACTORS
330
2A
102
}
330
2A
100
AcDbVisualStyle
  2
Dim
 70
    11
177
     2
291
     1
 71
     2
176
     1
 72
     2
176
     1
 73
     0
176
     1
 90
        0
176
     1
 40
-0.6
176
     1
 41
-30.0
176
     1
 62
     5
 63
     7
421
 16777215
176
     1
 74
     1
176
     1
 91
        4
176
     1
 64
     7
176
     1
 65
   257
176
     1
 75
     1
176
     1
175
     1
176
     1
 42
1.0
176
     1
 92
        8
176
     1
 66
     7
176
     1
 43
1.0
176
     1
 76
     1
176
     1
 77
     6
176
     1
 78
     2
176
     1
 67
     7
176
     1
 79
     5
176
     1
170
     0
176
     1
171
     0
176
     1
290
     0
176
     1
 93
        1
176
     1
 44
-50.0
176
     1
173
     0
176
     1
  0
VISUALSTYLE
  5
39
102
{ACAD_REACTORS
330
2A
102
}
330
2A
100
AcDbVisualStyle
  2
Facepattern
 70
    15
177
     2
291
     1
 71
     2
176
     1
 72
     2
176
     1
 73
     0
176
     1
 90
        0
176
     1
 40
-0.6
176
     1
 41
-30.0
176
     1
 62
     5
 63
     7
421
 16777215
176
     1
 74
     1
176
     1
 91
        4
176
     1
 64
     7
176
     1
 65
   257
176
     1
 75
     1
176
     1
175
     1
176
     1
 42
1.0
176
     1
 92
        8
176
     1
 66
     7
176
     1
 43
1.0
176
     1
 76
     1
176
     1
 77
     6
176
     1
 78
     2
176
     1
 67
     7
176
     1
 79
     5
176
     1
170
     0
176
     1
171
     0
176
     1
290
     0
176
     1
 93
        1
176
     1
 44
0.0
176
     1
173
     0
176
     1
  0
VISUALSTYLE
  5
2B
102
{ACAD_REACTORS
330
2A
102
}
330
2A
100
AcDbVisualStyle
  2
Flat
 70
     0
177
     2
291
     1
 71
     2
176
     1
 72
     1
176
     1
 73
     1
176
     1
 90
        2
176
     1
 40
-0.6
176
     1
 41
30.0
176
     1
 62
     5
 63
     7
421
 16777215
176
     1
 74
     0
176
     1
 91
        4
176
     1
 64
     7
176
     1
 65
   257
176
     1
 75
     1
176
     1
175
     1
176
     1
 42
1.0
176
     1
 92
        8
176
     1
 66
     7
176
     1
 43
1.0
176
     1
 76
     1
176
     1
 77
     6
176
     1
 78
     2
176
     1
 67
     7
176
     1
 79
     5
176
     1
170
     0
176
     1
171
     0
176
     1
290
     0
176
     1
 93
       13
176
     1
 44
0.0
176
     1
173
     0
176
     1
  0
VISUALSTYLE
  5
2C
102
{ACAD_REACTORS
330
2A
102
}
330
2A
100
AcDbVisualStyle
  2
FlatWithEdges
 70
     1
177
     2
291
     1
 71
     2
176
     1
 72
     1
176
     1
 73
     1
176
     1
 90
        2
176
     1
 40
-0.6
176
     1
 41
30.0
176
     1
 62
     5
 63
     7
421
 16777215
176
     1
 74
     1
176
     1
 91
        4
176
     1
 64
     7
176
     1
 65
   257
176
     1
 75
     1
176
     1
175
     1
176
     1
 42
1.0
176
     1
 92
        0
176
     1
 66
   257
176
     1
 43
1.0
176
     1
 76
     1
176
     1
 77
     6
176
     1
 78
     2
176
     1
 67
     7
176
     1
 79
     5
176
     1
170
     0
176
     1
171
     0
176
     1
290
     0
176
     1
 93
       13
176
     1
 44
0.0
176
     1
173
     0
176
     1
  0
VISUALSTYLE
  5
2D
102
{ACAD_REACTORS
330
2A
102
}
330
2A
100
AcDbVisualStyle
  2
Gouraud
 70
     2
177
     2
291
     1
 71
     2
176
     1
 72
     2
176
     1
 73
     1
176
     1
 90
        2
176
     1
 40
-0.6
176
     1
 41
30.0
176
     1
 62
     5
 63
     7
421
 16777215
176
     1
 74
     0
176
     1
 91
        4
176
     1
 64
     7
176
     1
 65
   257
176
     1
 75
     1
176
     1
175
     1
176
     1
 42
1.0
176
     1
 92
        0
176
     1
 66
     7
176
     1
 43
1.0
176
     1
 76
     1
176
     1
 77
     6
176
     1
 78
     2
176
     1
 67
     7
176
     1
 79
     5
176
     1
170
     0
176
     1
171
     0
176
     1
290
     0
176
     1
 93
       13
176
     1
 44
0.0
176
     1
173
     0
176
     1
  0
VISUALSTYLE
  5
2E
102
{ACAD_REACTORS
330
2A
102
}
330
2A
100
AcDbVisualStyle
  2
GouraudWithEdges
 70
     3
177
     2
291
     1
 71
     2
176
     1
 72
     2
176
     1
 73
     1
176
     1
 90
        2
176
     1
 40
-0.6
176
     1
 41
30.0
176
     1
 62
     5
 63
     7
421
 16777215
176
     1
 74
     1
176
     1
 91
        4
176
     1
 64
     7
176
     1
 65
   257
176
     1
 75
     1
176
     1
175
     1
176
     1
 42
1.0
176
     1
 92
        0
176
     1
 66
   257
176
     1
 43
1.0
176
     1
 76
     1
176
     1
 77
     6
176
     1
 78
     2
176
     1
 67
     7
176
     1
 79
     5
176
     1
170
     0
176
     1
171
     0
176
     1
290
     0
176
     1
 93
       13
176
     1
 44
0.0
176
     1
173
     0
176
     1
  0
VISUALSTYLE
  5
38
102
{ACAD_REACTORS
330
2A
102
}
330
2A
100
AcDbVisualStyle
  2
Linepattern
 70
    14
177
     2
291
     1
 71
     2
176
     1
 72
     2
176
     1
 73
     0
176
     1
 90
        0
176
     1
 40
-0.6
176
     1
 41
-30.0
176
     1
 62
     5
 63
     7
421
 16777215
176
     1
 74
     1
176
     1
 91
        4
176
     1
 64
     7
176
     1
 65
   257
176
     1
 75
     7
176
     1
175
     7
176
     1
 42
1.0
176
     1
 92
        8
176
     1
 66
     7
176
     1
 43
1.0
176
     1
 76
     1
176
     1
 77
     6
176
     1
 78
     2
176
     1
 67
     7
176
     1
 79
     5
176
     1
170
     0
176
     1
171
     0
176
     1
290
     0
176
     1
 93
        1
176
     1
 44
0.0
176
     1
173
     0
176
     1
  0
VISUALSTYLE
  5
33
102
{ACAD_REACTORS
330
2A
102
}
330
2A
100
AcDbVisualStyle
  2
Realistic
 70
     8
177
     2
291
     0
 71
     2
176
     1
 72
     2
176
     1
 73
     0
176
     1
 90
        0
176
     1
 40
-0.6
176
     1
 41
-30.0
176
     1
 62
     5
 63
     7
421
 16777215
176
     1
 74
     1
176
     1
 91
        0
176
     1
 64
     7
176
     1
 65
   257
176
     1
 75
     1
176
     1
175
     1
176
     1
 42
1.0
176
     1
 92
        8
176
     1
 66
     8
424
  7895160
176
     1
 43
1.0
176
     1
 76
     1
176
     1
 77
     6
176
     1
 78
     2
176
     1
 67
     7
176
     1
 79
     5
176
     1
170
     0
176
     1
171
     0
176
     1
290
     0
176
     1
 93
       13
176
     1
 44
0.0
176
     1
173
     0
176
     1
  0
VISUALSTYLE
  5
37
102
{ACAD_REACTORS
330
2A
102
}
330
2A
100
AcDbVisualStyle
  2
Thicken
 70
    13
177
     2
291
     1
 71
     2
176
     1
 72
     2
176
     1
 73
     0
176
     1
 90
        0
176
     1
 40
-0.6
176
     1
 41
-30.0
176
     1
 62
     5
 63
     7
421
 16777215
176
     1
 74
     1
176
     1
 91
        4
176
     1
 64
     7
176
     1
 65
   257
176
     1
 75
     1
176
     1
175
     1
176
     1
 42
1.0
176
     1
 92
       12
176
     1
 66
     7
176
     1
 43
1.0
176
     1
 76
     1
176
     1
 77
     6
176
     1
 78
     2
176
     1
 67
     7
176
     1
 79
     5
176
     1
170
     0
176
     1
171
     0
176
     1
290
     0
176
     1
 93
        1
176
     1
 44
0.0
176
     1
173
     0
176
     1
  0
ENDSEC
  0
EOF
