  0
SECTION
  2
HEADER
  9
$ACADVER
  1
AC1024
  9
$ACADMAINTVER
 70
     6
  9
$DWGCODEPAGE
  3
UNDEFINED
  9
$INSBASE
 10
0.0
 20
0.0
 30
0.0
  9
$EXTMIN
 10
1.000000000000000E+20
 20
1.000000000000000E+20
 30
1.000000000000000E+20
  9
$EXTMAX
 10
-1.000000000000000E+20
 20
-1.000000000000000E+20
 30
-1.000000000000000E+20
  9
$LIMMIN
 10
0.0
 20
0.0
  9
$LIMMAX
 10
12.0
 20
9.0
  9
$ORTHOMODE
 70
     0
  9
$REGENMODE
 70
     1
  9
$FILLMODE
 70
     1
  9
$QTEXTMODE
 70
     0
  9
$MIRRTEXT
 70
     1
  9
$LTSCALE
 40
1.0
  9
$ATTMODE
 70
     1
  9
$TEXTSIZE
 40
0.2
  9
$TRACEWID
 40
0.05
  9
$TEXTSTYLE
  7
Standard
  9
$CLAYER
  8
0
  9
$CELTYPE
  6
ByLayer
  9
$CECOLOR
 62
   256
  9
$CELTSCALE
 40
1.0
  9
$DISPSILH
 70
     0
  9
$DIMSCALE
 40
1.0
  9
$DIMASZ
 40
0.18
  9
$DIMEXO
 40
0.0625
  9
$DIMDLI
 40
0.38
  9
$DIMRND
 40
0.0
  9
$DIMDLE
 40
0.0
  9
$DIMEXE
 40
0.18
  9
$DIMTP
 40
0.0
  9
$DIMTM
 40
0.0
  9
$DIMTXT
 40
0.18
  9
$DIMCEN
 40
0.09
  9
$DIMTSZ
 40
0.0
  9
$DIMTOL
 70
     0
  9
$DIMLIM
 70
     0
  9
$DIMTIH
 70
     1
  9
$DIMTOH
 70
     1
  9
$DIMSE1
 70
     0
  9
$DIMSE2
 70
     0
  9
$DIMTAD
 70
     0
  9
$DIMZIN
 70
     0
  9
$DIMBLK
  1

  9
$DIMASO
 70
     1
  9
$DIMSHO
 70
     1
  9
$DIMPOST
  1

  9
$DIMAPOST
  1

  9
$DIMALT
 70
     0
  9
$DIMALTD
 70
     2
  9
$DIMALTF
 40
25.4
  9
$DIMLFAC
 40
1.0
  9
$DIMTOFL
 70
     0
  9
$DIMTVP
 40
0.0
  9
$DIMTIX
 70
     0
  9
$DIMSOXD
 70
     0
  9
$DIMSAH
 70
     0
  9
$DIMBLK1
  1

  9
$DIMBLK2
  1

  9
$DIMSTYLE
  2
Standard
  9
$DIMCLRD
 70
     0
  9
$DIMCLRE
 70
     0
  9
$DIMCLRT
 70
     0
  9
$DIMTFAC
 40
1.0
  9
$DIMGAP
 40
0.09
  9
$DIMJUST
 70
     0
  9
$DIMSD1
 70
     0
  9
$DIMSD2
 70
     0
  9
$DIMTOLJ
 70
     1
  9
$DIMTZIN
 70
     0
  9
$DIMALTZ
 70
     0
  9
$DIMALTTZ
 70
     0
  9
$DIMUPT
 70
     0
  9
$DIMDEC
 70
     4
  9
$DIMTDEC
 70
     4
  9
$DIMALTU
 70
     2
  9
$DIMALTTD
 70
     2
  9
$DIMTXSTY
  7
Standard
  9
$DIMAUNIT
 70
     0
  9
$DIMADEC
 70
     0
  9
$DIMALTRND
 40
0.0
  9
$DIMAZIN
 70
     0
  9
$DIMDSEP
 70
    46
  9
$DIMATFIT
 70
     3
  9
$DIMFRAC
 70
     0
  9
$DIMLDRBLK
  1

  9
$DIMLUNIT
 70
     2
  9
$DIMLWD
 70
    -2
  9
$DIMLWE
 70
    -2
  9
$DIMTMOVE
 70
     0
  9
$DIMFXL
 40
1.0
  9
$DIMFXLON
 70
     0
  9
$DIMJOGANG
 40
0.7853981633974483
  9
$DIMTFILL
 70
     0
  9
$DIMTFILLCLR
 70
     0
  9
$DIMARCSYM
 70
     0
  9
$DIMLTYPE
  6

  9
$DIMLTEX1
  6

  9
$DIMLTEX2
  6

  9
$DIMTXTDIRECTION
 70
     0
  9
$LUNITS
 70
     2
  9
$LUPREC
 70
     4
  9
$SKETCHINC
 40
0.1
  9
$FILLETRAD
 40
0.5
  9
$AUNITS
 70
     0
  9
$AUPREC
 70
     0
  9
$MENU
  1
.
  9
$ELEVATION
 40
0.0
  9
$PELEVATION
 40
0.0
  9
$THICKNESS
 40
0.0
  9
$LIMCHECK
 70
     0
  9
$CHAMFERA
 40
0.5
  9
$CHAMFERB
 40
0.5
  9
$CHAMFERC
 40
1.0
  9
$CHAMFERD
 40
0.0
  9
$SKPOLY
 70
     0
  9
$TDCREATE
 40
2457917.586932871
  9
$TDUCREATE
 40
2457917.211932871
  9
$TDUPDATE
 40
2457917.586932871
  9
$TDUUPDATE
 40
2457917.211932871
  9
$TDINDWG
 40
0.0000000116
  9
$TDUSRTIMER
 40
0.0000000116
  9
$USRTIMER
 70
     1
  9
$ANGBASE
 50
0.0
  9
$ANGDIR
 70
     0
  9
$PDMODE
 70
     0
  9
$PDSIZE
 40
0.0
  9
$PLINEWID
 40
0.0
  9
$SPLFRAME
 70
     0
  9
$SPLINETYPE
 70
     6
  9
$SPLINESEGS
 70
     8
  9
$HANDSEED
  5
F0
  9
$SURFTAB1
 70
     6
  9
$SURFTAB2
 70
     6
  9
$SURFTYPE
 70
     6
  9
$SURFU
 70
     6
  9
$SURFV
 70
     6
  9
$UCSBASE
  2

  9
$UCSNAME
  2

  9
$UCSORG
 10
0.0
 20
0.0
 30
0.0
  9
$UCSXDIR
 10
1.0
 20
0.0
 30
0.0
  9
$UCSYDIR
 10
0.0
 20
1.0
 30
0.0
  9
$UCSORTHOREF
  2

  9
$UCSORTHOVIEW
 70
     0
  9
$UCSORGTOP
 10
0.0
 20
0.0
 30
0.0
  9
$UCSORGBOTTOM
 10
0.0
 20
0.0
 30
0.0
  9
$UCSORGLEFT
 10
0.0
 20
0.0
 30
0.0
  9
$UCSORGRIGHT
 10
0.0
 20
0.0
 30
0.0
  9
$UCSORGFRONT
 10
0.0
 20
0.0
 30
0.0
  9
$UCSORGBACK
 10
0.0
 20
0.0
 30
0.0
  9
$PUCSBASE
  2

  9
$PUCSNAME
  2

  9
$PUCSORG
 10
0.0
 20
0.0
 30
0.0
  9
$PUCSXDIR
 10
1.0
 20
0.0
 30
0.0
  9
$PUCSYDIR
 10
0.0
 20
1.0
 30
0.0
  9
$PUCSORTHOREF
  2

  9
$PUCSORTHOVIEW
 70
     0
  9
$PUCSORGTOP
 10
0.0
 20
0.0
 30
0.0
  9
$PUCSORGBOTTOM
 10
0.0
 20
0.0
 30
0.0
  9
$PUCSORGLEFT
 10
0.0
 20
0.0
 30
0.0
  9
$PUCSORGRIGHT
 10
0.0
 20
0.0
 30
0.0
  9
$PUCSORGFRONT
 10
0.0
 20
0.0
 30
0.0
  9
$PUCSORGBACK
 10
0.0
 20
0.0
 30
0.0
  9
$USERI1
 70
     0
  9
$USERI2
 70
     0
  9
$USERI3
 70
     0
  9
$USERI4
 70
     0
  9
$USERI5
 70
     0
  9
$USERR1
 40
0.0
  9
$USERR2
 40
0.0
  9
$USERR3
 40
0.0
  9
$USERR4
 40
0.0
  9
$USERR5
 40
0.0
  9
$WORLDVIEW
 70
     1
  9
$SHADEDGE
 70
     3
  9
$SHADEDIF
 70
    70
  9
$TILEMODE
 70
     1
  9
$MAXACTVP
 70
    64
  9
$PINSBASE
 10
0.0
 20
0.0
 30
0.0
  9
$PLIMCHECK
 70
     0
  9
$PEXTMIN
 10
1.000000000000000E+20
 20
1.000000000000000E+20
 30
1.000000000000000E+20
  9
$PEXTMAX
 10
-1.000000000000000E+20
 20
-1.000000000000000E+20
 30
-1.000000000000000E+20
  9
$PLIMMIN
 10
0.0
 20
0.0
  9
$PLIMMAX
 10
12.0
 20
9.0
  9
$UNITMODE
 70
     0
  9
$VISRETAIN
 70
     1
  9
$PLINEGEN
 70
     0
  9
$PSLTSCALE
 70
     1
  9
$TREEDEPTH
 70
  3020
  9
$CMLSTYLE
  2
Standard
  9
$CMLJUST
 70
     0
  9
$CMLSCALE
 40
1.0
  9
$PROXYGRAPHICS
 70
     1
  9
$MEASUREMENT
 70
     0
  9
$CELWEIGHT
370
    -1
  9
$ENDCAPS
280
     0
  9
$JOINSTYLE
280
     0
  9
$LWDISPLAY
290
     1
  9
$INSUNITS
 70
     1
  9
$HYPERLINKBASE
  1

  9
$STYLESHEET
  1

  9
$XEDIT
290
     1
  9
$CEPSNTYPE
380
     0
  9
$PSTYLEMODE
290
     1
  9
$FINGERPRINTGUID
  2
{9DE75A49-F2A4-145D-86DC-FD1C309AB486}
  9
$VERSIONGUID
  2
{FAEB1C32-E019-11D5-929B-00C0DF256EC4}
  9
$EXTNAMES
290
     1
  9
$PSVPSCALE
 40
0.0
  9
$OLESTARTUP
290
     0
  9
$SORTENTS
280
   127
  9
$INDEXCTL
280
     0
  9
$HIDETEXT
280
     1
  9
$XCLIPFRAME
280
     2
  9
$HALOGAP
280
     0
  9
$OBSCOLOR
 70
   257
  9
$OBSLTYPE
280
     0
  9
$INTERSECTIONDISPLAY
280
     0
  9
$INTERSECTIONCOLOR
 70
   257
  9
$DIMASSOC
280
     2
  9
$PROJECTNAME
  1

  9
$CAMERADISPLAY
290
     0
  9
$LENSLENGTH
 40
50.0
  9
$CAMERAHEIGHT
 40
0.0
  9
$STEPSPERSEC
 40
2.0
  9
$STEPSIZE
 40
6.0
  9
$3DDWFPREC
 40
2.0
  9
$PSOLWIDTH
 40
0.25
  9
$PSOLHEIGHT
 40
4.0
  9
$LOFTANG1
 40
1.570796326794897
  9
$LOFTANG2
 40
1.570796326794897
  9
$LOFTMAG1
 40
0.0
  9
$LOFTMAG2
 40
0.0
  9
$LOFTPARAM
 70
     7
  9
$LOFTNORMALS
280
     1
  9
$LATITUDE
 40
37.795
  9
$LONGITUDE
 40
-122.394
  9
$NORTHDIRECTION
 40
0.0
  9
$TIMEZONE
 70
 -8000
  9
$LIGHTGLYPHDISPLAY
280
     1
  9
$TILEMODELIGHTSYNCH
280
     1
  9
$CMATERIAL
347
3C
  9
$SOLIDHIST
280
     1
  9
$SHOWHIST
280
     1
  9
$DWFFRAME
280
     2
  9
$DGNFRAME
280
     2
  9
$REALWORLDSCALE
290
     1
  9
$INTERFERECOLOR
 62
   256
  9
$CSHADOW
280
     0
  9
$SHADOWPLANELOCATION
 40
0.0
  0
ENDSEC
  0
SECTION
  2
CLASSES
  0
CLASS
  1
ACDBDICTIONARYWDFLT
  2
AcDbDictionaryWithDefault
  3
ObjectDBX Classes
 90
        0
 91
        4
280
     0
281
     0
  0
CLASS
  1
VISUALSTYLE
  2
AcDbVisualStyle
  3
ObjectDBX Classes
 90
     4095
 91
        4
280
     0
281
     0
  0
CLASS
  1
MATERIAL
  2
AcDbMaterial
  3
ObjectDBX Classes
 90
     1153
 91
        4
280
     0
281
     0
  0
CLASS
  1
SUN
  2
AcDbSun
  3
SCENEOE
 90
     1024
 91
        4
280
     0
281
     0
  0
ENDSEC
  0
SECTION
  2
TABLES
  0
TABLE
  2
VPORT
  5
8
330
0
100
AcDbSymbolTable
 70
     1
  0
VPORT
  5
29
330
8
100
AcDbSymbolTableRecord
100
AcDbViewportTableRecord
  2
*Active
 70
     0
 10
0.0
 20
0.0
 11
1.0
 21
1.0
 12
0.0
 22
0.0
 13
0.0
 23
0.0
 14
0.5
 24
0.5
 15
0.5
 25
0.5
 16
0.0
 26
0.0
 36
1.0
 17
63.499999984125
 27
-89.00059456108309
 37
0.0
 40
178.0011891221662
 41
0.7134783795241226
 42
50.0
 43
0.0
 44
0.0
 50
0.0
 51
0.0
 71
     0
 72
   100
 73
     1
 74
     3
 75
     0
 76
     0
 77
     0
 78
     0
281
     0
 65
     1
110
0.0
120
0.0
130
0.0
111
1.0
121
0.0
131
0.0
112
0.0
122
1.0
132
0.0
 79
     0
146
0.0
 60
     3
 61
     5
292
     1
282
     1
141
0.0
142
0.0
 63
   250
361
3F
  0
ENDTAB
  0
TABLE
  2
LTYPE
  5
5
330
0
100
AcDbSymbolTable
 70
     1
  0
LTYPE
  5
14
330
5
100
AcDbSymbolTableRecord
100
AcDbLinetypeTableRecord
  2
ByBlock
 70
     0
  3

 72
    65
 73
     0
 40
0.0
  0
LTYPE
  5
15
330
5
100
AcDbSymbolTableRecord
100
AcDbLinetypeTableRecord
  2
ByLayer
 70
     0
  3

 72
    65
 73
     0
 40
0.0
  0
LTYPE
  5
16
330
5
100
AcDbSymbolTableRecord
100
AcDbLinetypeTableRecord
  2
Continuous
 70
     0
  3
Solid line
 72
    65
 73
     0
 40
0.0
  0
ENDTAB
  0
TABLE
  2
LAYER
  5
2
330
0
100
AcDbSymbolTable
 70
     2
  0
LAYER
  5
10
330
2
100
AcDbSymbolTableRecord
100
AcDbLayerTableRecord
  2
0
 70
     0
 62
     7
  6
Continuous
370
    -3
390
F
347
3E
  0
LAYER
  5
40
330
2
100
AcDbSymbolTableRecord
100
AcDbLayerTableRecord
  2
_U+30EC_U+30A4_U+30E4_U+30FC 1
 70
     0
 62
     7
  6
Continuous
370
    -3
390
F
347
3E
  0
ENDTAB
  0
TABLE
  2
STYLE
  5
3
330
0
100
AcDbSymbolTable
 70
     1
  0
STYLE
  5
11
330
3
100
AcDbSymbolTableRecord
100
AcDbTextStyleTableRecord
  2
Standard
 70
     0
 40
0.0
 41
1.0
 50
0.0
 71
     0
 42
0.2
  3
txt
  4

  0
ENDTAB
  0
TABLE
  2
VIEW
  5
6
330
0
100
AcDbSymbolTable
 70
     0
  0
ENDTAB
  0
TABLE
  2
UCS
  5
7
330
0
100
AcDbSymbolTable
 70
     0
  0
ENDTAB
  0
TABLE
  2
APPID
  5
9
330
0
100
AcDbSymbolTable
 70
     1
  0
APPID
  5
12
330
9
100
AcDbSymbolTableRecord
100
AcDbRegAppTableRecord
  2
ACAD
 70
     0
  0
ENDTAB
  0
TABLE
  2
DIMSTYLE
  5
A
330
0
100
AcDbSymbolTable
 70
     1
100
AcDbDimStyleTable
  0
DIMSTYLE
105
27
330
A
100
AcDbSymbolTableRecord
100
AcDbDimStyleTableRecord
  2
Standard
 70
     0
178
     0
340
11
  0
ENDTAB
  0
TABLE
  2
BLOCK_RECORD
  5
1
330
0
100
AcDbSymbolTable
 70
     7
  0
BLOCK_RECORD
  5
1F
330
1
100
AcDbSymbolTableRecord
100
AcDbBlockTableRecord
  2
*Model_Space
340
22
 70
     0
280
     1
281
     0
  0
BLOCK_RECORD
  5
1B
330
1
100
AcDbSymbolTableRecord
100
AcDbBlockTableRecord
  2
*Paper_Space
340
1E
 70
     0
280
     1
281
     0
  0
BLOCK_RECORD
  5
23
330
1
100
AcDbSymbolTableRecord
100
AcDbBlockTableRecord
  2
*Paper_Space0
340
26
 70
     0
280
     1
281
     0
  0
BLOCK_RECORD
  5
41
330
1
100
AcDbSymbolTableRecord
100
AcDbBlockTableRecord
  2
block 2
340
0
102
{BLKREFS
331
42
102
}
 70
     0
280
     1
281
     0
  0
BLOCK_RECORD
  5
85
330
1
100
AcDbSymbolTableRecord
100
AcDbBlockTableRecord
  2
block 3
340
0
102
{BLKREFS
331
86
102
}
 70
     0
280
     1
281
     0
  0
BLOCK_RECORD
  5
97
330
1
100
AcDbSymbolTableRecord
100
AcDbBlockTableRecord
  2
block 4
340
0
102
{BLKREFS
331
98
102
}
 70
     0
280
     1
281
     0
  0
BLOCK_RECORD
  5
B8
330
1
100
AcDbSymbolTableRecord
100
AcDbBlockTableRecord
  2
block 5
340
0
102
{BLKREFS
331
B9
102
}
 70
     0
280
     1
281
     0
  0
BLOCK_RECORD
  5
CC
330
1
100
AcDbSymbolTableRecord
100
AcDbBlockTableRecord
  2
block 6
340
0
102
{BLKREFS
331
CD
102
}
 70
     0
280
     1
281
     0
  0
BLOCK_RECORD
  5
DC
330
1
100
AcDbSymbolTableRecord
100
AcDbBlockTableRecord
  2
block 7
340
0
102
{BLKREFS
331
DD
102
}
 70
     0
280
     1
281
     0
  0
ENDTAB
  0
ENDSEC
  0
SECTION
  2
BLOCKS
  0
BLOCK
  5
20
330
1F
100
AcDbEntity
  8
0
100
AcDbBlockBegin
  2
*Model_Space
 70
     0
 10
0.0
 20
0.0
 30
0.0
  3
*Model_Space
  1

  0
ENDBLK
  5
21
330
1F
100
AcDbEntity
  8
0
100
AcDbBlockEnd
  0
BLOCK
  5
1C
330
1B
100
AcDbEntity
 67
     1
  8
0
100
AcDbBlockBegin
  2
*Paper_Space
 70
     0
 10
0.0
 20
0.0
 30
0.0
  3
*Paper_Space
  1

  0
ENDBLK
  5
1D
330
1B
100
AcDbEntity
 67
     1
  8
0
100
AcDbBlockEnd
  0
BLOCK
  5
24
330
23
100
AcDbEntity
  8
0
100
AcDbBlockBegin
  2
*Paper_Space0
 70
     0
 10
0.0
 20
0.0
 30
0.0
  3
*Paper_Space0
  1

  0
ENDBLK
  5
25
330
23
100
AcDbEntity
  8
0
100
AcDbBlockEnd
  0
BLOCK
  5
43
330
41
100
AcDbEntity
  8
0
100
AcDbBlockBegin
  2
block 2
 70
     0
 10
0.0
 20
0.0
 30
0.0
  3
block 2
  1

  0
POLYLINE
  5
45
330
41
100
AcDbEntity
  8
_U+30EC_U+30A4_U+30E4_U+30FC 1
 62
   179
420
  2234388
370
    25
100
AcDb2dPolyline
 66
     1
 10
0.0
 20
0.0
 30
0.0
  0
VERTEX
  5
46
330
45
100
AcDbEntity
  8
_U+30EC_U+30A4_U+30E4_U+30FC 1
 62
   179
420
  2234388
370
    25
100
AcDbVertex
100
AcDb2dVertex
 10
49.42024957251773
 20
-82.48487720160115
 30
0.0
  0
VERTEX
  5
47
330
45
100
AcDbEntity
  8
_U+30EC_U+30A4_U+30E4_U+30FC 1
 62
   179
420
  2234388
370
    25
100
AcDbVertex
100
AcDb2dVertex
 10
72.42037231906905
 20
-82.48487720160115
 30
0.0
  0
SEQEND
  5
48
330
45
100
AcDbEntity
  8
_U+30EC_U+30A4_U+30E4_U+30FC 1
 62
   179
420
  2234388
370
    25
  0
POLYLINE
  5
49
330
41
100
AcDbEntity
  8
_U+30EC_U+30A4_U+30E4_U+30FC 1
 62
   179
420
  2234388
370
    25
100
AcDb2dPolyline
 66
     1
 10
0.0
 20
0.0
 30
0.0
  0
VERTEX
  5
4A
330
49
100
AcDbEntity
  8
_U+30EC_U+30A4_U+30E4_U+30FC 1
 62
   179
420
  2234388
370
    25
100
AcDbVertex
100
AcDb2dVertex
 10
72.42037231906905
 20
-82.48487720160115
 30
0.0
  0
VERTEX
  5
4B
330
49
100
AcDbEntity
  8
_U+30EC_U+30A4_U+30E4_U+30FC 1
 62
   179
420
  2234388
370
    25
100
AcDbVertex
100
AcDb2dVertex
 10
72.42037231906905
 20
-83.48464942357337
 30
0.0
  0
SEQEND
  5
4C
330
49
100
AcDbEntity
  8
_U+30EC_U+30A4_U+30E4_U+30FC 1
 62
   179
420
  2234388
370
    25
  0
POLYLINE
  5
4D
330
41
100
AcDbEntity
  8
_U+30EC_U+30A4_U+30E4_U+30FC 1
 62
   179
420
  2234388
370
    25
100
AcDb2dPolyline
 66
     1
 10
0.0
 20
0.0
 30
0.0
  0
VERTEX
  5
4E
330
4D
100
AcDbEntity
  8
_U+30EC_U+30A4_U+30E4_U+30FC 1
 62
   179
420
  2234388
370
    25
100
AcDbVertex
100
AcDb2dVertex
 10
49.42024957251773
 20
-83.48464942357337
 30
0.0
  0
VERTEX
  5
4F
330
4D
100
AcDbEntity
  8
_U+30EC_U+30A4_U+30E4_U+30FC 1
 62
   179
420
  2234388
370
    25
100
AcDbVertex
100
AcDb2dVertex
 10
57.42008520175825
 20
-83.48464942357337
 30
0.0
  0
SEQEND
  5
50
330
4D
100
AcDbEntity
  8
_U+30EC_U+30A4_U+30E4_U+30FC 1
 62
   179
420
  2234388
370
    25
  0
POLYLINE
  5
51
330
41
100
AcDbEntity
  8
_U+30EC_U+30A4_U+30E4_U+30FC 1
 62
   179
420
  2234388
370
    25
100
AcDb2dPolyline
 66
     1
 10
0.0
 20
0.0
 30
0.0
  0
VERTEX
  5
52
330
51
100
AcDbEntity
  8
_U+30EC_U+30A4_U+30E4_U+30FC 1
 62
   179
420
  2234388
370
    25
100
AcDbVertex
100
AcDb2dVertex
 10
57.42008520175825
 20
-83.48464942357337
 30
0.0
  0
VERTEX
  5
53
330
51
100
AcDbEntity
  8
_U+30EC_U+30A4_U+30E4_U+30FC 1
 62
   179
420
  2234388
370
    25
100
AcDbVertex
100
AcDb2dVertex
 10
57.42008520175825
 20
-97.18477442014803
 30
0.0
  0
SEQEND
  5
54
330
51
100
AcDbEntity
  8
_U+30EC_U+30A4_U+30E4_U+30FC 1
 62
   179
420
  2234388
370
    25
  0
POLYLINE
  5
55
330
41
100
AcDbEntity
  8
_U+30EC_U+30A4_U+30E4_U+30FC 1
 62
   179
420
  2234388
370
    25
100
AcDb2dPolyline
 66
     1
 10
0.0
 20
0.0
 30
0.0
  0
VERTEX
  5
56
330
55
100
AcDbEntity
  8
_U+30EC_U+30A4_U+30E4_U+30FC 1
 62
   179
420
  2234388
370
    25
100
AcDbVertex
100
AcDb2dVertex
 10
61.42019704415134
 20
-96.18500219817614
 30
0.0
  0
VERTEX
  5
57
330
55
100
AcDbEntity
  8
_U+30EC_U+30A4_U+30E4_U+30FC 1
 62
   179
420
  2234388
370
    25
100
AcDbVertex
100
AcDb2dVertex
 10
61.42019704415134
 20
-97.18477442014803
 30
0.0
  0
SEQEND
  5
58
330
55
100
AcDbEntity
  8
_U+30EC_U+30A4_U+30E4_U+30FC 1
 62
   179
420
  2234388
370
    25
  0
POLYLINE
  5
59
330
41
100
AcDbEntity
  8
_U+30EC_U+30A4_U+30E4_U+30FC 1
 62
   179
420
  2234388
370
    25
100
AcDb2dPolyline
 66
     1
 10
0.0
 20
0.0
 30
0.0
  0
VERTEX
  5
5A
330
59
100
AcDbEntity
  8
_U+30EC_U+30A4_U+30E4_U+30FC 1
 62
   179
420
  2234388
370
    25
100
AcDbVertex
100
AcDb2dVertex
 10
58.42021017624294
 20
-96.18500219817614
 30
0.0
  0
VERTEX
  5
5B
330
59
100
AcDbEntity
  8
_U+30EC_U+30A4_U+30E4_U+30FC 1
 62
   179
420
  2234388
370
    25
100
AcDbVertex
100
AcDb2dVertex
 10
61.42019704415134
 20
-96.18500219817614
 30
0.0
  0
SEQEND
  5
5C
330
59
100
AcDbEntity
  8
_U+30EC_U+30A4_U+30E4_U+30FC 1
 62
   179
420
  2234388
370
    25
  0
POLYLINE
  5
5D
330
41
100
AcDbEntity
  8
_U+30EC_U+30A4_U+30E4_U+30FC 1
 62
   179
420
  2234388
370
    25
100
AcDb2dPolyline
 66
     1
 10
0.0
 20
0.0
 30
0.0
  0
VERTEX
  5
5E
330
5D
100
AcDbEntity
  8
_U+30EC_U+30A4_U+30E4_U+30FC 1
 62
   179
420
  2234388
370
    25
100
AcDbVertex
100
AcDb2dVertex
 10
57.42008520175825
 20
-97.18477442014803
 30
0.0
  0
VERTEX
  5
5F
330
5D
100
AcDbEntity
  8
_U+30EC_U+30A4_U+30E4_U+30FC 1
 62
   179
420
  2234388
370
    25
100
AcDbVertex
100
AcDb2dVertex
 10
61.42019704415134
 20
-97.18477442014803
 30
0.0
  0
SEQEND
  5
60
330
5D
100
AcDbEntity
  8
_U+30EC_U+30A4_U+30E4_U+30FC 1
 62
   179
420
  2234388
370
    25
  0
POLYLINE
  5
61
330
41
100
AcDbEntity
  8
_U+30EC_U+30A4_U+30E4_U+30FC 1
 62
   179
420
  2234388
370
    25
100
AcDb2dPolyline
 66
     1
 10
0.0
 20
0.0
 30
0.0
  0
VERTEX
  5
62
330
61
100
AcDbEntity
  8
_U+30EC_U+30A4_U+30E4_U+30FC 1
 62
   179
420
  2234388
370
    25
100
AcDbVertex
100
AcDb2dVertex
 10
58.42021017624294
 20
-83.48464942357337
 30
0.0
  0
VERTEX
  5
63
330
61
100
AcDbEntity
  8
_U+30EC_U+30A4_U+30E4_U+30FC 1
 62
   179
420
  2234388
370
    25
100
AcDbVertex
100
AcDb2dVertex
 10
58.42021017624294
 20
-96.18500219817614
 30
0.0
  0
SEQEND
  5
64
330
61
100
AcDbEntity
  8
_U+30EC_U+30A4_U+30E4_U+30FC 1
 62
   179
420
  2234388
370
    25
  0
POLYLINE
  5
65
330
41
100
AcDbEntity
  8
_U+30EC_U+30A4_U+30E4_U+30FC 1
 62
   179
420
  2234388
370
    25
100
AcDb2dPolyline
 66
     1
 10
0.0
 20
0.0
 30
0.0
  0
VERTEX
  5
66
330
65
100
AcDbEntity
  8
_U+30EC_U+30A4_U+30E4_U+30FC 1
 62
   179
420
  2234388
370
    25
100
AcDbVertex
100
AcDb2dVertex
 10
58.42021017624294
 20
-83.48464942357337
 30
0.0
  0
VERTEX
  5
67
330
65
100
AcDbEntity
  8
_U+30EC_U+30A4_U+30E4_U+30FC 1
 62
   179
420
  2234388
370
    25
100
AcDbVertex
100
AcDb2dVertex
 10
72.42037231906905
 20
-83.48464942357337
 30
0.0
  0
SEQEND
  5
68
330
65
100
AcDbEntity
  8
_U+30EC_U+30A4_U+30E4_U+30FC 1
 62
   179
420
  2234388
370
    25
  0
POLYLINE
  5
69
330
41
100
AcDbEntity
  8
_U+30EC_U+30A4_U+30E4_U+30FC 1
 62
   179
420
  2234388
370
    25
100
AcDb2dPolyline
 66
     1
 10
0.0
 20
0.0
 30
0.0
  0
VERTEX
  5
6A
330
69
100
AcDbEntity
  8
_U+30EC_U+30A4_U+30E4_U+30FC 1
 62
   179
420
  2234388
370
    25
100
AcDbVertex
100
AcDb2dVertex
 10
49.42024957251773
 20
-82.48487720160115
 30
0.0
  0
VERTEX
  5
6B
330
69
100
AcDbEntity
  8
_U+30EC_U+30A4_U+30E4_U+30FC 1
 62
   179
420
  2234388
370
    25
100
AcDbVertex
100
AcDb2dVertex
 10
49.42024957251773
 20
-83.48464942357337
 30
0.0
  0
SEQEND
  5
6C
330
69
100
AcDbEntity
  8
_U+30EC_U+30A4_U+30E4_U+30FC 1
 62
   179
420
  2234388
370
    25
  0
SPLINE
  5
6D
330
41
100
AcDbEntity
  8
_U+30EC_U+30A4_U+30E4_U+30FC 1
 62
   179
420
  2234388
370
     9
100
AcDbSpline
210
0.0
220
0.0
230
1.0
 70
    11
 71
     3
 72
    17
 73
    13
 74
     0
 42
0.0000000001
 43
0.0000000001
 12
1.0
 22
0.0
 32
0.0
 13
1.0
 23
0.0
 33
0.0
 40
0.0
 40
0.0
 40
0.0
 40
0.0
 40
1.0
 40
1.0
 40
1.0
 40
2.0
 40
2.0
 40
2.0
 40
3.0
 40
3.0
 40
3.0
 40
4.0
 40
4.0
 40
4.0
 40
4.0
 10
76.52039082557997
 20
-82.48487720160115
 30
0.0
 10
76.52039082557997
 20
-82.42977331272591
 30
0.0
 10
76.47562332672209
 20
-82.3849705349592
 30
0.0
 10
76.42013331422824
 20
-82.3849705349592
 30
0.0
 10
76.36502749621029
 20
-82.3849705349592
 30
0.0
 10
76.32022471957552
 20
-82.42977331272591
 30
0.0
 10
76.32022471957552
 20
-82.48487720160115
 30
0.0
 10
76.32022471957552
 20
-82.5400163682539
 30
0.0
 10
76.36502749621029
 20
-82.5847838682428
 30
0.0
 10
76.42013331422824
 20
-82.5847838682428
 30
0.0
 10
76.47562332672209
 20
-82.5847838682428
 30
0.0
 10
76.52039082557997
 20
-82.5400163682539
 30
0.0
 10
76.52039082557997
 20
-82.48487720160115
 30
0.0
  0
SPLINE
  5
6E
330
41
100
AcDbEntity
  8
_U+30EC_U+30A4_U+30E4_U+30FC 1
 62
   179
420
  2234388
370
     9
100
AcDbSpline
210
0.0
220
0.0
230
1.0
 70
    11
 71
     3
 72
    17
 73
    13
 74
     0
 42
0.0000000001
 43
0.0000000001
 12
1.0
 22
0.0
 32
0.0
 13
1.0
 23
0.0
 33
0.0
 40
0.0
 40
0.0
 40
0.0
 40
0.0
 40
1.0
 40
1.0
 40
1.0
 40
2.0
 40
2.0
 40
2.0
 40
3.0
 40
3.0
 40
3.0
 40
4.0
 40
4.0
 40
4.0
 40
4.0
 10
76.52039082557997
 20
-83.48464942357337
 30
0.0
 10
76.52039082557997
 20
-83.42954553469814
 30
0.0
 10
76.47562332672209
 20
-83.38474275693173
 30
0.0
 10
76.42013331422824
 20
-83.38474275693173
 30
0.0
 10
76.36502749621029
 20
-83.38474275693173
 30
0.0
 10
76.32022471957552
 20
-83.42954553469814
 30
0.0
 10
76.32022471957552
 20
-83.48464942357337
 30
0.0
 10
76.32022471957552
 20
-83.54010609022605
 30
0.0
 10
76.36502749621029
 20
-83.58490886799277
 30
0.0
 10
76.42013331422824
 20
-83.58490886799277
 30
0.0
 10
76.47562332672209
 20
-83.58490886799277
 30
0.0
 10
76.52039082557997
 20
-83.54010609022605
 30
0.0
 10
76.52039082557997
 20
-83.48464942357337
 30
0.0
  0
SPLINE
  5
6F
330
41
100
AcDbEntity
  8
_U+30EC_U+30A4_U+30E4_U+30FC 1
 62
   179
420
  2234388
370
     9
100
AcDbSpline
210
0.0
220
0.0
230
1.0
 70
    11
 71
     3
 72
    17
 73
    13
 74
     0
 42
0.0000000001
 43
0.0000000001
 12
1.0
 22
0.0
 32
0.0
 13
1.0
 23
0.0
 33
0.0
 40
0.0
 40
0.0
 40
0.0
 40
0.0
 40
1.0
 40
1.0
 40
1.0
 40
2.0
 40
2.0
 40
2.0
 40
3.0
 40
3.0
 40
3.0
 40
4.0
 40
4.0
 40
4.0
 40
4.0
 10
72.52027898318688
 20
-78.48480053593434
 30
0.0
 10
72.52027898318688
 20
-78.42966136928159
 30
0.0
 10
72.47551148432899
 20
-78.38489386929271
 30
0.0
 10
72.42037231906905
 20
-78.38489386929271
 30
0.0
 10
72.36491565381719
 20
-78.38489386929271
 30
0.0
 10
72.32014998192011
 20
-78.42966136928159
 30
0.0
 10
72.32014998192011
 20
-78.48480053593434
 30
0.0
 10
72.32014998192011
 20
-78.53990442480958
 30
0.0
 10
72.36491565381719
 20
-78.58502470257591
 30
0.0
 10
72.42037231906905
 20
-78.58502470257591
 30
0.0
 10
72.47551148432899
 20
-78.58502470257591
 30
0.0
 10
72.52027898318688
 20
-78.53990442480958
 30
0.0
 10
72.52027898318688
 20
-78.48480053593434
 30
0.0
  0
SPLINE
  5
70
330
41
100
AcDbEntity
  8
_U+30EC_U+30A4_U+30E4_U+30FC 1
 62
   179
420
  2234388
370
     9
100
AcDbSpline
210
0.0
220
0.0
230
1.0
 70
    11
 71
     3
 72
    17
 73
    13
 74
     0
 42
0.0000000001
 43
0.0000000001
 12
1.0
 22
0.0
 32
0.0
 13
1.0
 23
0.0
 33
0.0
 40
0.0
 40
0.0
 40
0.0
 40
0.0
 40
1.0
 40
1.0
 40
1.0
 40
2.0
 40
2.0
 40
2.0
 40
3.0
 40
3.0
 40
3.0
 40
4.0
 40
4.0
 40
4.0
 40
4.0
 10
57.51999186587609
 20
-101.1848510858152
 30
0.0
 10
57.51999186587609
 20
-101.1297471969396
 30
0.0
 10
57.4752243670182
 20
-101.0849444191735
 30
0.0
 10
57.42008520175825
 20
-101.0849444191735
 30
0.0
 10
57.36498131427518
 20
-101.0849444191735
 30
0.0
 10
57.32017853764042
 20
-101.1297471969396
 30
0.0
 10
57.32017853764042
 20
-101.1848510858152
 30
0.0
 10
57.32017853764042
 20
-101.2399902524676
 30
0.0
 10
57.36498131427518
 20
-101.2847577524568
 30
0.0
 10
57.42008520175825
 20
-101.2847577524568
 30
0.0
 10
57.4752243670182
 20
-101.2847577524568
 30
0.0
 10
57.51999186587609
 20
-101.2399902524676
 30
0.0
 10
57.51999186587609
 20
-101.1848510858152
 30
0.0
  0
SPLINE
  5
71
330
41
100
AcDbEntity
  8
_U+30EC_U+30A4_U+30E4_U+30FC 1
 62
   179
420
  2234388
370
     9
100
AcDbSpline
210
0.0
220
0.0
230
1.0
 70
    11
 71
     3
 72
    17
 73
    13
 74
     0
 42
0.0000000001
 43
0.0000000001
 12
1.0
 22
0.0
 32
0.0
 13
1.0
 23
0.0
 33
0.0
 40
0.0
 40
0.0
 40
0.0
 40
0.0
 40
1.0
 40
1.0
 40
1.0
 40
2.0
 40
2.0
 40
2.0
 40
3.0
 40
3.0
 40
3.0
 40
4.0
 40
4.0
 40
4.0
 40
4.0
 10
61.52010370826918
 20
-101.1848510858152
 30
0.0
 10
61.52010370826918
 20
-101.1297471969396
 30
0.0
 10
61.47530093163441
 20
-101.0849444191735
 30
0.0
 10
61.42019704415134
 20
-101.0849444191735
 30
0.0
 10
61.36505787889139
 20
-101.0849444191735
 30
0.0
 10
61.32029038003351
 20
-101.1297471969396
 30
0.0
 10
61.32029038003351
 20
-101.1848510858152
 30
0.0
 10
61.32029038003351
 20
-101.2399902524676
 30
0.0
 10
61.36505787889139
 20
-101.2847577524568
 30
0.0
 10
61.42019704415134
 20
-101.2847577524568
 30
0.0
 10
61.47530093163441
 20
-101.2847577524568
 30
0.0
 10
61.52010370826918
 20
-101.2399902524676
 30
0.0
 10
61.52010370826918
 20
-101.1848510858152
 30
0.0
  0
SPLINE
  5
72
330
41
100
AcDbEntity
  8
_U+30EC_U+30A4_U+30E4_U+30FC 1
 62
   179
420
  2234388
370
     9
100
AcDbSpline
210
0.0
220
0.0
230
1.0
 70
    11
 71
     3
 72
    17
 73
    13
 74
     0
 42
0.0000000001
 43
0.0000000001
 12
1.0
 22
0.0
 32
0.0
 13
1.0
 23
0.0
 33
0.0
 40
0.0
 40
0.0
 40
0.0
 40
0.0
 40
1.0
 40
1.0
 40
1.0
 40
2.0
 40
2.0
 40
2.0
 40
3.0
 40
3.0
 40
3.0
 40
4.0
 40
4.0
 40
4.0
 40
4.0
 10
76.52039082557997
 20
-96.18500219817614
 30
0.0
 10
76.52039082557997
 20
-96.12954553152346
 30
0.0
 10
76.47562332672209
 20
-96.08474275375673
 30
0.0
 10
76.42013331422824
 20
-96.08474275375673
 30
0.0
 10
76.36502749621029
 20
-96.08474275375673
 30
0.0
 10
76.32022471957552
 20
-96.12954553152346
 30
0.0
 10
76.32022471957552
 20
-96.18500219817614
 30
0.0
 10
76.32022471957552
 20
-96.24010608705105
 30
0.0
 10
76.36502749621029
 20
-96.28490886481777
 30
0.0
 10
76.42013331422824
 20
-96.28490886481777
 30
0.0
 10
76.47562332672209
 20
-96.28490886481777
 30
0.0
 10
76.52039082557997
 20
-96.24010608705105
 30
0.0
 10
76.52039082557997
 20
-96.18500219817614
 30
0.0
  0
SPLINE
  5
73
330
41
100
AcDbEntity
  8
_U+30EC_U+30A4_U+30E4_U+30FC 1
 62
   179
420
  2234388
370
     9
100
AcDbSpline
210
0.0
220
0.0
230
1.0
 70
    11
 71
     3
 72
    17
 73
    13
 74
     0
 42
0.0000000001
 43
0.0000000001
 12
1.0
 22
0.0
 32
0.0
 13
1.0
 23
0.0
 33
0.0
 40
0.0
 40
0.0
 40
0.0
 40
0.0
 40
1.0
 40
1.0
 40
1.0
 40
2.0
 40
2.0
 40
2.0
 40
3.0
 40
3.0
 40
3.0
 40
4.0
 40
4.0
 40
4.0
 40
4.0
 10
49.52015623663556
 20
-78.48480053593434
 30
0.0
 10
49.52015623663556
 20
-78.42966136928159
 30
0.0
 10
49.47570623776958
 20
-78.38489386929271
 30
0.0
 10
49.42024957251773
 20
-78.38489386929271
 30
0.0
 10
49.364757629489
 20
-78.38489386929271
 30
0.0
 10
49.31999013063111
 20
-78.42966136928159
 30
0.0
 10
49.31999013063111
 20
-78.48480053593434
 30
0.0
 10
49.31999013063111
 20
-78.53990442480958
 30
0.0
 10
49.364757629489
 20
-78.58502470257591
 30
0.0
 10
49.42024957251773
 20
-78.58502470257591
 30
0.0
 10
49.47570623776958
 20
-78.58502470257591
 30
0.0
 10
49.52015623663556
 20
-78.53990442480958
 30
0.0
 10
49.52015623663556
 20
-78.48480053593434
 30
0.0
  0
SPLINE
  5
74
330
41
100
AcDbEntity
  8
_U+30EC_U+30A4_U+30E4_U+30FC 1
 62
   179
420
  2234388
370
     9
100
AcDbSpline
210
0.0
220
0.0
230
1.0
 70
    11
 71
     3
 72
    17
 73
    13
 74
     0
 42
0.0000000001
 43
0.0000000001
 12
1.0
 22
0.0
 32
0.0
 13
1.0
 23
0.0
 33
0.0
 40
0.0
 40
0.0
 40
0.0
 40
0.0
 40
1.0
 40
1.0
 40
1.0
 40
2.0
 40
2.0
 40
2.0
 40
3.0
 40
3.0
 40
3.0
 40
4.0
 40
4.0
 40
4.0
 40
4.0
 10
49.52015623663556
 20
-101.1848510858152
 30
0.0
 10
49.52015623663556
 20
-101.1297471969396
 30
0.0
 10
49.47570623776958
 20
-101.0849444191735
 30
0.0
 10
49.42024957251773
 20
-101.0849444191735
 30
0.0
 10
49.364757629489
 20
-101.0849444191735
 30
0.0
 10
49.31999013063111
 20
-101.1297471969396
 30
0.0
 10
49.31999013063111
 20
-101.1848510858152
 30
0.0
 10
49.31999013063111
 20
-101.2399902524676
 30
0.0
 10
49.364757629489
 20
-101.2847577524568
 30
0.0
 10
49.42024957251773
 20
-101.2847577524568
 30
0.0
 10
49.47570623776958
 20
-101.2847577524568
 30
0.0
 10
49.52015623663556
 20
-101.2399902524676
 30
0.0
 10
49.52015623663556
 20
-101.1848510858152
 30
0.0
  0
POLYLINE
  5
75
330
41
100
AcDbEntity
  8
_U+30EC_U+30A4_U+30E4_U+30FC 1
 62
   179
420
  2234388
370
     9
100
AcDb2dPolyline
 66
     1
 10
0.0
 20
0.0
 30
0.0
  0
VERTEX
  5
76
330
75
100
AcDbEntity
  8
_U+30EC_U+30A4_U+30E4_U+30FC 1
 62
   179
420
  2234388
370
     9
100
AcDbVertex
100
AcDb2dVertex
 10
76.42013331422824
 20
-82.48487720160115
 30
0.0
  0
VERTEX
  5
77
330
75
100
AcDbEntity
  8
_U+30EC_U+30A4_U+30E4_U+30FC 1
 62
   179
420
  2234388
370
     9
100
AcDbVertex
100
AcDb2dVertex
 10
76.42013331422824
 20
-78.71456470254373
 30
0.0
  0
SEQEND
  5
78
330
75
100
AcDbEntity
  8
_U+30EC_U+30A4_U+30E4_U+30FC 1
 62
   179
420
  2234388
370
     9
  0
POLYLINE
  5
79
330
41
100
AcDbEntity
  8
_U+30EC_U+30A4_U+30E4_U+30FC 1
 62
   179
420
  2234388
370
     9
100
AcDb2dPolyline
 66
     1
 10
0.0
 20
0.0
 30
0.0
  0
VERTEX
  5
7A
330
79
100
AcDbEntity
  8
_U+30EC_U+30A4_U+30E4_U+30FC 1
 62
   179
420
  2234388
370
     9
100
AcDbVertex
100
AcDb2dVertex
 10
76.42013331422824
 20
-82.48487720160115
 30
0.0
  0
VERTEX
  5
7B
330
79
100
AcDbEntity
  8
_U+30EC_U+30A4_U+30E4_U+30FC 1
 62
   179
420
  2234388
370
     9
100
AcDbVertex
100
AcDb2dVertex
 10
76.42013331422824
 20
-83.48464942357337
 30
0.0
  0
SEQEND
  5
7C
330
79
100
AcDbEntity
  8
_U+30EC_U+30A4_U+30E4_U+30FC 1
 62
   179
420
  2234388
370
     9
  0
POLYLINE
  5
7D
330
41
100
AcDbEntity
  8
_U+30EC_U+30A4_U+30E4_U+30FC 1
 62
   179
420
  2234388
370
     9
100
AcDb2dPolyline
 66
     1
 10
0.0
 20
0.0
 30
0.0
  0
VERTEX
  5
7E
330
7D
100
AcDbEntity
  8
_U+30EC_U+30A4_U+30E4_U+30FC 1
 62
   179
420
  2234388
370
     9
100
AcDbVertex
100
AcDb2dVertex
 10
74.9601253098301
 20
-82.48487720160115
 30
0.0
  0
VERTEX
  5
7F
330
7D
100
AcDbEntity
  8
_U+30EC_U+30A4_U+30E4_U+30FC 1
 62
   179
420
  2234388
370
     9
100
AcDbVertex
100
AcDb2dVertex
 10
77.42025831397854
 20
-82.48487720160115
 30
0.0
  0
SEQEND
  5
80
330
7D
100
AcDbEntity
  8
_U+30EC_U+30A4_U+30E4_U+30FC 1
 62
   179
420
  2234388
370
     9
  0
POLYLINE
  5
81
330
41
100
AcDbEntity
  8
_U+30EC_U+30A4_U+30E4_U+30FC 1
 62
   179
420
  2234388
370
     9
100
AcDb2dPolyline
 66
     1
 10
0.0
 20
0.0
 30
0.0
  0
VERTEX
  5
82
330
81
100
AcDbEntity
  8
_U+30EC_U+30A4_U+30E4_U+30FC 1
 62
   179
420
  2234388
370
     9
100
AcDbVertex
100
AcDb2dVertex
 10
74.9601253098301
 20
-83.48464942357337
 30
0.0
  0
VERTEX
  5
83
330
81
100
AcDbEntity
  8
_U+30EC_U+30A4_U+30E4_U+30FC 1
 62
   179
420
  2234388
370
     9
100
AcDbVertex
100
AcDb2dVertex
 10
77.42025831397854
 20
-83.48464942357337
 30
0.0
  0
SEQEND
  5
84
330
81
100
AcDbEntity
  8
_U+30EC_U+30A4_U+30E4_U+30FC 1
 62
   179
420
  2234388
370
     9
  0
INSERT
  5
86
330
41
100
AcDbEntity
  8
_U+30EC_U+30A4_U+30E4_U+30FC 1
100
AcDbBlockReference
  2
block 3
 10
0.0
 20
0.0
 30
0.0
  0
POLYLINE
  5
8B
330
41
100
AcDbEntity
  8
_U+30EC_U+30A4_U+30E4_U+30FC 1
 62
   179
420
  2234388
370
     9
100
AcDb2dPolyline
 66
     1
 10
0.0
 20
0.0
 30
0.0
  0
VERTEX
  5
8C
330
8B
100
AcDbEntity
  8
_U+30EC_U+30A4_U+30E4_U+30FC 1
 62
   179
420
  2234388
370
     9
100
AcDbVertex
100
AcDb2dVertex
 10
57.42008520175825
 20
-101.1848510858152
 30
0.0
  0
VERTEX
  5
8D
330
8B
100
AcDbEntity
  8
_U+30EC_U+30A4_U+30E4_U+30FC 1
 62
   179
420
  2234388
370
     9
100
AcDbVertex
100
AcDb2dVertex
 10
61.42019704415134
 20
-101.1848510858152
 30
0.0
  0
SEQEND
  5
8E
330
8B
100
AcDbEntity
  8
_U+30EC_U+30A4_U+30E4_U+30FC 1
 62
   179
420
  2234388
370
     9
  0
POLYLINE
  5
8F
330
41
100
AcDbEntity
  8
_U+30EC_U+30A4_U+30E4_U+30FC 1
 62
   179
420
  2234388
370
     9
100
AcDb2dPolyline
 66
     1
 10
0.0
 20
0.0
 30
0.0
  0
VERTEX
  5
90
330
8F
100
AcDbEntity
  8
_U+30EC_U+30A4_U+30E4_U+30FC 1
 62
   179
420
  2234388
370
     9
100
AcDbVertex
100
AcDb2dVertex
 10
57.42008520175825
 20
-99.72484497506898
 30
0.0
  0
VERTEX
  5
91
330
8F
100
AcDbEntity
  8
_U+30EC_U+30A4_U+30E4_U+30FC 1
 62
   179
420
  2234388
370
     9
100
AcDbVertex
100
AcDb2dVertex
 10
57.42008520175825
 20
-102.1849760855648
 30
0.0
  0
SEQEND
  5
92
330
8F
100
AcDbEntity
  8
_U+30EC_U+30A4_U+30E4_U+30FC 1
 62
   179
420
  2234388
370
     9
  0
POLYLINE
  5
93
330
41
100
AcDbEntity
  8
_U+30EC_U+30A4_U+30E4_U+30FC 1
 62
   179
420
  2234388
370
     9
100
AcDb2dPolyline
 66
     1
 10
0.0
 20
0.0
 30
0.0
  0
VERTEX
  5
94
330
93
100
AcDbEntity
  8
_U+30EC_U+30A4_U+30E4_U+30FC 1
 62
   179
420
  2234388
370
     9
100
AcDbVertex
100
AcDb2dVertex
 10
61.42019704415134
 20
-99.72484497506898
 30
0.0
  0
VERTEX
  5
95
330
93
100
AcDbEntity
  8
_U+30EC_U+30A4_U+30E4_U+30FC 1
 62
   179
420
  2234388
370
     9
100
AcDbVertex
100
AcDb2dVertex
 10
61.42019704415134
 20
-102.1849760855648
 30
0.0
  0
SEQEND
  5
96
330
93
100
AcDbEntity
  8
_U+30EC_U+30A4_U+30E4_U+30FC 1
 62
   179
420
  2234388
370
     9
  0
INSERT
  5
98
330
41
100
AcDbEntity
  8
_U+30EC_U+30A4_U+30E4_U+30FC 1
100
AcDbBlockReference
  2
block 4
 10
0.0
 20
0.0
 30
0.0
  0
POLYLINE
  5
B0
330
41
100
AcDbEntity
  8
_U+30EC_U+30A4_U+30E4_U+30FC 1
 62
   179
420
  2234388
370
     9
100
AcDb2dPolyline
 66
     1
 10
0.0
 20
0.0
 30
0.0
  0
VERTEX
  5
B1
330
B0
100
AcDbEntity
  8
_U+30EC_U+30A4_U+30E4_U+30FC 1
 62
   179
420
  2234388
370
     9
100
AcDbVertex
100
AcDb2dVertex
 10
49.42024957251773
 20
-101.1848510858152
 30
0.0
  0
VERTEX
  5
B2
330
B0
100
AcDbEntity
  8
_U+30EC_U+30A4_U+30E4_U+30FC 1
 62
   179
420
  2234388
370
     9
100
AcDbVertex
100
AcDb2dVertex
 10
57.42008520175825
 20
-101.1848510858152
 30
0.0
  0
SEQEND
  5
B3
330
B0
100
AcDbEntity
  8
_U+30EC_U+30A4_U+30E4_U+30FC 1
 62
   179
420
  2234388
370
     9
  0
POLYLINE
  5
B4
330
41
100
AcDbEntity
  8
_U+30EC_U+30A4_U+30E4_U+30FC 1
 62
   179
420
  2234388
370
     9
100
AcDb2dPolyline
 66
     1
 10
0.0
 20
0.0
 30
0.0
  0
VERTEX
  5
B5
330
B4
100
AcDbEntity
  8
_U+30EC_U+30A4_U+30E4_U+30FC 1
 62
   179
420
  2234388
370
     9
100
AcDbVertex
100
AcDb2dVertex
 10
49.42024957251773
 20
-86.02507275627143
 30
0.0
  0
VERTEX
  5
B6
330
B4
100
AcDbEntity
  8
_U+30EC_U+30A4_U+30E4_U+30FC 1
 62
   179
420
  2234388
370
     9
100
AcDbVertex
100
AcDb2dVertex
 10
49.42024957251773
 20
-102.1849760855648
 30
0.0
  0
SEQEND
  5
B7
330
B4
100
AcDbEntity
  8
_U+30EC_U+30A4_U+30E4_U+30FC 1
 62
   179
420
  2234388
370
     9
  0
INSERT
  5
B9
330
41
100
AcDbEntity
  8
_U+30EC_U+30A4_U+30E4_U+30FC 1
100
AcDbBlockReference
  2
block 5
 10
0.0
 20
0.0
 30
0.0
  0
POLYLINE
  5
C0
330
41
100
AcDbEntity
  8
_U+30EC_U+30A4_U+30E4_U+30FC 1
 62
   179
420
  2234388
370
     9
100
AcDb2dPolyline
 66
     1
 10
0.0
 20
0.0
 30
0.0
  0
VERTEX
  5
C1
330
C0
100
AcDbEntity
  8
_U+30EC_U+30A4_U+30E4_U+30FC 1
 62
   179
420
  2234388
370
     9
100
AcDbVertex
100
AcDb2dVertex
 10
49.42024957251773
 20
-78.48480053593434
 30
0.0
  0
VERTEX
  5
C2
330
C0
100
AcDbEntity
  8
_U+30EC_U+30A4_U+30E4_U+30FC 1
 62
   179
420
  2234388
370
     9
100
AcDbVertex
100
AcDb2dVertex
 10
72.42037231906905
 20
-78.48480053593434
 30
0.0
  0
SEQEND
  5
C3
330
C0
100
AcDbEntity
  8
_U+30EC_U+30A4_U+30E4_U+30FC 1
 62
   179
420
  2234388
370
     9
  0
POLYLINE
  5
C4
330
41
100
AcDbEntity
  8
_U+30EC_U+30A4_U+30E4_U+30FC 1
 62
   179
420
  2234388
370
     9
100
AcDb2dPolyline
 66
     1
 10
0.0
 20
0.0
 30
0.0
  0
VERTEX
  5
C5
330
C4
100
AcDbEntity
  8
_U+30EC_U+30A4_U+30E4_U+30FC 1
 62
   179
420
  2234388
370
     9
100
AcDbVertex
100
AcDb2dVertex
 10
49.42024957251773
 20
-79.94480664668053
 30
0.0
  0
VERTEX
  5
C6
330
C4
100
AcDbEntity
  8
_U+30EC_U+30A4_U+30E4_U+30FC 1
 62
   179
420
  2234388
370
     9
100
AcDbVertex
100
AcDb2dVertex
 10
49.42024957251773
 20
-77.48502831396213
 30
0.0
  0
SEQEND
  5
C7
330
C4
100
AcDbEntity
  8
_U+30EC_U+30A4_U+30E4_U+30FC 1
 62
   179
420
  2234388
370
     9
  0
POLYLINE
  5
C8
330
41
100
AcDbEntity
  8
_U+30EC_U+30A4_U+30E4_U+30FC 1
 62
   179
420
  2234388
370
     9
100
AcDb2dPolyline
 66
     1
 10
0.0
 20
0.0
 30
0.0
  0
VERTEX
  5
C9
330
C8
100
AcDbEntity
  8
_U+30EC_U+30A4_U+30E4_U+30FC 1
 62
   179
420
  2234388
370
     9
100
AcDbVertex
100
AcDb2dVertex
 10
72.42037231906905
 20
-79.94480664668053
 30
0.0
  0
VERTEX
  5
CA
330
C8
100
AcDbEntity
  8
_U+30EC_U+30A4_U+30E4_U+30FC 1
 62
   179
420
  2234388
370
     9
100
AcDbVertex
100
AcDb2dVertex
 10
72.42037231906905
 20
-77.48502831396213
 30
0.0
  0
SEQEND
  5
CB
330
C8
100
AcDbEntity
  8
_U+30EC_U+30A4_U+30E4_U+30FC 1
 62
   179
420
  2234388
370
     9
  0
INSERT
  5
CD
330
41
100
AcDbEntity
  8
_U+30EC_U+30A4_U+30E4_U+30FC 1
100
AcDbBlockReference
  2
block 6
 10
0.0
 20
0.0
 30
0.0
  0
POLYLINE
  5
D4
330
41
100
AcDbEntity
  8
_U+30EC_U+30A4_U+30E4_U+30FC 1
 62
   179
420
  2234388
370
     9
100
AcDb2dPolyline
 66
     1
 10
0.0
 20
0.0
 30
0.0
  0
VERTEX
  5
D5
330
D4
100
AcDbEntity
  8
_U+30EC_U+30A4_U+30E4_U+30FC 1
 62
   179
420
  2234388
370
     9
100
AcDbVertex
100
AcDb2dVertex
 10
76.42013331422824
 20
-83.48464942357337
 30
0.0
  0
VERTEX
  5
D6
330
D4
100
AcDbEntity
  8
_U+30EC_U+30A4_U+30E4_U+30FC 1
 62
   179
420
  2234388
370
     9
100
AcDbVertex
100
AcDb2dVertex
 10
76.42013331422824
 20
-96.18500219817614
 30
0.0
  0
SEQEND
  5
D7
330
D4
100
AcDbEntity
  8
_U+30EC_U+30A4_U+30E4_U+30FC 1
 62
   179
420
  2234388
370
     9
  0
POLYLINE
  5
D8
330
41
100
AcDbEntity
  8
_U+30EC_U+30A4_U+30E4_U+30FC 1
 62
   179
420
  2234388
370
     9
100
AcDb2dPolyline
 66
     1
 10
0.0
 20
0.0
 30
0.0
  0
VERTEX
  5
D9
330
D8
100
AcDbEntity
  8
_U+30EC_U+30A4_U+30E4_U+30FC 1
 62
   179
420
  2234388
370
     9
100
AcDbVertex
100
AcDb2dVertex
 10
63.9602675349043
 20
-96.18500219817614
 30
0.0
  0
VERTEX
  5
DA
330
D8
100
AcDbEntity
  8
_U+30EC_U+30A4_U+30E4_U+30FC 1
 62
   179
420
  2234388
370
     9
100
AcDbVertex
100
AcDb2dVertex
 10
77.42025831397854
 20
-96.18500219817614
 30
0.0
  0
SEQEND
  5
DB
330
D8
100
AcDbEntity
  8
_U+30EC_U+30A4_U+30E4_U+30FC 1
 62
   179
420
  2234388
370
     9
  0
INSERT
  5
DD
330
41
100
AcDbEntity
  8
_U+30EC_U+30A4_U+30E4_U+30FC 1
100
AcDbBlockReference
  2
block 7
 10
0.0
 20
0.0
 30
0.0
  0
ENDBLK
  5
44
330
41
100
AcDbEntity
  8
0
100
AcDbBlockEnd
  0
BLOCK
  5
87
330
85
100
AcDbEntity
  8
0
100
AcDbBlockBegin
  2
block 3
 70
     0
 10
0.0
 20
0.0
 30
0.0
  3
block 3
  1

  0
SPLINE
  5
89
330
85
100
AcDbEntity
  8
_U+30EC_U+30A4_U+30E4_U+30FC 1
370
     0
100
AcDbSpline
210
0.0
220
0.0
230
1.0
 70
    11
 71
     3
 72
    26
 73
    22
 74
     0
 42
0.0000000001
 43
0.0000000001
 12
1.0
 22
0.0
 32
0.0
 13
1.0
 23
0.0
 33
0.0
 40
0.0
 40
0.0
 40
0.0
 40
0.0
 40
1.0
 40
1.0
 40
1.0
 40
2.0
 40
2.0
 40
2.0
 40
3.0
 40
3.0
 40
3.0
 40
4.0
 40
4.0
 40
4.0
 40
5.0
 40
5.0
 40
5.0
 40
6.0
 40
6.0
 40
6.0
 40
7.0
 40
7.0
 40
7.0
 40
7.0
 10
75.82379555396072
 20
-79.6039265751511
 30
0.0
 10
75.82379555396072
 20
-79.6039265751511
 30
0.0
 10
74.71964245093815
 20
-79.6039265751511
 30
0.0
 10
74.71964245093815
 20
-79.6039265751511
 30
0.0
 10
74.71964245093815
 20
-79.6039265751511
 30
0.0
 10
74.71964245093815
 20
-79.88935273610406
 30
0.0
 10
74.71964245093815
 20
-79.88935273610406
 30
0.0
 10
74.71964245093815
 20
-79.88935273610406
 30
0.0
 10
74.5715033450724
 20
-79.88935273610406
 30
0.0
 10
74.5715033450724
 20
-79.88935273610406
 30
0.0
 10
74.55668943448583
 20
-79.60203177263422
 30
0.0
 10
74.39373641803351
 20
-79.5617241554568
 30
0.0
 10
74.27935924792322
 20
-79.53623044886595
 30
0.0
 10
74.27935924792322
 20
-79.53623044886595
 30
0.0
 10
74.27935924792322
 20
-79.40979544455728
 30
0.0
 10
74.27935924792322
 20
-79.40979544455728
 30
0.0
 10
74.27935924792322
 20
-79.40979544455728
 30
0.0
 10
75.82379555396072
 20
-79.40979544455728
 30
0.0
 10
75.82379555396072
 20
-79.40979544455728
 30
0.0
 10
75.82379555396072
 20
-79.40979544455728
 30
0.0
 10
75.82379555396072
 20
-79.6039265751511
 30
0.0
 10
75.82379555396072
 20
-79.6039265751511
 30
0.0
  0
HATCH
  5
8A
330
85
100
AcDbEntity
  8
_U+30EC_U+30A4_U+30E4_U+30FC 1
 62
   179
420
  2234388
100
AcDbHatch
 10
0.0
 20
0.0
 30
0.0
210
0.0
220
0.0
230
1.0
  2
SOLID
 70
     1
 71
     0
 91
        1
 92
        1
 93
        1
 72
     4
 94
        3
 73
     0
 74
     1
 95
       26
 96
       22
 40
0.0
 40
0.0
 40
0.0
 40
0.0
 40
1.0
 40
1.0
 40
1.0
 40
2.0
 40
2.0
 40
2.0
 40
3.0
 40
3.0
 40
3.0
 40
4.0
 40
4.0
 40
4.0
 40
5.0
 40
5.0
 40
5.0
 40
6.0
 40
6.0
 40
6.0
 40
7.0
 40
7.0
 40
7.0
 40
7.0
 10
75.82379555396072
 20
-79.6039265751511
 10
75.82379555396072
 20
-79.6039265751511
 10
74.71964245093815
 20
-79.6039265751511
 10
74.71964245093815
 20
-79.6039265751511
 10
74.71964245093815
 20
-79.6039265751511
 10
74.71964245093815
 20
-79.88935273610406
 10
74.71964245093815
 20
-79.88935273610406
 10
74.71964245093815
 20
-79.88935273610406
 10
74.5715033450724
 20
-79.88935273610406
 10
74.5715033450724
 20
-79.88935273610406
 10
74.55668943448583
 20
-79.60203177263422
 10
74.39373641803351
 20
-79.5617241554568
 10
74.27935924792322
 20
-79.53623044886595
 10
74.27935924792322
 20
-79.53623044886595
 10
74.27935924792322
 20
-79.40979544455728
 10
74.27935924792322
 20
-79.40979544455728
 10
74.27935924792322
 20
-79.40979544455728
 10
75.82379555396072
 20
-79.40979544455728
 10
75.82379555396072
 20
-79.40979544455728
 10
75.82379555396072
 20
-79.40979544455728
 10
75.82379555396072
 20
-79.6039265751511
 10
75.82379555396072
 20
-79.6039265751511
 97
        0
 97
        0
 75
     2
 76
     1
 98
        0
  0
ENDBLK
  5
88
330
85
100
AcDbEntity
  8
0
100
AcDbBlockEnd
  0
BLOCK
  5
99
330
97
100
AcDbEntity
  8
0
100
AcDbBlockBegin
  2
block 4
 70
     0
 10
0.0
 20
0.0
 30
0.0
  3
block 4
  1

  0
POLYLINE
  5
9B
330
97
100
AcDbEntity
  8
_U+30EC_U+30A4_U+30E4_U+30FC 1
370
     0
100
AcDb2dPolyline
 66
     1
 10
0.0
 20
0.0
 30
0.0
  0
VERTEX
  5
9C
330
9B
100
AcDbEntity
  8
_U+30EC_U+30A4_U+30E4_U+30FC 1
370
     0
100
AcDbVertex
100
AcDb2dVertex
 10
59.63012422554386
 20
-100.241598824766
 30
0.0
  0
VERTEX
  5
9D
330
9B
100
AcDbEntity
  8
_U+30EC_U+30A4_U+30E4_U+30FC 1
370
     0
100
AcDbVertex
100
AcDb2dVertex
 10
59.63012422554386
 20
-100.5885199401307
 30
0.0
  0
VERTEX
  5
9E
330
9B
100
AcDbEntity
  8
_U+30EC_U+30A4_U+30E4_U+30FC 1
370
     0
100
AcDbVertex
100
AcDb2dVertex
 10
59.4416775025007
 20
-100.5885199401307
 30
0.0
  0
VERTEX
  5
9F
330
9B
100
AcDbEntity
  8
_U+30EC_U+30A4_U+30E4_U+30FC 1
370
     0
100
AcDbVertex
100
AcDb2dVertex
 10
59.4416775025007
 20
-100.241598824766
 30
0.0
  0
VERTEX
  5
A0
330
9B
100
AcDbEntity
  8
_U+30EC_U+30A4_U+30E4_U+30FC 1
370
     0
100
AcDbVertex
100
AcDb2dVertex
 10
58.87427027608005
 20
-100.241598824766
 30
0.0
  0
VERTEX
  5
A1
330
9B
100
AcDbEntity
  8
_U+30EC_U+30A4_U+30E4_U+30FC 1
370
     0
100
AcDbVertex
100
AcDb2dVertex
 10
58.87427027608005
 20
-100.0173231086762
 30
0.0
  0
VERTEX
  5
A2
330
9B
100
AcDbEntity
  8
_U+30EC_U+30A4_U+30E4_U+30FC 1
370
     0
100
AcDbVertex
100
AcDb2dVertex
 10
59.46165905631514
 20
-99.04408363409316
 30
0.0
  0
VERTEX
  5
A3
330
9B
100
AcDbEntity
  8
_U+30EC_U+30A4_U+30E4_U+30FC 1
370
     0
100
AcDbVertex
100
AcDb2dVertex
 10
59.63012422554386
 20
-99.04408363409316
 30
0.0
  0
VERTEX
  5
A4
330
9B
100
AcDbEntity
  8
_U+30EC_U+30A4_U+30E4_U+30FC 1
370
     0
100
AcDbVertex
100
AcDb2dVertex
 10
59.63012422554386
 20
-100.0428168152671
 30
0.0
  0
VERTEX
  5
A5
330
9B
100
AcDbEntity
  8
_U+30EC_U+30A4_U+30E4_U+30FC 1
370
     0
100
AcDbVertex
100
AcDb2dVertex
 10
59.80944144555112
 20
-100.0428168152671
 30
0.0
  0
VERTEX
  5
A6
330
9B
100
AcDbEntity
  8
_U+30EC_U+30A4_U+30E4_U+30FC 1
370
     0
100
AcDbVertex
100
AcDb2dVertex
 10
59.80944144555112
 20
-100.241598824766
 30
0.0
  0
VERTEX
  5
A7
330
9B
100
AcDbEntity
  8
_U+30EC_U+30A4_U+30E4_U+30FC 1
370
     0
100
AcDbVertex
100
AcDb2dVertex
 10
59.63012422554386
 20
-100.241598824766
 30
0.0
  0
SEQEND
  5
A8
330
9B
100
AcDbEntity
  8
_U+30EC_U+30A4_U+30E4_U+30FC 1
370
     0
  0
POLYLINE
  5
A9
330
97
100
AcDbEntity
  8
_U+30EC_U+30A4_U+30E4_U+30FC 1
370
     0
100
AcDb2dPolyline
 66
     1
 10
0.0
 20
0.0
 30
0.0
  0
VERTEX
  5
AA
330
A9
100
AcDbEntity
  8
_U+30EC_U+30A4_U+30E4_U+30FC 1
370
     0
100
AcDbVertex
100
AcDb2dVertex
 10
59.4416775025007
 20
-99.3868706348755
 30
0.0
  0
VERTEX
  5
AB
330
A9
100
AcDbEntity
  8
_U+30EC_U+30A4_U+30E4_U+30FC 1
370
     0
100
AcDbVertex
100
AcDb2dVertex
 10
59.04618054079401
 20
-100.0428168152671
 30
0.0
  0
VERTEX
  5
AC
330
A9
100
AcDbEntity
  8
_U+30EC_U+30A4_U+30E4_U+30FC 1
370
     0
100
AcDbVertex
100
AcDb2dVertex
 10
59.4416775025007
 20
-100.0428168152671
 30
0.0
  0
VERTEX
  5
AD
330
A9
100
AcDbEntity
  8
_U+30EC_U+30A4_U+30E4_U+30FC 1
370
     0
100
AcDbVertex
100
AcDb2dVertex
 10
59.4416775025007
 20
-99.3868706348755
 30
0.0
  0
SEQEND
  5
AE
330
A9
100
AcDbEntity
  8
_U+30EC_U+30A4_U+30E4_U+30FC 1
370
     0
  0
HATCH
  5
AF
330
97
100
AcDbEntity
  8
_U+30EC_U+30A4_U+30E4_U+30FC 1
 62
   179
420
  2234388
100
AcDbHatch
 10
0.0
 20
0.0
 30
0.0
210
0.0
220
0.0
230
1.0
  2
SOLID
 70
     1
 71
     0
 91
        2
 92
        1
 93
       11
 72
     1
 10
59.63012422554386
 20
-100.241598824766
 11
59.63012422554386
 21
-100.5885199401307
 72
     1
 10
59.63012422554386
 20
-100.5885199401307
 11
59.4416775025007
 21
-100.5885199401307
 72
     1
 10
59.4416775025007
 20
-100.5885199401307
 11
59.4416775025007
 21
-100.241598824766
 72
     1
 10
59.4416775025007
 20
-100.241598824766
 11
58.87427027608005
 21
-100.241598824766
 72
     1
 10
58.87427027608005
 20
-100.241598824766
 11
58.87427027608005
 21
-100.0173231086762
 72
     1
 10
58.87427027608005
 20
-100.0173231086762
 11
59.46165905631514
 21
-99.04408363409316
 72
     1
 10
59.46165905631514
 20
-99.04408363409316
 11
59.63012422554386
 21
-99.04408363409316
 72
     1
 10
59.63012422554386
 20
-99.04408363409316
 11
59.63012422554386
 21
-100.0428168152671
 72
     1
 10
59.63012422554386
 20
-100.0428168152671
 11
59.80944144555112
 21
-100.0428168152671
 72
     1
 10
59.80944144555112
 20
-100.0428168152671
 11
59.80944144555112
 21
-100.241598824766
 72
     1
 10
59.80944144555112
 20
-100.241598824766
 11
59.63012422554386
 21
-100.241598824766
 97
        0
 92
        1
 93
        3
 72
     1
 10
59.4416775025007
 20
-99.3868706348755
 11
59.04618054079401
 21
-100.0428168152671
 72
     1
 10
59.04618054079401
 20
-100.0428168152671
 11
59.4416775025007
 21
-100.0428168152671
 72
     1
 10
59.4416775025007
 20
-100.0428168152671
 11
59.4416775025007
 21
-99.3868706348755
 97
        0
 75
     2
 76
     1
 98
        0
  0
ENDBLK
  5
9A
330
97
100
AcDbEntity
  8
0
100
AcDbBlockEnd
  0
BLOCK
  5
BA
330
B8
100
AcDbEntity
  8
0
100
AcDbBlockBegin
  2
block 5
 70
     0
 10
0.0
 20
0.0
 30
0.0
  3
block 5
  1

  0
SPLINE
  5
BC
330
B8
100
AcDbEntity
  8
_U+30EC_U+30A4_U+30E4_U+30FC 1
370
     0
100
AcDbSpline
210
0.0
220
0.0
230
1.0
 70
    11
 71
     3
 72
    29
 73
    25
 74
     0
 42
0.0000000001
 43
0.0000000001
 12
1.0
 22
0.0
 32
0.0
 13
1.0
 23
0.0
 33
0.0
 40
0.0
 40
0.0
 40
0.0
 40
0.0
 40
1.0
 40
1.0
 40
1.0
 40
2.0
 40
2.0
 40
2.0
 40
3.0
 40
3.0
 40
3.0
 40
4.0
 40
4.0
 40
4.0
 40
5.0
 40
5.0
 40
5.0
 40
6.0
 40
6.0
 40
6.0
 40
7.0
 40
7.0
 40
7.0
 40
8.0
 40
8.0
 40
8.0
 40
8.0
 10
53.34282496496291
 20
-100.6391628437638
 30
0.0
 10
53.11217582222543
 20
-100.6391628437638
 30
0.0
 10
52.89255098504076
 20
-100.5017035339024
 30
0.0
 10
52.89255098504076
 20
-100.1527153612465
 30
0.0
 10
52.89255098504076
 20
-99.89674476669248
 30
0.0
 10
53.01519638431565
 20
-99.80166013129958
 30
0.0
 10
53.10666366944903
 20
-99.74033743166214
 30
0.0
 10
52.99865992598645
 20
-99.68108178931584
 30
0.0
 10
52.93285860221818
 20
-99.56670461920555
 30
0.0
 10
52.93285860221818
 20
-99.40581866004439
 30
0.0
 10
52.93285860221818
 20
-99.13090004032145
 30
0.0
 10
53.10476886693214
 20
-98.99550778775112
 30
0.0
 10
53.34282496496291
 20
-98.99550778775112
 30
0.0
 10
53.5881157635127
 20
-98.99550778775112
 30
0.0
 10
53.75279132770764
 20
-99.13951277903458
 30
0.0
 10
53.75279132770764
 20
-99.40581866004439
 30
0.0
 10
53.75279132770764
 20
-99.56670461920555
 30
0.0
 10
53.68509520142248
 20
-99.68108178931584
 30
0.0
 10
53.5770914579599
 20
-99.74033743166214
 30
0.0
 10
53.65391708728097
 20
-99.79098033529532
 30
0.0
 10
53.79120414236817
 20
-99.88606497068821
 30
0.0
 10
53.79120414236817
 20
-100.1485812466642
 30
0.0
 10
53.79120414236817
 20
-100.5230631259109
 30
0.0
 10
53.54953069407789
 20
-100.6391628437638
 30
0.0
 10
53.34282496496291
 20
-100.6391628437638
 30
0.0
  0
SPLINE
  5
BD
330
B8
100
AcDbEntity
  8
_U+30EC_U+30A4_U+30E4_U+30FC 1
370
     0
100
AcDbSpline
210
0.0
220
0.0
230
1.0
 70
    11
 71
     3
 72
    17
 73
    13
 74
     0
 42
0.0000000001
 43
0.0000000001
 12
1.0
 22
0.0
 32
0.0
 13
1.0
 23
0.0
 33
0.0
 40
0.0
 40
0.0
 40
0.0
 40
0.0
 40
1.0
 40
1.0
 40
1.0
 40
2.0
 40
2.0
 40
2.0
 40
3.0
 40
3.0
 40
3.0
 40
4.0
 40
4.0
 40
4.0
 40
4.0
 10
53.34282496496291
 20
-99.84816892035046
 30
0.0
 10
53.21828476317113
 20
-99.84816892035046
 30
0.0
 10
53.08650986086032
 20
-99.93498532657875
 30
0.0
 10
53.08650986086032
 20
-100.13790145066
 30
0.0
 10
53.08650986086032
 20
-100.3432291415809
 30
0.0
 10
53.19640840683979
 20
-100.4445149488472
 30
0.0
 10
53.34282496496291
 20
-100.4445149488472
 30
0.0
 10
53.50388317889833
 20
-100.4445149488472
 30
0.0
 10
53.59896781429124
 20
-100.3218695495723
 30
0.0
 10
53.59896781429124
 20
-100.1441026225334
 30
0.0
 10
53.59896781429124
 20
-99.92223847328333
 30
0.0
 10
53.45806340894451
 20
-99.84816892035046
 30
0.0
 10
53.34282496496291
 20
-99.84816892035046
 30
0.0
  0
SPLINE
  5
BE
330
B8
100
AcDbEntity
  8
_U+30EC_U+30A4_U+30E4_U+30FC 1
370
     0
100
AcDbSpline
210
0.0
220
0.0
230
1.0
 70
    11
 71
     3
 72
    17
 73
    13
 74
     0
 42
0.0000000001
 43
0.0000000001
 12
1.0
 22
0.0
 32
0.0
 13
1.0
 23
0.0
 33
0.0
 40
0.0
 40
0.0
 40
0.0
 40
0.0
 40
1.0
 40
1.0
 40
1.0
 40
2.0
 40
2.0
 40
2.0
 40
3.0
 40
3.0
 40
3.0
 40
4.0
 40
4.0
 40
4.0
 40
4.0
 10
53.34282496496291
 20
-99.1880886253766
 30
0.0
 10
53.2000257570993
 20
-99.1880886253766
 30
0.0
 10
53.12681747803774
 20
-99.28317326076949
 30
0.0
 10
53.12681747803774
 20
-99.41856551333981
 30
0.0
 10
53.12681747803774
 20
-99.5412109126147
 30
0.0
 10
53.1890014515465
 20
-99.6597221973073
 30
0.0
 10
53.34282496496291
 20
-99.6597221973073
 30
0.0
 10
53.49647622360505
 20
-99.6597221973073
 30
0.0
 10
53.55883245188807
 20
-99.5412109126147
 30
0.0
 10
53.55883245188807
 20
-99.41856551333981
 30
0.0
 10
53.55883245188807
 20
-99.28317326076949
 30
0.0
 10
53.48372937030963
 20
-99.1880886253766
 30
0.0
 10
53.34282496496291
 20
-99.1880886253766
 30
0.0
  0
HATCH
  5
BF
330
B8
100
AcDbEntity
  8
_U+30EC_U+30A4_U+30E4_U+30FC 1
 62
   179
420
  2234388
100
AcDbHatch
 10
0.0
 20
0.0
 30
0.0
210
0.0
220
0.0
230
1.0
  2
SOLID
 70
     1
 71
     0
 91
        3
 92
        1
 93
        1
 72
     4
 94
        3
 73
     0
 74
     1
 95
       29
 96
       25
 40
0.0
 40
0.0
 40
0.0
 40
0.0
 40
1.0
 40
1.0
 40
1.0
 40
2.0
 40
2.0
 40
2.0
 40
3.0
 40
3.0
 40
3.0
 40
4.0
 40
4.0
 40
4.0
 40
5.0
 40
5.0
 40
5.0
 40
6.0
 40
6.0
 40
6.0
 40
7.0
 40
7.0
 40
7.0
 40
8.0
 40
8.0
 40
8.0
 40
8.0
 10
53.34282496496291
 20
-100.6391628437638
 10
53.11217582222543
 20
-100.6391628437638
 10
52.89255098504076
 20
-100.5017035339024
 10
52.89255098504076
 20
-100.1527153612465
 10
52.89255098504076
 20
-99.89674476669248
 10
53.01519638431565
 20
-99.80166013129958
 10
53.10666366944903
 20
-99.74033743166214
 10
52.99865992598645
 20
-99.68108178931584
 10
52.93285860221818
 20
-99.56670461920555
 10
52.93285860221818
 20
-99.40581866004439
 10
52.93285860221818
 20
-99.13090004032145
 10
53.10476886693214
 20
-98.99550778775112
 10
53.34282496496291
 20
-98.99550778775112
 10
53.5881157635127
 20
-98.99550778775112
 10
53.75279132770764
 20
-99.13951277903458
 10
53.75279132770764
 20
-99.40581866004439
 10
53.75279132770764
 20
-99.56670461920555
 10
53.68509520142248
 20
-99.68108178931584
 10
53.5770914579599
 20
-99.74033743166214
 10
53.65391708728097
 20
-99.79098033529532
 10
53.79120414236817
 20
-99.88606497068821
 10
53.79120414236817
 20
-100.1485812466642
 10
53.79120414236817
 20
-100.5230631259109
 10
53.54953069407789
 20
-100.6391628437638
 10
53.34282496496291
 20
-100.6391628437638
 97
        0
 97
        0
 92
        1
 93
        1
 72
     4
 94
        3
 73
     0
 74
     1
 95
       17
 96
       13
 40
0.0
 40
0.0
 40
0.0
 40
0.0
 40
1.0
 40
1.0
 40
1.0
 40
2.0
 40
2.0
 40
2.0
 40
3.0
 40
3.0
 40
3.0
 40
4.0
 40
4.0
 40
4.0
 40
4.0
 10
53.34282496496291
 20
-99.84816892035046
 10
53.21828476317113
 20
-99.84816892035046
 10
53.08650986086032
 20
-99.93498532657875
 10
53.08650986086032
 20
-100.13790145066
 10
53.08650986086032
 20
-100.3432291415809
 10
53.19640840683979
 20
-100.4445149488472
 10
53.34282496496291
 20
-100.4445149488472
 10
53.50388317889833
 20
-100.4445149488472
 10
53.59896781429124
 20
-100.3218695495723
 10
53.59896781429124
 20
-100.1441026225334
 10
53.59896781429124
 20
-99.92223847328333
 10
53.45806340894451
 20
-99.84816892035046
 10
53.34282496496291
 20
-99.84816892035046
 97
        0
 97
        0
 92
        1
 93
        1
 72
     4
 94
        3
 73
     0
 74
     1
 95
       17
 96
       13
 40
0.0
 40
0.0
 40
0.0
 40
0.0
 40
1.0
 40
1.0
 40
1.0
 40
2.0
 40
2.0
 40
2.0
 40
3.0
 40
3.0
 40
3.0
 40
4.0
 40
4.0
 40
4.0
 40
4.0
 10
53.34282496496291
 20
-99.1880886253766
 10
53.2000257570993
 20
-99.1880886253766
 10
53.12681747803774
 20
-99.28317326076949
 10
53.12681747803774
 20
-99.41856551333981
 10
53.12681747803774
 20
-99.5412109126147
 10
53.1890014515465
 20
-99.6597221973073
 10
53.34282496496291
 20
-99.6597221973073
 10
53.49647622360505
 20
-99.6597221973073
 10
53.55883245188807
 20
-99.5412109126147
 10
53.55883245188807
 20
-99.41856551333981
 10
53.55883245188807
 20
-99.28317326076949
 10
53.48372937030963
 20
-99.1880886253766
 10
53.34282496496291
 20
-99.1880886253766
 97
        0
 97
        0
 75
     2
 76
     1
 98
        0
  0
ENDBLK
  5
BB
330
B8
100
AcDbEntity
  8
0
100
AcDbBlockEnd
  0
BLOCK
  5
CE
330
CC
100
AcDbEntity
  8
0
100
AcDbBlockBegin
  2
block 6
 70
     0
 10
0.0
 20
0.0
 30
0.0
  3
block 6
  1

  0
SPLINE
  5
D0
330
CC
100
AcDbEntity
  8
_U+30EC_U+30A4_U+30E4_U+30FC 1
370
     0
100
AcDbSpline
210
0.0
220
0.0
230
1.0
 70
    11
 71
     3
 72
    44
 73
    40
 74
     0
 42
0.0000000001
 43
0.0000000001
 12
1.0
 22
0.0
 32
0.0
 13
1.0
 23
0.0
 33
0.0
 40
0.0
 40
0.0
 40
0.0
 40
0.0
 40
1.0
 40
1.0
 40
1.0
 40
2.0
 40
2.0
 40
2.0
 40
3.0
 40
3.0
 40
3.0
 40
4.0
 40
4.0
 40
4.0
 40
5.0
 40
5.0
 40
5.0
 40
6.0
 40
6.0
 40
6.0
 40
7.0
 40
7.0
 40
7.0
 40
8.0
 40
8.0
 40
8.0
 40
9.0
 40
9.0
 40
9.0
 40
10.0
 40
10.0
 40
10.0
 40
11.0
 40
11.0
 40
11.0
 40
12.0
 40
12.0
 40
12.0
 40
13.0
 40
13.0
 40
13.0
 40
13.0
 10
60.25713160385933
 20
-77.30690916036077
 30
0.0
 10
60.06834037126764
 20
-77.46555580745652
 30
0.0
 10
59.98806964646132
 20
-77.53962536038941
 30
0.0
 10
59.94603948154127
 20
-77.68345809689859
 30
0.0
 10
59.94603948154127
 20
-77.68345809689859
 30
0.0
 10
60.61921113935909
 20
-77.68345809689859
 30
0.0
 10
60.61921113935909
 20
-77.68345809689859
 30
0.0
 10
60.61921113935909
 20
-77.68345809689859
 30
0.0
 10
60.61921113935909
 20
-77.88861353304522
 30
0.0
 10
60.61921113935909
 20
-77.88861353304522
 30
0.0
 10
60.61921113935909
 20
-77.88861353304522
 30
0.0
 10
59.73003199461611
 20
-77.88861353304522
 30
0.0
 10
59.73003199461611
 20
-77.88861353304522
 30
0.0
 10
59.75724824894958
 20
-77.53101262167628
 30
0.0
 10
59.8140923244562
 20
-77.45280895416111
 30
0.0
 10
60.14723305787986
 20
-77.15446368513847
 30
0.0
 10
60.36875269758143
 20
-76.95568167563955
 30
0.0
 10
60.42525226353952
 20
-76.8879855493544
 30
0.0
 10
60.42525226353952
 20
-76.75052623949293
 30
0.0
 10
60.42525226353952
 20
-76.63201495480034
 30
0.0
 10
60.36324054480502
 20
-76.50075681681231
 30
0.0
 10
60.19305282783368
 20
-76.50075681681231
 30
0.0
 10
59.96774358309835
 20
-76.50075681681231
 30
0.0
 10
59.96050888257932
 20
-76.73140595954979
 30
0.0
 10
59.95671927754555
 20
-76.84785018695123
 30
0.0
 10
59.95671927754555
 20
-76.84785018695123
 30
0.0
 10
59.76276040172598
 20
-76.84785018695123
 30
0.0
 10
59.76276040172598
 20
-76.84785018695123
 30
0.0
 10
59.77033961179353
 20
-76.72089841831978
 30
0.0
 10
59.77929686005518
 20
-76.6087605602749
 30
0.0
 10
59.84888778885723
 20
-76.4902492755823
 30
0.0
 10
59.94397242425012
 20
-76.3295355711954
 30
0.0
 10
60.10520289295982
 20
-76.29560138066569
 30
0.0
 10
60.20579968112911
 20
-76.29560138066569
 30
0.0
 10
60.4455783269025
 20
-76.29560138066569
 30
0.0
 10
60.62472329213549
 20
-76.47974173435229
 30
0.0
 10
60.62472329213549
 20
-76.75259329678408
 30
0.0
 10
60.62472329213549
 20
-76.98100312745615
 30
0.0
 10
60.52412650396619
 20
-77.08056638697987
 30
0.0
 10
60.25713160385933
 20
-77.30690916036077
 30
0.0
  0
HATCH
  5
D1
330
CC
100
AcDbEntity
  8
_U+30EC_U+30A4_U+30E4_U+30FC 1
 62
   179
420
  2234388
100
AcDbHatch
 10
0.0
 20
0.0
 30
0.0
210
0.0
220
0.0
230
1.0
  2
SOLID
 70
     1
 71
     0
 91
        1
 92
        1
 93
        1
 72
     4
 94
        3
 73
     0
 74
     1
 95
       44
 96
       40
 40
0.0
 40
0.0
 40
0.0
 40
0.0
 40
1.0
 40
1.0
 40
1.0
 40
2.0
 40
2.0
 40
2.0
 40
3.0
 40
3.0
 40
3.0
 40
4.0
 40
4.0
 40
4.0
 40
5.0
 40
5.0
 40
5.0
 40
6.0
 40
6.0
 40
6.0
 40
7.0
 40
7.0
 40
7.0
 40
8.0
 40
8.0
 40
8.0
 40
9.0
 40
9.0
 40
9.0
 40
10.0
 40
10.0
 40
10.0
 40
11.0
 40
11.0
 40
11.0
 40
12.0
 40
12.0
 40
12.0
 40
13.0
 40
13.0
 40
13.0
 40
13.0
 10
60.25713160385933
 20
-77.30690916036077
 10
60.06834037126764
 20
-77.46555580745652
 10
59.98806964646132
 20
-77.53962536038941
 10
59.94603948154127
 20
-77.68345809689859
 10
59.94603948154127
 20
-77.68345809689859
 10
60.61921113935909
 20
-77.68345809689859
 10
60.61921113935909
 20
-77.68345809689859
 10
60.61921113935909
 20
-77.68345809689859
 10
60.61921113935909
 20
-77.88861353304522
 10
60.61921113935909
 20
-77.88861353304522
 10
60.61921113935909
 20
-77.88861353304522
 10
59.73003199461611
 20
-77.88861353304522
 10
59.73003199461611
 20
-77.88861353304522
 10
59.75724824894958
 20
-77.53101262167628
 10
59.8140923244562
 20
-77.45280895416111
 10
60.14723305787986
 20
-77.15446368513847
 10
60.36875269758143
 20
-76.95568167563955
 10
60.42525226353952
 20
-76.8879855493544
 10
60.42525226353952
 20
-76.75052623949293
 10
60.42525226353952
 20
-76.63201495480034
 10
60.36324054480502
 20
-76.50075681681231
 10
60.19305282783368
 20
-76.50075681681231
 10
59.96774358309835
 20
-76.50075681681231
 10
59.96050888257932
 20
-76.73140595954979
 10
59.95671927754555
 20
-76.84785018695123
 10
59.95671927754555
 20
-76.84785018695123
 10
59.76276040172598
 20
-76.84785018695123
 10
59.76276040172598
 20
-76.84785018695123
 10
59.77033961179353
 20
-76.72089841831978
 10
59.77929686005518
 20
-76.6087605602749
 10
59.84888778885723
 20
-76.4902492755823
 10
59.94397242425012
 20
-76.3295355711954
 10
60.10520289295982
 20
-76.29560138066569
 10
60.20579968112911
 20
-76.29560138066569
 10
60.4455783269025
 20
-76.29560138066569
 10
60.62472329213549
 20
-76.47974173435229
 10
60.62472329213549
 20
-76.75259329678408
 10
60.62472329213549
 20
-76.98100312745615
 10
60.52412650396619
 20
-77.08056638697987
 10
60.25713160385933
 20
-77.30690916036077
 97
        0
 97
        0
 75
     2
 76
     1
 98
        0
  0
SPLINE
  5
D2
330
CC
100
AcDbEntity
  8
_U+30EC_U+30A4_U+30E4_U+30FC 1
370
     0
100
AcDbSpline
210
0.0
220
0.0
230
1.0
 70
    11
 71
     3
 72
    62
 73
    58
 74
     0
 42
0.0000000001
 43
0.0000000001
 12
1.0
 22
0.0
 32
0.0
 13
1.0
 23
0.0
 33
0.0
 40
0.0
 40
0.0
 40
0.0
 40
0.0
 40
1.0
 40
1.0
 40
1.0
 40
2.0
 40
2.0
 40
2.0
 40
3.0
 40
3.0
 40
3.0
 40
4.0
 40
4.0
 40
4.0
 40
5.0
 40
5.0
 40
5.0
 40
6.0
 40
6.0
 40
6.0
 40
7.0
 40
7.0
 40
7.0
 40
8.0
 40
8.0
 40
8.0
 40
9.0
 40
9.0
 40
9.0
 40
10.0
 40
10.0
 40
10.0
 40
11.0
 40
11.0
 40
11.0
 40
12.0
 40
12.0
 40
12.0
 40
13.0
 40
13.0
 40
13.0
 40
14.0
 40
14.0
 40
14.0
 40
15.0
 40
15.0
 40
15.0
 40
16.0
 40
16.0
 40
16.0
 40
17.0
 40
17.0
 40
17.0
 40
18.0
 40
18.0
 40
18.0
 40
19.0
 40
19.0
 40
19.0
 40
19.0
 10
61.18661836577974
 20
-77.93942869145265
 30
0.0
 10
61.10428058368227
 20
-77.93942869145265
 30
0.0
 10
60.91548935109058
 20
-77.91824135421837
 30
0.0
 10
60.80765786240225
 20
-77.73203394324061
 30
0.0
 10
60.74357908637661
 20
-77.61989608519572
 30
0.0
 10
60.73978948134283
 20
-77.52050508044627
 30
0.0
 10
60.73634438585758
 20
-77.43592798628339
 30
0.0
 10
60.73634438585758
 20
-77.43592798628339
 30
0.0
 10
60.92651365664337
 20
-77.43592798628339
 30
0.0
 10
60.92651365664337
 20
-77.43592798628339
 30
0.0
 10
60.92858071393452
 20
-77.50999753921626
 30
0.0
 10
60.93753796219617
 20
-77.74478079653603
 30
0.0
 10
61.18282876074596
 20
-77.74478079653603
 30
0.0
 10
61.30168455498708
 20
-77.74478079653603
 30
0.0
 10
61.43363171207215
 20
-77.67501761295972
 30
0.0
 10
61.43363171207215
 20
-77.4464355275134
 30
0.0
 10
61.43363171207215
 20
-77.33016355488621
 30
0.0
 10
61.40055879541375
 20
-77.28141545376992
 30
0.0
 10
61.37299803153175
 20
-77.24972057530563
 30
0.0
 10
61.30926376505463
 20
-77.17565102237276
 30
0.0
 10
61.20832246733681
 20
-77.16307642385159
 30
0.0
 10
61.16078014964037
 20
-77.16307642385159
 30
0.0
 10
61.14424369131116
 20
-77.16307642385159
 30
0.0
 10
61.11323783194391
 20
-77.16514348114275
 30
0.0
 10
61.08946667309569
 20
-77.16927759572505
 30
0.0
 10
61.08946667309569
 20
-77.16927759572505
 30
0.0
 10
61.08946667309569
 20
-76.97480195558269
 30
0.0
 10
61.08946667309569
 20
-76.97480195558269
 30
0.0
 10
61.12253958975409
 20
-76.98100312745615
 30
0.0
 10
61.15905760189774
 20
-76.98324243952156
 30
0.0
 10
61.16456975467414
 20
-76.98324243952156
 30
0.0
 10
61.22141383018076
 20
-76.98324243952156
 30
0.0
 10
61.39332409489473
 20
-76.96205510228727
 30
0.0
 10
61.39332409489473
 20
-76.72503253290208
 30
0.0
 10
61.39332409489473
 20
-76.54743786063744
 30
0.0
 10
61.27998045343001
 20
-76.49231633287346
 30
0.0
 10
61.18455130848859
 20
-76.49231633287346
 30
0.0
 10
60.955796968268
 20
-76.49231633287346
 30
0.0
 10
60.94856226774898
 20
-76.72503253290208
 30
0.0
 10
60.9447726627152
 20
-76.7970350285438
 30
0.0
 10
60.9447726627152
 20
-76.7970350285438
 30
0.0
 10
60.76907279296746
 20
-76.7970350285438
 30
0.0
 10
60.76907279296746
 20
-76.7970350285438
 30
0.0
 10
60.776652003035
 20
-76.67215031720349
 30
0.0
 10
60.80042316188323
 20
-76.29560138066569
 30
0.0
 10
61.19557561404139
 20
-76.29560138066569
 30
0.0
 10
61.38953448986095
 20
-76.29560138066569
 30
0.0
 10
61.59830727626709
 20
-76.42255314929714
 30
0.0
 10
61.59830727626709
 20
-76.71865910625436
 30
0.0
 10
61.59830727626709
 20
-76.90486651723212
 30
0.0
 10
61.51596949416962
 20
-76.98737655410386
 30
0.0
 10
61.42984210703838
 20
-77.0486992537413
 30
0.0
 10
61.48289657751123
 20
-77.0762600176233
 30
0.0
 10
61.64033744118714
 20
-77.15670299720388
 30
0.0
 10
61.64033744118714
 20
-77.43386092899223
 30
0.0
 10
61.64033744118714
 20
-77.77234156041803
 30
0.0
 10
61.42639701155313
 20
-77.93942869145265
 30
0.0
 10
61.18661836577974
 20
-77.93942869145265
 30
0.0
  0
HATCH
  5
D3
330
CC
100
AcDbEntity
  8
_U+30EC_U+30A4_U+30E4_U+30FC 1
 62
   179
420
  2234388
100
AcDbHatch
 10
0.0
 20
0.0
 30
0.0
210
0.0
220
0.0
230
1.0
  2
SOLID
 70
     1
 71
     0
 91
        1
 92
        1
 93
        1
 72
     4
 94
        3
 73
     0
 74
     1
 95
       62
 96
       58
 40
0.0
 40
0.0
 40
0.0
 40
0.0
 40
1.0
 40
1.0
 40
1.0
 40
2.0
 40
2.0
 40
2.0
 40
3.0
 40
3.0
 40
3.0
 40
4.0
 40
4.0
 40
4.0
 40
5.0
 40
5.0
 40
5.0
 40
6.0
 40
6.0
 40
6.0
 40
7.0
 40
7.0
 40
7.0
 40
8.0
 40
8.0
 40
8.0
 40
9.0
 40
9.0
 40
9.0
 40
10.0
 40
10.0
 40
10.0
 40
11.0
 40
11.0
 40
11.0
 40
12.0
 40
12.0
 40
12.0
 40
13.0
 40
13.0
 40
13.0
 40
14.0
 40
14.0
 40
14.0
 40
15.0
 40
15.0
 40
15.0
 40
16.0
 40
16.0
 40
16.0
 40
17.0
 40
17.0
 40
17.0
 40
18.0
 40
18.0
 40
18.0
 40
19.0
 40
19.0
 40
19.0
 40
19.0
 10
61.18661836577974
 20
-77.93942869145265
 10
61.10428058368227
 20
-77.93942869145265
 10
60.91548935109058
 20
-77.91824135421837
 10
60.80765786240225
 20
-77.73203394324061
 10
60.74357908637661
 20
-77.61989608519572
 10
60.73978948134283
 20
-77.52050508044627
 10
60.73634438585758
 20
-77.43592798628339
 10
60.73634438585758
 20
-77.43592798628339
 10
60.92651365664337
 20
-77.43592798628339
 10
60.92651365664337
 20
-77.43592798628339
 10
60.92858071393452
 20
-77.50999753921626
 10
60.93753796219617
 20
-77.74478079653603
 10
61.18282876074596
 20
-77.74478079653603
 10
61.30168455498708
 20
-77.74478079653603
 10
61.43363171207215
 20
-77.67501761295972
 10
61.43363171207215
 20
-77.4464355275134
 10
61.43363171207215
 20
-77.33016355488621
 10
61.40055879541375
 20
-77.28141545376992
 10
61.37299803153175
 20
-77.24972057530563
 10
61.30926376505463
 20
-77.17565102237276
 10
61.20832246733681
 20
-77.16307642385159
 10
61.16078014964037
 20
-77.16307642385159
 10
61.14424369131116
 20
-77.16307642385159
 10
61.11323783194391
 20
-77.16514348114275
 10
61.08946667309569
 20
-77.16927759572505
 10
61.08946667309569
 20
-77.16927759572505
 10
61.08946667309569
 20
-76.97480195558269
 10
61.08946667309569
 20
-76.97480195558269
 10
61.12253958975409
 20
-76.98100312745615
 10
61.15905760189774
 20
-76.98324243952156
 10
61.16456975467414
 20
-76.98324243952156
 10
61.22141383018076
 20
-76.98324243952156
 10
61.39332409489473
 20
-76.96205510228727
 10
61.39332409489473
 20
-76.72503253290208
 10
61.39332409489473
 20
-76.54743786063744
 10
61.27998045343001
 20
-76.49231633287346
 10
61.18455130848859
 20
-76.49231633287346
 10
60.955796968268
 20
-76.49231633287346
 10
60.94856226774898
 20
-76.72503253290208
 10
60.9447726627152
 20
-76.7970350285438
 10
60.9447726627152
 20
-76.7970350285438
 10
60.76907279296746
 20
-76.7970350285438
 10
60.76907279296746
 20
-76.7970350285438
 10
60.776652003035
 20
-76.67215031720349
 10
60.80042316188323
 20
-76.29560138066569
 10
61.19557561404139
 20
-76.29560138066569
 10
61.38953448986095
 20
-76.29560138066569
 10
61.59830727626709
 20
-76.42255314929714
 10
61.59830727626709
 20
-76.71865910625436
 10
61.59830727626709
 20
-76.90486651723212
 10
61.51596949416962
 20
-76.98737655410386
 10
61.42984210703838
 20
-77.0486992537413
 10
61.48289657751123
 20
-77.0762600176233
 10
61.64033744118714
 20
-77.15670299720388
 10
61.64033744118714
 20
-77.43386092899223
 10
61.64033744118714
 20
-77.77234156041803
 10
61.42639701155313
 20
-77.93942869145265
 10
61.18661836577974
 20
-77.93942869145265
 97
        0
 97
        0
 75
     2
 76
     1
 98
        0
  0
ENDBLK
  5
CF
330
CC
100
AcDbEntity
  8
0
100
AcDbBlockEnd
  0
BLOCK
  5
DE
330
DC
100
AcDbEntity
  8
0
100
AcDbBlockBegin
  2
block 7
 70
     0
 10
0.0
 20
0.0
 30
0.0
  3
block 7
  1

  0
SPLINE
  5
E0
330
DC
100
AcDbEntity
  8
_U+30EC_U+30A4_U+30E4_U+30FC 1
370
     0
100
AcDbSpline
210
0.0
220
0.0
230
1.0
 70
    11
 71
     3
 72
    26
 73
    22
 74
     0
 42
0.0000000001
 43
0.0000000001
 12
1.0
 22
0.0
 32
0.0
 13
1.0
 23
0.0
 33
0.0
 40
0.0
 40
0.0
 40
0.0
 40
0.0
 40
1.0
 40
1.0
 40
1.0
 40
2.0
 40
2.0
 40
2.0
 40
3.0
 40
3.0
 40
3.0
 40
4.0
 40
4.0
 40
4.0
 40
5.0
 40
5.0
 40
5.0
 40
6.0
 40
6.0
 40
6.0
 40
7.0
 40
7.0
 40
7.0
 40
7.0
 10
75.82414006350925
 20
-91.28917369679577
 30
0.0
 10
75.82414006350925
 20
-91.28917369679577
 30
0.0
 10
74.71998696048668
 20
-91.28917369679577
 30
0.0
 10
74.71998696048668
 20
-91.28917369679577
 30
0.0
 10
74.71998696048668
 20
-91.28917369679577
 30
0.0
 10
74.71998696048668
 20
-91.57477211252298
 30
0.0
 10
74.71998696048668
 20
-91.57477211252298
 30
0.0
 10
74.71998696048668
 20
-91.57477211252298
 30
0.0
 10
74.57184785462093
 20
-91.57477211252298
 30
0.0
 10
74.57184785462093
 20
-91.57477211252298
 30
0.0
 10
74.55703394403436
 20
-91.28745114905314
 30
0.0
 10
74.39408092758204
 20
-91.24714353187572
 30
0.0
 10
74.27970375747175
 20
-91.22164982528487
 30
0.0
 10
74.27970375747175
 20
-91.22164982528487
 30
0.0
 10
74.27970375747175
 20
-91.0952148209762
 30
0.0
 10
74.27970375747175
 20
-91.0952148209762
 30
0.0
 10
74.27970375747175
 20
-91.0952148209762
 30
0.0
 10
75.82414006350925
 20
-91.0952148209762
 30
0.0
 10
75.82414006350925
 20
-91.0952148209762
 30
0.0
 10
75.82414006350925
 20
-91.0952148209762
 30
0.0
 10
75.82414006350925
 20
-91.28917369679577
 30
0.0
 10
75.82414006350925
 20
-91.28917369679577
 30
0.0
  0
HATCH
  5
E1
330
DC
100
AcDbEntity
  8
_U+30EC_U+30A4_U+30E4_U+30FC 1
 62
   179
420
  2234388
100
AcDbHatch
 10
0.0
 20
0.0
 30
0.0
210
0.0
220
0.0
230
1.0
  2
SOLID
 70
     1
 71
     0
 91
        1
 92
        1
 93
        1
 72
     4
 94
        3
 73
     0
 74
     1
 95
       26
 96
       22
 40
0.0
 40
0.0
 40
0.0
 40
0.0
 40
1.0
 40
1.0
 40
1.0
 40
2.0
 40
2.0
 40
2.0
 40
3.0
 40
3.0
 40
3.0
 40
4.0
 40
4.0
 40
4.0
 40
5.0
 40
5.0
 40
5.0
 40
6.0
 40
6.0
 40
6.0
 40
7.0
 40
7.0
 40
7.0
 40
7.0
 10
75.82414006350925
 20
-91.28917369679577
 10
75.82414006350925
 20
-91.28917369679577
 10
74.71998696048668
 20
-91.28917369679577
 10
74.71998696048668
 20
-91.28917369679577
 10
74.71998696048668
 20
-91.28917369679577
 10
74.71998696048668
 20
-91.57477211252298
 10
74.71998696048668
 20
-91.57477211252298
 10
74.71998696048668
 20
-91.57477211252298
 10
74.57184785462093
 20
-91.57477211252298
 10
74.57184785462093
 20
-91.57477211252298
 10
74.55703394403436
 20
-91.28745114905314
 10
74.39408092758204
 20
-91.24714353187572
 10
74.27970375747175
 20
-91.22164982528487
 10
74.27970375747175
 20
-91.22164982528487
 10
74.27970375747175
 20
-91.0952148209762
 10
74.27970375747175
 20
-91.0952148209762
 10
74.27970375747175
 20
-91.0952148209762
 10
75.82414006350925
 20
-91.0952148209762
 10
75.82414006350925
 20
-91.0952148209762
 10
75.82414006350925
 20
-91.0952148209762
 10
75.82414006350925
 20
-91.28917369679577
 10
75.82414006350925
 20
-91.28917369679577
 97
        0
 97
        0
 75
     2
 76
     1
 98
        0
  0
SPLINE
  5
E2
330
DC
100
AcDbEntity
  8
_U+30EC_U+30A4_U+30E4_U+30FC 1
370
     0
100
AcDbSpline
210
0.0
220
0.0
230
1.0
 70
    11
 71
     3
 72
    44
 73
    40
 74
     0
 42
0.0000000001
 43
0.0000000001
 12
1.0
 22
0.0
 32
0.0
 13
1.0
 23
0.0
 33
0.0
 40
0.0
 40
0.0
 40
0.0
 40
0.0
 40
1.0
 40
1.0
 40
1.0
 40
2.0
 40
2.0
 40
2.0
 40
3.0
 40
3.0
 40
3.0
 40
4.0
 40
4.0
 40
4.0
 40
5.0
 40
5.0
 40
5.0
 40
6.0
 40
6.0
 40
6.0
 40
7.0
 40
7.0
 40
7.0
 40
8.0
 40
8.0
 40
8.0
 40
9.0
 40
9.0
 40
9.0
 40
10.0
 40
10.0
 40
10.0
 40
11.0
 40
11.0
 40
11.0
 40
12.0
 40
12.0
 40
12.0
 40
13.0
 40
13.0
 40
13.0
 40
13.0
 10
75.24226343605055
 20
-90.1491916007266
 30
0.0
 10
75.40108233792057
 20
-90.33798283331829
 30
0.0
 10
75.47515189085344
 20
-90.4182535581246
 30
0.0
 10
75.61881237258835
 20
-90.46028372304465
 30
0.0
 10
75.61881237258835
 20
-90.46028372304465
 30
0.0
 10
75.61881237258835
 20
-89.78711206522684
 30
0.0
 10
75.61881237258835
 20
-89.78711206522684
 30
0.0
 10
75.61881237258835
 20
-89.78711206522684
 30
0.0
 10
75.82414006350925
 20
-89.78711206522684
 30
0.0
 10
75.82414006350925
 20
-89.78711206522684
 30
0.0
 10
75.82414006350925
 20
-89.78711206522684
 30
0.0
 10
75.82414006350925
 20
-90.67629120996982
 30
0.0
 10
75.82414006350925
 20
-90.67629120996982
 30
0.0
 10
75.46653915214031
 20
-90.64907495563635
 30
0.0
 10
75.38833548462514
 20
-90.59223088012972
 30
0.0
 10
75.08999021560251
 20
-90.25909014670607
 30
0.0
 10
74.89120820610358
 20
-90.0375705070045
 30
0.0
 10
74.82333982504417
 20
-89.9810709410464
 30
0.0
 10
74.6858805151827
 20
-89.9810709410464
 30
0.0
 10
74.5673692304901
 20
-89.9810709410464
 30
0.0
 10
74.43645560205061
 20
-90.0430826597809
 30
0.0
 10
74.43645560205061
 20
-90.21327037675225
 30
0.0
 10
74.43645560205061
 20
-90.43857962148758
 30
0.0
 10
74.66693249001382
 20
-90.44581432200661
 30
0.0
 10
74.78337671741527
 20
-90.44960392704039
 30
0.0
 10
74.78337671741527
 20
-90.44960392704039
 30
0.0
 10
74.78337671741527
 20
-90.64356280285995
 30
0.0
 10
74.78337671741527
 20
-90.64356280285995
 30
0.0
 10
74.65625269400955
 20
-90.6359835927924
 30
0.0
 10
74.54428709073893
 20
-90.62702634453075
 30
0.0
 10
74.42577580604633
 20
-90.5574354157287
 30
0.0
 10
74.26488984688517
 20
-90.46235078033581
 30
0.0
 10
74.23112791112972
 20
-90.30112031162611
 30
0.0
 10
74.23112791112972
 20
-90.20052352345682
 30
0.0
 10
74.23112791112972
 20
-89.96074487768342
 30
0.0
 10
74.41509601004206
 20
-89.78159991245043
 30
0.0
 10
74.68794757247385
 20
-89.78159991245043
 30
0.0
 10
74.91670191269444
 20
-89.78159991245043
 30
0.0
 10
75.01592066266963
 20
-89.88219670061973
 30
0.0
 10
75.24226343605055
 20
-90.1491916007266
 30
0.0
  0
HATCH
  5
E3
330
DC
100
AcDbEntity
  8
_U+30EC_U+30A4_U+30E4_U+30FC 1
 62
   179
420
  2234388
100
AcDbHatch
 10
0.0
 20
0.0
 30
0.0
210
0.0
220
0.0
230
1.0
  2
SOLID
 70
     1
 71
     0
 91
        1
 92
        1
 93
        1
 72
     4
 94
        3
 73
     0
 74
     1
 95
       44
 96
       40
 40
0.0
 40
0.0
 40
0.0
 40
0.0
 40
1.0
 40
1.0
 40
1.0
 40
2.0
 40
2.0
 40
2.0
 40
3.0
 40
3.0
 40
3.0
 40
4.0
 40
4.0
 40
4.0
 40
5.0
 40
5.0
 40
5.0
 40
6.0
 40
6.0
 40
6.0
 40
7.0
 40
7.0
 40
7.0
 40
8.0
 40
8.0
 40
8.0
 40
9.0
 40
9.0
 40
9.0
 40
10.0
 40
10.0
 40
10.0
 40
11.0
 40
11.0
 40
11.0
 40
12.0
 40
12.0
 40
12.0
 40
13.0
 40
13.0
 40
13.0
 40
13.0
 10
75.24226343605055
 20
-90.1491916007266
 10
75.40108233792057
 20
-90.33798283331829
 10
75.47515189085344
 20
-90.4182535581246
 10
75.61881237258835
 20
-90.46028372304465
 10
75.61881237258835
 20
-90.46028372304465
 10
75.61881237258835
 20
-89.78711206522684
 10
75.61881237258835
 20
-89.78711206522684
 10
75.61881237258835
 20
-89.78711206522684
 10
75.82414006350925
 20
-89.78711206522684
 10
75.82414006350925
 20
-89.78711206522684
 10
75.82414006350925
 20
-89.78711206522684
 10
75.82414006350925
 20
-90.67629120996982
 10
75.82414006350925
 20
-90.67629120996982
 10
75.46653915214031
 20
-90.64907495563635
 10
75.38833548462514
 20
-90.59223088012972
 10
75.08999021560251
 20
-90.25909014670607
 10
74.89120820610358
 20
-90.0375705070045
 10
74.82333982504417
 20
-89.9810709410464
 10
74.6858805151827
 20
-89.9810709410464
 10
74.5673692304901
 20
-89.9810709410464
 10
74.43645560205061
 20
-90.0430826597809
 10
74.43645560205061
 20
-90.21327037675225
 10
74.43645560205061
 20
-90.43857962148758
 10
74.66693249001382
 20
-90.44581432200661
 10
74.78337671741527
 20
-90.44960392704039
 10
74.78337671741527
 20
-90.44960392704039
 10
74.78337671741527
 20
-90.64356280285995
 10
74.78337671741527
 20
-90.64356280285995
 10
74.65625269400955
 20
-90.6359835927924
 10
74.54428709073893
 20
-90.62702634453075
 10
74.42577580604633
 20
-90.5574354157287
 10
74.26488984688517
 20
-90.46235078033581
 10
74.23112791112972
 20
-90.30112031162611
 10
74.23112791112972
 20
-90.20052352345682
 10
74.23112791112972
 20
-89.96074487768342
 10
74.41509601004206
 20
-89.78159991245043
 10
74.68794757247385
 20
-89.78159991245043
 10
74.91670191269444
 20
-89.78159991245043
 10
75.01592066266963
 20
-89.88219670061973
 10
75.24226343605055
 20
-90.1491916007266
 97
        0
 97
        0
 75
     2
 76
     1
 98
        0
  0
POLYLINE
  5
E4
330
DC
100
AcDbEntity
  8
_U+30EC_U+30A4_U+30E4_U+30FC 1
370
     0
100
AcDb2dPolyline
 66
     1
 10
0.0
 20
0.0
 30
0.0
  0
VERTEX
  5
E5
330
E4
100
AcDbEntity
  8
_U+30EC_U+30A4_U+30E4_U+30FC 1
370
     0
100
AcDbVertex
100
AcDb2dVertex
 10
75.82414006350925
 20
-89.59315318940727
 30
0.0
  0
VERTEX
  5
E6
330
E4
100
AcDbEntity
  8
_U+30EC_U+30A4_U+30E4_U+30FC 1
370
     0
100
AcDbVertex
100
AcDb2dVertex
 10
75.57230358353749
 20
-89.59315318940727
 30
0.0
  0
VERTEX
  5
E7
330
E4
100
AcDbEntity
  8
_U+30EC_U+30A4_U+30E4_U+30FC 1
370
     0
100
AcDbVertex
100
AcDb2dVertex
 10
75.57230358353749
 20
-89.37542315473948
 30
0.0
  0
VERTEX
  5
E8
330
E4
100
AcDbEntity
  8
_U+30EC_U+30A4_U+30E4_U+30FC 1
370
     0
100
AcDbVertex
100
AcDb2dVertex
 10
75.82414006350925
 20
-89.37542315473948
 30
0.0
  0
VERTEX
  5
E9
330
E4
100
AcDbEntity
  8
_U+30EC_U+30A4_U+30E4_U+30FC 1
370
     0
100
AcDbVertex
100
AcDb2dVertex
 10
75.82414006350925
 20
-89.59315318940727
 30
0.0
  0
SEQEND
  5
EA
330
E4
100
AcDbEntity
  8
_U+30EC_U+30A4_U+30E4_U+30FC 1
370
     0
  0
HATCH
  5
EB
330
DC
100
AcDbEntity
  8
_U+30EC_U+30A4_U+30E4_U+30FC 1
 62
   179
420
  2234388
100
AcDbHatch
 10
0.0
 20
0.0
 30
0.0
210
0.0
220
0.0
230
1.0
  2
SOLID
 70
     1
 71
     0
 91
        1
 92
        1
 93
        4
 72
     1
 10
75.82414006350925
 20
-89.59315318940727
 11
75.57230358353749
 21
-89.59315318940727
 72
     1
 10
75.57230358353749
 20
-89.59315318940727
 11
75.57230358353749
 21
-89.37542315473948
 72
     1
 10
75.57230358353749
 20
-89.37542315473948
 11
75.82414006350925
 21
-89.37542315473948
 72
     1
 10
75.82414006350925
 20
-89.37542315473948
 11
75.82414006350925
 21
-89.59315318940727
 97
        0
 75
     2
 76
     1
 98
        0
  0
SPLINE
  5
EC
330
DC
100
AcDbEntity
  8
_U+30EC_U+30A4_U+30E4_U+30FC 1
370
     0
100
AcDbSpline
210
0.0
220
0.0
230
1.0
 70
    11
 71
     3
 72
    26
 73
    22
 74
     0
 42
0.0000000001
 43
0.0000000001
 12
1.0
 22
0.0
 32
0.0
 13
1.0
 23
0.0
 33
0.0
 40
0.0
 40
0.0
 40
0.0
 40
0.0
 40
1.0
 40
1.0
 40
1.0
 40
2.0
 40
2.0
 40
2.0
 40
3.0
 40
3.0
 40
3.0
 40
4.0
 40
4.0
 40
4.0
 40
5.0
 40
5.0
 40
5.0
 40
6.0
 40
6.0
 40
6.0
 40
7.0
 40
7.0
 40
7.0
 40
7.0
 10
75.82414006350925
 20
-88.81559513838639
 30
0.0
 10
75.82414006350925
 20
-88.81559513838639
 30
0.0
 10
75.82414006350925
 20
-89.02057831975876
 30
0.0
 10
75.82414006350925
 20
-89.02057831975876
 30
0.0
 10
75.51511499848233
 20
-88.99887421820168
 30
0.0
 10
74.99697263750076
 20
-88.83213159671558
 30
0.0
 10
74.49123262026609
 20
-88.48073185722009
 30
0.0
 10
74.49123262026609
 20
-88.48073185722009
 30
0.0
 10
74.49123262026609
 20
-89.20557994731666
 30
0.0
 10
74.49123262026609
 20
-89.20557994731666
 30
0.0
 10
74.49123262026609
 20
-89.20557994731666
 30
0.0
 10
74.27970375747175
 20
-89.20557994731666
 30
0.0
 10
74.27970375747175
 20
-89.20557994731666
 30
0.0
 10
74.27970375747175
 20
-89.20557994731666
 30
0.0
 10
74.27970375747175
 20
-88.27574867584774
 30
0.0
 10
74.27970375747175
 20
-88.27574867584774
 30
0.0
 10
74.27970375747175
 20
-88.27574867584774
 30
0.0
 10
74.49123262026609
 20
-88.27574867584774
 30
0.0
 10
74.49123262026609
 20
-88.27574867584774
 30
0.0
 10
74.78130966012412
 20
-88.55583493879854
 30
0.0
 10
75.37352157403856
 20
-88.78631182676176
 30
0.0
 10
75.82414006350925
 20
-88.81559513838639
 30
0.0
  0
HATCH
  5
ED
330
DC
100
AcDbEntity
  8
_U+30EC_U+30A4_U+30E4_U+30FC 1
 62
   179
420
  2234388
100
AcDbHatch
 10
0.0
 20
0.0
 30
0.0
210
0.0
220
0.0
230
1.0
  2
SOLID
 70
     1
 71
     0
 91
        1
 92
        1
 93
        1
 72
     4
 94
        3
 73
     0
 74
     1
 95
       26
 96
       22
 40
0.0
 40
0.0
 40
0.0
 40
0.0
 40
1.0
 40
1.0
 40
1.0
 40
2.0
 40
2.0
 40
2.0
 40
3.0
 40
3.0
 40
3.0
 40
4.0
 40
4.0
 40
4.0
 40
5.0
 40
5.0
 40
5.0
 40
6.0
 40
6.0
 40
6.0
 40
7.0
 40
7.0
 40
7.0
 40
7.0
 10
75.82414006350925
 20
-88.81559513838639
 10
75.82414006350925
 20
-88.81559513838639
 10
75.82414006350925
 20
-89.02057831975876
 10
75.82414006350925
 20
-89.02057831975876
 10
75.51511499848233
 20
-88.99887421820168
 10
74.99697263750076
 20
-88.83213159671558
 10
74.49123262026609
 20
-88.48073185722009
 10
74.49123262026609
 20
-88.48073185722009
 10
74.49123262026609
 20
-89.20557994731666
 10
74.49123262026609
 20
-89.20557994731666
 10
74.49123262026609
 20
-89.20557994731666
 10
74.27970375747175
 20
-89.20557994731666
 10
74.27970375747175
 20
-89.20557994731666
 10
74.27970375747175
 20
-89.20557994731666
 10
74.27970375747175
 20
-88.27574867584774
 10
74.27970375747175
 20
-88.27574867584774
 10
74.27970375747175
 20
-88.27574867584774
 10
74.49123262026609
 20
-88.27574867584774
 10
74.49123262026609
 20
-88.27574867584774
 10
74.78130966012412
 20
-88.55583493879854
 10
75.37352157403856
 20
-88.78631182676176
 10
75.82414006350925
 20
-88.81559513838639
 97
        0
 97
        0
 75
     2
 76
     1
 98
        0
  0
ENDBLK
  5
DF
330
DC
100
AcDbEntity
  8
0
100
AcDbBlockEnd
  0
ENDSEC
  0
SECTION
  2
ENTITIES
  0
INSERT
  5
42
330
1F
100
AcDbEntity
  8
_U+30EC_U+30A4_U+30E4_U+30FC 1
100
AcDbBlockReference
  2
block 2
 10
0.0
 20
0.0
 30
0.0
  0
ENDSEC
  0
SECTION
  2
OBJECTS
  0
DICTIONARY
  5
C
330
0
100
AcDbDictionary
281
     1
  3
ACAD_GROUP
350
D
  3
ACAD_LAYOUT
350
1A
  3
ACAD_MATERIAL
350
3B
  3
ACAD_MLEADERSTYLE
350
EF
  3
ACAD_MLINESTYLE
350
17
  3
ACAD_PLOTSETTINGS
350
19
  3
ACAD_PLOTSTYLENAME
350
E
  3
ACAD_TABLESTYLE
350
EE
  3
ACAD_VISUALSTYLE
350
2A
  0
SUN
  5
3F
330
29
100
AcDbSun
 90
        1
290
     0
 63
     7
421
 16777215
 40
1.0
291
     1
 91
  2455826
 92
 54000000
292
     0
 70
     2
 71
   256
280
     1
  0
DICTIONARY
  5
D
102
{ACAD_REACTORS
330
C
102
}
330
C
100
AcDbDictionary
281
     1
  0
DICTIONARY
  5
1A
102
{ACAD_REACTORS
330
C
102
}
330
C
100
AcDbDictionary
281
     1
  3
Layout1
350
1E
  3
Layout2
350
26
  3
Model
350
22
  0
DICTIONARY
  5
3B
102
{ACAD_REACTORS
330
C
102
}
330
C
100
AcDbDictionary
281
     1
  3
ByBlock
350
3D
  3
ByLayer
350
3C
  3
Global
350
3E
  0
DICTIONARY
  5
EF
102
{ACAD_REACTORS
330
C
102
}
330
C
100
AcDbDictionary
281
     1
  0
DICTIONARY
  5
17
102
{ACAD_REACTORS
330
C
102
}
330
C
100
AcDbDictionary
281
     1
  3
Standard
350
18
  0
DICTIONARY
  5
19
102
{ACAD_REACTORS
330
C
102
}
330
C
100
AcDbDictionary
281
     1
  0
ACDBDICTIONARYWDFLT
  5
E
102
{ACAD_REACTORS
330
C
102
}
330
C
100
AcDbDictionary
281
     1
  3
Normal
350
F
100
AcDbDictionaryWithDefault
340
F
  0
DICTIONARY
  5
EE
102
{ACAD_REACTORS
330
C
102
}
330
C
100
AcDbDictionary
281
     1
  0
DICTIONARY
  5
2A
102
{ACAD_REACTORS
330
C
102
}
330
C
100
AcDbDictionary
281
     1
  3
2dWireframe
350
2F
  3
3D Hidden
350
31
  3
3dWireframe
350
30
  3
Basic
350
32
  3
Brighten
350
36
  3
ColorChange
350
3A
  3
Conceptual
350
34
  3
Dim
350
35
  3
Facepattern
350
39
  3
Flat
350
2B
  3
FlatWithEdges
350
2C
  3
Gouraud
350
2D
  3
GouraudWithEdges
350
2E
  3
Linepattern
350
38
  3
Realistic
350
33
  3
Thicken
350
37
  0
LAYOUT
  5
1E
102
{ACAD_REACTORS
330
1A
102
}
330
1A
100
AcDbPlotSettings
  1

  2
none_device
  4

  6

 40
0.0
 41
0.0
 42
0.0
 43
0.0
 44
0.0
 45
0.0
 46
0.0
 47
0.0
 48
0.0
 49
0.0
140
0.0
141
0.0
142
1.0
143
1.0
 70
   688
 72
     0
 73
     0
 74
     5
  7

 75
    16
 76
     0
 77
     2
 78
   300
147
1.0
148
0.0
149
0.0
100
AcDbLayout
  1
Layout1
 70
     1
 71
     1
 10
0.0
 20
0.0
 11
12.0
 21
9.0
 12
0.0
 22
0.0
 32
0.0
 14
1.000000000000000E+20
 24
1.000000000000000E+20
 34
1.000000000000000E+20
 15
-1.000000000000000E+20
 25
-1.000000000000000E+20
 35
-1.000000000000000E+20
146
0.0
 13
0.0
 23
0.0
 33
0.0
 16
1.0
 26
0.0
 36
0.0
 17
0.0
 27
1.0
 37
0.0
 76
     0
330
1B
  0
LAYOUT
  5
26
102
{ACAD_REACTORS
330
1A
102
}
330
1A
100
AcDbPlotSettings
  1

  2
none_device
  4

  6

 40
0.0
 41
0.0
 42
0.0
 43
0.0
 44
0.0
 45
0.0
 46
0.0
 47
0.0
 48
0.0
 49
0.0
140
0.0
141
0.0
142
1.0
143
1.0
 70
   688
 72
     0
 73
     0
 74
     5
  7

 75
    16
 76
     0
 77
     2
 78
   300
147
1.0
148
0.0
149
0.0
100
AcDbLayout
  1
Layout2
 70
     1
 71
     2
 10
0.0
 20
0.0
 11
0.0
 21
0.0
 12
0.0
 22
0.0
 32
0.0
 14
0.0
 24
0.0
 34
0.0
 15
0.0
 25
0.0
 35
0.0
146
0.0
 13
0.0
 23
0.0
 33
0.0
 16
1.0
 26
0.0
 36
0.0
 17
0.0
 27
1.0
 37
0.0
 76
     0
330
23
  0
LAYOUT
  5
22
102
{ACAD_REACTORS
330
1A
102
}
330
1A
100
AcDbPlotSettings
  1

  2
none_device
  4

  6

 40
0.0
 41
0.0
 42
0.0
 43
0.0
 44
0.0
 45
0.0
 46
0.0
 47
0.0
 48
0.0
 49
0.0
140
0.0
141
0.0
142
1.0
143
1.0
 70
  1712
 72
     0
 73
     0
 74
     0
  7

 75
     0
 76
     0
 77
     2
 78
   300
147
1.0
148
0.0
149
0.0
100
AcDbLayout
  1
Model
 70
     1
 71
     0
 10
0.0
 20
0.0
 11
12.0
 21
9.0
 12
0.0
 22
0.0
 32
0.0
 14
1.000000000000000E+20
 24
1.000000000000000E+20
 34
1.000000000000000E+20
 15
-1.000000000000000E+20
 25
-1.000000000000000E+20
 35
-1.000000000000000E+20
146
0.0
 13
0.0
 23
0.0
 33
0.0
 16
1.0
 26
0.0
 36
0.0
 17
0.0
 27
1.0
 37
0.0
 76
     0
330
1F
331
29
  0
MATERIAL
  5
3D
102
{ACAD_REACTORS
330
3B
102
}
330
3B
100
AcDbMaterial
  1
ByBlock
 72
     1
 94
      127
  0
MATERIAL
  5
3C
102
{ACAD_REACTORS
330
3B
102
}
330
3B
100
AcDbMaterial
  1
ByLayer
 72
     1
 94
      127
  0
MATERIAL
  5
3E
102
{ACAD_REACTORS
330
3B
102
}
330
3B
100
AcDbMaterial
  1
Global
 72
     1
 94
      127
  0
MLINESTYLE
  5
18
102
{ACAD_REACTORS
330
17
102
}
330
17
100
AcDbMlineStyle
  2
Standard
 70
     0
  3

 62
   256
 51
90.0
 52
90.0
 71
     2
 49
0.5
 62
   256
  6
BYLAYER
 49
-0.5
 62
   256
  6
BYLAYER
  0
ACDBPLACEHOLDER
  5
F
102
{ACAD_REACTORS
330
E
102
}
330
E
  0
VISUALSTYLE
  5
2F
102
{ACAD_REACTORS
330
2A
102
}
330
2A
100
AcDbVisualStyle
  2
2dWireframe
 70
     4
177
     2
291
     0
 71
     0
176
     1
 72
     2
176
     1
 73
     0
176
     1
 90
        0
176
     1
 40
-0.6
176
     1
 41
-30.0
176
     1
 62
     5
 63
     7
421
 16777215
176
     1
 74
     1
176
     1
 91
        4
176
     1
 64
     7
176
     1
 65
   257
176
     1
 75
     1
176
     1
175
     1
176
     1
 42
1.0
176
     1
 92
        0
176
     1
 66
   257
176
     1
 43
1.0
176
     1
 76
     1
176
     1
 77
     6
176
     1
 78
     2
176
     1
 67
     7
176
     1
 79
     5
176
     1
170
     0
176
     1
171
     0
176
     1
290
     0
176
     1
 93
        1
176
     1
 44
0.0
176
     1
173
     0
176
     1
  0
VISUALSTYLE
  5
31
102
{ACAD_REACTORS
330
2A
102
}
330
2A
100
AcDbVisualStyle
  2
3D Hidden
 70
     6
177
     2
291
     0
 71
     1
176
     1
 72
     2
176
     1
 73
     2
176
     1
 90
        0
176
     1
 40
-0.6
176
     1
 41
-30.0
176
     1
 62
     5
 63
     7
421
 16777215
176
     1
 74
     2
176
     1
 91
        2
176
     1
 64
     7
176
     1
 65
   257
176
     1
 75
     2
176
     1
175
     1
176
     1
 42
40.0
176
     1
 92
        0
176
     1
 66
   257
176
     1
 43
1.0
176
     1
 76
     1
176
     1
 77
     6
176
     1
 78
     2
176
     1
 67
     7
176
     1
 79
     3
176
     1
170
     0
176
     1
171
     0
176
     1
290
     0
176
     1
 93
        1
176
     1
 44
0.0
176
     1
173
     0
176
     1
  0
VISUALSTYLE
  5
30
102
{ACAD_REACTORS
330
2A
102
}
330
2A
100
AcDbVisualStyle
  2
3dWireframe
 70
     5
177
     2
291
     0
 71
     0
176
     1
 72
     2
176
     1
 73
     0
176
     1
 90
        0
176
     1
 40
-0.6
176
     1
 41
-30.0
176
     1
 62
     5
 63
     7
421
 16777215
176
     1
 74
     1
176
     1
 91
        4
176
     1
 64
     7
176
     1
 65
   257
176
     1
 75
     1
176
     1
175
     1
176
     1
 42
1.0
176
     1
 92
        0
176
     1
 66
   257
176
     1
 43
1.0
176
     1
 76
     1
176
     1
 77
     6
176
     1
 78
     2
176
     1
 67
     7
176
     1
 79
     5
176
     1
170
     0
176
     1
171
     0
176
     1
290
     0
176
     1
 93
        1
176
     1
 44
0.0
176
     1
173
     0
176
     1
  0
VISUALSTYLE
  5
32
102
{ACAD_REACTORS
330
2A
102
}
330
2A
100
AcDbVisualStyle
  2
Basic
 70
     7
177
     2
291
     1
 71
     1
176
     1
 72
     0
176
     1
 73
     1
176
     1
 90
        0
176
     1
 40
-0.6
176
     1
 41
-30.0
176
     1
 62
     5
 63
     7
421
 16777215
176
     1
 74
     0
176
     1
 91
        4
176
     1
 64
     7
176
     1
 65
   257
176
     1
 75
     1
176
     1
175
     1
176
     1
 42
1.0
176
     1
 92
        8
176
     1
 66
     7
176
     1
 43
1.0
176
     1
 76
     1
176
     1
 77
     6
176
     1
 78
     2
176
     1
 67
     7
176
     1
 79
     5
176
     1
170
     0
176
     1
171
     0
176
     1
290
     0
176
     1
 93
        1
176
     1
 44
0.0
176
     1
173
     0
176
     1
  0
VISUALSTYLE
  5
36
102
{ACAD_REACTORS
330
2A
102
}
330
2A
100
AcDbVisualStyle
  2
Brighten
 70
    12
177
     2
291
     1
 71
     2
176
     1
 72
     2
176
     1
 73
     0
176
     1
 90
        0
176
     1
 40
-0.6
176
     1
 41
-30.0
176
     1
 62
     5
 63
     7
421
 16777215
176
     1
 74
     1
176
     1
 91
        4
176
     1
 64
     7
176
     1
 65
   257
176
     1
 75
     1
176
     1
175
     1
176
     1
 42
1.0
176
     1
 92
        8
176
     1
 66
     7
176
     1
 43
1.0
176
     1
 76
     1
176
     1
 77
     6
176
     1
 78
     2
176
     1
 67
     7
176
     1
 79
     5
176
     1
170
     0
176
     1
171
     0
176
     1
290
     0
176
     1
 93
        1
176
     1
 44
50.0
176
     1
173
     0
176
     1
  0
VISUALSTYLE
  5
3A
102
{ACAD_REACTORS
330
2A
102
}
330
2A
100
AcDbVisualStyle
  2
ColorChange
 70
    16
177
     2
291
     1
 71
     2
176
     1
 72
     2
176
     1
 73
     3
176
     1
 90
        0
176
     1
 40
-0.6
176
     1
 41
-30.0
176
     1
 62
     5
 63
     8
421
  8421504
176
     1
 74
     1
176
     1
 91
        4
176
     1
 64
     7
176
     1
 65
   257
176
     1
 75
     1
176
     1
175
     1
176
     1
 42
1.0
176
     1
 92
        8
176
     1
 66
     8
424
  8421504
176
     1
 43
1.0
176
     1
 76
     1
176
     1
 77
     6
176
     1
 78
     2
176
     1
 67
     7
176
     1
 79
     5
176
     1
170
     0
176
     1
171
     0
176
     1
290
     0
176
     1
 93
        1
176
     1
 44
0.0
176
     1
173
     0
176
     1
  0
VISUALSTYLE
  5
34
102
{ACAD_REACTORS
330
2A
102
}
330
2A
100
AcDbVisualStyle
  2
Conceptual
 70
     9
177
     2
291
     0
 71
     3
176
     1
 72
     2
176
     1
 73
     0
176
     1
 90
        0
176
     1
 40
-0.6
176
     1
 41
-30.0
176
     1
 62
     5
 63
     7
421
 16777215
176
     1
 74
     2
176
     1
 91
        2
176
     1
 64
     7
176
     1
 65
   257
176
     1
 75
     1
176
     1
175
     1
176
     1
 42
40.0
176
     1
 92
        8
176
     1
 66
     7
176
     1
 43
1.0
176
     1
 76
     1
176
     1
 77
     6
176
     1
 78
     2
176
     1
 67
     7
176
     1
 79
     3
176
     1
170
     0
176
     1
171
     0
176
     1
290
     0
176
     1
 93
        1
176
     1
 44
0.0
176
     1
173
     0
176
     1
  0
VISUALSTYLE
  5
35
102
{ACAD_REACTORS
330
2A
102
}
330
2A
100
AcDbVisualStyle
  2
Dim
 70
    11
177
     2
291
     1
 71
     2
176
     1
 72
     2
176
     1
 73
     0
176
     1
 90
        0
176
     1
 40
-0.6
176
     1
 41
-30.0
176
     1
 62
     5
 63
     7
421
 16777215
176
     1
 74
     1
176
     1
 91
        4
176
     1
 64
     7
176
     1
 65
   257
176
     1
 75
     1
176
     1
175
     1
176
     1
 42
1.0
176
     1
 92
        8
176
     1
 66
     7
176
     1
 43
1.0
176
     1
 76
     1
176
     1
 77
     6
176
     1
 78
     2
176
     1
 67
     7
176
     1
 79
     5
176
     1
170
     0
176
     1
171
     0
176
     1
290
     0
176
     1
 93
        1
176
     1
 44
-50.0
176
     1
173
     0
176
     1
  0
VISUALSTYLE
  5
39
102
{ACAD_REACTORS
330
2A
102
}
330
2A
100
AcDbVisualStyle
  2
Facepattern
 70
    15
177
     2
291
     1
 71
     2
176
     1
 72
     2
176
     1
 73
     0
176
     1
 90
        0
176
     1
 40
-0.6
176
     1
 41
-30.0
176
     1
 62
     5
 63
     7
421
 16777215
176
     1
 74
     1
176
     1
 91
        4
176
     1
 64
     7
176
     1
 65
   257
176
     1
 75
     1
176
     1
175
     1
176
     1
 42
1.0
176
     1
 92
        8
176
     1
 66
     7
176
     1
 43
1.0
176
     1
 76
     1
176
     1
 77
     6
176
     1
 78
     2
176
     1
 67
     7
176
     1
 79
     5
176
     1
170
     0
176
     1
171
     0
176
     1
290
     0
176
     1
 93
        1
176
     1
 44
0.0
176
     1
173
     0
176
     1
  0
VISUALSTYLE
  5
2B
102
{ACAD_REACTORS
330
2A
102
}
330
2A
100
AcDbVisualStyle
  2
Flat
 70
     0
177
     2
291
     1
 71
     2
176
     1
 72
     1
176
     1
 73
     1
176
     1
 90
        2
176
     1
 40
-0.6
176
     1
 41
30.0
176
     1
 62
     5
 63
     7
421
 16777215
176
     1
 74
     0
176
     1
 91
        4
176
     1
 64
     7
176
     1
 65
   257
176
     1
 75
     1
176
     1
175
     1
176
     1
 42
1.0
176
     1
 92
        8
176
     1
 66
     7
176
     1
 43
1.0
176
     1
 76
     1
176
     1
 77
     6
176
     1
 78
     2
176
     1
 67
     7
176
     1
 79
     5
176
     1
170
     0
176
     1
171
     0
176
     1
290
     0
176
     1
 93
       13
176
     1
 44
0.0
176
     1
173
     0
176
     1
  0
VISUALSTYLE
  5
2C
102
{ACAD_REACTORS
330
2A
102
}
330
2A
100
AcDbVisualStyle
  2
FlatWithEdges
 70
     1
177
     2
291
     1
 71
     2
176
     1
 72
     1
176
     1
 73
     1
176
     1
 90
        2
176
     1
 40
-0.6
176
     1
 41
30.0
176
     1
 62
     5
 63
     7
421
 16777215
176
     1
 74
     1
176
     1
 91
        4
176
     1
 64
     7
176
     1
 65
   257
176
     1
 75
     1
176
     1
175
     1
176
     1
 42
1.0
176
     1
 92
        0
176
     1
 66
   257
176
     1
 43
1.0
176
     1
 76
     1
176
     1
 77
     6
176
     1
 78
     2
176
     1
 67
     7
176
     1
 79
     5
176
     1
170
     0
176
     1
171
     0
176
     1
290
     0
176
     1
 93
       13
176
     1
 44
0.0
176
     1
173
     0
176
     1
  0
VISUALSTYLE
  5
2D
102
{ACAD_REACTORS
330
2A
102
}
330
2A
100
AcDbVisualStyle
  2
Gouraud
 70
     2
177
     2
291
     1
 71
     2
176
     1
 72
     2
176
     1
 73
     1
176
     1
 90
        2
176
     1
 40
-0.6
176
     1
 41
30.0
176
     1
 62
     5
 63
     7
421
 16777215
176
     1
 74
     0
176
     1
 91
        4
176
     1
 64
     7
176
     1
 65
   257
176
     1
 75
     1
176
     1
175
     1
176
     1
 42
1.0
176
     1
 92
        0
176
     1
 66
     7
176
     1
 43
1.0
176
     1
 76
     1
176
     1
 77
     6
176
     1
 78
     2
176
     1
 67
     7
176
     1
 79
     5
176
     1
170
     0
176
     1
171
     0
176
     1
290
     0
176
     1
 93
       13
176
     1
 44
0.0
176
     1
173
     0
176
     1
  0
VISUALSTYLE
  5
2E
102
{ACAD_REACTORS
330
2A
102
}
330
2A
100
AcDbVisualStyle
  2
GouraudWithEdges
 70
     3
177
     2
291
     1
 71
     2
176
     1
 72
     2
176
     1
 73
     1
176
     1
 90
        2
176
     1
 40
-0.6
176
     1
 41
30.0
176
     1
 62
     5
 63
     7
421
 16777215
176
     1
 74
     1
176
     1
 91
        4
176
     1
 64
     7
176
     1
 65
   257
176
     1
 75
     1
176
     1
175
     1
176
     1
 42
1.0
176
     1
 92
        0
176
     1
 66
   257
176
     1
 43
1.0
176
     1
 76
     1
176
     1
 77
     6
176
     1
 78
     2
176
     1
 67
     7
176
     1
 79
     5
176
     1
170
     0
176
     1
171
     0
176
     1
290
     0
176
     1
 93
       13
176
     1
 44
0.0
176
     1
173
     0
176
     1
  0
VISUALSTYLE
  5
38
102
{ACAD_REACTORS
330
2A
102
}
330
2A
100
AcDbVisualStyle
  2
Linepattern
 70
    14
177
     2
291
     1
 71
     2
176
     1
 72
     2
176
     1
 73
     0
176
     1
 90
        0
176
     1
 40
-0.6
176
     1
 41
-30.0
176
     1
 62
     5
 63
     7
421
 16777215
176
     1
 74
     1
176
     1
 91
        4
176
     1
 64
     7
176
     1
 65
   257
176
     1
 75
     7
176
     1
175
     7
176
     1
 42
1.0
176
     1
 92
        8
176
     1
 66
     7
176
     1
 43
1.0
176
     1
 76
     1
176
     1
 77
     6
176
     1
 78
     2
176
     1
 67
     7
176
     1
 79
     5
176
     1
170
     0
176
     1
171
     0
176
     1
290
     0
176
     1
 93
        1
176
     1
 44
0.0
176
     1
173
     0
176
     1
  0
VISUALSTYLE
  5
33
102
{ACAD_REACTORS
330
2A
102
}
330
2A
100
AcDbVisualStyle
  2
Realistic
 70
     8
177
     2
291
     0
 71
     2
176
     1
 72
     2
176
     1
 73
     0
176
     1
 90
        0
176
     1
 40
-0.6
176
     1
 41
-30.0
176
     1
 62
     5
 63
     7
421
 16777215
176
     1
 74
     1
176
     1
 91
        0
176
     1
 64
     7
176
     1
 65
   257
176
     1
 75
     1
176
     1
175
     1
176
     1
 42
1.0
176
     1
 92
        8
176
     1
 66
     8
424
  7895160
176
     1
 43
1.0
176
     1
 76
     1
176
     1
 77
     6
176
     1
 78
     2
176
     1
 67
     7
176
     1
 79
     5
176
     1
170
     0
176
     1
171
     0
176
     1
290
     0
176
     1
 93
       13
176
     1
 44
0.0
176
     1
173
     0
176
     1
  0
VISUALSTYLE
  5
37
102
{ACAD_REACTORS
330
2A
102
}
330
2A
100
AcDbVisualStyle
  2
Thicken
 70
    13
177
     2
291
     1
 71
     2
176
     1
 72
     2
176
     1
 73
     0
176
     1
 90
        0
176
     1
 40
-0.6
176
     1
 41
-30.0
176
     1
 62
     5
 63
     7
421
 16777215
176
     1
 74
     1
176
     1
 91
        4
176
     1
 64
     7
176
     1
 65
   257
176
     1
 75
     1
176
     1
175
     1
176
     1
 42
1.0
176
     1
 92
       12
176
     1
 66
     7
176
     1
 43
1.0
176
     1
 76
     1
176
     1
 77
     6
176
     1
 78
     2
176
     1
 67
     7
176
     1
 79
     5
176
     1
170
     0
176
     1
171
     0
176
     1
290
     0
176
     1
 93
        1
176
     1
 44
0.0
176
     1
173
     0
176
     1
  0
ENDSEC
  0
EOF
