  0
SECTION
  2
HEADER
  9
$ACADVER
  1
AC1024
  9
$ACADMAINTVER
 70
     6
  9
$DWGCODEPAGE
  3
UNDEFINED
  9
$INSBASE
 10
0.0
 20
0.0
 30
0.0
  9
$EXTMIN
 10
1.000000000000000E+20
 20
1.000000000000000E+20
 30
1.000000000000000E+20
  9
$EXTMAX
 10
-1.000000000000000E+20
 20
-1.000000000000000E+20
 30
-1.000000000000000E+20
  9
$LIMMIN
 10
0.0
 20
0.0
  9
$LIMMAX
 10
12.0
 20
9.0
  9
$ORTHOMODE
 70
     0
  9
$REGENMODE
 70
     1
  9
$FILLMODE
 70
     1
  9
$QTEXTMODE
 70
     0
  9
$MIRRTEXT
 70
     1
  9
$LTSCALE
 40
1.0
  9
$ATTMODE
 70
     1
  9
$TEXTSIZE
 40
0.2
  9
$TRACEWID
 40
0.05
  9
$TEXTSTYLE
  7
Standard
  9
$CLAYER
  8
0
  9
$CELTYPE
  6
ByLayer
  9
$CECOLOR
 62
   256
  9
$CELTSCALE
 40
1.0
  9
$DISPSILH
 70
     0
  9
$DIMSCALE
 40
1.0
  9
$DIMASZ
 40
0.18
  9
$DIMEXO
 40
0.0625
  9
$DIMDLI
 40
0.38
  9
$DIMRND
 40
0.0
  9
$DIMDLE
 40
0.0
  9
$DIMEXE
 40
0.18
  9
$DIMTP
 40
0.0
  9
$DIMTM
 40
0.0
  9
$DIMTXT
 40
0.18
  9
$DIMCEN
 40
0.09
  9
$DIMTSZ
 40
0.0
  9
$DIMTOL
 70
     0
  9
$DIMLIM
 70
     0
  9
$DIMTIH
 70
     1
  9
$DIMTOH
 70
     1
  9
$DIMSE1
 70
     0
  9
$DIMSE2
 70
     0
  9
$DIMTAD
 70
     0
  9
$DIMZIN
 70
     0
  9
$DIMBLK
  1

  9
$DIMASO
 70
     1
  9
$DIMSHO
 70
     1
  9
$DIMPOST
  1

  9
$DIMAPOST
  1

  9
$DIMALT
 70
     0
  9
$DIMALTD
 70
     2
  9
$DIMALTF
 40
25.4
  9
$DIMLFAC
 40
1.0
  9
$DIMTOFL
 70
     0
  9
$DIMTVP
 40
0.0
  9
$DIMTIX
 70
     0
  9
$DIMSOXD
 70
     0
  9
$DIMSAH
 70
     0
  9
$DIMBLK1
  1

  9
$DIMBLK2
  1

  9
$DIMSTYLE
  2
Standard
  9
$DIMCLRD
 70
     0
  9
$DIMCLRE
 70
     0
  9
$DIMCLRT
 70
     0
  9
$DIMTFAC
 40
1.0
  9
$DIMGAP
 40
0.09
  9
$DIMJUST
 70
     0
  9
$DIMSD1
 70
     0
  9
$DIMSD2
 70
     0
  9
$DIMTOLJ
 70
     1
  9
$DIMTZIN
 70
     0
  9
$DIMALTZ
 70
     0
  9
$DIMALTTZ
 70
     0
  9
$DIMUPT
 70
     0
  9
$DIMDEC
 70
     4
  9
$DIMTDEC
 70
     4
  9
$DIMALTU
 70
     2
  9
$DIMALTTD
 70
     2
  9
$DIMTXSTY
  7
Standard
  9
$DIMAUNIT
 70
     0
  9
$DIMADEC
 70
     0
  9
$DIMALTRND
 40
0.0
  9
$DIMAZIN
 70
     0
  9
$DIMDSEP
 70
    46
  9
$DIMATFIT
 70
     3
  9
$DIMFRAC
 70
     0
  9
$DIMLDRBLK
  1

  9
$DIMLUNIT
 70
     2
  9
$DIMLWD
 70
    -2
  9
$DIMLWE
 70
    -2
  9
$DIMTMOVE
 70
     0
  9
$DIMFXL
 40
1.0
  9
$DIMFXLON
 70
     0
  9
$DIMJOGANG
 40
0.7853981633974483
  9
$DIMTFILL
 70
     0
  9
$DIMTFILLCLR
 70
     0
  9
$DIMARCSYM
 70
     0
  9
$DIMLTYPE
  6

  9
$DIMLTEX1
  6

  9
$DIMLTEX2
  6

  9
$DIMTXTDIRECTION
 70
     0
  9
$LUNITS
 70
     2
  9
$LUPREC
 70
     4
  9
$SKETCHINC
 40
0.1
  9
$FILLETRAD
 40
0.5
  9
$AUNITS
 70
     0
  9
$AUPREC
 70
     0
  9
$MENU
  1
.
  9
$ELEVATION
 40
0.0
  9
$PELEVATION
 40
0.0
  9
$THICKNESS
 40
0.0
  9
$LIMCHECK
 70
     0
  9
$CHAMFERA
 40
0.5
  9
$CHAMFERB
 40
0.5
  9
$CHAMFERC
 40
1.0
  9
$CHAMFERD
 40
0.0
  9
$SKPOLY
 70
     0
  9
$TDCREATE
 40
2457917.586898136
  9
$TDUCREATE
 40
2457917.211898148
  9
$TDUPDATE
 40
2457917.586898136
  9
$TDUUPDATE
 40
2457917.211898148
  9
$TDINDWG
 40
0.0000000116
  9
$TDUSRTIMER
 40
0.0000000116
  9
$USRTIMER
 70
     1
  9
$ANGBASE
 50
0.0
  9
$ANGDIR
 70
     0
  9
$PDMODE
 70
     0
  9
$PDSIZE
 40
0.0
  9
$PLINEWID
 40
0.0
  9
$SPLFRAME
 70
     0
  9
$SPLINETYPE
 70
     6
  9
$SPLINESEGS
 70
     8
  9
$HANDSEED
  5
EB
  9
$SURFTAB1
 70
     6
  9
$SURFTAB2
 70
     6
  9
$SURFTYPE
 70
     6
  9
$SURFU
 70
     6
  9
$SURFV
 70
     6
  9
$UCSBASE
  2

  9
$UCSNAME
  2

  9
$UCSORG
 10
0.0
 20
0.0
 30
0.0
  9
$UCSXDIR
 10
1.0
 20
0.0
 30
0.0
  9
$UCSYDIR
 10
0.0
 20
1.0
 30
0.0
  9
$UCSORTHOREF
  2

  9
$UCSORTHOVIEW
 70
     0
  9
$UCSORGTOP
 10
0.0
 20
0.0
 30
0.0
  9
$UCSORGBOTTOM
 10
0.0
 20
0.0
 30
0.0
  9
$UCSORGLEFT
 10
0.0
 20
0.0
 30
0.0
  9
$UCSORGRIGHT
 10
0.0
 20
0.0
 30
0.0
  9
$UCSORGFRONT
 10
0.0
 20
0.0
 30
0.0
  9
$UCSORGBACK
 10
0.0
 20
0.0
 30
0.0
  9
$PUCSBASE
  2

  9
$PUCSNAME
  2

  9
$PUCSORG
 10
0.0
 20
0.0
 30
0.0
  9
$PUCSXDIR
 10
1.0
 20
0.0
 30
0.0
  9
$PUCSYDIR
 10
0.0
 20
1.0
 30
0.0
  9
$PUCSORTHOREF
  2

  9
$PUCSORTHOVIEW
 70
     0
  9
$PUCSORGTOP
 10
0.0
 20
0.0
 30
0.0
  9
$PUCSORGBOTTOM
 10
0.0
 20
0.0
 30
0.0
  9
$PUCSORGLEFT
 10
0.0
 20
0.0
 30
0.0
  9
$PUCSORGRIGHT
 10
0.0
 20
0.0
 30
0.0
  9
$PUCSORGFRONT
 10
0.0
 20
0.0
 30
0.0
  9
$PUCSORGBACK
 10
0.0
 20
0.0
 30
0.0
  9
$USERI1
 70
     0
  9
$USERI2
 70
     0
  9
$USERI3
 70
     0
  9
$USERI4
 70
     0
  9
$USERI5
 70
     0
  9
$USERR1
 40
0.0
  9
$USERR2
 40
0.0
  9
$USERR3
 40
0.0
  9
$USERR4
 40
0.0
  9
$USERR5
 40
0.0
  9
$WORLDVIEW
 70
     1
  9
$SHADEDGE
 70
     3
  9
$SHADEDIF
 70
    70
  9
$TILEMODE
 70
     1
  9
$MAXACTVP
 70
    64
  9
$PINSBASE
 10
0.0
 20
0.0
 30
0.0
  9
$PLIMCHECK
 70
     0
  9
$PEXTMIN
 10
1.000000000000000E+20
 20
1.000000000000000E+20
 30
1.000000000000000E+20
  9
$PEXTMAX
 10
-1.000000000000000E+20
 20
-1.000000000000000E+20
 30
-1.000000000000000E+20
  9
$PLIMMIN
 10
0.0
 20
0.0
  9
$PLIMMAX
 10
12.0
 20
9.0
  9
$UNITMODE
 70
     0
  9
$VISRETAIN
 70
     1
  9
$PLINEGEN
 70
     0
  9
$PSLTSCALE
 70
     1
  9
$TREEDEPTH
 70
  3020
  9
$CMLSTYLE
  2
Standard
  9
$CMLJUST
 70
     0
  9
$CMLSCALE
 40
1.0
  9
$PROXYGRAPHICS
 70
     1
  9
$MEASUREMENT
 70
     0
  9
$CELWEIGHT
370
    -1
  9
$ENDCAPS
280
     0
  9
$JOINSTYLE
280
     0
  9
$LWDISPLAY
290
     1
  9
$INSUNITS
 70
     1
  9
$HYPERLINKBASE
  1

  9
$STYLESHEET
  1

  9
$XEDIT
290
     1
  9
$CEPSNTYPE
380
     0
  9
$PSTYLEMODE
290
     1
  9
$FINGERPRINTGUID
  2
{495B229C-A830-4E7F-C9BF-66EED9587EFB}
  9
$VERSIONGUID
  2
{FAEB1C32-E019-11D5-929B-00C0DF256EC4}
  9
$EXTNAMES
290
     1
  9
$PSVPSCALE
 40
0.0
  9
$OLESTARTUP
290
     0
  9
$SORTENTS
280
   127
  9
$INDEXCTL
280
     0
  9
$HIDETEXT
280
     1
  9
$XCLIPFRAME
280
     2
  9
$HALOGAP
280
     0
  9
$OBSCOLOR
 70
   257
  9
$OBSLTYPE
280
     0
  9
$INTERSECTIONDISPLAY
280
     0
  9
$INTERSECTIONCOLOR
 70
   257
  9
$DIMASSOC
280
     2
  9
$PROJECTNAME
  1

  9
$CAMERADISPLAY
290
     0
  9
$LENSLENGTH
 40
50.0
  9
$CAMERAHEIGHT
 40
0.0
  9
$STEPSPERSEC
 40
2.0
  9
$STEPSIZE
 40
6.0
  9
$3DDWFPREC
 40
2.0
  9
$PSOLWIDTH
 40
0.25
  9
$PSOLHEIGHT
 40
4.0
  9
$LOFTANG1
 40
1.570796326794897
  9
$LOFTANG2
 40
1.570796326794897
  9
$LOFTMAG1
 40
0.0
  9
$LOFTMAG2
 40
0.0
  9
$LOFTPARAM
 70
     7
  9
$LOFTNORMALS
280
     1
  9
$LATITUDE
 40
37.795
  9
$LONGITUDE
 40
-122.394
  9
$NORTHDIRECTION
 40
0.0
  9
$TIMEZONE
 70
 -8000
  9
$LIGHTGLYPHDISPLAY
280
     1
  9
$TILEMODELIGHTSYNCH
280
     1
  9
$CMATERIAL
347
3C
  9
$SOLIDHIST
280
     1
  9
$SHOWHIST
280
     1
  9
$DWFFRAME
280
     2
  9
$DGNFRAME
280
     2
  9
$REALWORLDSCALE
290
     1
  9
$INTERFERECOLOR
 62
   256
  9
$CSHADOW
280
     0
  9
$SHADOWPLANELOCATION
 40
0.0
  0
ENDSEC
  0
SECTION
  2
CLASSES
  0
CLASS
  1
ACDBDICTIONARYWDFLT
  2
AcDbDictionaryWithDefault
  3
ObjectDBX Classes
 90
        0
 91
        4
280
     0
281
     0
  0
CLASS
  1
VISUALSTYLE
  2
AcDbVisualStyle
  3
ObjectDBX Classes
 90
     4095
 91
        4
280
     0
281
     0
  0
CLASS
  1
MATERIAL
  2
AcDbMaterial
  3
ObjectDBX Classes
 90
     1153
 91
        4
280
     0
281
     0
  0
CLASS
  1
SUN
  2
AcDbSun
  3
SCENEOE
 90
     1024
 91
        4
280
     0
281
     0
  0
ENDSEC
  0
SECTION
  2
TABLES
  0
TABLE
  2
VPORT
  5
8
330
0
100
AcDbSymbolTable
 70
     1
  0
VPORT
  5
29
330
8
100
AcDbSymbolTableRecord
100
AcDbViewportTableRecord
  2
*Active
 70
     0
 10
0.0
 20
0.0
 11
1.0
 21
1.0
 12
0.0
 22
0.0
 13
0.0
 23
0.0
 14
0.5
 24
0.5
 15
0.5
 25
0.5
 16
0.0
 26
0.0
 36
1.0
 17
63.499999984125
 27
-89.00059456108309
 37
0.0
 40
178.0011891221662
 41
0.7134783795241226
 42
50.0
 43
0.0
 44
0.0
 50
0.0
 51
0.0
 71
     0
 72
   100
 73
     1
 74
     3
 75
     0
 76
     0
 77
     0
 78
     0
281
     0
 65
     1
110
0.0
120
0.0
130
0.0
111
1.0
121
0.0
131
0.0
112
0.0
122
1.0
132
0.0
 79
     0
146
0.0
 60
     3
 61
     5
292
     1
282
     1
141
0.0
142
0.0
 63
   250
361
3F
  0
ENDTAB
  0
TABLE
  2
LTYPE
  5
5
330
0
100
AcDbSymbolTable
 70
     1
  0
LTYPE
  5
14
330
5
100
AcDbSymbolTableRecord
100
AcDbLinetypeTableRecord
  2
ByBlock
 70
     0
  3

 72
    65
 73
     0
 40
0.0
  0
LTYPE
  5
15
330
5
100
AcDbSymbolTableRecord
100
AcDbLinetypeTableRecord
  2
ByLayer
 70
     0
  3

 72
    65
 73
     0
 40
0.0
  0
LTYPE
  5
16
330
5
100
AcDbSymbolTableRecord
100
AcDbLinetypeTableRecord
  2
Continuous
 70
     0
  3
Solid line
 72
    65
 73
     0
 40
0.0
  0
ENDTAB
  0
TABLE
  2
LAYER
  5
2
330
0
100
AcDbSymbolTable
 70
     2
  0
LAYER
  5
10
330
2
100
AcDbSymbolTableRecord
100
AcDbLayerTableRecord
  2
0
 70
     0
 62
     7
  6
Continuous
370
    -3
390
F
347
3E
  0
LAYER
  5
40
330
2
100
AcDbSymbolTableRecord
100
AcDbLayerTableRecord
  2
_U+30EC_U+30A4_U+30E4_U+30FC 1
 70
     0
 62
     7
  6
Continuous
370
    -3
390
F
347
3E
  0
ENDTAB
  0
TABLE
  2
STYLE
  5
3
330
0
100
AcDbSymbolTable
 70
     1
  0
STYLE
  5
11
330
3
100
AcDbSymbolTableRecord
100
AcDbTextStyleTableRecord
  2
Standard
 70
     0
 40
0.0
 41
1.0
 50
0.0
 71
     0
 42
0.2
  3
txt
  4

  0
ENDTAB
  0
TABLE
  2
VIEW
  5
6
330
0
100
AcDbSymbolTable
 70
     0
  0
ENDTAB
  0
TABLE
  2
UCS
  5
7
330
0
100
AcDbSymbolTable
 70
     0
  0
ENDTAB
  0
TABLE
  2
APPID
  5
9
330
0
100
AcDbSymbolTable
 70
     1
  0
APPID
  5
12
330
9
100
AcDbSymbolTableRecord
100
AcDbRegAppTableRecord
  2
ACAD
 70
     0
  0
ENDTAB
  0
TABLE
  2
DIMSTYLE
  5
A
330
0
100
AcDbSymbolTable
 70
     1
100
AcDbDimStyleTable
  0
DIMSTYLE
105
27
330
A
100
AcDbSymbolTableRecord
100
AcDbDimStyleTableRecord
  2
Standard
 70
     0
178
     0
340
11
  0
ENDTAB
  0
TABLE
  2
BLOCK_RECORD
  5
1
330
0
100
AcDbSymbolTable
 70
     6
  0
BLOCK_RECORD
  5
1F
330
1
100
AcDbSymbolTableRecord
100
AcDbBlockTableRecord
  2
*Model_Space
340
22
 70
     0
280
     1
281
     0
  0
BLOCK_RECORD
  5
1B
330
1
100
AcDbSymbolTableRecord
100
AcDbBlockTableRecord
  2
*Paper_Space
340
1E
 70
     0
280
     1
281
     0
  0
BLOCK_RECORD
  5
23
330
1
100
AcDbSymbolTableRecord
100
AcDbBlockTableRecord
  2
*Paper_Space0
340
26
 70
     0
280
     1
281
     0
  0
BLOCK_RECORD
  5
81
330
1
100
AcDbSymbolTableRecord
100
AcDbBlockTableRecord
  2
block 2
340
0
102
{BLKREFS
331
82
102
}
 70
     0
280
     1
281
     0
  0
BLOCK_RECORD
  5
8F
330
1
100
AcDbSymbolTableRecord
100
AcDbBlockTableRecord
  2
block 3
340
0
102
{BLKREFS
331
90
102
}
 70
     0
280
     1
281
     0
  0
BLOCK_RECORD
  5
AC
330
1
100
AcDbSymbolTableRecord
100
AcDbBlockTableRecord
  2
block 4
340
0
102
{BLKREFS
331
AD
102
}
 70
     0
280
     1
281
     0
  0
BLOCK_RECORD
  5
CD
330
1
100
AcDbSymbolTableRecord
100
AcDbBlockTableRecord
  2
block 5
340
0
102
{BLKREFS
331
CE
102
}
 70
     0
280
     1
281
     0
  0
BLOCK_RECORD
  5
E1
330
1
100
AcDbSymbolTableRecord
100
AcDbBlockTableRecord
  2
block 6
340
0
102
{BLKREFS
331
E2
102
}
 70
     0
280
     1
281
     0
  0
ENDTAB
  0
ENDSEC
  0
SECTION
  2
BLOCKS
  0
BLOCK
  5
20
330
1F
100
AcDbEntity
  8
0
100
AcDbBlockBegin
  2
*Model_Space
 70
     0
 10
0.0
 20
0.0
 30
0.0
  3
*Model_Space
  1

  0
ENDBLK
  5
21
330
1F
100
AcDbEntity
  8
0
100
AcDbBlockEnd
  0
BLOCK
  5
1C
330
1B
100
AcDbEntity
 67
     1
  8
0
100
AcDbBlockBegin
  2
*Paper_Space
 70
     0
 10
0.0
 20
0.0
 30
0.0
  3
*Paper_Space
  1

  0
ENDBLK
  5
1D
330
1B
100
AcDbEntity
 67
     1
  8
0
100
AcDbBlockEnd
  0
BLOCK
  5
24
330
23
100
AcDbEntity
  8
0
100
AcDbBlockBegin
  2
*Paper_Space0
 70
     0
 10
0.0
 20
0.0
 30
0.0
  3
*Paper_Space0
  1

  0
ENDBLK
  5
25
330
23
100
AcDbEntity
  8
0
100
AcDbBlockEnd
  0
BLOCK
  5
83
330
81
100
AcDbEntity
  8
0
100
AcDbBlockBegin
  2
block 2
 70
     0
 10
0.0
 20
0.0
 30
0.0
  3
block 2
  1

  0
SPLINE
  5
85
330
81
100
AcDbEntity
  8
_U+30EC_U+30A4_U+30E4_U+30FC 1
370
     0
100
AcDbSpline
210
0.0
220
0.0
230
1.0
 70
    11
 71
     3
 72
    26
 73
    22
 74
     0
 42
0.0000000001
 43
0.0000000001
 12
1.0
 22
0.0
 32
0.0
 13
1.0
 23
0.0
 33
0.0
 40
0.0
 40
0.0
 40
0.0
 40
0.0
 40
1.0
 40
1.0
 40
1.0
 40
2.0
 40
2.0
 40
2.0
 40
3.0
 40
3.0
 40
3.0
 40
4.0
 40
4.0
 40
4.0
 40
5.0
 40
5.0
 40
5.0
 40
6.0
 40
6.0
 40
6.0
 40
7.0
 40
7.0
 40
7.0
 40
7.0
 10
75.87719453398209
 20
-82.6051215071265
 30
0.0
 10
75.87719453398209
 20
-82.6051215071265
 30
0.0
 10
74.77304143095952
 20
-82.6051215071265
 30
0.0
 10
74.77304143095952
 20
-82.6051215071265
 30
0.0
 10
74.77304143095952
 20
-82.6051215071265
 30
0.0
 10
74.77304143095952
 20
-82.89054766807945
 30
0.0
 10
74.77304143095952
 20
-82.89054766807945
 30
0.0
 10
74.77304143095952
 20
-82.89054766807945
 30
0.0
 10
74.62490232509377
 20
-82.89054766807945
 30
0.0
 10
74.62490232509377
 20
-82.89054766807945
 30
0.0
 10
74.6100884145072
 20
-82.60322670460961
 30
0.0
 10
74.44713539805488
 20
-82.56291908743219
 30
0.0
 10
74.3327582279446
 20
-82.53725312606709
 30
0.0
 10
74.3327582279446
 20
-82.53725312606709
 30
0.0
 10
74.3327582279446
 20
-82.41099037653267
 30
0.0
 10
74.3327582279446
 20
-82.41099037653267
 30
0.0
 10
74.3327582279446
 20
-82.41099037653267
 30
0.0
 10
75.87719453398209
 20
-82.41099037653267
 30
0.0
 10
75.87719453398209
 20
-82.41099037653267
 30
0.0
 10
75.87719453398209
 20
-82.41099037653267
 30
0.0
 10
75.87719453398209
 20
-82.6051215071265
 30
0.0
 10
75.87719453398209
 20
-82.6051215071265
 30
0.0
  0
HATCH
  5
86
330
81
100
AcDbEntity
  8
_U+30EC_U+30A4_U+30E4_U+30FC 1
 62
   179
420
  2234388
100
AcDbHatch
 10
0.0
 20
0.0
 30
0.0
210
0.0
220
0.0
230
1.0
  2
SOLID
 70
     1
 71
     0
 91
        1
 92
        1
 93
        1
 72
     4
 94
        3
 73
     0
 74
     1
 95
       26
 96
       22
 40
0.0
 40
0.0
 40
0.0
 40
0.0
 40
1.0
 40
1.0
 40
1.0
 40
2.0
 40
2.0
 40
2.0
 40
3.0
 40
3.0
 40
3.0
 40
4.0
 40
4.0
 40
4.0
 40
5.0
 40
5.0
 40
5.0
 40
6.0
 40
6.0
 40
6.0
 40
7.0
 40
7.0
 40
7.0
 40
7.0
 10
75.87719453398209
 20
-82.6051215071265
 10
75.87719453398209
 20
-82.6051215071265
 10
74.77304143095952
 20
-82.6051215071265
 10
74.77304143095952
 20
-82.6051215071265
 10
74.77304143095952
 20
-82.6051215071265
 10
74.77304143095952
 20
-82.89054766807945
 10
74.77304143095952
 20
-82.89054766807945
 10
74.77304143095952
 20
-82.89054766807945
 10
74.62490232509377
 20
-82.89054766807945
 10
74.62490232509377
 20
-82.89054766807945
 10
74.6100884145072
 20
-82.60322670460961
 10
74.44713539805488
 20
-82.56291908743219
 10
74.3327582279446
 20
-82.53725312606709
 10
74.3327582279446
 20
-82.53725312606709
 10
74.3327582279446
 20
-82.41099037653267
 10
74.3327582279446
 20
-82.41099037653267
 10
74.3327582279446
 20
-82.41099037653267
 10
75.87719453398209
 20
-82.41099037653267
 10
75.87719453398209
 20
-82.41099037653267
 10
75.87719453398209
 20
-82.41099037653267
 10
75.87719453398209
 20
-82.6051215071265
 10
75.87719453398209
 20
-82.6051215071265
 97
        0
 97
        0
 75
     2
 76
     1
 98
        0
  0
ENDBLK
  5
84
330
81
100
AcDbEntity
  8
0
100
AcDbBlockEnd
  0
BLOCK
  5
91
330
8F
100
AcDbEntity
  8
0
100
AcDbBlockBegin
  2
block 3
 70
     0
 10
0.0
 20
0.0
 30
0.0
  3
block 3
  1

  0
SPLINE
  5
93
330
8F
100
AcDbEntity
  8
_U+30EC_U+30A4_U+30E4_U+30FC 1
370
     0
100
AcDbSpline
210
0.0
220
0.0
230
1.0
 70
    11
 71
     3
 72
    32
 73
    28
 74
     0
 42
0.0000000001
 43
0.0000000001
 12
1.0
 22
0.0
 32
0.0
 13
1.0
 23
0.0
 33
0.0
 40
0.0
 40
0.0
 40
0.0
 40
0.0
 40
1.0
 40
1.0
 40
1.0
 40
2.0
 40
2.0
 40
2.0
 40
3.0
 40
3.0
 40
3.0
 40
4.0
 40
4.0
 40
4.0
 40
5.0
 40
5.0
 40
5.0
 40
6.0
 40
6.0
 40
6.0
 40
7.0
 40
7.0
 40
7.0
 40
8.0
 40
8.0
 40
8.0
 40
9.0
 40
9.0
 40
9.0
 40
9.0
 10
75.92783743761527
 20
-90.47682018137385
 30
0.0
 10
75.92783743761527
 20
-90.92330455626224
 30
0.0
 10
75.37386608358709
 20
-90.93053925678126
 30
0.0
 10
75.15992565395308
 20
-90.93053925678126
 30
0.0
 10
74.92944876598986
 20
-90.93053925678126
 30
0.0
 10
74.28211532431142
 20
-90.91400279845206
 30
0.0
 10
74.28211532431142
 20
-90.44374726471546
 30
0.0
 10
74.28211532431142
 20
-90.29354110155856
 30
0.0
 10
74.35205076266199
 20
-90.08132321966717
 30
0.0
 10
74.68415796744007
 20
-90.04825030300877
 30
0.0
 10
74.68415796744007
 20
-90.04825030300877
 30
0.0
 10
74.68415796744007
 20
-90.2332519305667
 30
0.0
 10
74.68415796744007
 20
-90.2332519305667
 30
0.0
 10
74.62696938238493
 20
-90.24255368837686
 30
0.0
 10
74.47883027651919
 20
-90.26976994271034
 30
0.0
 10
74.47883027651919
 20
-90.44546981245809
 30
0.0
 10
74.47883027651919
 20
-90.6979953115269
 30
0.0
 10
74.80680336671497
 20
-90.73279077592792
 30
0.0
 10
75.01178654808733
 20
-90.74381508148072
 30
0.0
 10
74.93358288057216
 20
-90.66319984712587
 30
0.0
 10
74.87432723822586
 20
-90.60463322387662
 30
0.0
 10
74.87432723822586
 20
-90.4471923602007
 30
0.0
 10
74.87432723822586
 20
-90.29181855381594
 30
0.0
 10
74.9825032364627
 20
-90.02999129693696
 30
0.0
 10
75.38867999417367
 20
-90.02999129693696
 30
0.0
 10
75.70804034565633
 20
-90.02999129693696
 30
0.0
 10
75.92783743761527
 20
-90.20224607119944
 30
0.0
 10
75.92783743761527
 20
-90.47682018137385
 30
0.0
  0
SPLINE
  5
94
330
8F
100
AcDbEntity
  8
_U+30EC_U+30A4_U+30E4_U+30FC 1
370
     0
100
AcDbSpline
210
0.0
220
0.0
230
1.0
 70
    11
 71
     3
 72
    17
 73
    13
 74
     0
 42
0.0000000001
 43
0.0000000001
 12
1.0
 22
0.0
 32
0.0
 13
1.0
 23
0.0
 33
0.0
 40
0.0
 40
0.0
 40
0.0
 40
0.0
 40
1.0
 40
1.0
 40
1.0
 40
2.0
 40
2.0
 40
2.0
 40
3.0
 40
3.0
 40
3.0
 40
4.0
 40
4.0
 40
4.0
 40
4.0
 10
75.06897513314249
 20
-90.46200627078728
 30
0.0
 10
75.06897513314249
 20
-90.68903806326524
 30
0.0
 10
75.28050399593683
 20
-90.72176647037512
 30
0.0
 10
75.39694822333827
 20
-90.72176647037512
 30
0.0
 10
75.572648093086
 20
-90.72176647037512
 30
0.0
 10
75.73560110953832
 20
-90.63942868827765
 30
0.0
 10
75.73560110953832
 20
-90.4802652768591
 30
0.0
 10
75.73560110953832
 20
-90.37587888365603
 30
0.0
 10
75.67634546719202
 20
-90.22395017275652
 30
0.0
 10
75.39074705146481
 20
-90.22395017275652
 30
0.0
 10
75.16647133537505
 20
-90.22395017275652
 30
0.0
 10
75.06897513314249
 20
-90.34487302428879
 30
0.0
 10
75.06897513314249
 20
-90.46200627078728
 30
0.0
  0
HATCH
  5
95
330
8F
100
AcDbEntity
  8
_U+30EC_U+30A4_U+30E4_U+30FC 1
 62
   179
420
  2234388
100
AcDbHatch
 10
0.0
 20
0.0
 30
0.0
210
0.0
220
0.0
230
1.0
  2
SOLID
 70
     1
 71
     0
 91
        2
 92
        1
 93
        1
 72
     4
 94
        3
 73
     0
 74
     1
 95
       32
 96
       28
 40
0.0
 40
0.0
 40
0.0
 40
0.0
 40
1.0
 40
1.0
 40
1.0
 40
2.0
 40
2.0
 40
2.0
 40
3.0
 40
3.0
 40
3.0
 40
4.0
 40
4.0
 40
4.0
 40
5.0
 40
5.0
 40
5.0
 40
6.0
 40
6.0
 40
6.0
 40
7.0
 40
7.0
 40
7.0
 40
8.0
 40
8.0
 40
8.0
 40
9.0
 40
9.0
 40
9.0
 40
9.0
 10
75.92783743761527
 20
-90.47682018137385
 10
75.92783743761527
 20
-90.92330455626224
 10
75.37386608358709
 20
-90.93053925678126
 10
75.15992565395308
 20
-90.93053925678126
 10
74.92944876598986
 20
-90.93053925678126
 10
74.28211532431142
 20
-90.91400279845206
 10
74.28211532431142
 20
-90.44374726471546
 10
74.28211532431142
 20
-90.29354110155856
 10
74.35205076266199
 20
-90.08132321966717
 10
74.68415796744007
 20
-90.04825030300877
 10
74.68415796744007
 20
-90.04825030300877
 10
74.68415796744007
 20
-90.2332519305667
 10
74.68415796744007
 20
-90.2332519305667
 10
74.62696938238493
 20
-90.24255368837686
 10
74.47883027651919
 20
-90.26976994271034
 10
74.47883027651919
 20
-90.44546981245809
 10
74.47883027651919
 20
-90.6979953115269
 10
74.80680336671497
 20
-90.73279077592792
 10
75.01178654808733
 20
-90.74381508148072
 10
74.93358288057216
 20
-90.66319984712587
 10
74.87432723822586
 20
-90.60463322387662
 10
74.87432723822586
 20
-90.4471923602007
 10
74.87432723822586
 20
-90.29181855381594
 10
74.9825032364627
 20
-90.02999129693696
 10
75.38867999417367
 20
-90.02999129693696
 10
75.70804034565633
 20
-90.02999129693696
 10
75.92783743761527
 20
-90.20224607119944
 10
75.92783743761527
 20
-90.47682018137385
 97
        0
 97
        0
 92
        1
 93
        1
 72
     4
 94
        3
 73
     0
 74
     1
 95
       17
 96
       13
 40
0.0
 40
0.0
 40
0.0
 40
0.0
 40
1.0
 40
1.0
 40
1.0
 40
2.0
 40
2.0
 40
2.0
 40
3.0
 40
3.0
 40
3.0
 40
4.0
 40
4.0
 40
4.0
 40
4.0
 10
75.06897513314249
 20
-90.46200627078728
 10
75.06897513314249
 20
-90.68903806326524
 10
75.28050399593683
 20
-90.72176647037512
 10
75.39694822333827
 20
-90.72176647037512
 10
75.572648093086
 20
-90.72176647037512
 10
75.73560110953832
 20
-90.63942868827765
 10
75.73560110953832
 20
-90.4802652768591
 10
75.73560110953832
 20
-90.37587888365603
 10
75.67634546719202
 20
-90.22395017275652
 10
75.39074705146481
 20
-90.22395017275652
 10
75.16647133537505
 20
-90.22395017275652
 10
75.06897513314249
 20
-90.34487302428879
 10
75.06897513314249
 20
-90.46200627078728
 97
        0
 97
        0
 75
     2
 76
     1
 98
        0
  0
POLYLINE
  5
96
330
8F
100
AcDbEntity
  8
_U+30EC_U+30A4_U+30E4_U+30FC 1
370
     0
100
AcDb2dPolyline
 66
     1
 10
0.0
 20
0.0
 30
0.0
  0
VERTEX
  5
97
330
96
100
AcDbEntity
  8
_U+30EC_U+30A4_U+30E4_U+30FC 1
370
     0
100
AcDbVertex
100
AcDb2dVertex
 10
75.87719453398209
 20
-89.84361163118493
 30
0.0
  0
VERTEX
  5
98
330
96
100
AcDbEntity
  8
_U+30EC_U+30A4_U+30E4_U+30FC 1
370
     0
100
AcDbVertex
100
AcDb2dVertex
 10
75.62535805401033
 20
-89.84361163118493
 30
0.0
  0
VERTEX
  5
99
330
96
100
AcDbEntity
  8
_U+30EC_U+30A4_U+30E4_U+30FC 1
370
     0
100
AcDbVertex
100
AcDb2dVertex
 10
75.62535805401033
 20
-89.62588159651715
 30
0.0
  0
VERTEX
  5
9A
330
96
100
AcDbEntity
  8
_U+30EC_U+30A4_U+30E4_U+30FC 1
370
     0
100
AcDbVertex
100
AcDb2dVertex
 10
75.87719453398209
 20
-89.62588159651715
 30
0.0
  0
VERTEX
  5
9B
330
96
100
AcDbEntity
  8
_U+30EC_U+30A4_U+30E4_U+30FC 1
370
     0
100
AcDbVertex
100
AcDb2dVertex
 10
75.87719453398209
 20
-89.84361163118493
 30
0.0
  0
SEQEND
  5
9C
330
96
100
AcDbEntity
  8
_U+30EC_U+30A4_U+30E4_U+30FC 1
370
     0
  0
HATCH
  5
9D
330
8F
100
AcDbEntity
  8
_U+30EC_U+30A4_U+30E4_U+30FC 1
 62
   179
420
  2234388
100
AcDbHatch
 10
0.0
 20
0.0
 30
0.0
210
0.0
220
0.0
230
1.0
  2
SOLID
 70
     1
 71
     0
 91
        1
 92
        1
 93
        4
 72
     1
 10
75.87719453398209
 20
-89.84361163118493
 11
75.62535805401033
 21
-89.84361163118493
 72
     1
 10
75.62535805401033
 20
-89.84361163118493
 11
75.62535805401033
 21
-89.62588159651715
 72
     1
 10
75.62535805401033
 20
-89.62588159651715
 11
75.87719453398209
 21
-89.62588159651715
 72
     1
 10
75.87719453398209
 20
-89.62588159651715
 11
75.87719453398209
 21
-89.84361163118493
 97
        0
 75
     2
 76
     1
 98
        0
  0
SPLINE
  5
9E
330
8F
100
AcDbEntity
  8
_U+30EC_U+30A4_U+30E4_U+30FC 1
370
     0
100
AcDbSpline
210
0.0
220
0.0
230
1.0
 70
    11
 71
     3
 72
    44
 73
    40
 74
     0
 42
0.0000000001
 43
0.0000000001
 12
1.0
 22
0.0
 32
0.0
 13
1.0
 23
0.0
 33
0.0
 40
0.0
 40
0.0
 40
0.0
 40
0.0
 40
1.0
 40
1.0
 40
1.0
 40
2.0
 40
2.0
 40
2.0
 40
3.0
 40
3.0
 40
3.0
 40
4.0
 40
4.0
 40
4.0
 40
5.0
 40
5.0
 40
5.0
 40
6.0
 40
6.0
 40
6.0
 40
7.0
 40
7.0
 40
7.0
 40
8.0
 40
8.0
 40
8.0
 40
9.0
 40
9.0
 40
9.0
 40
10.0
 40
10.0
 40
10.0
 40
11.0
 40
11.0
 40
11.0
 40
12.0
 40
12.0
 40
12.0
 40
13.0
 40
13.0
 40
13.0
 40
13.0
 10
75.2953179065234
 20
-88.90861271648812
 30
0.0
 10
75.45413680839341
 20
-89.09740394907982
 30
0.0
 10
75.52820636132628
 20
-89.17767467388614
 30
0.0
 10
75.67186684306121
 20
-89.22004934835472
 30
0.0
 10
75.67186684306121
 20
-89.22004934835472
 30
0.0
 10
75.67186684306121
 20
-88.54618867143985
 30
0.0
 10
75.67186684306121
 20
-88.54618867143985
 30
0.0
 10
75.67186684306121
 20
-88.54618867143985
 30
0.0
 10
75.87719453398209
 20
-88.54618867143985
 30
0.0
 10
75.87719453398209
 20
-88.54618867143985
 30
0.0
 10
75.87719453398209
 20
-88.54618867143985
 30
0.0
 10
75.87719453398209
 20
-89.43571232573136
 30
0.0
 10
75.87719453398209
 20
-89.43571232573136
 30
0.0
 10
75.51959362261316
 20
-89.40849607139788
 30
0.0
 10
75.44138995509799
 20
-89.35165199589126
 30
0.0
 10
75.14304468607536
 20
-89.0185112624676
 30
0.0
 10
74.94426267657644
 20
-88.79699162276603
 30
0.0
 10
74.87639429551702
 20
-88.74049205680794
 30
0.0
 10
74.73893498565555
 20
-88.74049205680794
 30
0.0
 10
74.62042370096296
 20
-88.74049205680794
 30
0.0
 10
74.48951007252346
 20
-88.80250377554243
 30
0.0
 10
74.48951007252346
 20
-88.97269149251377
 30
0.0
 10
74.48951007252346
 20
-89.19800073724912
 30
0.0
 10
74.71998696048668
 20
-89.20523543776814
 30
0.0
 10
74.83643118788812
 20
-89.20902504280191
 30
0.0
 10
74.83643118788812
 20
-89.20902504280191
 30
0.0
 10
74.83643118788812
 20
-89.40298391862149
 30
0.0
 10
74.83643118788812
 20
-89.40298391862149
 30
0.0
 10
74.7093071644824
 20
-89.39574921810245
 30
0.0
 10
74.59734156121178
 20
-89.38644746029227
 30
0.0
 10
74.47883027651919
 20
-89.31685653149023
 30
0.0
 10
74.31794431735801
 20
-89.22177189609734
 30
0.0
 10
74.28418238160256
 20
-89.06054142738765
 30
0.0
 10
74.28418238160256
 20
-88.95994463921835
 30
0.0
 10
74.28418238160256
 20
-88.72016599344497
 30
0.0
 10
74.46815048051491
 20
-88.54102102821197
 30
0.0
 10
74.7410020429467
 20
-88.54102102821197
 30
0.0
 10
74.96975638316728
 20
-88.54102102821197
 30
0.0
 10
75.06897513314249
 20
-88.64161781638127
 30
0.0
 10
75.2953179065234
 20
-88.90861271648812
 30
0.0
  0
HATCH
  5
9F
330
8F
100
AcDbEntity
  8
_U+30EC_U+30A4_U+30E4_U+30FC 1
 62
   179
420
  2234388
100
AcDbHatch
 10
0.0
 20
0.0
 30
0.0
210
0.0
220
0.0
230
1.0
  2
SOLID
 70
     1
 71
     0
 91
        1
 92
        1
 93
        1
 72
     4
 94
        3
 73
     0
 74
     1
 95
       44
 96
       40
 40
0.0
 40
0.0
 40
0.0
 40
0.0
 40
1.0
 40
1.0
 40
1.0
 40
2.0
 40
2.0
 40
2.0
 40
3.0
 40
3.0
 40
3.0
 40
4.0
 40
4.0
 40
4.0
 40
5.0
 40
5.0
 40
5.0
 40
6.0
 40
6.0
 40
6.0
 40
7.0
 40
7.0
 40
7.0
 40
8.0
 40
8.0
 40
8.0
 40
9.0
 40
9.0
 40
9.0
 40
10.0
 40
10.0
 40
10.0
 40
11.0
 40
11.0
 40
11.0
 40
12.0
 40
12.0
 40
12.0
 40
13.0
 40
13.0
 40
13.0
 40
13.0
 10
75.2953179065234
 20
-88.90861271648812
 10
75.45413680839341
 20
-89.09740394907982
 10
75.52820636132628
 20
-89.17767467388614
 10
75.67186684306121
 20
-89.22004934835472
 10
75.67186684306121
 20
-89.22004934835472
 10
75.67186684306121
 20
-88.54618867143985
 10
75.67186684306121
 20
-88.54618867143985
 10
75.67186684306121
 20
-88.54618867143985
 10
75.87719453398209
 20
-88.54618867143985
 10
75.87719453398209
 20
-88.54618867143985
 10
75.87719453398209
 20
-88.54618867143985
 10
75.87719453398209
 20
-89.43571232573136
 10
75.87719453398209
 20
-89.43571232573136
 10
75.51959362261316
 20
-89.40849607139788
 10
75.44138995509799
 20
-89.35165199589126
 10
75.14304468607536
 20
-89.0185112624676
 10
74.94426267657644
 20
-88.79699162276603
 10
74.87639429551702
 20
-88.74049205680794
 10
74.73893498565555
 20
-88.74049205680794
 10
74.62042370096296
 20
-88.74049205680794
 10
74.48951007252346
 20
-88.80250377554243
 10
74.48951007252346
 20
-88.97269149251377
 10
74.48951007252346
 20
-89.19800073724912
 10
74.71998696048668
 20
-89.20523543776814
 10
74.83643118788812
 20
-89.20902504280191
 10
74.83643118788812
 20
-89.20902504280191
 10
74.83643118788812
 20
-89.40298391862149
 10
74.83643118788812
 20
-89.40298391862149
 10
74.7093071644824
 20
-89.39574921810245
 10
74.59734156121178
 20
-89.38644746029227
 10
74.47883027651919
 20
-89.31685653149023
 10
74.31794431735801
 20
-89.22177189609734
 10
74.28418238160256
 20
-89.06054142738765
 10
74.28418238160256
 20
-88.95994463921835
 10
74.28418238160256
 20
-88.72016599344497
 10
74.46815048051491
 20
-88.54102102821197
 10
74.7410020429467
 20
-88.54102102821197
 10
74.96975638316728
 20
-88.54102102821197
 10
75.06897513314249
 20
-88.64161781638127
 10
75.2953179065234
 20
-88.90861271648812
 97
        0
 97
        0
 75
     2
 76
     1
 98
        0
  0
ENDBLK
  5
92
330
8F
100
AcDbEntity
  8
0
100
AcDbBlockEnd
  0
BLOCK
  5
AE
330
AC
100
AcDbEntity
  8
0
100
AcDbBlockBegin
  2
block 4
 70
     0
 10
0.0
 20
0.0
 30
0.0
  3
block 4
  1

  0
POLYLINE
  5
B0
330
AC
100
AcDbEntity
  8
_U+30EC_U+30A4_U+30E4_U+30FC 1
370
     0
100
AcDb2dPolyline
 66
     1
 10
0.0
 20
0.0
 30
0.0
  0
VERTEX
  5
B1
330
B0
100
AcDbEntity
  8
_U+30EC_U+30A4_U+30E4_U+30FC 1
370
     0
100
AcDbVertex
100
AcDb2dVertex
 10
59.68352320556523
 20
-96.74275984994625
 30
0.0
  0
VERTEX
  5
B2
330
B0
100
AcDbEntity
  8
_U+30EC_U+30A4_U+30E4_U+30FC 1
370
     0
100
AcDbVertex
100
AcDb2dVertex
 10
59.68352320556523
 20
-97.08968096531092
 30
0.0
  0
VERTEX
  5
B3
330
B0
100
AcDbEntity
  8
_U+30EC_U+30A4_U+30E4_U+30FC 1
370
     0
100
AcDbVertex
100
AcDb2dVertex
 10
59.49507648252207
 20
-97.08968096531092
 30
0.0
  0
VERTEX
  5
B4
330
B0
100
AcDbEntity
  8
_U+30EC_U+30A4_U+30E4_U+30FC 1
370
     0
100
AcDbVertex
100
AcDb2dVertex
 10
59.49507648252207
 20
-96.74275984994625
 30
0.0
  0
VERTEX
  5
B5
330
B0
100
AcDbEntity
  8
_U+30EC_U+30A4_U+30E4_U+30FC 1
370
     0
100
AcDbVertex
100
AcDb2dVertex
 10
58.92766925610142
 20
-96.74275984994625
 30
0.0
  0
VERTEX
  5
B6
330
B0
100
AcDbEntity
  8
_U+30EC_U+30A4_U+30E4_U+30FC 1
370
     0
100
AcDbVertex
100
AcDb2dVertex
 10
58.92766925610142
 20
-96.51848413385649
 30
0.0
  0
VERTEX
  5
B7
330
B0
100
AcDbEntity
  8
_U+30EC_U+30A4_U+30E4_U+30FC 1
370
     0
100
AcDbVertex
100
AcDb2dVertex
 10
59.51505803633652
 20
-95.54524465927342
 30
0.0
  0
VERTEX
  5
B8
330
B0
100
AcDbEntity
  8
_U+30EC_U+30A4_U+30E4_U+30FC 1
370
     0
100
AcDbVertex
100
AcDb2dVertex
 10
59.68352320556523
 20
-95.54524465927342
 30
0.0
  0
VERTEX
  5
B9
330
B0
100
AcDbEntity
  8
_U+30EC_U+30A4_U+30E4_U+30FC 1
370
     0
100
AcDbVertex
100
AcDb2dVertex
 10
59.68352320556523
 20
-96.54397784044734
 30
0.0
  0
VERTEX
  5
BA
330
B0
100
AcDbEntity
  8
_U+30EC_U+30A4_U+30E4_U+30FC 1
370
     0
100
AcDbVertex
100
AcDb2dVertex
 10
59.86284042557249
 20
-96.54397784044734
 30
0.0
  0
VERTEX
  5
BB
330
B0
100
AcDbEntity
  8
_U+30EC_U+30A4_U+30E4_U+30FC 1
370
     0
100
AcDbVertex
100
AcDb2dVertex
 10
59.86284042557249
 20
-96.74275984994625
 30
0.0
  0
VERTEX
  5
BC
330
B0
100
AcDbEntity
  8
_U+30EC_U+30A4_U+30E4_U+30FC 1
370
     0
100
AcDbVertex
100
AcDb2dVertex
 10
59.68352320556523
 20
-96.74275984994625
 30
0.0
  0
SEQEND
  5
BD
330
B0
100
AcDbEntity
  8
_U+30EC_U+30A4_U+30E4_U+30FC 1
370
     0
  0
POLYLINE
  5
BE
330
AC
100
AcDbEntity
  8
_U+30EC_U+30A4_U+30E4_U+30FC 1
370
     0
100
AcDb2dPolyline
 66
     1
 10
0.0
 20
0.0
 30
0.0
  0
VERTEX
  5
BF
330
BE
100
AcDbEntity
  8
_U+30EC_U+30A4_U+30E4_U+30FC 1
370
     0
100
AcDbVertex
100
AcDb2dVertex
 10
59.49507648252207
 20
-95.88803166005577
 30
0.0
  0
VERTEX
  5
C0
330
BE
100
AcDbEntity
  8
_U+30EC_U+30A4_U+30E4_U+30FC 1
370
     0
100
AcDbVertex
100
AcDb2dVertex
 10
59.09957952081538
 20
-96.54397784044734
 30
0.0
  0
VERTEX
  5
C1
330
BE
100
AcDbEntity
  8
_U+30EC_U+30A4_U+30E4_U+30FC 1
370
     0
100
AcDbVertex
100
AcDb2dVertex
 10
59.49507648252207
 20
-96.54397784044734
 30
0.0
  0
VERTEX
  5
C2
330
BE
100
AcDbEntity
  8
_U+30EC_U+30A4_U+30E4_U+30FC 1
370
     0
100
AcDbVertex
100
AcDb2dVertex
 10
59.49507648252207
 20
-95.88803166005577
 30
0.0
  0
SEQEND
  5
C3
330
BE
100
AcDbEntity
  8
_U+30EC_U+30A4_U+30E4_U+30FC 1
370
     0
  0
HATCH
  5
C4
330
AC
100
AcDbEntity
  8
_U+30EC_U+30A4_U+30E4_U+30FC 1
 62
   179
420
  2234388
100
AcDbHatch
 10
0.0
 20
0.0
 30
0.0
210
0.0
220
0.0
230
1.0
  2
SOLID
 70
     1
 71
     0
 91
        2
 92
        1
 93
       11
 72
     1
 10
59.68352320556523
 20
-96.74275984994625
 11
59.68352320556523
 21
-97.08968096531092
 72
     1
 10
59.68352320556523
 20
-97.08968096531092
 11
59.49507648252207
 21
-97.08968096531092
 72
     1
 10
59.49507648252207
 20
-97.08968096531092
 11
59.49507648252207
 21
-96.74275984994625
 72
     1
 10
59.49507648252207
 20
-96.74275984994625
 11
58.92766925610142
 21
-96.74275984994625
 72
     1
 10
58.92766925610142
 20
-96.74275984994625
 11
58.92766925610142
 21
-96.51848413385649
 72
     1
 10
58.92766925610142
 20
-96.51848413385649
 11
59.51505803633652
 21
-95.54524465927342
 72
     1
 10
59.51505803633652
 20
-95.54524465927342
 11
59.68352320556523
 21
-95.54524465927342
 72
     1
 10
59.68352320556523
 20
-95.54524465927342
 11
59.68352320556523
 21
-96.54397784044734
 72
     1
 10
59.68352320556523
 20
-96.54397784044734
 11
59.86284042557249
 21
-96.54397784044734
 72
     1
 10
59.86284042557249
 20
-96.54397784044734
 11
59.86284042557249
 21
-96.74275984994625
 72
     1
 10
59.86284042557249
 20
-96.74275984994625
 11
59.68352320556523
 21
-96.74275984994625
 97
        0
 92
        1
 93
        3
 72
     1
 10
59.49507648252207
 20
-95.88803166005577
 11
59.09957952081538
 21
-96.54397784044734
 72
     1
 10
59.09957952081538
 20
-96.54397784044734
 11
59.49507648252207
 21
-96.54397784044734
 72
     1
 10
59.49507648252207
 20
-96.54397784044734
 11
59.49507648252207
 21
-95.88803166005577
 97
        0
 75
     2
 76
     1
 98
        0
  0
ENDBLK
  5
AF
330
AC
100
AcDbEntity
  8
0
100
AcDbBlockEnd
  0
BLOCK
  5
CF
330
CD
100
AcDbEntity
  8
0
100
AcDbBlockBegin
  2
block 5
 70
     0
 10
0.0
 20
0.0
 30
0.0
  3
block 5
  1

  0
SPLINE
  5
D1
330
CD
100
AcDbEntity
  8
_U+30EC_U+30A4_U+30E4_U+30FC 1
370
     0
100
AcDbSpline
210
0.0
220
0.0
230
1.0
 70
    11
 71
     3
 72
    29
 73
    25
 74
     0
 42
0.0000000001
 43
0.0000000001
 12
1.0
 22
0.0
 32
0.0
 13
1.0
 23
0.0
 33
0.0
 40
0.0
 40
0.0
 40
0.0
 40
0.0
 40
1.0
 40
1.0
 40
1.0
 40
2.0
 40
2.0
 40
2.0
 40
3.0
 40
3.0
 40
3.0
 40
4.0
 40
4.0
 40
4.0
 40
5.0
 40
5.0
 40
5.0
 40
6.0
 40
6.0
 40
6.0
 40
7.0
 40
7.0
 40
7.0
 40
8.0
 40
8.0
 40
8.0
 40
8.0
 10
53.39639619975854
 20
-97.1403238689441
 30
0.0
 10
53.16574705702106
 20
-97.1403238689441
 30
0.0
 10
52.94612221983639
 20
-97.00286455908262
 30
0.0
 10
52.94612221983639
 20
-96.65387638642682
 30
0.0
 10
52.94612221983639
 20
-96.39790579187274
 30
0.0
 10
53.06876761911128
 20
-96.30282115647985
 30
0.0
 10
53.16023490424467
 20
-96.24149845684241
 30
0.0
 10
53.05223116078209
 20
-96.1822428144961
 30
0.0
 10
52.98642983701381
 20
-96.06786564438582
 30
0.0
 10
52.98642983701381
 20
-95.90697968522466
 30
0.0
 10
52.98642983701381
 20
-95.63206106550172
 30
0.0
 10
53.15851235650204
 20
-95.49666881293139
 30
0.0
 10
53.39639619975854
 20
-95.49666881293139
 30
0.0
 10
53.64151474353407
 20
-95.49666881293139
 30
0.0
 10
53.80636256250327
 20
-95.64067380421484
 30
0.0
 10
53.80636256250327
 20
-95.90697968522466
 30
0.0
 10
53.80636256250327
 20
-96.06786564438582
 30
0.0
 10
53.73866643621811
 20
-96.1822428144961
 30
0.0
 10
53.63066269275553
 20
-96.24149845684241
 30
0.0
 10
53.7074883220766
 20
-96.29214136047558
 30
0.0
 10
53.84477537716381
 20
-96.38722599586848
 30
0.0
 10
53.84477537716381
 20
-96.64974227184452
 30
0.0
 10
53.84477537716381
 20
-97.02422415109118
 30
0.0
 10
53.60310192887354
 20
-97.1403238689441
 30
0.0
 10
53.39639619975854
 20
-97.1403238689441
 30
0.0
  0
SPLINE
  5
D2
330
CD
100
AcDbEntity
  8
_U+30EC_U+30A4_U+30E4_U+30FC 1
370
     0
100
AcDbSpline
210
0.0
220
0.0
230
1.0
 70
    11
 71
     3
 72
    17
 73
    13
 74
     0
 42
0.0000000001
 43
0.0000000001
 12
1.0
 22
0.0
 32
0.0
 13
1.0
 23
0.0
 33
0.0
 40
0.0
 40
0.0
 40
0.0
 40
0.0
 40
1.0
 40
1.0
 40
1.0
 40
2.0
 40
2.0
 40
2.0
 40
3.0
 40
3.0
 40
3.0
 40
4.0
 40
4.0
 40
4.0
 40
4.0
 10
53.39639619975854
 20
-96.34932994553073
 30
0.0
 10
53.27185599796676
 20
-96.34932994553073
 30
0.0
 10
53.14008109565595
 20
-96.43614635175902
 30
0.0
 10
53.14008109565595
 20
-96.63906247584023
 30
0.0
 10
53.14008109565595
 20
-96.84439016676113
 30
0.0
 10
53.24997964163543
 20
-96.94567597402748
 30
0.0
 10
53.39639619975854
 20
-96.94567597402748
 30
0.0
 10
53.55745441369397
 20
-96.94567597402748
 30
0.0
 10
53.65253904908687
 20
-96.82303057475258
 30
0.0
 10
53.65253904908687
 20
-96.64526364771369
 30
0.0
 10
53.65253904908687
 20
-96.4233994984636
 30
0.0
 10
53.51163464374015
 20
-96.34932994553073
 30
0.0
 10
53.39639619975854
 20
-96.34932994553073
 30
0.0
  0
SPLINE
  5
D3
330
CD
100
AcDbEntity
  8
_U+30EC_U+30A4_U+30E4_U+30FC 1
370
     0
100
AcDbSpline
210
0.0
220
0.0
230
1.0
 70
    11
 71
     3
 72
    17
 73
    13
 74
     0
 42
0.0000000001
 43
0.0000000001
 12
1.0
 22
0.0
 32
0.0
 13
1.0
 23
0.0
 33
0.0
 40
0.0
 40
0.0
 40
0.0
 40
0.0
 40
1.0
 40
1.0
 40
1.0
 40
2.0
 40
2.0
 40
2.0
 40
3.0
 40
3.0
 40
3.0
 40
4.0
 40
4.0
 40
4.0
 40
4.0
 10
53.39639619975854
 20
-95.68924965055686
 30
0.0
 10
53.25359699189494
 20
-95.68924965055686
 30
0.0
 10
53.18038871283338
 20
-95.78433428594975
 30
0.0
 10
53.18038871283338
 20
-95.91972653852007
 30
0.0
 10
53.18038871283338
 20
-96.04237193779497
 30
0.0
 10
53.24257268634214
 20
-96.16088322248756
 30
0.0
 10
53.39639619975854
 20
-96.16088322248756
 30
0.0
 10
53.55004745840068
 20
-96.16088322248756
 30
0.0
 10
53.61223143190944
 20
-96.04237193779497
 30
0.0
 10
53.61223143190944
 20
-95.91972653852007
 30
0.0
 10
53.61223143190944
 20
-95.78433428594975
 30
0.0
 10
53.53730060510526
 20
-95.68924965055686
 30
0.0
 10
53.39639619975854
 20
-95.68924965055686
 30
0.0
  0
HATCH
  5
D4
330
CD
100
AcDbEntity
  8
_U+30EC_U+30A4_U+30E4_U+30FC 1
 62
   179
420
  2234388
100
AcDbHatch
 10
0.0
 20
0.0
 30
0.0
210
0.0
220
0.0
230
1.0
  2
SOLID
 70
     1
 71
     0
 91
        3
 92
        1
 93
        1
 72
     4
 94
        3
 73
     0
 74
     1
 95
       29
 96
       25
 40
0.0
 40
0.0
 40
0.0
 40
0.0
 40
1.0
 40
1.0
 40
1.0
 40
2.0
 40
2.0
 40
2.0
 40
3.0
 40
3.0
 40
3.0
 40
4.0
 40
4.0
 40
4.0
 40
5.0
 40
5.0
 40
5.0
 40
6.0
 40
6.0
 40
6.0
 40
7.0
 40
7.0
 40
7.0
 40
8.0
 40
8.0
 40
8.0
 40
8.0
 10
53.39639619975854
 20
-97.1403238689441
 10
53.16574705702106
 20
-97.1403238689441
 10
52.94612221983639
 20
-97.00286455908262
 10
52.94612221983639
 20
-96.65387638642682
 10
52.94612221983639
 20
-96.39790579187274
 10
53.06876761911128
 20
-96.30282115647985
 10
53.16023490424467
 20
-96.24149845684241
 10
53.05223116078209
 20
-96.1822428144961
 10
52.98642983701381
 20
-96.06786564438582
 10
52.98642983701381
 20
-95.90697968522466
 10
52.98642983701381
 20
-95.63206106550172
 10
53.15851235650204
 20
-95.49666881293139
 10
53.39639619975854
 20
-95.49666881293139
 10
53.64151474353407
 20
-95.49666881293139
 10
53.80636256250327
 20
-95.64067380421484
 10
53.80636256250327
 20
-95.90697968522466
 10
53.80636256250327
 20
-96.06786564438582
 10
53.73866643621811
 20
-96.1822428144961
 10
53.63066269275553
 20
-96.24149845684241
 10
53.7074883220766
 20
-96.29214136047558
 10
53.84477537716381
 20
-96.38722599586848
 10
53.84477537716381
 20
-96.64974227184452
 10
53.84477537716381
 20
-97.02422415109118
 10
53.60310192887354
 20
-97.1403238689441
 10
53.39639619975854
 20
-97.1403238689441
 97
        0
 97
        0
 92
        1
 93
        1
 72
     4
 94
        3
 73
     0
 74
     1
 95
       17
 96
       13
 40
0.0
 40
0.0
 40
0.0
 40
0.0
 40
1.0
 40
1.0
 40
1.0
 40
2.0
 40
2.0
 40
2.0
 40
3.0
 40
3.0
 40
3.0
 40
4.0
 40
4.0
 40
4.0
 40
4.0
 10
53.39639619975854
 20
-96.34932994553073
 10
53.27185599796676
 20
-96.34932994553073
 10
53.14008109565595
 20
-96.43614635175902
 10
53.14008109565595
 20
-96.63906247584023
 10
53.14008109565595
 20
-96.84439016676113
 10
53.24997964163543
 20
-96.94567597402748
 10
53.39639619975854
 20
-96.94567597402748
 10
53.55745441369397
 20
-96.94567597402748
 10
53.65253904908687
 20
-96.82303057475258
 10
53.65253904908687
 20
-96.64526364771369
 10
53.65253904908687
 20
-96.4233994984636
 10
53.51163464374015
 20
-96.34932994553073
 10
53.39639619975854
 20
-96.34932994553073
 97
        0
 97
        0
 92
        1
 93
        1
 72
     4
 94
        3
 73
     0
 74
     1
 95
       17
 96
       13
 40
0.0
 40
0.0
 40
0.0
 40
0.0
 40
1.0
 40
1.0
 40
1.0
 40
2.0
 40
2.0
 40
2.0
 40
3.0
 40
3.0
 40
3.0
 40
4.0
 40
4.0
 40
4.0
 40
4.0
 10
53.39639619975854
 20
-95.68924965055686
 10
53.25359699189494
 20
-95.68924965055686
 10
53.18038871283338
 20
-95.78433428594975
 10
53.18038871283338
 20
-95.91972653852007
 10
53.18038871283338
 20
-96.04237193779497
 10
53.24257268634214
 20
-96.16088322248756
 10
53.39639619975854
 20
-96.16088322248756
 10
53.55004745840068
 20
-96.16088322248756
 10
53.61223143190944
 20
-96.04237193779497
 10
53.61223143190944
 20
-95.91972653852007
 10
53.61223143190944
 20
-95.78433428594975
 10
53.53730060510526
 20
-95.68924965055686
 10
53.39639619975854
 20
-95.68924965055686
 97
        0
 97
        0
 75
     2
 76
     1
 98
        0
  0
ENDBLK
  5
D0
330
CD
100
AcDbEntity
  8
0
100
AcDbBlockEnd
  0
BLOCK
  5
E3
330
E1
100
AcDbEntity
  8
0
100
AcDbBlockBegin
  2
block 6
 70
     0
 10
0.0
 20
0.0
 30
0.0
  3
block 6
  1

  0
SPLINE
  5
E5
330
E1
100
AcDbEntity
  8
_U+30EC_U+30A4_U+30E4_U+30FC 1
370
     0
100
AcDbSpline
210
0.0
220
0.0
230
1.0
 70
    11
 71
     3
 72
    44
 73
    40
 74
     0
 42
0.0000000001
 43
0.0000000001
 12
1.0
 22
0.0
 32
0.0
 13
1.0
 23
0.0
 33
0.0
 40
0.0
 40
0.0
 40
0.0
 40
0.0
 40
1.0
 40
1.0
 40
1.0
 40
2.0
 40
2.0
 40
2.0
 40
3.0
 40
3.0
 40
3.0
 40
4.0
 40
4.0
 40
4.0
 40
5.0
 40
5.0
 40
5.0
 40
6.0
 40
6.0
 40
6.0
 40
7.0
 40
7.0
 40
7.0
 40
8.0
 40
8.0
 40
8.0
 40
9.0
 40
9.0
 40
9.0
 40
10.0
 40
10.0
 40
10.0
 40
11.0
 40
11.0
 40
11.0
 40
12.0
 40
12.0
 40
12.0
 40
13.0
 40
13.0
 40
13.0
 40
13.0
 10
60.31053058388071
 20
-80.30793183756191
 30
0.0
 10
60.12173935128902
 20
-80.46675073943193
 30
0.0
 10
60.04146862648269
 20
-80.5408202923648
 30
0.0
 10
59.99943846156264
 20
-80.68448077409971
 30
0.0
 10
59.99943846156264
 20
-80.68448077409971
 30
0.0
 10
60.67261011938046
 20
-80.68448077409971
 30
0.0
 10
60.67261011938046
 20
-80.68448077409971
 30
0.0
 10
60.67261011938046
 20
-80.68448077409971
 30
0.0
 10
60.67261011938046
 20
-80.88980846502061
 30
0.0
 10
60.67261011938046
 20
-80.88980846502061
 30
0.0
 10
60.67261011938046
 20
-80.88980846502061
 30
0.0
 10
59.78343097463748
 20
-80.88980846502061
 30
0.0
 10
59.78343097463748
 20
-80.88980846502061
 30
0.0
 10
59.81064722897095
 20
-80.53220755365167
 30
0.0
 10
59.86749130447757
 20
-80.4540038861365
 30
0.0
 10
60.20063203790124
 20
-80.15565861711387
 30
0.0
 10
60.4221516776028
 20
-79.95687660761494
 30
0.0
 10
60.4786512435609
 20
-79.88900822655553
 30
0.0
 10
60.4786512435609
 20
-79.75154891669406
 30
0.0
 10
60.4786512435609
 20
-79.63303763200146
 30
0.0
 10
60.4166395248264
 20
-79.50212400356197
 30
0.0
 10
60.24645180785506
 20
-79.50212400356197
 30
0.0
 10
60.02114256311972
 20
-79.50212400356197
 30
0.0
 10
60.01390786260069
 20
-79.73260089152518
 30
0.0
 10
60.01011825756692
 20
-79.84904511892663
 30
0.0
 10
60.01011825756692
 20
-79.84904511892663
 30
0.0
 10
59.81615938174735
 20
-79.84904511892663
 30
0.0
 10
59.81615938174735
 20
-79.84904511892663
 30
0.0
 10
59.8237385918149
 20
-79.72192109552091
 30
0.0
 10
59.83269584007655
 20
-79.6099554922503
 30
0.0
 10
59.9022867688786
 20
-79.49144420755769
 30
0.0
 10
59.99737140427149
 20
-79.33055824839653
 30
0.0
 10
60.15860187298119
 20
-79.29679631264108
 30
0.0
 10
60.25919866115048
 20
-79.29679631264108
 30
0.0
 10
60.49897730692387
 20
-79.29679631264108
 30
0.0
 10
60.67812227215686
 20
-79.48076441155342
 30
0.0
 10
60.67812227215686
 20
-79.7536159739852
 30
0.0
 10
60.67812227215686
 20
-79.9823703142058
 30
0.0
 10
60.57752548398756
 20
-80.08158906418099
 30
0.0
 10
60.31053058388071
 20
-80.30793183756191
 30
0.0
  0
HATCH
  5
E6
330
E1
100
AcDbEntity
  8
_U+30EC_U+30A4_U+30E4_U+30FC 1
 62
   179
420
  2234388
100
AcDbHatch
 10
0.0
 20
0.0
 30
0.0
210
0.0
220
0.0
230
1.0
  2
SOLID
 70
     1
 71
     0
 91
        1
 92
        1
 93
        1
 72
     4
 94
        3
 73
     0
 74
     1
 95
       44
 96
       40
 40
0.0
 40
0.0
 40
0.0
 40
0.0
 40
1.0
 40
1.0
 40
1.0
 40
2.0
 40
2.0
 40
2.0
 40
3.0
 40
3.0
 40
3.0
 40
4.0
 40
4.0
 40
4.0
 40
5.0
 40
5.0
 40
5.0
 40
6.0
 40
6.0
 40
6.0
 40
7.0
 40
7.0
 40
7.0
 40
8.0
 40
8.0
 40
8.0
 40
9.0
 40
9.0
 40
9.0
 40
10.0
 40
10.0
 40
10.0
 40
11.0
 40
11.0
 40
11.0
 40
12.0
 40
12.0
 40
12.0
 40
13.0
 40
13.0
 40
13.0
 40
13.0
 10
60.31053058388071
 20
-80.30793183756191
 10
60.12173935128902
 20
-80.46675073943193
 10
60.04146862648269
 20
-80.5408202923648
 10
59.99943846156264
 20
-80.68448077409971
 10
59.99943846156264
 20
-80.68448077409971
 10
60.67261011938046
 20
-80.68448077409971
 10
60.67261011938046
 20
-80.68448077409971
 10
60.67261011938046
 20
-80.68448077409971
 10
60.67261011938046
 20
-80.88980846502061
 10
60.67261011938046
 20
-80.88980846502061
 10
60.67261011938046
 20
-80.88980846502061
 10
59.78343097463748
 20
-80.88980846502061
 10
59.78343097463748
 20
-80.88980846502061
 10
59.81064722897095
 20
-80.53220755365167
 10
59.86749130447757
 20
-80.4540038861365
 10
60.20063203790124
 20
-80.15565861711387
 10
60.4221516776028
 20
-79.95687660761494
 10
60.4786512435609
 20
-79.88900822655553
 10
60.4786512435609
 20
-79.75154891669406
 10
60.4786512435609
 20
-79.63303763200146
 10
60.4166395248264
 20
-79.50212400356197
 10
60.24645180785506
 20
-79.50212400356197
 10
60.02114256311972
 20
-79.50212400356197
 10
60.01390786260069
 20
-79.73260089152518
 10
60.01011825756692
 20
-79.84904511892663
 10
60.01011825756692
 20
-79.84904511892663
 10
59.81615938174735
 20
-79.84904511892663
 10
59.81615938174735
 20
-79.84904511892663
 10
59.8237385918149
 20
-79.72192109552091
 10
59.83269584007655
 20
-79.6099554922503
 10
59.9022867688786
 20
-79.49144420755769
 10
59.99737140427149
 20
-79.33055824839653
 10
60.15860187298119
 20
-79.29679631264108
 10
60.25919866115048
 20
-79.29679631264108
 10
60.49897730692387
 20
-79.29679631264108
 10
60.67812227215686
 20
-79.48076441155342
 10
60.67812227215686
 20
-79.7536159739852
 10
60.67812227215686
 20
-79.9823703142058
 10
60.57752548398756
 20
-80.08158906418099
 10
60.31053058388071
 20
-80.30793183756191
 97
        0
 97
        0
 75
     2
 76
     1
 98
        0
  0
SPLINE
  5
E7
330
E1
100
AcDbEntity
  8
_U+30EC_U+30A4_U+30E4_U+30FC 1
370
     0
100
AcDbSpline
210
0.0
220
0.0
230
1.0
 70
    11
 71
     3
 72
    62
 73
    58
 74
     0
 42
0.0000000001
 43
0.0000000001
 12
1.0
 22
0.0
 32
0.0
 13
1.0
 23
0.0
 33
0.0
 40
0.0
 40
0.0
 40
0.0
 40
0.0
 40
1.0
 40
1.0
 40
1.0
 40
2.0
 40
2.0
 40
2.0
 40
3.0
 40
3.0
 40
3.0
 40
4.0
 40
4.0
 40
4.0
 40
5.0
 40
5.0
 40
5.0
 40
6.0
 40
6.0
 40
6.0
 40
7.0
 40
7.0
 40
7.0
 40
8.0
 40
8.0
 40
8.0
 40
9.0
 40
9.0
 40
9.0
 40
10.0
 40
10.0
 40
10.0
 40
11.0
 40
11.0
 40
11.0
 40
12.0
 40
12.0
 40
12.0
 40
13.0
 40
13.0
 40
13.0
 40
14.0
 40
14.0
 40
14.0
 40
15.0
 40
15.0
 40
15.0
 40
16.0
 40
16.0
 40
16.0
 40
17.0
 40
17.0
 40
17.0
 40
18.0
 40
18.0
 40
18.0
 40
19.0
 40
19.0
 40
19.0
 40
19.0
 10
61.24001734580111
 20
-80.94045136865378
 30
0.0
 10
61.15767956370364
 20
-80.94045136865378
 30
0.0
 10
60.96888833111195
 20
-80.91943628619376
 30
0.0
 10
60.86105684242363
 20
-80.73340112999027
 30
0.0
 10
60.79697806639798
 20
-80.62109101717112
 30
0.0
 10
60.7931884613642
 20
-80.52187226719593
 30
0.0
 10
60.78974336587896
 20
-80.43712291825878
 30
0.0
 10
60.78974336587896
 20
-80.43712291825878
 30
0.0
 10
60.97991263666475
 20
-80.43712291825878
 30
0.0
 10
60.97991263666475
 20
-80.43712291825878
 30
0.0
 10
60.9819796939559
 20
-80.51119247119165
 30
0.0
 10
60.99093694221754
 20
-80.74580347373717
 30
0.0
 10
61.23622774076733
 20
-80.74580347373717
 30
0.0
 10
61.35508353500845
 20
-80.74580347373717
 30
0.0
 10
61.48703069209353
 20
-80.67621254493511
 30
0.0
 10
61.48703069209353
 20
-80.44780271426305
 30
0.0
 10
61.48703069209353
 20
-80.3313584868616
 30
0.0
 10
61.45395777543512
 20
-80.28278264051959
 30
0.0
 10
61.42639701155313
 20
-80.25108776205529
 30
0.0
 10
61.362662745076
 20
-80.17701820912242
 30
0.0
 10
61.26172144735818
 20
-80.164271355827
 30
0.0
 10
61.21417912966174
 20
-80.164271355827
 30
0.0
 10
61.19764267133254
 20
-80.164271355827
 30
0.0
 10
61.16663681196529
 20
-80.16633841311814
 30
0.0
 10
61.14286565311706
 20
-80.17047252770044
 30
0.0
 10
61.14286565311706
 20
-80.17047252770044
 30
0.0
 10
61.14286565311706
 20
-79.97582463278383
 30
0.0
 10
61.14286565311706
 20
-79.97582463278383
 30
0.0
 10
61.17593856977546
 20
-79.9823703142058
 30
0.0
 10
61.21245658191911
 20
-79.98443737149695
 30
0.0
 10
61.21796873469551
 20
-79.98443737149695
 30
0.0
 10
61.27481281020214
 20
-79.98443737149695
 30
0.0
 10
61.4467230749161
 20
-79.9630777794884
 30
0.0
 10
61.4467230749161
 20
-79.72639971965174
 30
0.0
 10
61.4467230749161
 20
-79.54863279261285
 30
0.0
 10
61.33337943345138
 20
-79.49351126484885
 30
0.0
 10
61.23795028850996
 20
-79.49351126484885
 30
0.0
 10
61.00919594828937
 20
-79.49351126484885
 30
0.0
 10
61.00196124777035
 20
-79.72639971965174
 30
0.0
 10
60.99817164273657
 20
-79.79805770574494
 30
0.0
 10
60.99817164273657
 20
-79.79805770574494
 30
0.0
 10
60.82247177298883
 20
-79.79805770574494
 30
0.0
 10
60.82247177298883
 20
-79.79805770574494
 30
0.0
 10
60.83005098305638
 20
-79.6733452491789
 30
0.0
 10
60.8538221419046
 20
-79.29679631264108
 30
0.0
 10
61.24897459406276
 20
-79.29679631264108
 30
0.0
 10
61.44293346988233
 20
-79.29679631264108
 30
0.0
 10
61.65170625628846
 20
-79.4239203360468
 30
0.0
 10
61.65170625628846
 20
-79.71985403822977
 30
0.0
 10
61.65170625628846
 20
-79.90623370398178
 30
0.0
 10
61.56936847419099
 20
-79.98857148607925
 30
0.0
 10
61.48324108705975
 20
-80.0498941857167
 30
0.0
 10
61.5362955575326
 20
-80.07745494959869
 30
0.0
 10
61.69373642120851
 20
-80.15772567440501
 30
0.0
 10
61.69373642120851
 20
-80.43505586096762
 30
0.0
 10
61.69373642120851
 20
-80.77336423761916
 30
0.0
 10
61.4797959915745
 20
-80.94045136865378
 30
0.0
 10
61.24001734580111
 20
-80.94045136865378
 30
0.0
  0
HATCH
  5
E8
330
E1
100
AcDbEntity
  8
_U+30EC_U+30A4_U+30E4_U+30FC 1
 62
   179
420
  2234388
100
AcDbHatch
 10
0.0
 20
0.0
 30
0.0
210
0.0
220
0.0
230
1.0
  2
SOLID
 70
     1
 71
     0
 91
        1
 92
        1
 93
        1
 72
     4
 94
        3
 73
     0
 74
     1
 95
       62
 96
       58
 40
0.0
 40
0.0
 40
0.0
 40
0.0
 40
1.0
 40
1.0
 40
1.0
 40
2.0
 40
2.0
 40
2.0
 40
3.0
 40
3.0
 40
3.0
 40
4.0
 40
4.0
 40
4.0
 40
5.0
 40
5.0
 40
5.0
 40
6.0
 40
6.0
 40
6.0
 40
7.0
 40
7.0
 40
7.0
 40
8.0
 40
8.0
 40
8.0
 40
9.0
 40
9.0
 40
9.0
 40
10.0
 40
10.0
 40
10.0
 40
11.0
 40
11.0
 40
11.0
 40
12.0
 40
12.0
 40
12.0
 40
13.0
 40
13.0
 40
13.0
 40
14.0
 40
14.0
 40
14.0
 40
15.0
 40
15.0
 40
15.0
 40
16.0
 40
16.0
 40
16.0
 40
17.0
 40
17.0
 40
17.0
 40
18.0
 40
18.0
 40
18.0
 40
19.0
 40
19.0
 40
19.0
 40
19.0
 10
61.24001734580111
 20
-80.94045136865378
 10
61.15767956370364
 20
-80.94045136865378
 10
60.96888833111195
 20
-80.91943628619376
 10
60.86105684242363
 20
-80.73340112999027
 10
60.79697806639798
 20
-80.62109101717112
 10
60.7931884613642
 20
-80.52187226719593
 10
60.78974336587896
 20
-80.43712291825878
 10
60.78974336587896
 20
-80.43712291825878
 10
60.97991263666475
 20
-80.43712291825878
 10
60.97991263666475
 20
-80.43712291825878
 10
60.9819796939559
 20
-80.51119247119165
 10
60.99093694221754
 20
-80.74580347373717
 10
61.23622774076733
 20
-80.74580347373717
 10
61.35508353500845
 20
-80.74580347373717
 10
61.48703069209353
 20
-80.67621254493511
 10
61.48703069209353
 20
-80.44780271426305
 10
61.48703069209353
 20
-80.3313584868616
 10
61.45395777543512
 20
-80.28278264051959
 10
61.42639701155313
 20
-80.25108776205529
 10
61.362662745076
 20
-80.17701820912242
 10
61.26172144735818
 20
-80.164271355827
 10
61.21417912966174
 20
-80.164271355827
 10
61.19764267133254
 20
-80.164271355827
 10
61.16663681196529
 20
-80.16633841311814
 10
61.14286565311706
 20
-80.17047252770044
 10
61.14286565311706
 20
-80.17047252770044
 10
61.14286565311706
 20
-79.97582463278383
 10
61.14286565311706
 20
-79.97582463278383
 10
61.17593856977546
 20
-79.9823703142058
 10
61.21245658191911
 20
-79.98443737149695
 10
61.21796873469551
 20
-79.98443737149695
 10
61.27481281020214
 20
-79.98443737149695
 10
61.4467230749161
 20
-79.9630777794884
 10
61.4467230749161
 20
-79.72639971965174
 10
61.4467230749161
 20
-79.54863279261285
 10
61.33337943345138
 20
-79.49351126484885
 10
61.23795028850996
 20
-79.49351126484885
 10
61.00919594828937
 20
-79.49351126484885
 10
61.00196124777035
 20
-79.72639971965174
 10
60.99817164273657
 20
-79.79805770574494
 10
60.99817164273657
 20
-79.79805770574494
 10
60.82247177298883
 20
-79.79805770574494
 10
60.82247177298883
 20
-79.79805770574494
 10
60.83005098305638
 20
-79.6733452491789
 10
60.8538221419046
 20
-79.29679631264108
 10
61.24897459406276
 20
-79.29679631264108
 10
61.44293346988233
 20
-79.29679631264108
 10
61.65170625628846
 20
-79.4239203360468
 10
61.65170625628846
 20
-79.71985403822977
 10
61.65170625628846
 20
-79.90623370398178
 10
61.56936847419099
 20
-79.98857148607925
 10
61.48324108705975
 20
-80.0498941857167
 10
61.5362955575326
 20
-80.07745494959869
 10
61.69373642120851
 20
-80.15772567440501
 10
61.69373642120851
 20
-80.43505586096762
 10
61.69373642120851
 20
-80.77336423761916
 10
61.4797959915745
 20
-80.94045136865378
 10
61.24001734580111
 20
-80.94045136865378
 97
        0
 97
        0
 75
     2
 76
     1
 98
        0
  0
ENDBLK
  5
E4
330
E1
100
AcDbEntity
  8
0
100
AcDbBlockEnd
  0
ENDSEC
  0
SECTION
  2
ENTITIES
  0
POLYLINE
  5
41
330
1F
100
AcDbEntity
  8
_U+30EC_U+30A4_U+30E4_U+30FC 1
 62
   179
420
  2234388
370
    25
100
AcDb2dPolyline
 66
     1
 10
0.0
 20
0.0
 30
0.0
  0
VERTEX
  5
42
330
41
100
AcDbEntity
  8
_U+30EC_U+30A4_U+30E4_U+30FC 1
 62
   179
420
  2234388
370
    25
100
AcDbVertex
100
AcDb2dVertex
 10
49.47362484893379
 20
-85.48609886751734
 30
0.0
  0
VERTEX
  5
43
330
41
100
AcDbEntity
  8
_U+30EC_U+30A4_U+30E4_U+30FC 1
 62
   179
420
  2234388
370
    25
100
AcDbVertex
100
AcDb2dVertex
 10
72.47378287326198
 20
-85.48609886751734
 30
0.0
  0
SEQEND
  5
44
330
41
100
AcDbEntity
  8
_U+30EC_U+30A4_U+30E4_U+30FC 1
 62
   179
420
  2234388
370
    25
  0
POLYLINE
  5
45
330
1F
100
AcDbEntity
  8
_U+30EC_U+30A4_U+30E4_U+30FC 1
 62
   179
420
  2234388
370
    25
100
AcDb2dPolyline
 66
     1
 10
0.0
 20
0.0
 30
0.0
  0
VERTEX
  5
46
330
45
100
AcDbEntity
  8
_U+30EC_U+30A4_U+30E4_U+30FC 1
 62
   179
420
  2234388
370
    25
100
AcDbVertex
100
AcDb2dVertex
 10
72.47378287326198
 20
-85.48609886751734
 30
0.0
  0
VERTEX
  5
47
330
45
100
AcDbEntity
  8
_U+30EC_U+30A4_U+30E4_U+30FC 1
 62
   179
420
  2234388
370
    25
100
AcDbVertex
100
AcDb2dVertex
 10
72.47378287326198
 20
-86.48583581171172
 30
0.0
  0
SEQEND
  5
48
330
45
100
AcDbEntity
  8
_U+30EC_U+30A4_U+30E4_U+30FC 1
 62
   179
420
  2234388
370
    25
  0
POLYLINE
  5
49
330
1F
100
AcDbEntity
  8
_U+30EC_U+30A4_U+30E4_U+30FC 1
 62
   179
420
  2234388
370
    25
100
AcDb2dPolyline
 66
     1
 10
0.0
 20
0.0
 30
0.0
  0
VERTEX
  5
4A
330
49
100
AcDbEntity
  8
_U+30EC_U+30A4_U+30E4_U+30FC 1
 62
   179
420
  2234388
370
    25
100
AcDbVertex
100
AcDb2dVertex
 10
49.47362484893379
 20
-86.48583581171172
 30
0.0
  0
VERTEX
  5
4B
330
49
100
AcDbEntity
  8
_U+30EC_U+30A4_U+30E4_U+30FC 1
 62
   179
420
  2234388
370
    25
100
AcDbVertex
100
AcDb2dVertex
 10
57.47349720785398
 20
-86.48583581171172
 30
0.0
  0
SEQEND
  5
4C
330
49
100
AcDbEntity
  8
_U+30EC_U+30A4_U+30E4_U+30FC 1
 62
   179
420
  2234388
370
    25
  0
POLYLINE
  5
4D
330
1F
100
AcDbEntity
  8
_U+30EC_U+30A4_U+30E4_U+30FC 1
 62
   179
420
  2234388
370
    25
100
AcDb2dPolyline
 66
     1
 10
0.0
 20
0.0
 30
0.0
  0
VERTEX
  5
4E
330
4D
100
AcDbEntity
  8
_U+30EC_U+30A4_U+30E4_U+30FC 1
 62
   179
420
  2234388
370
    25
100
AcDbVertex
100
AcDb2dVertex
 10
57.47349720785398
 20
-86.48583581171172
 30
0.0
  0
VERTEX
  5
4F
330
4D
100
AcDbEntity
  8
_U+30EC_U+30A4_U+30E4_U+30FC 1
 62
   179
420
  2234388
370
    25
100
AcDbVertex
100
AcDb2dVertex
 10
57.47349720785398
 20
-93.68592442102286
 30
0.0
  0
SEQEND
  5
50
330
4D
100
AcDbEntity
  8
_U+30EC_U+30A4_U+30E4_U+30FC 1
 62
   179
420
  2234388
370
    25
  0
POLYLINE
  5
51
330
1F
100
AcDbEntity
  8
_U+30EC_U+30A4_U+30E4_U+30FC 1
 62
   179
420
  2234388
370
    25
100
AcDb2dPolyline
 66
     1
 10
0.0
 20
0.0
 30
0.0
  0
VERTEX
  5
52
330
51
100
AcDbEntity
  8
_U+30EC_U+30A4_U+30E4_U+30FC 1
 62
   179
420
  2234388
370
    25
100
AcDbVertex
100
AcDb2dVertex
 10
61.47360759834428
 20
-92.68615219905097
 30
0.0
  0
VERTEX
  5
53
330
51
100
AcDbEntity
  8
_U+30EC_U+30A4_U+30E4_U+30FC 1
 62
   179
420
  2234388
370
    25
100
AcDbVertex
100
AcDb2dVertex
 10
61.47360759834428
 20
-93.68592442102286
 30
0.0
  0
SEQEND
  5
54
330
51
100
AcDbEntity
  8
_U+30EC_U+30A4_U+30E4_U+30FC 1
 62
   179
420
  2234388
370
    25
  0
POLYLINE
  5
55
330
1F
100
AcDbEntity
  8
_U+30EC_U+30A4_U+30E4_U+30FC 1
 62
   179
420
  2234388
370
    25
100
AcDb2dPolyline
 66
     1
 10
0.0
 20
0.0
 30
0.0
  0
VERTEX
  5
56
330
55
100
AcDbEntity
  8
_U+30EC_U+30A4_U+30E4_U+30FC 1
 62
   179
420
  2234388
370
    25
100
AcDbVertex
100
AcDb2dVertex
 10
58.47362220760396
 20
-92.68615219905097
 30
0.0
  0
VERTEX
  5
57
330
55
100
AcDbEntity
  8
_U+30EC_U+30A4_U+30E4_U+30FC 1
 62
   179
420
  2234388
370
    25
100
AcDbVertex
100
AcDb2dVertex
 10
61.47360759834428
 20
-92.68615219905097
 30
0.0
  0
SEQEND
  5
58
330
55
100
AcDbEntity
  8
_U+30EC_U+30A4_U+30E4_U+30FC 1
 62
   179
420
  2234388
370
    25
  0
POLYLINE
  5
59
330
1F
100
AcDbEntity
  8
_U+30EC_U+30A4_U+30E4_U+30FC 1
 62
   179
420
  2234388
370
    25
100
AcDb2dPolyline
 66
     1
 10
0.0
 20
0.0
 30
0.0
  0
VERTEX
  5
5A
330
59
100
AcDbEntity
  8
_U+30EC_U+30A4_U+30E4_U+30FC 1
 62
   179
420
  2234388
370
    25
100
AcDbVertex
100
AcDb2dVertex
 10
57.47349720785398
 20
-93.68592442102286
 30
0.0
  0
VERTEX
  5
5B
330
59
100
AcDbEntity
  8
_U+30EC_U+30A4_U+30E4_U+30FC 1
 62
   179
420
  2234388
370
    25
100
AcDbVertex
100
AcDb2dVertex
 10
61.47360759834428
 20
-93.68592442102286
 30
0.0
  0
SEQEND
  5
5C
330
59
100
AcDbEntity
  8
_U+30EC_U+30A4_U+30E4_U+30FC 1
 62
   179
420
  2234388
370
    25
  0
POLYLINE
  5
5D
330
1F
100
AcDbEntity
  8
_U+30EC_U+30A4_U+30E4_U+30FC 1
 62
   179
420
  2234388
370
    25
100
AcDb2dPolyline
 66
     1
 10
0.0
 20
0.0
 30
0.0
  0
VERTEX
  5
5E
330
5D
100
AcDbEntity
  8
_U+30EC_U+30A4_U+30E4_U+30FC 1
 62
   179
420
  2234388
370
    25
100
AcDbVertex
100
AcDb2dVertex
 10
58.47362220760396
 20
-86.48583581171172
 30
0.0
  0
VERTEX
  5
5F
330
5D
100
AcDbEntity
  8
_U+30EC_U+30A4_U+30E4_U+30FC 1
 62
   179
420
  2234388
370
    25
100
AcDbVertex
100
AcDb2dVertex
 10
58.47362220760396
 20
-92.68615219905097
 30
0.0
  0
SEQEND
  5
60
330
5D
100
AcDbEntity
  8
_U+30EC_U+30A4_U+30E4_U+30FC 1
 62
   179
420
  2234388
370
    25
  0
POLYLINE
  5
61
330
1F
100
AcDbEntity
  8
_U+30EC_U+30A4_U+30E4_U+30FC 1
 62
   179
420
  2234388
370
    25
100
AcDb2dPolyline
 66
     1
 10
0.0
 20
0.0
 30
0.0
  0
VERTEX
  5
62
330
61
100
AcDbEntity
  8
_U+30EC_U+30A4_U+30E4_U+30FC 1
 62
   179
420
  2234388
370
    25
100
AcDbVertex
100
AcDb2dVertex
 10
58.47362220760396
 20
-86.48583581171172
 30
0.0
  0
VERTEX
  5
63
330
61
100
AcDbEntity
  8
_U+30EC_U+30A4_U+30E4_U+30FC 1
 62
   179
420
  2234388
370
    25
100
AcDbVertex
100
AcDb2dVertex
 10
72.47378287326198
 20
-86.48583581171172
 30
0.0
  0
SEQEND
  5
64
330
61
100
AcDbEntity
  8
_U+30EC_U+30A4_U+30E4_U+30FC 1
 62
   179
420
  2234388
370
    25
  0
POLYLINE
  5
65
330
1F
100
AcDbEntity
  8
_U+30EC_U+30A4_U+30E4_U+30FC 1
 62
   179
420
  2234388
370
    25
100
AcDb2dPolyline
 66
     1
 10
0.0
 20
0.0
 30
0.0
  0
VERTEX
  5
66
330
65
100
AcDbEntity
  8
_U+30EC_U+30A4_U+30E4_U+30FC 1
 62
   179
420
  2234388
370
    25
100
AcDbVertex
100
AcDb2dVertex
 10
49.47362484893379
 20
-85.48609886751734
 30
0.0
  0
VERTEX
  5
67
330
65
100
AcDbEntity
  8
_U+30EC_U+30A4_U+30E4_U+30FC 1
 62
   179
420
  2234388
370
    25
100
AcDbVertex
100
AcDb2dVertex
 10
49.47362484893379
 20
-86.48583581171172
 30
0.0
  0
SEQEND
  5
68
330
65
100
AcDbEntity
  8
_U+30EC_U+30A4_U+30E4_U+30FC 1
 62
   179
420
  2234388
370
    25
  0
SPLINE
  5
69
330
1F
100
AcDbEntity
  8
_U+30EC_U+30A4_U+30E4_U+30FC 1
 62
   179
420
  2234388
370
     9
100
AcDbSpline
210
0.0
220
0.0
230
1.0
 70
    11
 71
     3
 72
    17
 73
    13
 74
     0
 42
0.0000000001
 43
0.0000000001
 12
1.0
 22
0.0
 32
0.0
 13
1.0
 23
0.0
 33
0.0
 40
0.0
 40
0.0
 40
0.0
 40
0.0
 40
1.0
 40
1.0
 40
1.0
 40
2.0
 40
2.0
 40
2.0
 40
3.0
 40
3.0
 40
3.0
 40
4.0
 40
4.0
 40
4.0
 40
4.0
 10
76.5738013797729
 20
-85.48609886751734
 30
0.0
 10
76.5738013797729
 20
-85.43060692308681
 30
0.0
 10
76.52899860313815
 20
-85.38583942309793
 30
0.0
 10
76.4735419378863
 20
-85.38583942309793
 30
0.0
 10
76.41840277262635
 20
-85.38583942309793
 30
0.0
 10
76.37363527376846
 20
-85.43060692308681
 30
0.0
 10
76.37363527376846
 20
-85.48609886751734
 30
0.0
 10
76.37363527376846
 20
-85.54120275639258
 30
0.0
 10
76.41840277262635
 20
-85.58600553415897
 30
0.0
 10
76.4735419378863
 20
-85.58600553415897
 30
0.0
 10
76.52899860313815
 20
-85.58600553415897
 30
0.0
 10
76.5738013797729
 20
-85.54120275639258
 30
0.0
 10
76.5738013797729
 20
-85.48609886751734
 30
0.0
  0
SPLINE
  5
6A
330
1F
100
AcDbEntity
  8
_U+30EC_U+30A4_U+30E4_U+30FC 1
 62
   179
420
  2234388
370
     9
100
AcDbSpline
210
0.0
220
0.0
230
1.0
 70
    11
 71
     3
 72
    17
 73
    13
 74
     0
 42
0.0000000001
 43
0.0000000001
 12
1.0
 22
0.0
 32
0.0
 13
1.0
 23
0.0
 33
0.0
 40
0.0
 40
0.0
 40
0.0
 40
0.0
 40
1.0
 40
1.0
 40
1.0
 40
2.0
 40
2.0
 40
2.0
 40
3.0
 40
3.0
 40
3.0
 40
4.0
 40
4.0
 40
4.0
 40
4.0
 10
76.5738013797729
 20
-86.48583581171172
 30
0.0
 10
76.5738013797729
 20
-86.4307319228368
 30
0.0
 10
76.52899860313815
 20
-86.38592914507008
 30
0.0
 10
76.4735419378863
 20
-86.38592914507008
 30
0.0
 10
76.41840277262635
 20
-86.38592914507008
 30
0.0
 10
76.37363527376846
 20
-86.4307319228368
 30
0.0
 10
76.37363527376846
 20
-86.48583581171172
 30
0.0
 10
76.37363527376846
 20
-86.5409749783648
 30
0.0
 10
76.41840277262635
 20
-86.58574247835368
 30
0.0
 10
76.4735419378863
 20
-86.58574247835368
 30
0.0
 10
76.52899860313815
 20
-86.58574247835368
 30
0.0
 10
76.5738013797729
 20
-86.5409749783648
 30
0.0
 10
76.5738013797729
 20
-86.48583581171172
 30
0.0
  0
SPLINE
  5
6B
330
1F
100
AcDbEntity
  8
_U+30EC_U+30A4_U+30E4_U+30FC 1
 62
   179
420
  2234388
370
     9
100
AcDbSpline
210
0.0
220
0.0
230
1.0
 70
    11
 71
     3
 72
    17
 73
    13
 74
     0
 42
0.0000000001
 43
0.0000000001
 12
1.0
 22
0.0
 32
0.0
 13
1.0
 23
0.0
 33
0.0
 40
0.0
 40
0.0
 40
0.0
 40
0.0
 40
1.0
 40
1.0
 40
1.0
 40
2.0
 40
2.0
 40
2.0
 40
3.0
 40
3.0
 40
3.0
 40
4.0
 40
4.0
 40
4.0
 40
4.0
 10
72.57368953737982
 20
-81.48563414629525
 30
0.0
 10
72.57368953737982
 20
-81.43053025742002
 30
0.0
 10
72.52892203852193
 20
-81.38572747965361
 30
0.0
 10
72.47378287326198
 20
-81.38572747965361
 30
0.0
 10
72.41832620801013
 20
-81.38572747965361
 30
0.0
 10
72.37352343137538
 20
-81.43053025742002
 30
0.0
 10
72.37352343137538
 20
-81.48563414629525
 30
0.0
 10
72.37352343137538
 20
-81.54109081294793
 30
0.0
 10
72.41832620801013
 20
-81.58589359071465
 30
0.0
 10
72.47378287326198
 20
-81.58589359071465
 30
0.0
 10
72.52892203852193
 20
-81.58589359071465
 30
0.0
 10
72.57368953737982
 20
-81.54109081294793
 30
0.0
 10
72.57368953737982
 20
-81.48563414629525
 30
0.0
  0
SPLINE
  5
6C
330
1F
100
AcDbEntity
  8
_U+30EC_U+30A4_U+30E4_U+30FC 1
 62
   179
420
  2234388
370
     9
100
AcDbSpline
210
0.0
220
0.0
230
1.0
 70
    11
 71
     3
 72
    17
 73
    13
 74
     0
 42
0.0000000001
 43
0.0000000001
 12
1.0
 22
0.0
 32
0.0
 13
1.0
 23
0.0
 33
0.0
 40
0.0
 40
0.0
 40
0.0
 40
0.0
 40
1.0
 40
1.0
 40
1.0
 40
2.0
 40
2.0
 40
2.0
 40
3.0
 40
3.0
 40
3.0
 40
4.0
 40
4.0
 40
4.0
 40
4.0
 10
57.57340242006902
 20
-97.68603636446751
 30
0.0
 10
57.57340242006902
 20
-97.63089719781443
 30
0.0
 10
57.52859964343426
 20
-97.58612969782587
 30
0.0
 10
57.47349720785398
 20
-97.58612969782587
 30
0.0
 10
57.41835659069124
 20
-97.58612969782587
 30
0.0
 10
57.37358909183335
 20
-97.63089719781443
 30
0.0
 10
57.37358909183335
 20
-97.68603636446751
 30
0.0
 10
57.37358909183335
 20
-97.74114025334242
 30
0.0
 10
57.41835659069124
 20
-97.78594303110914
 30
0.0
 10
57.47349720785398
 20
-97.78594303110914
 30
0.0
 10
57.52859964343426
 20
-97.78594303110914
 30
0.0
 10
57.57340242006902
 20
-97.74114025334242
 30
0.0
 10
57.57340242006902
 20
-97.68603636446751
 30
0.0
  0
SPLINE
  5
6D
330
1F
100
AcDbEntity
  8
_U+30EC_U+30A4_U+30E4_U+30FC 1
 62
   179
420
  2234388
370
     9
100
AcDbSpline
210
0.0
220
0.0
230
1.0
 70
    11
 71
     3
 72
    17
 73
    13
 74
     0
 42
0.0000000001
 43
0.0000000001
 12
1.0
 22
0.0
 32
0.0
 13
1.0
 23
0.0
 33
0.0
 40
0.0
 40
0.0
 40
0.0
 40
0.0
 40
1.0
 40
1.0
 40
1.0
 40
2.0
 40
2.0
 40
2.0
 40
3.0
 40
3.0
 40
3.0
 40
4.0
 40
4.0
 40
4.0
 40
4.0
 10
61.57351426246211
 20
-97.68603636446751
 30
0.0
 10
61.57351426246211
 20
-97.63089719781443
 30
0.0
 10
61.52871148582735
 20
-97.58612969782587
 30
0.0
 10
61.47360759834428
 20
-97.58612969782587
 30
0.0
 10
61.41846843308433
 20
-97.58612969782587
 30
0.0
 10
61.37370093422644
 20
-97.63089719781443
 30
0.0
 10
61.37370093422644
 20
-97.68603636446751
 30
0.0
 10
61.37370093422644
 20
-97.74114025334242
 30
0.0
 10
61.41846843308433
 20
-97.78594303110914
 30
0.0
 10
61.47360759834428
 20
-97.78594303110914
 30
0.0
 10
61.52871148582735
 20
-97.78594303110914
 30
0.0
 10
61.57351426246211
 20
-97.74114025334242
 30
0.0
 10
61.57351426246211
 20
-97.68603636446751
 30
0.0
  0
SPLINE
  5
6E
330
1F
100
AcDbEntity
  8
_U+30EC_U+30A4_U+30E4_U+30FC 1
 62
   179
420
  2234388
370
     9
100
AcDbSpline
210
0.0
220
0.0
230
1.0
 70
    11
 71
     3
 72
    17
 73
    13
 74
     0
 42
0.0000000001
 43
0.0000000001
 12
1.0
 22
0.0
 32
0.0
 13
1.0
 23
0.0
 33
0.0
 40
0.0
 40
0.0
 40
0.0
 40
0.0
 40
1.0
 40
1.0
 40
1.0
 40
2.0
 40
2.0
 40
2.0
 40
3.0
 40
3.0
 40
3.0
 40
4.0
 40
4.0
 40
4.0
 40
4.0
 10
76.5738013797729
 20
-92.68615219905097
 30
0.0
 10
76.5738013797729
 20
-92.63069553239764
 30
0.0
 10
76.52899860313815
 20
-92.58589275463156
 30
0.0
 10
76.4735419378863
 20
-92.58589275463156
 30
0.0
 10
76.41840277262635
 20
-92.58589275463156
 30
0.0
 10
76.37363527376846
 20
-92.63069553239764
 30
0.0
 10
76.37363527376846
 20
-92.68615219905097
 30
0.0
 10
76.37363527376846
 20
-92.7412913657034
 30
0.0
 10
76.41840277262635
 20
-92.7860588656926
 30
0.0
 10
76.4735419378863
 20
-92.7860588656926
 30
0.0
 10
76.52899860313815
 20
-92.7860588656926
 30
0.0
 10
76.5738013797729
 20
-92.7412913657034
 30
0.0
 10
76.5738013797729
 20
-92.68615219905097
 30
0.0
  0
SPLINE
  5
6F
330
1F
100
AcDbEntity
  8
_U+30EC_U+30A4_U+30E4_U+30FC 1
 62
   179
420
  2234388
370
     9
100
AcDbSpline
210
0.0
220
0.0
230
1.0
 70
    11
 71
     3
 72
    17
 73
    13
 74
     0
 42
0.0000000001
 43
0.0000000001
 12
1.0
 22
0.0
 32
0.0
 13
1.0
 23
0.0
 33
0.0
 40
0.0
 40
0.0
 40
0.0
 40
0.0
 40
1.0
 40
1.0
 40
1.0
 40
2.0
 40
2.0
 40
2.0
 40
3.0
 40
3.0
 40
3.0
 40
4.0
 40
4.0
 40
4.0
 40
4.0
 10
49.57353151305163
 20
-81.48563414629525
 30
0.0
 10
49.57353151305163
 20
-81.43053025742002
 30
0.0
 10
49.52894165428441
 20
-81.38572747965361
 30
0.0
 10
49.47362484893379
 20
-81.38572747965361
 30
0.0
 10
49.41834457256633
 20
-81.38572747965361
 30
0.0
 10
49.37354179593157
 20
-81.43053025742002
 30
0.0
 10
49.37354179593157
 20
-81.48563414629525
 30
0.0
 10
49.37354179593157
 20
-81.54109081294793
 30
0.0
 10
49.41834457256633
 20
-81.58589359071465
 30
0.0
 10
49.47362484893379
 20
-81.58589359071465
 30
0.0
 10
49.52894165428441
 20
-81.58589359071465
 30
0.0
 10
49.57353151305163
 20
-81.54109081294793
 30
0.0
 10
49.57353151305163
 20
-81.48563414629525
 30
0.0
  0
SPLINE
  5
70
330
1F
100
AcDbEntity
  8
_U+30EC_U+30A4_U+30E4_U+30FC 1
 62
   179
420
  2234388
370
     9
100
AcDbSpline
210
0.0
220
0.0
230
1.0
 70
    11
 71
     3
 72
    17
 73
    13
 74
     0
 42
0.0000000001
 43
0.0000000001
 12
1.0
 22
0.0
 32
0.0
 13
1.0
 23
0.0
 33
0.0
 40
0.0
 40
0.0
 40
0.0
 40
0.0
 40
1.0
 40
1.0
 40
1.0
 40
2.0
 40
2.0
 40
2.0
 40
3.0
 40
3.0
 40
3.0
 40
4.0
 40
4.0
 40
4.0
 40
4.0
 10
49.57353151305163
 20
-97.68603636446751
 30
0.0
 10
49.57353151305163
 20
-97.63089719781443
 30
0.0
 10
49.52894165428441
 20
-97.58612969782587
 30
0.0
 10
49.47362484893379
 20
-97.58612969782587
 30
0.0
 10
49.41834457256633
 20
-97.58612969782587
 30
0.0
 10
49.37354179593157
 20
-97.63089719781443
 30
0.0
 10
49.37354179593157
 20
-97.68603636446751
 30
0.0
 10
49.37354179593157
 20
-97.74114025334242
 30
0.0
 10
49.41834457256633
 20
-97.78594303110914
 30
0.0
 10
49.47362484893379
 20
-97.78594303110914
 30
0.0
 10
49.52894165428441
 20
-97.78594303110914
 30
0.0
 10
49.57353151305163
 20
-97.74114025334242
 30
0.0
 10
49.57353151305163
 20
-97.68603636446751
 30
0.0
  0
POLYLINE
  5
71
330
1F
100
AcDbEntity
  8
_U+30EC_U+30A4_U+30E4_U+30FC 1
 62
   179
420
  2234388
370
     9
100
AcDb2dPolyline
 66
     1
 10
0.0
 20
0.0
 30
0.0
  0
VERTEX
  5
72
330
71
100
AcDbEntity
  8
_U+30EC_U+30A4_U+30E4_U+30FC 1
 62
   179
420
  2234388
370
     9
100
AcDbVertex
100
AcDb2dVertex
 10
76.4735419378863
 20
-85.48609886751734
 30
0.0
  0
VERTEX
  5
73
330
71
100
AcDbEntity
  8
_U+30EC_U+30A4_U+30E4_U+30FC 1
 62
   179
420
  2234388
370
     9
100
AcDbVertex
100
AcDb2dVertex
 10
76.4735419378863
 20
-81.71578636845992
 30
0.0
  0
SEQEND
  5
74
330
71
100
AcDbEntity
  8
_U+30EC_U+30A4_U+30E4_U+30FC 1
 62
   179
420
  2234388
370
     9
  0
POLYLINE
  5
75
330
1F
100
AcDbEntity
  8
_U+30EC_U+30A4_U+30E4_U+30FC 1
 62
   179
420
  2234388
370
     9
100
AcDb2dPolyline
 66
     1
 10
0.0
 20
0.0
 30
0.0
  0
VERTEX
  5
76
330
75
100
AcDbEntity
  8
_U+30EC_U+30A4_U+30E4_U+30FC 1
 62
   179
420
  2234388
370
     9
100
AcDbVertex
100
AcDb2dVertex
 10
76.4735419378863
 20
-85.48609886751734
 30
0.0
  0
VERTEX
  5
77
330
75
100
AcDbEntity
  8
_U+30EC_U+30A4_U+30E4_U+30FC 1
 62
   179
420
  2234388
370
     9
100
AcDbVertex
100
AcDb2dVertex
 10
76.4735419378863
 20
-86.48583581171172
 30
0.0
  0
SEQEND
  5
78
330
75
100
AcDbEntity
  8
_U+30EC_U+30A4_U+30E4_U+30FC 1
 62
   179
420
  2234388
370
     9
  0
POLYLINE
  5
79
330
1F
100
AcDbEntity
  8
_U+30EC_U+30A4_U+30E4_U+30FC 1
 62
   179
420
  2234388
370
     9
100
AcDb2dPolyline
 66
     1
 10
0.0
 20
0.0
 30
0.0
  0
VERTEX
  5
7A
330
79
100
AcDbEntity
  8
_U+30EC_U+30A4_U+30E4_U+30FC 1
 62
   179
420
  2234388
370
     9
100
AcDbVertex
100
AcDb2dVertex
 10
75.01350058624617
 20
-85.48609886751734
 30
0.0
  0
VERTEX
  5
7B
330
79
100
AcDbEntity
  8
_U+30EC_U+30A4_U+30E4_U+30FC 1
 62
   179
420
  2234388
370
     9
100
AcDbVertex
100
AcDb2dVertex
 10
77.47366691237099
 20
-85.48609886751734
 30
0.0
  0
SEQEND
  5
7C
330
79
100
AcDbEntity
  8
_U+30EC_U+30A4_U+30E4_U+30FC 1
 62
   179
420
  2234388
370
     9
  0
POLYLINE
  5
7D
330
1F
100
AcDbEntity
  8
_U+30EC_U+30A4_U+30E4_U+30FC 1
 62
   179
420
  2234388
370
     9
100
AcDb2dPolyline
 66
     1
 10
0.0
 20
0.0
 30
0.0
  0
VERTEX
  5
7E
330
7D
100
AcDbEntity
  8
_U+30EC_U+30A4_U+30E4_U+30FC 1
 62
   179
420
  2234388
370
     9
100
AcDbVertex
100
AcDb2dVertex
 10
75.01350058624617
 20
-86.48583581171172
 30
0.0
  0
VERTEX
  5
7F
330
7D
100
AcDbEntity
  8
_U+30EC_U+30A4_U+30E4_U+30FC 1
 62
   179
420
  2234388
370
     9
100
AcDbVertex
100
AcDb2dVertex
 10
77.47366691237099
 20
-86.48583581171172
 30
0.0
  0
SEQEND
  5
80
330
7D
100
AcDbEntity
  8
_U+30EC_U+30A4_U+30E4_U+30FC 1
 62
   179
420
  2234388
370
     9
  0
INSERT
  5
82
330
1F
100
AcDbEntity
  8
_U+30EC_U+30A4_U+30E4_U+30FC 1
100
AcDbBlockReference
  2
block 2
 10
0.0
 20
0.0
 30
0.0
  0
POLYLINE
  5
87
330
1F
100
AcDbEntity
  8
_U+30EC_U+30A4_U+30E4_U+30FC 1
 62
   179
420
  2234388
370
     9
100
AcDb2dPolyline
 66
     1
 10
0.0
 20
0.0
 30
0.0
  0
VERTEX
  5
88
330
87
100
AcDbEntity
  8
_U+30EC_U+30A4_U+30E4_U+30FC 1
 62
   179
420
  2234388
370
     9
100
AcDbVertex
100
AcDb2dVertex
 10
76.4735419378863
 20
-86.48583581171172
 30
0.0
  0
VERTEX
  5
89
330
87
100
AcDbEntity
  8
_U+30EC_U+30A4_U+30E4_U+30FC 1
 62
   179
420
  2234388
370
     9
100
AcDbVertex
100
AcDb2dVertex
 10
76.4735419378863
 20
-92.68615219905097
 30
0.0
  0
SEQEND
  5
8A
330
87
100
AcDbEntity
  8
_U+30EC_U+30A4_U+30E4_U+30FC 1
 62
   179
420
  2234388
370
     9
  0
POLYLINE
  5
8B
330
1F
100
AcDbEntity
  8
_U+30EC_U+30A4_U+30E4_U+30FC 1
 62
   179
420
  2234388
370
     9
100
AcDb2dPolyline
 66
     1
 10
0.0
 20
0.0
 30
0.0
  0
VERTEX
  5
8C
330
8B
100
AcDbEntity
  8
_U+30EC_U+30A4_U+30E4_U+30FC 1
 62
   179
420
  2234388
370
     9
100
AcDbVertex
100
AcDb2dVertex
 10
64.01367808909724
 20
-92.68615219905097
 30
0.0
  0
VERTEX
  5
8D
330
8B
100
AcDbEntity
  8
_U+30EC_U+30A4_U+30E4_U+30FC 1
 62
   179
420
  2234388
370
     9
100
AcDbVertex
100
AcDb2dVertex
 10
77.47366691237099
 20
-92.68615219905097
 30
0.0
  0
SEQEND
  5
8E
330
8B
100
AcDbEntity
  8
_U+30EC_U+30A4_U+30E4_U+30FC 1
 62
   179
420
  2234388
370
     9
  0
INSERT
  5
90
330
1F
100
AcDbEntity
  8
_U+30EC_U+30A4_U+30E4_U+30FC 1
100
AcDbBlockReference
  2
block 3
 10
0.0
 20
0.0
 30
0.0
  0
POLYLINE
  5
A0
330
1F
100
AcDbEntity
  8
_U+30EC_U+30A4_U+30E4_U+30FC 1
 62
   179
420
  2234388
370
     9
100
AcDb2dPolyline
 66
     1
 10
0.0
 20
0.0
 30
0.0
  0
VERTEX
  5
A1
330
A0
100
AcDbEntity
  8
_U+30EC_U+30A4_U+30E4_U+30FC 1
 62
   179
420
  2234388
370
     9
100
AcDbVertex
100
AcDb2dVertex
 10
57.47349720785398
 20
-97.68603636446751
 30
0.0
  0
VERTEX
  5
A2
330
A0
100
AcDbEntity
  8
_U+30EC_U+30A4_U+30E4_U+30FC 1
 62
   179
420
  2234388
370
     9
100
AcDbVertex
100
AcDb2dVertex
 10
61.47360759834428
 20
-97.68603636446751
 30
0.0
  0
SEQEND
  5
A3
330
A0
100
AcDbEntity
  8
_U+30EC_U+30A4_U+30E4_U+30FC 1
 62
   179
420
  2234388
370
     9
  0
POLYLINE
  5
A4
330
1F
100
AcDbEntity
  8
_U+30EC_U+30A4_U+30E4_U+30FC 1
 62
   179
420
  2234388
370
     9
100
AcDb2dPolyline
 66
     1
 10
0.0
 20
0.0
 30
0.0
  0
VERTEX
  5
A5
330
A4
100
AcDbEntity
  8
_U+30EC_U+30A4_U+30E4_U+30FC 1
 62
   179
420
  2234388
370
     9
100
AcDbVertex
100
AcDb2dVertex
 10
57.47349720785398
 20
-96.2259949759438
 30
0.0
  0
VERTEX
  5
A6
330
A4
100
AcDbEntity
  8
_U+30EC_U+30A4_U+30E4_U+30FC 1
 62
   179
420
  2234388
370
     9
100
AcDbVertex
100
AcDb2dVertex
 10
57.47349720785398
 20
-98.68612608643964
 30
0.0
  0
SEQEND
  5
A7
330
A4
100
AcDbEntity
  8
_U+30EC_U+30A4_U+30E4_U+30FC 1
 62
   179
420
  2234388
370
     9
  0
POLYLINE
  5
A8
330
1F
100
AcDbEntity
  8
_U+30EC_U+30A4_U+30E4_U+30FC 1
 62
   179
420
  2234388
370
     9
100
AcDb2dPolyline
 66
     1
 10
0.0
 20
0.0
 30
0.0
  0
VERTEX
  5
A9
330
A8
100
AcDbEntity
  8
_U+30EC_U+30A4_U+30E4_U+30FC 1
 62
   179
420
  2234388
370
     9
100
AcDbVertex
100
AcDb2dVertex
 10
61.47360759834428
 20
-96.2259949759438
 30
0.0
  0
VERTEX
  5
AA
330
A8
100
AcDbEntity
  8
_U+30EC_U+30A4_U+30E4_U+30FC 1
 62
   179
420
  2234388
370
     9
100
AcDbVertex
100
AcDb2dVertex
 10
61.47360759834428
 20
-98.68612608643964
 30
0.0
  0
SEQEND
  5
AB
330
A8
100
AcDbEntity
  8
_U+30EC_U+30A4_U+30E4_U+30FC 1
 62
   179
420
  2234388
370
     9
  0
INSERT
  5
AD
330
1F
100
AcDbEntity
  8
_U+30EC_U+30A4_U+30E4_U+30FC 1
100
AcDbBlockReference
  2
block 4
 10
0.0
 20
0.0
 30
0.0
  0
POLYLINE
  5
C5
330
1F
100
AcDbEntity
  8
_U+30EC_U+30A4_U+30E4_U+30FC 1
 62
   179
420
  2234388
370
     9
100
AcDb2dPolyline
 66
     1
 10
0.0
 20
0.0
 30
0.0
  0
VERTEX
  5
C6
330
C5
100
AcDbEntity
  8
_U+30EC_U+30A4_U+30E4_U+30FC 1
 62
   179
420
  2234388
370
     9
100
AcDbVertex
100
AcDb2dVertex
 10
49.47362484893379
 20
-97.68603636446751
 30
0.0
  0
VERTEX
  5
C7
330
C5
100
AcDbEntity
  8
_U+30EC_U+30A4_U+30E4_U+30FC 1
 62
   179
420
  2234388
370
     9
100
AcDbVertex
100
AcDb2dVertex
 10
57.47349720785398
 20
-97.68603636446751
 30
0.0
  0
SEQEND
  5
C8
330
C5
100
AcDbEntity
  8
_U+30EC_U+30A4_U+30E4_U+30FC 1
 62
   179
420
  2234388
370
     9
  0
POLYLINE
  5
C9
330
1F
100
AcDbEntity
  8
_U+30EC_U+30A4_U+30E4_U+30FC 1
 62
   179
420
  2234388
370
     9
100
AcDb2dPolyline
 66
     1
 10
0.0
 20
0.0
 30
0.0
  0
VERTEX
  5
CA
330
C9
100
AcDbEntity
  8
_U+30EC_U+30A4_U+30E4_U+30FC 1
 62
   179
420
  2234388
370
     9
100
AcDbVertex
100
AcDb2dVertex
 10
49.47362484893379
 20
-89.02608275552122
 30
0.0
  0
VERTEX
  5
CB
330
C9
100
AcDbEntity
  8
_U+30EC_U+30A4_U+30E4_U+30FC 1
 62
   179
420
  2234388
370
     9
100
AcDbVertex
100
AcDb2dVertex
 10
49.47362484893379
 20
-98.68612608643964
 30
0.0
  0
SEQEND
  5
CC
330
C9
100
AcDbEntity
  8
_U+30EC_U+30A4_U+30E4_U+30FC 1
 62
   179
420
  2234388
370
     9
  0
INSERT
  5
CE
330
1F
100
AcDbEntity
  8
_U+30EC_U+30A4_U+30E4_U+30FC 1
100
AcDbBlockReference
  2
block 5
 10
0.0
 20
0.0
 30
0.0
  0
POLYLINE
  5
D5
330
1F
100
AcDbEntity
  8
_U+30EC_U+30A4_U+30E4_U+30FC 1
 62
   179
420
  2234388
370
     9
100
AcDb2dPolyline
 66
     1
 10
0.0
 20
0.0
 30
0.0
  0
VERTEX
  5
D6
330
D5
100
AcDbEntity
  8
_U+30EC_U+30A4_U+30E4_U+30FC 1
 62
   179
420
  2234388
370
     9
100
AcDbVertex
100
AcDb2dVertex
 10
49.47362484893379
 20
-81.48563414629525
 30
0.0
  0
VERTEX
  5
D7
330
D5
100
AcDbEntity
  8
_U+30EC_U+30A4_U+30E4_U+30FC 1
 62
   179
420
  2234388
370
     9
100
AcDbVertex
100
AcDb2dVertex
 10
72.47378287326198
 20
-81.48563414629525
 30
0.0
  0
SEQEND
  5
D8
330
D5
100
AcDbEntity
  8
_U+30EC_U+30A4_U+30E4_U+30FC 1
 62
   179
420
  2234388
370
     9
  0
POLYLINE
  5
D9
330
1F
100
AcDbEntity
  8
_U+30EC_U+30A4_U+30E4_U+30FC 1
 62
   179
420
  2234388
370
     9
100
AcDb2dPolyline
 66
     1
 10
0.0
 20
0.0
 30
0.0
  0
VERTEX
  5
DA
330
D9
100
AcDbEntity
  8
_U+30EC_U+30A4_U+30E4_U+30FC 1
 62
   179
420
  2234388
370
     9
100
AcDbVertex
100
AcDb2dVertex
 10
49.47362484893379
 20
-82.94567553481929
 30
0.0
  0
VERTEX
  5
DB
330
D9
100
AcDbEntity
  8
_U+30EC_U+30A4_U+30E4_U+30FC 1
 62
   179
420
  2234388
370
     9
100
AcDbVertex
100
AcDb2dVertex
 10
49.47362484893379
 20
-80.48586192432303
 30
0.0
  0
SEQEND
  5
DC
330
D9
100
AcDbEntity
  8
_U+30EC_U+30A4_U+30E4_U+30FC 1
 62
   179
420
  2234388
370
     9
  0
POLYLINE
  5
DD
330
1F
100
AcDbEntity
  8
_U+30EC_U+30A4_U+30E4_U+30FC 1
 62
   179
420
  2234388
370
     9
100
AcDb2dPolyline
 66
     1
 10
0.0
 20
0.0
 30
0.0
  0
VERTEX
  5
DE
330
DD
100
AcDbEntity
  8
_U+30EC_U+30A4_U+30E4_U+30FC 1
 62
   179
420
  2234388
370
     9
100
AcDbVertex
100
AcDb2dVertex
 10
72.47378287326198
 20
-82.94567553481929
 30
0.0
  0
VERTEX
  5
DF
330
DD
100
AcDbEntity
  8
_U+30EC_U+30A4_U+30E4_U+30FC 1
 62
   179
420
  2234388
370
     9
100
AcDbVertex
100
AcDb2dVertex
 10
72.47378287326198
 20
-80.48586192432303
 30
0.0
  0
SEQEND
  5
E0
330
DD
100
AcDbEntity
  8
_U+30EC_U+30A4_U+30E4_U+30FC 1
 62
   179
420
  2234388
370
     9
  0
INSERT
  5
E2
330
1F
100
AcDbEntity
  8
_U+30EC_U+30A4_U+30E4_U+30FC 1
100
AcDbBlockReference
  2
block 6
 10
0.0
 20
0.0
 30
0.0
  0
ENDSEC
  0
SECTION
  2
OBJECTS
  0
DICTIONARY
  5
C
330
0
100
AcDbDictionary
281
     1
  3
ACAD_GROUP
350
D
  3
ACAD_LAYOUT
350
1A
  3
ACAD_MATERIAL
350
3B
  3
ACAD_MLEADERSTYLE
350
EA
  3
ACAD_MLINESTYLE
350
17
  3
ACAD_PLOTSETTINGS
350
19
  3
ACAD_PLOTSTYLENAME
350
E
  3
ACAD_TABLESTYLE
350
E9
  3
ACAD_VISUALSTYLE
350
2A
  0
SUN
  5
3F
330
29
100
AcDbSun
 90
        1
290
     0
 63
     7
421
 16777215
 40
1.0
291
     1
 91
  2455826
 92
 54000000
292
     0
 70
     2
 71
   256
280
     1
  0
DICTIONARY
  5
D
102
{ACAD_REACTORS
330
C
102
}
330
C
100
AcDbDictionary
281
     1
  0
DICTIONARY
  5
1A
102
{ACAD_REACTORS
330
C
102
}
330
C
100
AcDbDictionary
281
     1
  3
Layout1
350
1E
  3
Layout2
350
26
  3
Model
350
22
  0
DICTIONARY
  5
3B
102
{ACAD_REACTORS
330
C
102
}
330
C
100
AcDbDictionary
281
     1
  3
ByBlock
350
3D
  3
ByLayer
350
3C
  3
Global
350
3E
  0
DICTIONARY
  5
EA
102
{ACAD_REACTORS
330
C
102
}
330
C
100
AcDbDictionary
281
     1
  0
DICTIONARY
  5
17
102
{ACAD_REACTORS
330
C
102
}
330
C
100
AcDbDictionary
281
     1
  3
Standard
350
18
  0
DICTIONARY
  5
19
102
{ACAD_REACTORS
330
C
102
}
330
C
100
AcDbDictionary
281
     1
  0
ACDBDICTIONARYWDFLT
  5
E
102
{ACAD_REACTORS
330
C
102
}
330
C
100
AcDbDictionary
281
     1
  3
Normal
350
F
100
AcDbDictionaryWithDefault
340
F
  0
DICTIONARY
  5
E9
102
{ACAD_REACTORS
330
C
102
}
330
C
100
AcDbDictionary
281
     1
  0
DICTIONARY
  5
2A
102
{ACAD_REACTORS
330
C
102
}
330
C
100
AcDbDictionary
281
     1
  3
2dWireframe
350
2F
  3
3D Hidden
350
31
  3
3dWireframe
350
30
  3
Basic
350
32
  3
Brighten
350
36
  3
ColorChange
350
3A
  3
Conceptual
350
34
  3
Dim
350
35
  3
Facepattern
350
39
  3
Flat
350
2B
  3
FlatWithEdges
350
2C
  3
Gouraud
350
2D
  3
GouraudWithEdges
350
2E
  3
Linepattern
350
38
  3
Realistic
350
33
  3
Thicken
350
37
  0
LAYOUT
  5
1E
102
{ACAD_REACTORS
330
1A
102
}
330
1A
100
AcDbPlotSettings
  1

  2
none_device
  4

  6

 40
0.0
 41
0.0
 42
0.0
 43
0.0
 44
0.0
 45
0.0
 46
0.0
 47
0.0
 48
0.0
 49
0.0
140
0.0
141
0.0
142
1.0
143
1.0
 70
   688
 72
     0
 73
     0
 74
     5
  7

 75
    16
 76
     0
 77
     2
 78
   300
147
1.0
148
0.0
149
0.0
100
AcDbLayout
  1
Layout1
 70
     1
 71
     1
 10
0.0
 20
0.0
 11
12.0
 21
9.0
 12
0.0
 22
0.0
 32
0.0
 14
1.000000000000000E+20
 24
1.000000000000000E+20
 34
1.000000000000000E+20
 15
-1.000000000000000E+20
 25
-1.000000000000000E+20
 35
-1.000000000000000E+20
146
0.0
 13
0.0
 23
0.0
 33
0.0
 16
1.0
 26
0.0
 36
0.0
 17
0.0
 27
1.0
 37
0.0
 76
     0
330
1B
  0
LAYOUT
  5
26
102
{ACAD_REACTORS
330
1A
102
}
330
1A
100
AcDbPlotSettings
  1

  2
none_device
  4

  6

 40
0.0
 41
0.0
 42
0.0
 43
0.0
 44
0.0
 45
0.0
 46
0.0
 47
0.0
 48
0.0
 49
0.0
140
0.0
141
0.0
142
1.0
143
1.0
 70
   688
 72
     0
 73
     0
 74
     5
  7

 75
    16
 76
     0
 77
     2
 78
   300
147
1.0
148
0.0
149
0.0
100
AcDbLayout
  1
Layout2
 70
     1
 71
     2
 10
0.0
 20
0.0
 11
0.0
 21
0.0
 12
0.0
 22
0.0
 32
0.0
 14
0.0
 24
0.0
 34
0.0
 15
0.0
 25
0.0
 35
0.0
146
0.0
 13
0.0
 23
0.0
 33
0.0
 16
1.0
 26
0.0
 36
0.0
 17
0.0
 27
1.0
 37
0.0
 76
     0
330
23
  0
LAYOUT
  5
22
102
{ACAD_REACTORS
330
1A
102
}
330
1A
100
AcDbPlotSettings
  1

  2
none_device
  4

  6

 40
0.0
 41
0.0
 42
0.0
 43
0.0
 44
0.0
 45
0.0
 46
0.0
 47
0.0
 48
0.0
 49
0.0
140
0.0
141
0.0
142
1.0
143
1.0
 70
  1712
 72
     0
 73
     0
 74
     0
  7

 75
     0
 76
     0
 77
     2
 78
   300
147
1.0
148
0.0
149
0.0
100
AcDbLayout
  1
Model
 70
     1
 71
     0
 10
0.0
 20
0.0
 11
12.0
 21
9.0
 12
0.0
 22
0.0
 32
0.0
 14
1.000000000000000E+20
 24
1.000000000000000E+20
 34
1.000000000000000E+20
 15
-1.000000000000000E+20
 25
-1.000000000000000E+20
 35
-1.000000000000000E+20
146
0.0
 13
0.0
 23
0.0
 33
0.0
 16
1.0
 26
0.0
 36
0.0
 17
0.0
 27
1.0
 37
0.0
 76
     0
330
1F
331
29
  0
MATERIAL
  5
3D
102
{ACAD_REACTORS
330
3B
102
}
330
3B
100
AcDbMaterial
  1
ByBlock
 72
     1
 94
      127
  0
MATERIAL
  5
3C
102
{ACAD_REACTORS
330
3B
102
}
330
3B
100
AcDbMaterial
  1
ByLayer
 72
     1
 94
      127
  0
MATERIAL
  5
3E
102
{ACAD_REACTORS
330
3B
102
}
330
3B
100
AcDbMaterial
  1
Global
 72
     1
 94
      127
  0
MLINESTYLE
  5
18
102
{ACAD_REACTORS
330
17
102
}
330
17
100
AcDbMlineStyle
  2
Standard
 70
     0
  3

 62
   256
 51
90.0
 52
90.0
 71
     2
 49
0.5
 62
   256
  6
BYLAYER
 49
-0.5
 62
   256
  6
BYLAYER
  0
ACDBPLACEHOLDER
  5
F
102
{ACAD_REACTORS
330
E
102
}
330
E
  0
VISUALSTYLE
  5
2F
102
{ACAD_REACTORS
330
2A
102
}
330
2A
100
AcDbVisualStyle
  2
2dWireframe
 70
     4
177
     2
291
     0
 71
     0
176
     1
 72
     2
176
     1
 73
     0
176
     1
 90
        0
176
     1
 40
-0.6
176
     1
 41
-30.0
176
     1
 62
     5
 63
     7
421
 16777215
176
     1
 74
     1
176
     1
 91
        4
176
     1
 64
     7
176
     1
 65
   257
176
     1
 75
     1
176
     1
175
     1
176
     1
 42
1.0
176
     1
 92
        0
176
     1
 66
   257
176
     1
 43
1.0
176
     1
 76
     1
176
     1
 77
     6
176
     1
 78
     2
176
     1
 67
     7
176
     1
 79
     5
176
     1
170
     0
176
     1
171
     0
176
     1
290
     0
176
     1
 93
        1
176
     1
 44
0.0
176
     1
173
     0
176
     1
  0
VISUALSTYLE
  5
31
102
{ACAD_REACTORS
330
2A
102
}
330
2A
100
AcDbVisualStyle
  2
3D Hidden
 70
     6
177
     2
291
     0
 71
     1
176
     1
 72
     2
176
     1
 73
     2
176
     1
 90
        0
176
     1
 40
-0.6
176
     1
 41
-30.0
176
     1
 62
     5
 63
     7
421
 16777215
176
     1
 74
     2
176
     1
 91
        2
176
     1
 64
     7
176
     1
 65
   257
176
     1
 75
     2
176
     1
175
     1
176
     1
 42
40.0
176
     1
 92
        0
176
     1
 66
   257
176
     1
 43
1.0
176
     1
 76
     1
176
     1
 77
     6
176
     1
 78
     2
176
     1
 67
     7
176
     1
 79
     3
176
     1
170
     0
176
     1
171
     0
176
     1
290
     0
176
     1
 93
        1
176
     1
 44
0.0
176
     1
173
     0
176
     1
  0
VISUALSTYLE
  5
30
102
{ACAD_REACTORS
330
2A
102
}
330
2A
100
AcDbVisualStyle
  2
3dWireframe
 70
     5
177
     2
291
     0
 71
     0
176
     1
 72
     2
176
     1
 73
     0
176
     1
 90
        0
176
     1
 40
-0.6
176
     1
 41
-30.0
176
     1
 62
     5
 63
     7
421
 16777215
176
     1
 74
     1
176
     1
 91
        4
176
     1
 64
     7
176
     1
 65
   257
176
     1
 75
     1
176
     1
175
     1
176
     1
 42
1.0
176
     1
 92
        0
176
     1
 66
   257
176
     1
 43
1.0
176
     1
 76
     1
176
     1
 77
     6
176
     1
 78
     2
176
     1
 67
     7
176
     1
 79
     5
176
     1
170
     0
176
     1
171
     0
176
     1
290
     0
176
     1
 93
        1
176
     1
 44
0.0
176
     1
173
     0
176
     1
  0
VISUALSTYLE
  5
32
102
{ACAD_REACTORS
330
2A
102
}
330
2A
100
AcDbVisualStyle
  2
Basic
 70
     7
177
     2
291
     1
 71
     1
176
     1
 72
     0
176
     1
 73
     1
176
     1
 90
        0
176
     1
 40
-0.6
176
     1
 41
-30.0
176
     1
 62
     5
 63
     7
421
 16777215
176
     1
 74
     0
176
     1
 91
        4
176
     1
 64
     7
176
     1
 65
   257
176
     1
 75
     1
176
     1
175
     1
176
     1
 42
1.0
176
     1
 92
        8
176
     1
 66
     7
176
     1
 43
1.0
176
     1
 76
     1
176
     1
 77
     6
176
     1
 78
     2
176
     1
 67
     7
176
     1
 79
     5
176
     1
170
     0
176
     1
171
     0
176
     1
290
     0
176
     1
 93
        1
176
     1
 44
0.0
176
     1
173
     0
176
     1
  0
VISUALSTYLE
  5
36
102
{ACAD_REACTORS
330
2A
102
}
330
2A
100
AcDbVisualStyle
  2
Brighten
 70
    12
177
     2
291
     1
 71
     2
176
     1
 72
     2
176
     1
 73
     0
176
     1
 90
        0
176
     1
 40
-0.6
176
     1
 41
-30.0
176
     1
 62
     5
 63
     7
421
 16777215
176
     1
 74
     1
176
     1
 91
        4
176
     1
 64
     7
176
     1
 65
   257
176
     1
 75
     1
176
     1
175
     1
176
     1
 42
1.0
176
     1
 92
        8
176
     1
 66
     7
176
     1
 43
1.0
176
     1
 76
     1
176
     1
 77
     6
176
     1
 78
     2
176
     1
 67
     7
176
     1
 79
     5
176
     1
170
     0
176
     1
171
     0
176
     1
290
     0
176
     1
 93
        1
176
     1
 44
50.0
176
     1
173
     0
176
     1
  0
VISUALSTYLE
  5
3A
102
{ACAD_REACTORS
330
2A
102
}
330
2A
100
AcDbVisualStyle
  2
ColorChange
 70
    16
177
     2
291
     1
 71
     2
176
     1
 72
     2
176
     1
 73
     3
176
     1
 90
        0
176
     1
 40
-0.6
176
     1
 41
-30.0
176
     1
 62
     5
 63
     8
421
  8421504
176
     1
 74
     1
176
     1
 91
        4
176
     1
 64
     7
176
     1
 65
   257
176
     1
 75
     1
176
     1
175
     1
176
     1
 42
1.0
176
     1
 92
        8
176
     1
 66
     8
424
  8421504
176
     1
 43
1.0
176
     1
 76
     1
176
     1
 77
     6
176
     1
 78
     2
176
     1
 67
     7
176
     1
 79
     5
176
     1
170
     0
176
     1
171
     0
176
     1
290
     0
176
     1
 93
        1
176
     1
 44
0.0
176
     1
173
     0
176
     1
  0
VISUALSTYLE
  5
34
102
{ACAD_REACTORS
330
2A
102
}
330
2A
100
AcDbVisualStyle
  2
Conceptual
 70
     9
177
     2
291
     0
 71
     3
176
     1
 72
     2
176
     1
 73
     0
176
     1
 90
        0
176
     1
 40
-0.6
176
     1
 41
-30.0
176
     1
 62
     5
 63
     7
421
 16777215
176
     1
 74
     2
176
     1
 91
        2
176
     1
 64
     7
176
     1
 65
   257
176
     1
 75
     1
176
     1
175
     1
176
     1
 42
40.0
176
     1
 92
        8
176
     1
 66
     7
176
     1
 43
1.0
176
     1
 76
     1
176
     1
 77
     6
176
     1
 78
     2
176
     1
 67
     7
176
     1
 79
     3
176
     1
170
     0
176
     1
171
     0
176
     1
290
     0
176
     1
 93
        1
176
     1
 44
0.0
176
     1
173
     0
176
     1
  0
VISUALSTYLE
  5
35
102
{ACAD_REACTORS
330
2A
102
}
330
2A
100
AcDbVisualStyle
  2
Dim
 70
    11
177
     2
291
     1
 71
     2
176
     1
 72
     2
176
     1
 73
     0
176
     1
 90
        0
176
     1
 40
-0.6
176
     1
 41
-30.0
176
     1
 62
     5
 63
     7
421
 16777215
176
     1
 74
     1
176
     1
 91
        4
176
     1
 64
     7
176
     1
 65
   257
176
     1
 75
     1
176
     1
175
     1
176
     1
 42
1.0
176
     1
 92
        8
176
     1
 66
     7
176
     1
 43
1.0
176
     1
 76
     1
176
     1
 77
     6
176
     1
 78
     2
176
     1
 67
     7
176
     1
 79
     5
176
     1
170
     0
176
     1
171
     0
176
     1
290
     0
176
     1
 93
        1
176
     1
 44
-50.0
176
     1
173
     0
176
     1
  0
VISUALSTYLE
  5
39
102
{ACAD_REACTORS
330
2A
102
}
330
2A
100
AcDbVisualStyle
  2
Facepattern
 70
    15
177
     2
291
     1
 71
     2
176
     1
 72
     2
176
     1
 73
     0
176
     1
 90
        0
176
     1
 40
-0.6
176
     1
 41
-30.0
176
     1
 62
     5
 63
     7
421
 16777215
176
     1
 74
     1
176
     1
 91
        4
176
     1
 64
     7
176
     1
 65
   257
176
     1
 75
     1
176
     1
175
     1
176
     1
 42
1.0
176
     1
 92
        8
176
     1
 66
     7
176
     1
 43
1.0
176
     1
 76
     1
176
     1
 77
     6
176
     1
 78
     2
176
     1
 67
     7
176
     1
 79
     5
176
     1
170
     0
176
     1
171
     0
176
     1
290
     0
176
     1
 93
        1
176
     1
 44
0.0
176
     1
173
     0
176
     1
  0
VISUALSTYLE
  5
2B
102
{ACAD_REACTORS
330
2A
102
}
330
2A
100
AcDbVisualStyle
  2
Flat
 70
     0
177
     2
291
     1
 71
     2
176
     1
 72
     1
176
     1
 73
     1
176
     1
 90
        2
176
     1
 40
-0.6
176
     1
 41
30.0
176
     1
 62
     5
 63
     7
421
 16777215
176
     1
 74
     0
176
     1
 91
        4
176
     1
 64
     7
176
     1
 65
   257
176
     1
 75
     1
176
     1
175
     1
176
     1
 42
1.0
176
     1
 92
        8
176
     1
 66
     7
176
     1
 43
1.0
176
     1
 76
     1
176
     1
 77
     6
176
     1
 78
     2
176
     1
 67
     7
176
     1
 79
     5
176
     1
170
     0
176
     1
171
     0
176
     1
290
     0
176
     1
 93
       13
176
     1
 44
0.0
176
     1
173
     0
176
     1
  0
VISUALSTYLE
  5
2C
102
{ACAD_REACTORS
330
2A
102
}
330
2A
100
AcDbVisualStyle
  2
FlatWithEdges
 70
     1
177
     2
291
     1
 71
     2
176
     1
 72
     1
176
     1
 73
     1
176
     1
 90
        2
176
     1
 40
-0.6
176
     1
 41
30.0
176
     1
 62
     5
 63
     7
421
 16777215
176
     1
 74
     1
176
     1
 91
        4
176
     1
 64
     7
176
     1
 65
   257
176
     1
 75
     1
176
     1
175
     1
176
     1
 42
1.0
176
     1
 92
        0
176
     1
 66
   257
176
     1
 43
1.0
176
     1
 76
     1
176
     1
 77
     6
176
     1
 78
     2
176
     1
 67
     7
176
     1
 79
     5
176
     1
170
     0
176
     1
171
     0
176
     1
290
     0
176
     1
 93
       13
176
     1
 44
0.0
176
     1
173
     0
176
     1
  0
VISUALSTYLE
  5
2D
102
{ACAD_REACTORS
330
2A
102
}
330
2A
100
AcDbVisualStyle
  2
Gouraud
 70
     2
177
     2
291
     1
 71
     2
176
     1
 72
     2
176
     1
 73
     1
176
     1
 90
        2
176
     1
 40
-0.6
176
     1
 41
30.0
176
     1
 62
     5
 63
     7
421
 16777215
176
     1
 74
     0
176
     1
 91
        4
176
     1
 64
     7
176
     1
 65
   257
176
     1
 75
     1
176
     1
175
     1
176
     1
 42
1.0
176
     1
 92
        0
176
     1
 66
     7
176
     1
 43
1.0
176
     1
 76
     1
176
     1
 77
     6
176
     1
 78
     2
176
     1
 67
     7
176
     1
 79
     5
176
     1
170
     0
176
     1
171
     0
176
     1
290
     0
176
     1
 93
       13
176
     1
 44
0.0
176
     1
173
     0
176
     1
  0
VISUALSTYLE
  5
2E
102
{ACAD_REACTORS
330
2A
102
}
330
2A
100
AcDbVisualStyle
  2
GouraudWithEdges
 70
     3
177
     2
291
     1
 71
     2
176
     1
 72
     2
176
     1
 73
     1
176
     1
 90
        2
176
     1
 40
-0.6
176
     1
 41
30.0
176
     1
 62
     5
 63
     7
421
 16777215
176
     1
 74
     1
176
     1
 91
        4
176
     1
 64
     7
176
     1
 65
   257
176
     1
 75
     1
176
     1
175
     1
176
     1
 42
1.0
176
     1
 92
        0
176
     1
 66
   257
176
     1
 43
1.0
176
     1
 76
     1
176
     1
 77
     6
176
     1
 78
     2
176
     1
 67
     7
176
     1
 79
     5
176
     1
170
     0
176
     1
171
     0
176
     1
290
     0
176
     1
 93
       13
176
     1
 44
0.0
176
     1
173
     0
176
     1
  0
VISUALSTYLE
  5
38
102
{ACAD_REACTORS
330
2A
102
}
330
2A
100
AcDbVisualStyle
  2
Linepattern
 70
    14
177
     2
291
     1
 71
     2
176
     1
 72
     2
176
     1
 73
     0
176
     1
 90
        0
176
     1
 40
-0.6
176
     1
 41
-30.0
176
     1
 62
     5
 63
     7
421
 16777215
176
     1
 74
     1
176
     1
 91
        4
176
     1
 64
     7
176
     1
 65
   257
176
     1
 75
     7
176
     1
175
     7
176
     1
 42
1.0
176
     1
 92
        8
176
     1
 66
     7
176
     1
 43
1.0
176
     1
 76
     1
176
     1
 77
     6
176
     1
 78
     2
176
     1
 67
     7
176
     1
 79
     5
176
     1
170
     0
176
     1
171
     0
176
     1
290
     0
176
     1
 93
        1
176
     1
 44
0.0
176
     1
173
     0
176
     1
  0
VISUALSTYLE
  5
33
102
{ACAD_REACTORS
330
2A
102
}
330
2A
100
AcDbVisualStyle
  2
Realistic
 70
     8
177
     2
291
     0
 71
     2
176
     1
 72
     2
176
     1
 73
     0
176
     1
 90
        0
176
     1
 40
-0.6
176
     1
 41
-30.0
176
     1
 62
     5
 63
     7
421
 16777215
176
     1
 74
     1
176
     1
 91
        0
176
     1
 64
     7
176
     1
 65
   257
176
     1
 75
     1
176
     1
175
     1
176
     1
 42
1.0
176
     1
 92
        8
176
     1
 66
     8
424
  7895160
176
     1
 43
1.0
176
     1
 76
     1
176
     1
 77
     6
176
     1
 78
     2
176
     1
 67
     7
176
     1
 79
     5
176
     1
170
     0
176
     1
171
     0
176
     1
290
     0
176
     1
 93
       13
176
     1
 44
0.0
176
     1
173
     0
176
     1
  0
VISUALSTYLE
  5
37
102
{ACAD_REACTORS
330
2A
102
}
330
2A
100
AcDbVisualStyle
  2
Thicken
 70
    13
177
     2
291
     1
 71
     2
176
     1
 72
     2
176
     1
 73
     0
176
     1
 90
        0
176
     1
 40
-0.6
176
     1
 41
-30.0
176
     1
 62
     5
 63
     7
421
 16777215
176
     1
 74
     1
176
     1
 91
        4
176
     1
 64
     7
176
     1
 65
   257
176
     1
 75
     1
176
     1
175
     1
176
     1
 42
1.0
176
     1
 92
       12
176
     1
 66
     7
176
     1
 43
1.0
176
     1
 76
     1
176
     1
 77
     6
176
     1
 78
     2
176
     1
 67
     7
176
     1
 79
     5
176
     1
170
     0
176
     1
171
     0
176
     1
290
     0
176
     1
 93
        1
176
     1
 44
0.0
176
     1
173
     0
176
     1
  0
ENDSEC
  0
EOF
