  0
SECTION
  2
HEADER
  9
$ACADVER
  1
AC1024
  9
$ACADMAINTVER
 70
     6
  9
$DWGCODEPAGE
  3
UNDEFINED
  9
$INSBASE
 10
0.0
 20
0.0
 30
0.0
  9
$EXTMIN
 10
1.000000000000000E+20
 20
1.000000000000000E+20
 30
1.000000000000000E+20
  9
$EXTMAX
 10
-1.000000000000000E+20
 20
-1.000000000000000E+20
 30
-1.000000000000000E+20
  9
$LIMMIN
 10
0.0
 20
0.0
  9
$LIMMAX
 10
12.0
 20
9.0
  9
$ORTHOMODE
 70
     0
  9
$REGENMODE
 70
     1
  9
$FILLMODE
 70
     1
  9
$QTEXTMODE
 70
     0
  9
$MIRRTEXT
 70
     1
  9
$LTSCALE
 40
1.0
  9
$ATTMODE
 70
     1
  9
$TEXTSIZE
 40
0.2
  9
$TRACEWID
 40
0.05
  9
$TEXTSTYLE
  7
Standard
  9
$CLAYER
  8
0
  9
$CELTYPE
  6
ByLayer
  9
$CECOLOR
 62
   256
  9
$CELTSCALE
 40
1.0
  9
$DISPSILH
 70
     0
  9
$DIMSCALE
 40
1.0
  9
$DIMASZ
 40
0.18
  9
$DIMEXO
 40
0.0625
  9
$DIMDLI
 40
0.38
  9
$DIMRND
 40
0.0
  9
$DIMDLE
 40
0.0
  9
$DIMEXE
 40
0.18
  9
$DIMTP
 40
0.0
  9
$DIMTM
 40
0.0
  9
$DIMTXT
 40
0.18
  9
$DIMCEN
 40
0.09
  9
$DIMTSZ
 40
0.0
  9
$DIMTOL
 70
     0
  9
$DIMLIM
 70
     0
  9
$DIMTIH
 70
     1
  9
$DIMTOH
 70
     1
  9
$DIMSE1
 70
     0
  9
$DIMSE2
 70
     0
  9
$DIMTAD
 70
     0
  9
$DIMZIN
 70
     0
  9
$DIMBLK
  1

  9
$DIMASO
 70
     1
  9
$DIMSHO
 70
     1
  9
$DIMPOST
  1

  9
$DIMAPOST
  1

  9
$DIMALT
 70
     0
  9
$DIMALTD
 70
     2
  9
$DIMALTF
 40
25.4
  9
$DIMLFAC
 40
1.0
  9
$DIMTOFL
 70
     0
  9
$DIMTVP
 40
0.0
  9
$DIMTIX
 70
     0
  9
$DIMSOXD
 70
     0
  9
$DIMSAH
 70
     0
  9
$DIMBLK1
  1

  9
$DIMBLK2
  1

  9
$DIMSTYLE
  2
Standard
  9
$DIMCLRD
 70
     0
  9
$DIMCLRE
 70
     0
  9
$DIMCLRT
 70
     0
  9
$DIMTFAC
 40
1.0
  9
$DIMGAP
 40
0.09
  9
$DIMJUST
 70
     0
  9
$DIMSD1
 70
     0
  9
$DIMSD2
 70
     0
  9
$DIMTOLJ
 70
     1
  9
$DIMTZIN
 70
     0
  9
$DIMALTZ
 70
     0
  9
$DIMALTTZ
 70
     0
  9
$DIMUPT
 70
     0
  9
$DIMDEC
 70
     4
  9
$DIMTDEC
 70
     4
  9
$DIMALTU
 70
     2
  9
$DIMALTTD
 70
     2
  9
$DIMTXSTY
  7
Standard
  9
$DIMAUNIT
 70
     0
  9
$DIMADEC
 70
     0
  9
$DIMALTRND
 40
0.0
  9
$DIMAZIN
 70
     0
  9
$DIMDSEP
 70
    46
  9
$DIMATFIT
 70
     3
  9
$DIMFRAC
 70
     0
  9
$DIMLDRBLK
  1

  9
$DIMLUNIT
 70
     2
  9
$DIMLWD
 70
    -2
  9
$DIMLWE
 70
    -2
  9
$DIMTMOVE
 70
     0
  9
$DIMFXL
 40
1.0
  9
$DIMFXLON
 70
     0
  9
$DIMJOGANG
 40
0.7853981633974483
  9
$DIMTFILL
 70
     0
  9
$DIMTFILLCLR
 70
     0
  9
$DIMARCSYM
 70
     0
  9
$DIMLTYPE
  6

  9
$DIMLTEX1
  6

  9
$DIMLTEX2
  6

  9
$DIMTXTDIRECTION
 70
     0
  9
$LUNITS
 70
     2
  9
$LUPREC
 70
     4
  9
$SKETCHINC
 40
0.1
  9
$FILLETRAD
 40
0.5
  9
$AUNITS
 70
     0
  9
$AUPREC
 70
     0
  9
$MENU
  1
.
  9
$ELEVATION
 40
0.0
  9
$PELEVATION
 40
0.0
  9
$THICKNESS
 40
0.0
  9
$LIMCHECK
 70
     0
  9
$CHAMFERA
 40
0.5
  9
$CHAMFERB
 40
0.5
  9
$CHAMFERC
 40
1.0
  9
$CHAMFERD
 40
0.0
  9
$SKPOLY
 70
     0
  9
$TDCREATE
 40
2457917.586875
  9
$TDUCREATE
 40
2457917.211875
  9
$TDUPDATE
 40
2457917.586875
  9
$TDUUPDATE
 40
2457917.211875
  9
$TDINDWG
 40
0.0000000116
  9
$TDUSRTIMER
 40
0.0000000116
  9
$USRTIMER
 70
     1
  9
$ANGBASE
 50
0.0
  9
$ANGDIR
 70
     0
  9
$PDMODE
 70
     0
  9
$PDSIZE
 40
0.0
  9
$PLINEWID
 40
0.0
  9
$SPLFRAME
 70
     0
  9
$SPLINETYPE
 70
     6
  9
$SPLINESEGS
 70
     8
  9
$HANDSEED
  5
ED
  9
$SURFTAB1
 70
     6
  9
$SURFTAB2
 70
     6
  9
$SURFTYPE
 70
     6
  9
$SURFU
 70
     6
  9
$SURFV
 70
     6
  9
$UCSBASE
  2

  9
$UCSNAME
  2

  9
$UCSORG
 10
0.0
 20
0.0
 30
0.0
  9
$UCSXDIR
 10
1.0
 20
0.0
 30
0.0
  9
$UCSYDIR
 10
0.0
 20
1.0
 30
0.0
  9
$UCSORTHOREF
  2

  9
$UCSORTHOVIEW
 70
     0
  9
$UCSORGTOP
 10
0.0
 20
0.0
 30
0.0
  9
$UCSORGBOTTOM
 10
0.0
 20
0.0
 30
0.0
  9
$UCSORGLEFT
 10
0.0
 20
0.0
 30
0.0
  9
$UCSORGRIGHT
 10
0.0
 20
0.0
 30
0.0
  9
$UCSORGFRONT
 10
0.0
 20
0.0
 30
0.0
  9
$UCSORGBACK
 10
0.0
 20
0.0
 30
0.0
  9
$PUCSBASE
  2

  9
$PUCSNAME
  2

  9
$PUCSORG
 10
0.0
 20
0.0
 30
0.0
  9
$PUCSXDIR
 10
1.0
 20
0.0
 30
0.0
  9
$PUCSYDIR
 10
0.0
 20
1.0
 30
0.0
  9
$PUCSORTHOREF
  2

  9
$PUCSORTHOVIEW
 70
     0
  9
$PUCSORGTOP
 10
0.0
 20
0.0
 30
0.0
  9
$PUCSORGBOTTOM
 10
0.0
 20
0.0
 30
0.0
  9
$PUCSORGLEFT
 10
0.0
 20
0.0
 30
0.0
  9
$PUCSORGRIGHT
 10
0.0
 20
0.0
 30
0.0
  9
$PUCSORGFRONT
 10
0.0
 20
0.0
 30
0.0
  9
$PUCSORGBACK
 10
0.0
 20
0.0
 30
0.0
  9
$USERI1
 70
     0
  9
$USERI2
 70
     0
  9
$USERI3
 70
     0
  9
$USERI4
 70
     0
  9
$USERI5
 70
     0
  9
$USERR1
 40
0.0
  9
$USERR2
 40
0.0
  9
$USERR3
 40
0.0
  9
$USERR4
 40
0.0
  9
$USERR5
 40
0.0
  9
$WORLDVIEW
 70
     1
  9
$SHADEDGE
 70
     3
  9
$SHADEDIF
 70
    70
  9
$TILEMODE
 70
     1
  9
$MAXACTVP
 70
    64
  9
$PINSBASE
 10
0.0
 20
0.0
 30
0.0
  9
$PLIMCHECK
 70
     0
  9
$PEXTMIN
 10
1.000000000000000E+20
 20
1.000000000000000E+20
 30
1.000000000000000E+20
  9
$PEXTMAX
 10
-1.000000000000000E+20
 20
-1.000000000000000E+20
 30
-1.000000000000000E+20
  9
$PLIMMIN
 10
0.0
 20
0.0
  9
$PLIMMAX
 10
12.0
 20
9.0
  9
$UNITMODE
 70
     0
  9
$VISRETAIN
 70
     1
  9
$PLINEGEN
 70
     0
  9
$PSLTSCALE
 70
     1
  9
$TREEDEPTH
 70
  3020
  9
$CMLSTYLE
  2
Standard
  9
$CMLJUST
 70
     0
  9
$CMLSCALE
 40
1.0
  9
$PROXYGRAPHICS
 70
     1
  9
$MEASUREMENT
 70
     0
  9
$CELWEIGHT
370
    -1
  9
$ENDCAPS
280
     0
  9
$JOINSTYLE
280
     0
  9
$LWDISPLAY
290
     1
  9
$INSUNITS
 70
     1
  9
$HYPERLINKBASE
  1

  9
$STYLESHEET
  1

  9
$XEDIT
290
     1
  9
$CEPSNTYPE
380
     0
  9
$PSTYLEMODE
290
     1
  9
$FINGERPRINTGUID
  2
{09327FFD-1A8A-60EF-2881-02ED5CE55D29}
  9
$VERSIONGUID
  2
{FAEB1C32-E019-11D5-929B-00C0DF256EC4}
  9
$EXTNAMES
290
     1
  9
$PSVPSCALE
 40
0.0
  9
$OLESTARTUP
290
     0
  9
$SORTENTS
280
   127
  9
$INDEXCTL
280
     0
  9
$HIDETEXT
280
     1
  9
$XCLIPFRAME
280
     2
  9
$HALOGAP
280
     0
  9
$OBSCOLOR
 70
   257
  9
$OBSLTYPE
280
     0
  9
$INTERSECTIONDISPLAY
280
     0
  9
$INTERSECTIONCOLOR
 70
   257
  9
$DIMASSOC
280
     2
  9
$PROJECTNAME
  1

  9
$CAMERADISPLAY
290
     0
  9
$LENSLENGTH
 40
50.0
  9
$CAMERAHEIGHT
 40
0.0
  9
$STEPSPERSEC
 40
2.0
  9
$STEPSIZE
 40
6.0
  9
$3DDWFPREC
 40
2.0
  9
$PSOLWIDTH
 40
0.25
  9
$PSOLHEIGHT
 40
4.0
  9
$LOFTANG1
 40
1.570796326794897
  9
$LOFTANG2
 40
1.570796326794897
  9
$LOFTMAG1
 40
0.0
  9
$LOFTMAG2
 40
0.0
  9
$LOFTPARAM
 70
     7
  9
$LOFTNORMALS
280
     1
  9
$LATITUDE
 40
37.795
  9
$LONGITUDE
 40
-122.394
  9
$NORTHDIRECTION
 40
0.0
  9
$TIMEZONE
 70
 -8000
  9
$LIGHTGLYPHDISPLAY
280
     1
  9
$TILEMODELIGHTSYNCH
280
     1
  9
$CMATERIAL
347
3C
  9
$SOLIDHIST
280
     1
  9
$SHOWHIST
280
     1
  9
$DWFFRAME
280
     2
  9
$DGNFRAME
280
     2
  9
$REALWORLDSCALE
290
     1
  9
$INTERFERECOLOR
 62
   256
  9
$CSHADOW
280
     0
  9
$SHADOWPLANELOCATION
 40
0.0
  0
ENDSEC
  0
SECTION
  2
CLASSES
  0
CLASS
  1
ACDBDICTIONARYWDFLT
  2
AcDbDictionaryWithDefault
  3
ObjectDBX Classes
 90
        0
 91
        4
280
     0
281
     0
  0
CLASS
  1
VISUALSTYLE
  2
AcDbVisualStyle
  3
ObjectDBX Classes
 90
     4095
 91
        4
280
     0
281
     0
  0
CLASS
  1
MATERIAL
  2
AcDbMaterial
  3
ObjectDBX Classes
 90
     1153
 91
        4
280
     0
281
     0
  0
CLASS
  1
SUN
  2
AcDbSun
  3
SCENEOE
 90
     1024
 91
        4
280
     0
281
     0
  0
ENDSEC
  0
SECTION
  2
TABLES
  0
TABLE
  2
VPORT
  5
8
330
0
100
AcDbSymbolTable
 70
     1
  0
VPORT
  5
29
330
8
100
AcDbSymbolTableRecord
100
AcDbViewportTableRecord
  2
*Active
 70
     0
 10
0.0
 20
0.0
 11
1.0
 21
1.0
 12
0.0
 22
0.0
 13
0.0
 23
0.0
 14
0.5
 24
0.5
 15
0.5
 25
0.5
 16
0.0
 26
0.0
 36
1.0
 17
63.499999984125
 27
-89.00059456108309
 37
0.0
 40
178.0011891221662
 41
0.7134783795241226
 42
50.0
 43
0.0
 44
0.0
 50
0.0
 51
0.0
 71
     0
 72
   100
 73
     1
 74
     3
 75
     0
 76
     0
 77
     0
 78
     0
281
     0
 65
     1
110
0.0
120
0.0
130
0.0
111
1.0
121
0.0
131
0.0
112
0.0
122
1.0
132
0.0
 79
     0
146
0.0
 60
     3
 61
     5
292
     1
282
     1
141
0.0
142
0.0
 63
   250
361
3F
  0
ENDTAB
  0
TABLE
  2
LTYPE
  5
5
330
0
100
AcDbSymbolTable
 70
     1
  0
LTYPE
  5
14
330
5
100
AcDbSymbolTableRecord
100
AcDbLinetypeTableRecord
  2
ByBlock
 70
     0
  3

 72
    65
 73
     0
 40
0.0
  0
LTYPE
  5
15
330
5
100
AcDbSymbolTableRecord
100
AcDbLinetypeTableRecord
  2
ByLayer
 70
     0
  3

 72
    65
 73
     0
 40
0.0
  0
LTYPE
  5
16
330
5
100
AcDbSymbolTableRecord
100
AcDbLinetypeTableRecord
  2
Continuous
 70
     0
  3
Solid line
 72
    65
 73
     0
 40
0.0
  0
ENDTAB
  0
TABLE
  2
LAYER
  5
2
330
0
100
AcDbSymbolTable
 70
     2
  0
LAYER
  5
10
330
2
100
AcDbSymbolTableRecord
100
AcDbLayerTableRecord
  2
0
 70
     0
 62
     7
  6
Continuous
370
    -3
390
F
347
3E
  0
LAYER
  5
40
330
2
100
AcDbSymbolTableRecord
100
AcDbLayerTableRecord
  2
_U+30EC_U+30A4_U+30E4_U+30FC 1
 70
     0
 62
     7
  6
Continuous
370
    -3
390
F
347
3E
  0
ENDTAB
  0
TABLE
  2
STYLE
  5
3
330
0
100
AcDbSymbolTable
 70
     1
  0
STYLE
  5
11
330
3
100
AcDbSymbolTableRecord
100
AcDbTextStyleTableRecord
  2
Standard
 70
     0
 40
0.0
 41
1.0
 50
0.0
 71
     0
 42
0.2
  3
txt
  4

  0
ENDTAB
  0
TABLE
  2
VIEW
  5
6
330
0
100
AcDbSymbolTable
 70
     0
  0
ENDTAB
  0
TABLE
  2
UCS
  5
7
330
0
100
AcDbSymbolTable
 70
     0
  0
ENDTAB
  0
TABLE
  2
APPID
  5
9
330
0
100
AcDbSymbolTable
 70
     1
  0
APPID
  5
12
330
9
100
AcDbSymbolTableRecord
100
AcDbRegAppTableRecord
  2
ACAD
 70
     0
  0
ENDTAB
  0
TABLE
  2
DIMSTYLE
  5
A
330
0
100
AcDbSymbolTable
 70
     1
100
AcDbDimStyleTable
  0
DIMSTYLE
105
27
330
A
100
AcDbSymbolTableRecord
100
AcDbDimStyleTableRecord
  2
Standard
 70
     0
178
     0
340
11
  0
ENDTAB
  0
TABLE
  2
BLOCK_RECORD
  5
1
330
0
100
AcDbSymbolTable
 70
     6
  0
BLOCK_RECORD
  5
1F
330
1
100
AcDbSymbolTableRecord
100
AcDbBlockTableRecord
  2
*Model_Space
340
22
 70
     0
280
     1
281
     0
  0
BLOCK_RECORD
  5
1B
330
1
100
AcDbSymbolTableRecord
100
AcDbBlockTableRecord
  2
*Paper_Space
340
1E
 70
     0
280
     1
281
     0
  0
BLOCK_RECORD
  5
23
330
1
100
AcDbSymbolTableRecord
100
AcDbBlockTableRecord
  2
*Paper_Space0
340
26
 70
     0
280
     1
281
     0
  0
BLOCK_RECORD
  5
81
330
1
100
AcDbSymbolTableRecord
100
AcDbBlockTableRecord
  2
block 2
340
0
102
{BLKREFS
331
82
102
}
 70
     0
280
     1
281
     0
  0
BLOCK_RECORD
  5
93
330
1
100
AcDbSymbolTableRecord
100
AcDbBlockTableRecord
  2
block 3
340
0
102
{BLKREFS
331
94
102
}
 70
     0
280
     1
281
     0
  0
BLOCK_RECORD
  5
A8
330
1
100
AcDbSymbolTableRecord
100
AcDbBlockTableRecord
  2
block 4
340
0
102
{BLKREFS
331
A9
102
}
 70
     0
280
     1
281
     0
  0
BLOCK_RECORD
  5
B8
330
1
100
AcDbSymbolTableRecord
100
AcDbBlockTableRecord
  2
block 5
340
0
102
{BLKREFS
331
B9
102
}
 70
     0
280
     1
281
     0
  0
BLOCK_RECORD
  5
D9
330
1
100
AcDbSymbolTableRecord
100
AcDbBlockTableRecord
  2
block 6
340
0
102
{BLKREFS
331
DA
102
}
 70
     0
280
     1
281
     0
  0
ENDTAB
  0
ENDSEC
  0
SECTION
  2
BLOCKS
  0
BLOCK
  5
20
330
1F
100
AcDbEntity
  8
0
100
AcDbBlockBegin
  2
*Model_Space
 70
     0
 10
0.0
 20
0.0
 30
0.0
  3
*Model_Space
  1

  0
ENDBLK
  5
21
330
1F
100
AcDbEntity
  8
0
100
AcDbBlockEnd
  0
BLOCK
  5
1C
330
1B
100
AcDbEntity
 67
     1
  8
0
100
AcDbBlockBegin
  2
*Paper_Space
 70
     0
 10
0.0
 20
0.0
 30
0.0
  3
*Paper_Space
  1

  0
ENDBLK
  5
1D
330
1B
100
AcDbEntity
 67
     1
  8
0
100
AcDbBlockEnd
  0
BLOCK
  5
24
330
23
100
AcDbEntity
  8
0
100
AcDbBlockBegin
  2
*Paper_Space0
 70
     0
 10
0.0
 20
0.0
 30
0.0
  3
*Paper_Space0
  1

  0
ENDBLK
  5
25
330
23
100
AcDbEntity
  8
0
100
AcDbBlockEnd
  0
BLOCK
  5
83
330
81
100
AcDbEntity
  8
0
100
AcDbBlockBegin
  2
block 2
 70
     0
 10
0.0
 20
0.0
 30
0.0
  3
block 2
  1

  0
SPLINE
  5
85
330
81
100
AcDbEntity
  8
_U+30EC_U+30A4_U+30E4_U+30FC 1
370
     0
100
AcDbSpline
210
0.0
220
0.0
230
1.0
 70
    11
 71
     3
 72
    26
 73
    22
 74
     0
 42
0.0000000001
 43
0.0000000001
 12
1.0
 22
0.0
 32
0.0
 13
1.0
 23
0.0
 33
0.0
 40
0.0
 40
0.0
 40
0.0
 40
0.0
 40
1.0
 40
1.0
 40
1.0
 40
2.0
 40
2.0
 40
2.0
 40
3.0
 40
3.0
 40
3.0
 40
4.0
 40
4.0
 40
4.0
 40
5.0
 40
5.0
 40
5.0
 40
6.0
 40
6.0
 40
6.0
 40
7.0
 40
7.0
 40
7.0
 40
7.0
 10
79.4390787561819
 20
-79.47852509948801
 30
0.0
 10
79.4390787561819
 20
-79.47852509948801
 30
0.0
 10
78.33492565315933
 20
-79.47852509948801
 30
0.0
 10
78.33492565315933
 20
-79.47852509948801
 30
0.0
 10
78.33492565315933
 20
-79.47852509948801
 30
0.0
 10
78.33492565315933
 20
-79.76395126044096
 30
0.0
 10
78.33492565315933
 20
-79.76395126044096
 30
0.0
 10
78.33492565315933
 20
-79.76395126044096
 30
0.0
 10
78.18678654729358
 20
-79.76395126044096
 30
0.0
 10
78.18678654729358
 20
-79.76395126044096
 30
0.0
 10
78.17197263670701
 20
-79.47663029697112
 30
0.0
 10
78.00901962025469
 20
-79.4363226797937
 30
0.0
 10
77.8946424501444
 20
-79.41082897320285
 30
0.0
 10
77.8946424501444
 20
-79.41082897320285
 30
0.0
 10
77.8946424501444
 20
-79.28439396889418
 30
0.0
 10
77.8946424501444
 20
-79.28439396889418
 30
0.0
 10
77.8946424501444
 20
-79.28439396889418
 30
0.0
 10
79.4390787561819
 20
-79.28439396889418
 30
0.0
 10
79.4390787561819
 20
-79.28439396889418
 30
0.0
 10
79.4390787561819
 20
-79.28439396889418
 30
0.0
 10
79.4390787561819
 20
-79.47852509948801
 30
0.0
 10
79.4390787561819
 20
-79.47852509948801
 30
0.0
  0
HATCH
  5
86
330
81
100
AcDbEntity
  8
_U+30EC_U+30A4_U+30E4_U+30FC 1
 62
   179
420
  2234388
100
AcDbHatch
 10
0.0
 20
0.0
 30
0.0
210
0.0
220
0.0
230
1.0
  2
SOLID
 70
     1
 71
     0
 91
        1
 92
        1
 93
        1
 72
     4
 94
        3
 73
     0
 74
     1
 95
       26
 96
       22
 40
0.0
 40
0.0
 40
0.0
 40
0.0
 40
1.0
 40
1.0
 40
1.0
 40
2.0
 40
2.0
 40
2.0
 40
3.0
 40
3.0
 40
3.0
 40
4.0
 40
4.0
 40
4.0
 40
5.0
 40
5.0
 40
5.0
 40
6.0
 40
6.0
 40
6.0
 40
7.0
 40
7.0
 40
7.0
 40
7.0
 10
79.4390787561819
 20
-79.47852509948801
 10
79.4390787561819
 20
-79.47852509948801
 10
78.33492565315933
 20
-79.47852509948801
 10
78.33492565315933
 20
-79.47852509948801
 10
78.33492565315933
 20
-79.47852509948801
 10
78.33492565315933
 20
-79.76395126044096
 10
78.33492565315933
 20
-79.76395126044096
 10
78.33492565315933
 20
-79.76395126044096
 10
78.18678654729358
 20
-79.76395126044096
 10
78.18678654729358
 20
-79.76395126044096
 10
78.17197263670701
 20
-79.47663029697112
 10
78.00901962025469
 20
-79.4363226797937
 10
77.8946424501444
 20
-79.41082897320285
 10
77.8946424501444
 20
-79.41082897320285
 10
77.8946424501444
 20
-79.28439396889418
 10
77.8946424501444
 20
-79.28439396889418
 10
77.8946424501444
 20
-79.28439396889418
 10
79.4390787561819
 20
-79.28439396889418
 10
79.4390787561819
 20
-79.28439396889418
 10
79.4390787561819
 20
-79.28439396889418
 10
79.4390787561819
 20
-79.47852509948801
 10
79.4390787561819
 20
-79.47852509948801
 97
        0
 97
        0
 75
     2
 76
     1
 98
        0
  0
ENDBLK
  5
84
330
81
100
AcDbEntity
  8
0
100
AcDbBlockEnd
  0
BLOCK
  5
95
330
93
100
AcDbEntity
  8
0
100
AcDbBlockBegin
  2
block 3
 70
     0
 10
0.0
 20
0.0
 30
0.0
  3
block 3
  1

  0
SPLINE
  5
97
330
93
100
AcDbEntity
  8
_U+30EC_U+30A4_U+30E4_U+30FC 1
370
     0
100
AcDbSpline
210
0.0
220
0.0
230
1.0
 70
    11
 71
     3
 72
    62
 73
    58
 74
     0
 42
0.0000000001
 43
0.0000000001
 12
1.0
 22
0.0
 32
0.0
 13
1.0
 23
0.0
 33
0.0
 40
0.0
 40
0.0
 40
0.0
 40
0.0
 40
1.0
 40
1.0
 40
1.0
 40
2.0
 40
2.0
 40
2.0
 40
3.0
 40
3.0
 40
3.0
 40
4.0
 40
4.0
 40
4.0
 40
5.0
 40
5.0
 40
5.0
 40
6.0
 40
6.0
 40
6.0
 40
7.0
 40
7.0
 40
7.0
 40
8.0
 40
8.0
 40
8.0
 40
9.0
 40
9.0
 40
9.0
 40
10.0
 40
10.0
 40
10.0
 40
11.0
 40
11.0
 40
11.0
 40
12.0
 40
12.0
 40
12.0
 40
13.0
 40
13.0
 40
13.0
 40
14.0
 40
14.0
 40
14.0
 40
15.0
 40
15.0
 40
15.0
 40
16.0
 40
16.0
 40
16.0
 40
17.0
 40
17.0
 40
17.0
 40
18.0
 40
18.0
 40
18.0
 40
19.0
 40
19.0
 40
19.0
 40
19.0
 10
60.2843478581928
 20
-77.8133381966925
 30
0.0
 10
60.20201007609533
 20
-77.8133381966925
 30
0.0
 10
60.01321884350364
 20
-77.79215085945822
 30
0.0
 10
59.90538735481532
 20
-77.60594344848046
 30
0.0
 10
59.84130857878968
 20
-77.49380559043558
 30
0.0
 10
59.8375189737559
 20
-77.39441458568612
 30
0.0
 10
59.83407387827065
 20
-77.30983749152324
 30
0.0
 10
59.83407387827065
 20
-77.30983749152324
 30
0.0
 10
60.02424314905644
 20
-77.30983749152324
 30
0.0
 10
60.02424314905644
 20
-77.30983749152324
 30
0.0
 10
60.02631020634759
 20
-77.38390704445611
 30
0.0
 10
60.03526745460924
 20
-77.61869030177589
 30
0.0
 10
60.28055825315903
 20
-77.61869030177589
 30
0.0
 10
60.39941404740015
 20
-77.61869030177589
 30
0.0
 10
60.53136120448521
 20
-77.54892711819957
 30
0.0
 10
60.53136120448521
 20
-77.32034503275325
 30
0.0
 10
60.53136120448521
 20
-77.20407306012606
 30
0.0
 10
60.49828828782682
 20
-77.15532495900979
 30
0.0
 10
60.47072752394482
 20
-77.12363008054548
 30
0.0
 10
60.4069932574677
 20
-77.04956052761261
 30
0.0
 10
60.30605195974988
 20
-77.03698592909146
 30
0.0
 10
60.25850964205343
 20
-77.03698592909146
 30
0.0
 10
60.24197318372423
 20
-77.03698592909146
 30
0.0
 10
60.21096732435699
 20
-77.0390529863826
 30
0.0
 10
60.18719616550876
 20
-77.0431871009649
 30
0.0
 10
60.18719616550876
 20
-77.0431871009649
 30
0.0
 10
60.18719616550876
 20
-76.84871146082254
 30
0.0
 10
60.18719616550876
 20
-76.84871146082254
 30
0.0
 10
60.22026908216716
 20
-76.854912632696
 30
0.0
 10
60.25678709431081
 20
-76.85715194476141
 30
0.0
 10
60.26229924708721
 20
-76.85715194476141
 30
0.0
 10
60.31914332259383
 20
-76.85715194476141
 30
0.0
 10
60.4910535873078
 20
-76.83596460752712
 30
0.0
 10
60.4910535873078
 20
-76.59894203814193
 30
0.0
 10
60.4910535873078
 20
-76.42134736587731
 30
0.0
 10
60.37770994584307
 20
-76.36622583811331
 30
0.0
 10
60.28228080090165
 20
-76.36622583811331
 30
0.0
 10
60.05352646068106
 20
-76.36622583811331
 30
0.0
 10
60.04629176016204
 20
-76.59894203814193
 30
0.0
 10
60.04250215512827
 20
-76.67094453378365
 30
0.0
 10
60.04250215512827
 20
-76.67094453378365
 30
0.0
 10
59.86680228538052
 20
-76.67094453378365
 30
0.0
 10
59.86680228538052
 20
-76.67094453378365
 30
0.0
 10
59.87438149544808
 20
-76.54605982244335
 30
0.0
 10
59.8981526542963
 20
-76.16951088590554
 30
0.0
 10
60.29330510645445
 20
-76.16951088590554
 30
0.0
 10
60.48726398227402
 20
-76.16951088590554
 30
0.0
 10
60.69603676868016
 20
-76.296462654537
 30
0.0
 10
60.69603676868016
 20
-76.59256861149423
 30
0.0
 10
60.69603676868016
 20
-76.77877602247197
 30
0.0
 10
60.61369898658269
 20
-76.86128605934371
 30
0.0
 10
60.52757159945144
 20
-76.92260875898116
 30
0.0
 10
60.58062606992429
 20
-76.95016952286315
 30
0.0
 10
60.73806693360021
 20
-77.03061250244374
 30
0.0
 10
60.73806693360021
 20
-77.30777043423208
 30
0.0
 10
60.73806693360021
 20
-77.64625106565788
 30
0.0
 10
60.52412650396619
 20
-77.8133381966925
 30
0.0
 10
60.2843478581928
 20
-77.8133381966925
 30
0.0
  0
HATCH
  5
98
330
93
100
AcDbEntity
  8
_U+30EC_U+30A4_U+30E4_U+30FC 1
 62
   179
420
  2234388
100
AcDbHatch
 10
0.0
 20
0.0
 30
0.0
210
0.0
220
0.0
230
1.0
  2
SOLID
 70
     1
 71
     0
 91
        1
 92
        1
 93
        1
 72
     4
 94
        3
 73
     0
 74
     1
 95
       62
 96
       58
 40
0.0
 40
0.0
 40
0.0
 40
0.0
 40
1.0
 40
1.0
 40
1.0
 40
2.0
 40
2.0
 40
2.0
 40
3.0
 40
3.0
 40
3.0
 40
4.0
 40
4.0
 40
4.0
 40
5.0
 40
5.0
 40
5.0
 40
6.0
 40
6.0
 40
6.0
 40
7.0
 40
7.0
 40
7.0
 40
8.0
 40
8.0
 40
8.0
 40
9.0
 40
9.0
 40
9.0
 40
10.0
 40
10.0
 40
10.0
 40
11.0
 40
11.0
 40
11.0
 40
12.0
 40
12.0
 40
12.0
 40
13.0
 40
13.0
 40
13.0
 40
14.0
 40
14.0
 40
14.0
 40
15.0
 40
15.0
 40
15.0
 40
16.0
 40
16.0
 40
16.0
 40
17.0
 40
17.0
 40
17.0
 40
18.0
 40
18.0
 40
18.0
 40
19.0
 40
19.0
 40
19.0
 40
19.0
 10
60.2843478581928
 20
-77.8133381966925
 10
60.20201007609533
 20
-77.8133381966925
 10
60.01321884350364
 20
-77.79215085945822
 10
59.90538735481532
 20
-77.60594344848046
 10
59.84130857878968
 20
-77.49380559043558
 10
59.8375189737559
 20
-77.39441458568612
 10
59.83407387827065
 20
-77.30983749152324
 10
59.83407387827065
 20
-77.30983749152324
 10
60.02424314905644
 20
-77.30983749152324
 10
60.02424314905644
 20
-77.30983749152324
 10
60.02631020634759
 20
-77.38390704445611
 10
60.03526745460924
 20
-77.61869030177589
 10
60.28055825315903
 20
-77.61869030177589
 10
60.39941404740015
 20
-77.61869030177589
 10
60.53136120448521
 20
-77.54892711819957
 10
60.53136120448521
 20
-77.32034503275325
 10
60.53136120448521
 20
-77.20407306012606
 10
60.49828828782682
 20
-77.15532495900979
 10
60.47072752394482
 20
-77.12363008054548
 10
60.4069932574677
 20
-77.04956052761261
 10
60.30605195974988
 20
-77.03698592909146
 10
60.25850964205343
 20
-77.03698592909146
 10
60.24197318372423
 20
-77.03698592909146
 10
60.21096732435699
 20
-77.0390529863826
 10
60.18719616550876
 20
-77.0431871009649
 10
60.18719616550876
 20
-77.0431871009649
 10
60.18719616550876
 20
-76.84871146082254
 10
60.18719616550876
 20
-76.84871146082254
 10
60.22026908216716
 20
-76.854912632696
 10
60.25678709431081
 20
-76.85715194476141
 10
60.26229924708721
 20
-76.85715194476141
 10
60.31914332259383
 20
-76.85715194476141
 10
60.4910535873078
 20
-76.83596460752712
 10
60.4910535873078
 20
-76.59894203814193
 10
60.4910535873078
 20
-76.42134736587731
 10
60.37770994584307
 20
-76.36622583811331
 10
60.28228080090165
 20
-76.36622583811331
 10
60.05352646068106
 20
-76.36622583811331
 10
60.04629176016204
 20
-76.59894203814193
 10
60.04250215512827
 20
-76.67094453378365
 10
60.04250215512827
 20
-76.67094453378365
 10
59.86680228538052
 20
-76.67094453378365
 10
59.86680228538052
 20
-76.67094453378365
 10
59.87438149544808
 20
-76.54605982244335
 10
59.8981526542963
 20
-76.16951088590554
 10
60.29330510645445
 20
-76.16951088590554
 10
60.48726398227402
 20
-76.16951088590554
 10
60.69603676868016
 20
-76.296462654537
 10
60.69603676868016
 20
-76.59256861149423
 10
60.69603676868016
 20
-76.77877602247197
 10
60.61369898658269
 20
-76.86128605934371
 10
60.52757159945144
 20
-76.92260875898116
 10
60.58062606992429
 20
-76.95016952286315
 10
60.73806693360021
 20
-77.03061250244374
 10
60.73806693360021
 20
-77.30777043423208
 10
60.73806693360021
 20
-77.64625106565788
 10
60.52412650396619
 20
-77.8133381966925
 10
60.2843478581928
 20
-77.8133381966925
 97
        0
 97
        0
 75
     2
 76
     1
 98
        0
  0
SPLINE
  5
99
330
93
100
AcDbEntity
  8
_U+30EC_U+30A4_U+30E4_U+30FC 1
370
     0
100
AcDbSpline
210
0.0
220
0.0
230
1.0
 70
    11
 71
     3
 72
    29
 73
    25
 74
     0
 42
0.0000000001
 43
0.0000000001
 12
1.0
 22
0.0
 32
0.0
 13
1.0
 23
0.0
 33
0.0
 40
0.0
 40
0.0
 40
0.0
 40
0.0
 40
1.0
 40
1.0
 40
1.0
 40
2.0
 40
2.0
 40
2.0
 40
3.0
 40
3.0
 40
3.0
 40
4.0
 40
4.0
 40
4.0
 40
5.0
 40
5.0
 40
5.0
 40
6.0
 40
6.0
 40
6.0
 40
7.0
 40
7.0
 40
7.0
 40
8.0
 40
8.0
 40
8.0
 40
8.0
 10
61.65308429448257
 20
-77.58475611124618
 30
0.0
 10
61.5597222068323
 20
-77.79421791674936
 30
0.0
 10
61.4095160436754
 20
-77.8133381966925
 30
0.0
 10
61.3089192555061
 20
-77.8133381966925
 30
0.0
 10
61.16973739790201
 20
-77.8133381966925
 30
0.0
 10
61.04709199862712
 20
-77.76682940764162
 30
0.0
 10
60.96475421652965
 20
-77.58475611124618
 30
0.0
 10
60.87518173391315
 20
-77.39028047110382
 30
0.0
 10
60.85864527558395
 20
-77.15325790171863
 30
0.0
 10
60.85864527558395
 20
-76.99030488526631
 30
0.0
 10
60.85864527558395
 20
-76.84647214875713
 30
0.0
 10
60.873114676622
 20
-76.59480792355963
 30
0.0
 10
60.96475421652965
 20
-76.39585365928646
 30
0.0
 10
61.05811630417992
 20
-76.19276528043098
 30
0.0
 10
61.19729816178401
 20
-76.16951088590554
 30
0.0
 10
61.3089192555061
 20
-76.16951088590554
 30
0.0
 10
61.44603405581905
 20
-76.16951088590554
 30
0.0
 10
61.57074651238509
 20
-76.21395261766527
 30
0.0
 10
61.65308429448257
 20
-76.39585365928646
 30
0.0
 10
61.73886717206528
 20
-76.58843449691193
 30
0.0
 10
61.75919323542826
 20
-76.816844327584
 30
0.0
 10
61.75919323542826
 20
-76.99030488526631
 30
0.0
 10
61.75919323542826
 20
-77.1616983856575
 30
0.0
 10
61.74093422935643
 20
-77.39234752839498
 30
0.0
 10
61.65308429448257
 20
-77.58475611124618
 30
0.0
  0
SPLINE
  5
9A
330
93
100
AcDbEntity
  8
_U+30EC_U+30A4_U+30E4_U+30FC 1
370
     0
100
AcDbSpline
210
0.0
220
0.0
230
1.0
 70
    11
 71
     3
 72
    17
 73
    13
 74
     0
 42
0.0000000001
 43
0.0000000001
 12
1.0
 22
0.0
 32
0.0
 13
1.0
 23
0.0
 33
0.0
 40
0.0
 40
0.0
 40
0.0
 40
0.0
 40
1.0
 40
1.0
 40
1.0
 40
2.0
 40
2.0
 40
2.0
 40
3.0
 40
3.0
 40
3.0
 40
4.0
 40
4.0
 40
4.0
 40
4.0
 10
61.3089192555061
 20
-76.36209172353101
 30
0.0
 10
61.09291176858094
 20
-76.36209172353101
 30
0.0
 10
61.05260415140352
 20
-76.6454508271928
 30
0.0
 10
61.05260415140352
 20
-76.99030488526631
 30
0.0
 10
61.05260415140352
 20
-77.30983749152324
 30
0.0
 10
61.08361001077077
 20
-77.61869030177589
 30
0.0
 10
61.3089192555061
 20
-77.61869030177589
 30
0.0
 10
61.52285968514012
 20
-77.61869030177589
 30
0.0
 10
61.5652343596087
 20
-77.33722600063098
 30
0.0
 10
61.5652343596087
 20
-76.99030488526631
 30
0.0
 10
61.5652343596087
 20
-76.67094453378365
 30
0.0
 10
61.5321614429503
 20
-76.36209172353101
 30
0.0
 10
61.3089192555061
 20
-76.36209172353101
 30
0.0
  0
HATCH
  5
9B
330
93
100
AcDbEntity
  8
_U+30EC_U+30A4_U+30E4_U+30FC 1
 62
   179
420
  2234388
100
AcDbHatch
 10
0.0
 20
0.0
 30
0.0
210
0.0
220
0.0
230
1.0
  2
SOLID
 70
     1
 71
     0
 91
        2
 92
        1
 93
        1
 72
     4
 94
        3
 73
     0
 74
     1
 95
       29
 96
       25
 40
0.0
 40
0.0
 40
0.0
 40
0.0
 40
1.0
 40
1.0
 40
1.0
 40
2.0
 40
2.0
 40
2.0
 40
3.0
 40
3.0
 40
3.0
 40
4.0
 40
4.0
 40
4.0
 40
5.0
 40
5.0
 40
5.0
 40
6.0
 40
6.0
 40
6.0
 40
7.0
 40
7.0
 40
7.0
 40
8.0
 40
8.0
 40
8.0
 40
8.0
 10
61.65308429448257
 20
-77.58475611124618
 10
61.5597222068323
 20
-77.79421791674936
 10
61.4095160436754
 20
-77.8133381966925
 10
61.3089192555061
 20
-77.8133381966925
 10
61.16973739790201
 20
-77.8133381966925
 10
61.04709199862712
 20
-77.76682940764162
 10
60.96475421652965
 20
-77.58475611124618
 10
60.87518173391315
 20
-77.39028047110382
 10
60.85864527558395
 20
-77.15325790171863
 10
60.85864527558395
 20
-76.99030488526631
 10
60.85864527558395
 20
-76.84647214875713
 10
60.873114676622
 20
-76.59480792355963
 10
60.96475421652965
 20
-76.39585365928646
 10
61.05811630417992
 20
-76.19276528043098
 10
61.19729816178401
 20
-76.16951088590554
 10
61.3089192555061
 20
-76.16951088590554
 10
61.44603405581905
 20
-76.16951088590554
 10
61.57074651238509
 20
-76.21395261766527
 10
61.65308429448257
 20
-76.39585365928646
 10
61.73886717206528
 20
-76.58843449691193
 10
61.75919323542826
 20
-76.816844327584
 10
61.75919323542826
 20
-76.99030488526631
 10
61.75919323542826
 20
-77.1616983856575
 10
61.74093422935643
 20
-77.39234752839498
 10
61.65308429448257
 20
-77.58475611124618
 97
        0
 97
        0
 92
        1
 93
        1
 72
     4
 94
        3
 73
     0
 74
     1
 95
       17
 96
       13
 40
0.0
 40
0.0
 40
0.0
 40
0.0
 40
1.0
 40
1.0
 40
1.0
 40
2.0
 40
2.0
 40
2.0
 40
3.0
 40
3.0
 40
3.0
 40
4.0
 40
4.0
 40
4.0
 40
4.0
 10
61.3089192555061
 20
-76.36209172353101
 10
61.09291176858094
 20
-76.36209172353101
 10
61.05260415140352
 20
-76.6454508271928
 10
61.05260415140352
 20
-76.99030488526631
 10
61.05260415140352
 20
-77.30983749152324
 10
61.08361001077077
 20
-77.61869030177589
 10
61.3089192555061
 20
-77.61869030177589
 10
61.52285968514012
 20
-77.61869030177589
 10
61.5652343596087
 20
-77.33722600063098
 10
61.5652343596087
 20
-76.99030488526631
 10
61.5652343596087
 20
-76.67094453378365
 10
61.5321614429503
 20
-76.36209172353101
 10
61.3089192555061
 20
-76.36209172353101
 97
        0
 97
        0
 75
     2
 76
     1
 98
        0
  0
ENDBLK
  5
96
330
93
100
AcDbEntity
  8
0
100
AcDbBlockEnd
  0
BLOCK
  5
AA
330
A8
100
AcDbEntity
  8
0
100
AcDbBlockBegin
  2
block 4
 70
     0
 10
0.0
 20
0.0
 30
0.0
  3
block 4
  1

  0
SPLINE
  5
AC
330
A8
100
AcDbEntity
  8
_U+30EC_U+30A4_U+30E4_U+30FC 1
370
     0
100
AcDbSpline
210
0.0
220
0.0
230
1.0
 70
    11
 71
     3
 72
    26
 73
    22
 74
     0
 42
0.0000000001
 43
0.0000000001
 12
1.0
 22
0.0
 32
0.0
 13
1.0
 23
0.0
 33
0.0
 40
0.0
 40
0.0
 40
0.0
 40
0.0
 40
1.0
 40
1.0
 40
1.0
 40
2.0
 40
2.0
 40
2.0
 40
3.0
 40
3.0
 40
3.0
 40
4.0
 40
4.0
 40
4.0
 40
5.0
 40
5.0
 40
5.0
 40
6.0
 40
6.0
 40
6.0
 40
7.0
 40
7.0
 40
7.0
 40
7.0
 10
52.74940726762862
 20
-100.4624294453705
 30
0.0
 10
52.74940726762862
 20
-100.4624294453705
 30
0.0
 10
52.74940726762862
 20
-99.35827634234793
 30
0.0
 10
52.74940726762862
 20
-99.35827634234793
 30
0.0
 10
52.74940726762862
 20
-99.35827634234793
 30
0.0
 10
52.46398110667567
 20
-99.35827634234793
 30
0.0
 10
52.46398110667567
 20
-99.35827634234793
 30
0.0
 10
52.46398110667567
 20
-99.35827634234793
 30
0.0
 10
52.46398110667567
 20
-99.2101372364822
 30
0.0
 10
52.46398110667567
 20
-99.2101372364822
 30
0.0
 10
52.75130207014551
 20
-99.19532332589561
 30
0.0
 10
52.79160968732293
 20
-99.0323703094433
 30
0.0
 10
52.81710339391378
 20
-98.917993139333
 30
0.0
 10
52.81710339391378
 20
-98.917993139333
 30
0.0
 10
52.94353839822245
 20
-98.917993139333
 30
0.0
 10
52.94353839822245
 20
-98.917993139333
 30
0.0
 10
52.94353839822245
 20
-98.917993139333
 30
0.0
 10
52.94353839822245
 20
-100.4624294453705
 30
0.0
 10
52.94353839822245
 20
-100.4624294453705
 30
0.0
 10
52.94353839822245
 20
-100.4624294453705
 30
0.0
 10
52.74940726762862
 20
-100.4624294453705
 30
0.0
 10
52.74940726762862
 20
-100.4624294453705
 30
0.0
  0
HATCH
  5
AD
330
A8
100
AcDbEntity
  8
_U+30EC_U+30A4_U+30E4_U+30FC 1
 62
   179
420
  2234388
100
AcDbHatch
 10
0.0
 20
0.0
 30
0.0
210
0.0
220
0.0
230
1.0
  2
SOLID
 70
     1
 71
     0
 91
        1
 92
        1
 93
        1
 72
     4
 94
        3
 73
     0
 74
     1
 95
       26
 96
       22
 40
0.0
 40
0.0
 40
0.0
 40
0.0
 40
1.0
 40
1.0
 40
1.0
 40
2.0
 40
2.0
 40
2.0
 40
3.0
 40
3.0
 40
3.0
 40
4.0
 40
4.0
 40
4.0
 40
5.0
 40
5.0
 40
5.0
 40
6.0
 40
6.0
 40
6.0
 40
7.0
 40
7.0
 40
7.0
 40
7.0
 10
52.74940726762862
 20
-100.4624294453705
 10
52.74940726762862
 20
-100.4624294453705
 10
52.74940726762862
 20
-99.35827634234793
 10
52.74940726762862
 20
-99.35827634234793
 10
52.74940726762862
 20
-99.35827634234793
 10
52.46398110667567
 20
-99.35827634234793
 10
52.46398110667567
 20
-99.35827634234793
 10
52.46398110667567
 20
-99.35827634234793
 10
52.46398110667567
 20
-99.2101372364822
 10
52.46398110667567
 20
-99.2101372364822
 10
52.75130207014551
 20
-99.19532332589561
 10
52.79160968732293
 20
-99.0323703094433
 10
52.81710339391378
 20
-98.917993139333
 10
52.81710339391378
 20
-98.917993139333
 10
52.94353839822245
 20
-98.917993139333
 10
52.94353839822245
 20
-98.917993139333
 10
52.94353839822245
 20
-98.917993139333
 10
52.94353839822245
 20
-100.4624294453705
 10
52.94353839822245
 20
-100.4624294453705
 10
52.94353839822245
 20
-100.4624294453705
 10
52.74940726762862
 20
-100.4624294453705
 10
52.74940726762862
 20
-100.4624294453705
 97
        0
 97
        0
 75
     2
 76
     1
 98
        0
  0
SPLINE
  5
AE
330
A8
100
AcDbEntity
  8
_U+30EC_U+30A4_U+30E4_U+30FC 1
370
     0
100
AcDbSpline
210
0.0
220
0.0
230
1.0
 70
    11
 71
     3
 72
    53
 73
    49
 74
     0
 42
0.0000000001
 43
0.0000000001
 12
1.0
 22
0.0
 32
0.0
 13
1.0
 23
0.0
 33
0.0
 40
0.0
 40
0.0
 40
0.0
 40
0.0
 40
1.0
 40
1.0
 40
1.0
 40
2.0
 40
2.0
 40
2.0
 40
3.0
 40
3.0
 40
3.0
 40
4.0
 40
4.0
 40
4.0
 40
5.0
 40
5.0
 40
5.0
 40
6.0
 40
6.0
 40
6.0
 40
7.0
 40
7.0
 40
7.0
 40
8.0
 40
8.0
 40
8.0
 40
9.0
 40
9.0
 40
9.0
 40
10.0
 40
10.0
 40
10.0
 40
11.0
 40
11.0
 40
11.0
 40
12.0
 40
12.0
 40
12.0
 40
13.0
 40
13.0
 40
13.0
 40
14.0
 40
14.0
 40
14.0
 40
15.0
 40
15.0
 40
15.0
 40
16.0
 40
16.0
 40
16.0
 40
16.0
 10
53.79240992578801
 20
-100.5130723490037
 30
0.0
 10
53.72471379950285
 20
-100.5130723490037
 30
0.0
 10
53.63686386462898
 20
-100.496191381126
 30
0.0
 10
53.54901392975511
 20
-100.4328016241974
 30
0.0
 10
53.39898002137248
 20
-100.3229030782179
 30
0.0
 10
53.38072101530066
 20
-100.1916449402299
 30
0.0
 10
53.36418455697146
 20
-100.0838134515415
 30
0.0
 10
53.36418455697146
 20
-100.0838134515415
 30
0.0
 10
53.5564208850484
 20
-100.0838134515415
 30
0.0
 10
53.5564208850484
 20
-100.0838134515415
 30
0.0
 10
53.60396320274484
 20
-100.2825954610405
 30
0.0
 10
53.71368949395005
 20
-100.3122232822136
 30
0.0
 10
53.79413247353064
 20
-100.3122232822136
 30
0.0
 10
53.91505532506291
 20
-100.3122232822136
 30
0.0
 10
54.04700248214797
 20
-100.2126600226899
 30
0.0
 10
54.04700248214797
 20
-99.98011607743553
 30
0.0
 10
54.04700248214797
 20
-99.72414548288147
 30
0.0
 10
53.89128416621468
 20
-99.6542100445309
 30
0.0
 10
53.78689777301161
 20
-99.6542100445309
 30
0.0
 10
53.75933700912961
 20
-99.6542100445309
 30
0.0
 10
53.63686386462898
 20
-99.6542100445309
 30
0.0
 10
53.56003823530791
 20
-99.78340112522777
 30
0.0
 10
53.56003823530791
 20
-99.78340112522777
 30
0.0
 10
53.40810952440839
 20
-99.76445310005889
 30
0.0
 10
53.40810952440839
 20
-99.76445310005889
 30
0.0
 10
53.40810952440839
 20
-99.76445310005889
 30
0.0
 10
53.5123236628372
 20
-98.917993139333
 30
0.0
 10
53.5123236628372
 20
-98.917993139333
 30
0.0
 10
53.5123236628372
 20
-98.917993139333
 30
0.0
 10
54.18583983020354
 20
-98.917993139333
 30
0.0
 10
54.18583983020354
 20
-98.917993139333
 30
0.0
 10
54.18583983020354
 20
-98.917993139333
 30
0.0
 10
54.18583983020354
 20
-99.11264103424962
 30
0.0
 10
54.18583983020354
 20
-99.11264103424962
 30
0.0
 10
54.18583983020354
 20
-99.11264103424962
 30
0.0
 10
53.65340032295818
 20
-99.11264103424962
 30
0.0
 10
53.65340032295818
 20
-99.11264103424962
 30
0.0
 10
53.65340032295818
 20
-99.11264103424962
 30
0.0
 10
53.59655624745156
 20
-99.5356987598383
 30
0.0
 10
53.59655624745156
 20
-99.5356987598383
 30
0.0
 10
53.6496107179244
 20
-99.50193682408285
 30
0.0
 10
53.72109644924334
 20
-99.46162920690543
 30
0.0
 10
53.82341578515526
 20
-99.46162920690543
 30
0.0
 10
54.0432128771142
 20
-99.46162920690543
 30
0.0
 10
54.24819605848656
 20
-99.64800887265744
 30
0.0
 10
54.24819605848656
 20
-99.96116805226666
 30
0.0
 10
54.24819605848656
 20
-100.2784613464582
 30
0.0
 10
54.054237182667
 20
-100.5130723490037
 30
0.0
 10
53.79240992578801
 20
-100.5130723490037
 30
0.0
  0
HATCH
  5
AF
330
A8
100
AcDbEntity
  8
_U+30EC_U+30A4_U+30E4_U+30FC 1
 62
   179
420
  2234388
100
AcDbHatch
 10
0.0
 20
0.0
 30
0.0
210
0.0
220
0.0
230
1.0
  2
SOLID
 70
     1
 71
     0
 91
        1
 92
        1
 93
        1
 72
     4
 94
        3
 73
     0
 74
     1
 95
       53
 96
       49
 40
0.0
 40
0.0
 40
0.0
 40
0.0
 40
1.0
 40
1.0
 40
1.0
 40
2.0
 40
2.0
 40
2.0
 40
3.0
 40
3.0
 40
3.0
 40
4.0
 40
4.0
 40
4.0
 40
5.0
 40
5.0
 40
5.0
 40
6.0
 40
6.0
 40
6.0
 40
7.0
 40
7.0
 40
7.0
 40
8.0
 40
8.0
 40
8.0
 40
9.0
 40
9.0
 40
9.0
 40
10.0
 40
10.0
 40
10.0
 40
11.0
 40
11.0
 40
11.0
 40
12.0
 40
12.0
 40
12.0
 40
13.0
 40
13.0
 40
13.0
 40
14.0
 40
14.0
 40
14.0
 40
15.0
 40
15.0
 40
15.0
 40
16.0
 40
16.0
 40
16.0
 40
16.0
 10
53.79240992578801
 20
-100.5130723490037
 10
53.72471379950285
 20
-100.5130723490037
 10
53.63686386462898
 20
-100.496191381126
 10
53.54901392975511
 20
-100.4328016241974
 10
53.39898002137248
 20
-100.3229030782179
 10
53.38072101530066
 20
-100.1916449402299
 10
53.36418455697146
 20
-100.0838134515415
 10
53.36418455697146
 20
-100.0838134515415
 10
53.5564208850484
 20
-100.0838134515415
 10
53.5564208850484
 20
-100.0838134515415
 10
53.60396320274484
 20
-100.2825954610405
 10
53.71368949395005
 20
-100.3122232822136
 10
53.79413247353064
 20
-100.3122232822136
 10
53.91505532506291
 20
-100.3122232822136
 10
54.04700248214797
 20
-100.2126600226899
 10
54.04700248214797
 20
-99.98011607743553
 10
54.04700248214797
 20
-99.72414548288147
 10
53.89128416621468
 20
-99.6542100445309
 10
53.78689777301161
 20
-99.6542100445309
 10
53.75933700912961
 20
-99.6542100445309
 10
53.63686386462898
 20
-99.6542100445309
 10
53.56003823530791
 20
-99.78340112522777
 10
53.56003823530791
 20
-99.78340112522777
 10
53.40810952440839
 20
-99.76445310005889
 10
53.40810952440839
 20
-99.76445310005889
 10
53.40810952440839
 20
-99.76445310005889
 10
53.5123236628372
 20
-98.917993139333
 10
53.5123236628372
 20
-98.917993139333
 10
53.5123236628372
 20
-98.917993139333
 10
54.18583983020354
 20
-98.917993139333
 10
54.18583983020354
 20
-98.917993139333
 10
54.18583983020354
 20
-98.917993139333
 10
54.18583983020354
 20
-99.11264103424962
 10
54.18583983020354
 20
-99.11264103424962
 10
54.18583983020354
 20
-99.11264103424962
 10
53.65340032295818
 20
-99.11264103424962
 10
53.65340032295818
 20
-99.11264103424962
 10
53.65340032295818
 20
-99.11264103424962
 10
53.59655624745156
 20
-99.5356987598383
 10
53.59655624745156
 20
-99.5356987598383
 10
53.6496107179244
 20
-99.50193682408285
 10
53.72109644924334
 20
-99.46162920690543
 10
53.82341578515526
 20
-99.46162920690543
 10
54.0432128771142
 20
-99.46162920690543
 10
54.24819605848656
 20
-99.64800887265744
 10
54.24819605848656
 20
-99.96116805226666
 10
54.24819605848656
 20
-100.2784613464582
 10
54.054237182667
 20
-100.5130723490037
 10
53.79240992578801
 20
-100.5130723490037
 97
        0
 97
        0
 75
     2
 76
     1
 98
        0
  0
ENDBLK
  5
AB
330
A8
100
AcDbEntity
  8
0
100
AcDbBlockEnd
  0
BLOCK
  5
BA
330
B8
100
AcDbEntity
  8
0
100
AcDbBlockBegin
  2
block 5
 70
     0
 10
0.0
 20
0.0
 30
0.0
  3
block 5
  1

  0
POLYLINE
  5
BC
330
B8
100
AcDbEntity
  8
_U+30EC_U+30A4_U+30E4_U+30FC 1
370
     0
100
AcDb2dPolyline
 66
     1
 10
0.0
 20
0.0
 30
0.0
  0
VERTEX
  5
BD
330
BC
100
AcDbEntity
  8
_U+30EC_U+30A4_U+30E4_U+30FC 1
370
     0
100
AcDbVertex
100
AcDb2dVertex
 10
63.24540742776504
 20
-100.1165418586514
 30
0.0
  0
VERTEX
  5
BE
330
BC
100
AcDbEntity
  8
_U+30EC_U+30A4_U+30E4_U+30FC 1
370
     0
100
AcDbVertex
100
AcDb2dVertex
 10
63.24540742776504
 20
-100.4634629740161
 30
0.0
  0
VERTEX
  5
BF
330
BC
100
AcDbEntity
  8
_U+30EC_U+30A4_U+30E4_U+30FC 1
370
     0
100
AcDbVertex
100
AcDb2dVertex
 10
63.05696070472187
 20
-100.4634629740161
 30
0.0
  0
VERTEX
  5
C0
330
BC
100
AcDbEntity
  8
_U+30EC_U+30A4_U+30E4_U+30FC 1
370
     0
100
AcDbVertex
100
AcDb2dVertex
 10
63.05696070472187
 20
-100.1165418586514
 30
0.0
  0
VERTEX
  5
C1
330
BC
100
AcDbEntity
  8
_U+30EC_U+30A4_U+30E4_U+30FC 1
370
     0
100
AcDbVertex
100
AcDb2dVertex
 10
62.48955347830123
 20
-100.1165418586514
 30
0.0
  0
VERTEX
  5
C2
330
BC
100
AcDbEntity
  8
_U+30EC_U+30A4_U+30E4_U+30FC 1
370
     0
100
AcDbVertex
100
AcDb2dVertex
 10
62.48955347830123
 20
-99.89226614256167
 30
0.0
  0
VERTEX
  5
C3
330
BC
100
AcDbEntity
  8
_U+30EC_U+30A4_U+30E4_U+30FC 1
370
     0
100
AcDbVertex
100
AcDb2dVertex
 10
63.07694225853632
 20
-98.91902666797859
 30
0.0
  0
VERTEX
  5
C4
330
BC
100
AcDbEntity
  8
_U+30EC_U+30A4_U+30E4_U+30FC 1
370
     0
100
AcDbVertex
100
AcDb2dVertex
 10
63.24540742776504
 20
-98.91902666797859
 30
0.0
  0
VERTEX
  5
C5
330
BC
100
AcDbEntity
  8
_U+30EC_U+30A4_U+30E4_U+30FC 1
370
     0
100
AcDbVertex
100
AcDb2dVertex
 10
63.24540742776504
 20
-99.9177598491525
 30
0.0
  0
VERTEX
  5
C6
330
BC
100
AcDbEntity
  8
_U+30EC_U+30A4_U+30E4_U+30FC 1
370
     0
100
AcDbVertex
100
AcDb2dVertex
 10
63.42472464777229
 20
-99.9177598491525
 30
0.0
  0
VERTEX
  5
C7
330
BC
100
AcDbEntity
  8
_U+30EC_U+30A4_U+30E4_U+30FC 1
370
     0
100
AcDbVertex
100
AcDb2dVertex
 10
63.42472464777229
 20
-100.1165418586514
 30
0.0
  0
VERTEX
  5
C8
330
BC
100
AcDbEntity
  8
_U+30EC_U+30A4_U+30E4_U+30FC 1
370
     0
100
AcDbVertex
100
AcDb2dVertex
 10
63.24540742776504
 20
-100.1165418586514
 30
0.0
  0
SEQEND
  5
C9
330
BC
100
AcDbEntity
  8
_U+30EC_U+30A4_U+30E4_U+30FC 1
370
     0
  0
POLYLINE
  5
CA
330
B8
100
AcDbEntity
  8
_U+30EC_U+30A4_U+30E4_U+30FC 1
370
     0
100
AcDb2dPolyline
 66
     1
 10
0.0
 20
0.0
 30
0.0
  0
VERTEX
  5
CB
330
CA
100
AcDbEntity
  8
_U+30EC_U+30A4_U+30E4_U+30FC 1
370
     0
100
AcDbVertex
100
AcDb2dVertex
 10
63.05696070472187
 20
-99.26181366876094
 30
0.0
  0
VERTEX
  5
CC
330
CA
100
AcDbEntity
  8
_U+30EC_U+30A4_U+30E4_U+30FC 1
370
     0
100
AcDbVertex
100
AcDb2dVertex
 10
62.66146374301519
 20
-99.9177598491525
 30
0.0
  0
VERTEX
  5
CD
330
CA
100
AcDbEntity
  8
_U+30EC_U+30A4_U+30E4_U+30FC 1
370
     0
100
AcDbVertex
100
AcDb2dVertex
 10
63.05696070472187
 20
-99.9177598491525
 30
0.0
  0
VERTEX
  5
CE
330
CA
100
AcDbEntity
  8
_U+30EC_U+30A4_U+30E4_U+30FC 1
370
     0
100
AcDbVertex
100
AcDb2dVertex
 10
63.05696070472187
 20
-99.26181366876094
 30
0.0
  0
SEQEND
  5
CF
330
CA
100
AcDbEntity
  8
_U+30EC_U+30A4_U+30E4_U+30FC 1
370
     0
  0
HATCH
  5
D0
330
B8
100
AcDbEntity
  8
_U+30EC_U+30A4_U+30E4_U+30FC 1
 62
   179
420
  2234388
100
AcDbHatch
 10
0.0
 20
0.0
 30
0.0
210
0.0
220
0.0
230
1.0
  2
SOLID
 70
     1
 71
     0
 91
        2
 92
        1
 93
       11
 72
     1
 10
63.24540742776504
 20
-100.1165418586514
 11
63.24540742776504
 21
-100.4634629740161
 72
     1
 10
63.24540742776504
 20
-100.4634629740161
 11
63.05696070472187
 21
-100.4634629740161
 72
     1
 10
63.05696070472187
 20
-100.4634629740161
 11
63.05696070472187
 21
-100.1165418586514
 72
     1
 10
63.05696070472187
 20
-100.1165418586514
 11
62.48955347830123
 21
-100.1165418586514
 72
     1
 10
62.48955347830123
 20
-100.1165418586514
 11
62.48955347830123
 21
-99.89226614256167
 72
     1
 10
62.48955347830123
 20
-99.89226614256167
 11
63.07694225853632
 21
-98.91902666797859
 72
     1
 10
63.07694225853632
 20
-98.91902666797859
 11
63.24540742776504
 21
-98.91902666797859
 72
     1
 10
63.24540742776504
 20
-98.91902666797859
 11
63.24540742776504
 21
-99.9177598491525
 72
     1
 10
63.24540742776504
 20
-99.9177598491525
 11
63.42472464777229
 21
-99.9177598491525
 72
     1
 10
63.42472464777229
 20
-99.9177598491525
 11
63.42472464777229
 21
-100.1165418586514
 72
     1
 10
63.42472464777229
 20
-100.1165418586514
 11
63.24540742776504
 21
-100.1165418586514
 97
        0
 92
        1
 93
        3
 72
     1
 10
63.05696070472187
 20
-99.26181366876094
 11
62.66146374301519
 21
-99.9177598491525
 72
     1
 10
62.66146374301519
 20
-99.9177598491525
 11
63.05696070472187
 21
-99.9177598491525
 72
     1
 10
63.05696070472187
 20
-99.9177598491525
 11
63.05696070472187
 21
-99.26181366876094
 97
        0
 75
     2
 76
     1
 98
        0
  0
ENDBLK
  5
BB
330
B8
100
AcDbEntity
  8
0
100
AcDbBlockEnd
  0
BLOCK
  5
DB
330
D9
100
AcDbEntity
  8
0
100
AcDbBlockBegin
  2
block 6
 70
     0
 10
0.0
 20
0.0
 30
0.0
  3
block 6
  1

  0
SPLINE
  5
DD
330
D9
100
AcDbEntity
  8
_U+30EC_U+30A4_U+30E4_U+30FC 1
370
     0
100
AcDbSpline
210
0.0
220
0.0
230
1.0
 70
    11
 71
     3
 72
    26
 73
    22
 74
     0
 42
0.0000000001
 43
0.0000000001
 12
1.0
 22
0.0
 32
0.0
 13
1.0
 23
0.0
 33
0.0
 40
0.0
 40
0.0
 40
0.0
 40
0.0
 40
1.0
 40
1.0
 40
1.0
 40
2.0
 40
2.0
 40
2.0
 40
3.0
 40
3.0
 40
3.0
 40
4.0
 40
4.0
 40
4.0
 40
5.0
 40
5.0
 40
5.0
 40
6.0
 40
6.0
 40
6.0
 40
7.0
 40
7.0
 40
7.0
 40
7.0
 10
79.4390787561819
 20
-91.1627386924871
 30
0.0
 10
79.4390787561819
 20
-91.1627386924871
 30
0.0
 10
78.33492565315933
 20
-91.1627386924871
 30
0.0
 10
78.33492565315933
 20
-91.1627386924871
 30
0.0
 10
78.33492565315933
 20
-91.1627386924871
 30
0.0
 10
78.33492565315933
 20
-91.4483371082143
 30
0.0
 10
78.33492565315933
 20
-91.4483371082143
 30
0.0
 10
78.33492565315933
 20
-91.4483371082143
 30
0.0
 10
78.18678654729358
 20
-91.4483371082143
 30
0.0
 10
78.18678654729358
 20
-91.4483371082143
 30
0.0
 10
78.17197263670701
 20
-91.16101614474447
 30
0.0
 10
78.00901962025469
 20
-91.12070852756705
 30
0.0
 10
77.8946424501444
 20
-91.0952148209762
 30
0.0
 10
77.8946424501444
 20
-91.0952148209762
 30
0.0
 10
77.8946424501444
 20
-90.96877981666753
 30
0.0
 10
77.8946424501444
 20
-90.96877981666753
 30
0.0
 10
77.8946424501444
 20
-90.96877981666753
 30
0.0
 10
79.4390787561819
 20
-90.96877981666753
 30
0.0
 10
79.4390787561819
 20
-90.96877981666753
 30
0.0
 10
79.4390787561819
 20
-90.96877981666753
 30
0.0
 10
79.4390787561819
 20
-91.1627386924871
 30
0.0
 10
79.4390787561819
 20
-91.1627386924871
 30
0.0
  0
HATCH
  5
DE
330
D9
100
AcDbEntity
  8
_U+30EC_U+30A4_U+30E4_U+30FC 1
 62
   179
420
  2234388
100
AcDbHatch
 10
0.0
 20
0.0
 30
0.0
210
0.0
220
0.0
230
1.0
  2
SOLID
 70
     1
 71
     0
 91
        1
 92
        1
 93
        1
 72
     4
 94
        3
 73
     0
 74
     1
 95
       26
 96
       22
 40
0.0
 40
0.0
 40
0.0
 40
0.0
 40
1.0
 40
1.0
 40
1.0
 40
2.0
 40
2.0
 40
2.0
 40
3.0
 40
3.0
 40
3.0
 40
4.0
 40
4.0
 40
4.0
 40
5.0
 40
5.0
 40
5.0
 40
6.0
 40
6.0
 40
6.0
 40
7.0
 40
7.0
 40
7.0
 40
7.0
 10
79.4390787561819
 20
-91.1627386924871
 10
79.4390787561819
 20
-91.1627386924871
 10
78.33492565315933
 20
-91.1627386924871
 10
78.33492565315933
 20
-91.1627386924871
 10
78.33492565315933
 20
-91.1627386924871
 10
78.33492565315933
 20
-91.4483371082143
 10
78.33492565315933
 20
-91.4483371082143
 10
78.33492565315933
 20
-91.4483371082143
 10
78.18678654729358
 20
-91.4483371082143
 10
78.18678654729358
 20
-91.4483371082143
 10
78.17197263670701
 20
-91.16101614474447
 10
78.00901962025469
 20
-91.12070852756705
 10
77.8946424501444
 20
-91.0952148209762
 10
77.8946424501444
 20
-91.0952148209762
 10
77.8946424501444
 20
-90.96877981666753
 10
77.8946424501444
 20
-90.96877981666753
 10
77.8946424501444
 20
-90.96877981666753
 10
79.4390787561819
 20
-90.96877981666753
 10
79.4390787561819
 20
-90.96877981666753
 10
79.4390787561819
 20
-90.96877981666753
 10
79.4390787561819
 20
-91.1627386924871
 10
79.4390787561819
 20
-91.1627386924871
 97
        0
 97
        0
 75
     2
 76
     1
 98
        0
  0
SPLINE
  5
DF
330
D9
100
AcDbEntity
  8
_U+30EC_U+30A4_U+30E4_U+30FC 1
370
     0
100
AcDbSpline
210
0.0
220
0.0
230
1.0
 70
    11
 71
     3
 72
    44
 73
    40
 74
     0
 42
0.0000000001
 43
0.0000000001
 12
1.0
 22
0.0
 32
0.0
 13
1.0
 23
0.0
 33
0.0
 40
0.0
 40
0.0
 40
0.0
 40
0.0
 40
1.0
 40
1.0
 40
1.0
 40
2.0
 40
2.0
 40
2.0
 40
3.0
 40
3.0
 40
3.0
 40
4.0
 40
4.0
 40
4.0
 40
5.0
 40
5.0
 40
5.0
 40
6.0
 40
6.0
 40
6.0
 40
7.0
 40
7.0
 40
7.0
 40
8.0
 40
8.0
 40
8.0
 40
9.0
 40
9.0
 40
9.0
 40
10.0
 40
10.0
 40
10.0
 40
11.0
 40
11.0
 40
11.0
 40
12.0
 40
12.0
 40
12.0
 40
13.0
 40
13.0
 40
13.0
 40
13.0
 10
78.8572021287232
 20
-90.02275659641792
 30
0.0
 10
79.01602103059322
 20
-90.21154782900962
 30
0.0
 10
79.09009058352609
 20
-90.29181855381594
 30
0.0
 10
79.233751065261
 20
-90.3341932282845
 30
0.0
 10
79.233751065261
 20
-90.3341932282845
 30
0.0
 10
79.233751065261
 20
-89.66033255136965
 30
0.0
 10
79.233751065261
 20
-89.66033255136965
 30
0.0
 10
79.233751065261
 20
-89.66033255136965
 30
0.0
 10
79.4390787561819
 20
-89.66033255136965
 30
0.0
 10
79.4390787561819
 20
-89.66033255136965
 30
0.0
 10
79.4390787561819
 20
-89.66033255136965
 30
0.0
 10
79.4390787561819
 20
-90.54985620566116
 30
0.0
 10
79.4390787561819
 20
-90.54985620566116
 30
0.0
 10
79.08147784481297
 20
-90.52263995132768
 30
0.0
 10
79.0032741772978
 20
-90.46579587582106
 30
0.0
 10
78.70492890827516
 20
-90.1326551423974
 30
0.0
 10
78.50614689877625
 20
-89.91113550269583
 30
0.0
 10
78.43827851771682
 20
-89.85463593673774
 30
0.0
 10
78.30081920785535
 20
-89.85463593673774
 30
0.0
 10
78.18230792316275
 20
-89.85463593673774
 30
0.0
 10
78.05139429472327
 20
-89.91664765547223
 30
0.0
 10
78.05139429472327
 20
-90.08683537244357
 30
0.0
 10
78.05139429472327
 20
-90.31214461717892
 30
0.0
 10
78.28187118268649
 20
-90.31937931769794
 30
0.0
 10
78.39831541008793
 20
-90.32316892273171
 30
0.0
 10
78.39831541008793
 20
-90.32316892273171
 30
0.0
 10
78.39831541008793
 20
-90.51712779855127
 30
0.0
 10
78.39831541008793
 20
-90.51712779855127
 30
0.0
 10
78.2711913866822
 20
-90.50989309803225
 30
0.0
 10
78.15922578341159
 20
-90.50059134022207
 30
0.0
 10
78.040714498719
 20
-90.43100041142003
 30
0.0
 10
77.87982853955782
 20
-90.33591577602714
 30
0.0
 10
77.84606660380237
 20
-90.17468530731745
 30
0.0
 10
77.84606660380237
 20
-90.07408851914815
 30
0.0
 10
77.84606660380237
 20
-89.83430987337476
 30
0.0
 10
78.03003470271472
 20
-89.65516490814177
 30
0.0
 10
78.3028862651465
 20
-89.65516490814177
 30
0.0
 10
78.53164060536709
 20
-89.65516490814177
 30
0.0
 10
78.6308593553423
 20
-89.75576169631107
 30
0.0
 10
78.8572021287232
 20
-90.02275659641792
 30
0.0
  0
HATCH
  5
E0
330
D9
100
AcDbEntity
  8
_U+30EC_U+30A4_U+30E4_U+30FC 1
 62
   179
420
  2234388
100
AcDbHatch
 10
0.0
 20
0.0
 30
0.0
210
0.0
220
0.0
230
1.0
  2
SOLID
 70
     1
 71
     0
 91
        1
 92
        1
 93
        1
 72
     4
 94
        3
 73
     0
 74
     1
 95
       44
 96
       40
 40
0.0
 40
0.0
 40
0.0
 40
0.0
 40
1.0
 40
1.0
 40
1.0
 40
2.0
 40
2.0
 40
2.0
 40
3.0
 40
3.0
 40
3.0
 40
4.0
 40
4.0
 40
4.0
 40
5.0
 40
5.0
 40
5.0
 40
6.0
 40
6.0
 40
6.0
 40
7.0
 40
7.0
 40
7.0
 40
8.0
 40
8.0
 40
8.0
 40
9.0
 40
9.0
 40
9.0
 40
10.0
 40
10.0
 40
10.0
 40
11.0
 40
11.0
 40
11.0
 40
12.0
 40
12.0
 40
12.0
 40
13.0
 40
13.0
 40
13.0
 40
13.0
 10
78.8572021287232
 20
-90.02275659641792
 10
79.01602103059322
 20
-90.21154782900962
 10
79.09009058352609
 20
-90.29181855381594
 10
79.233751065261
 20
-90.3341932282845
 10
79.233751065261
 20
-90.3341932282845
 10
79.233751065261
 20
-89.66033255136965
 10
79.233751065261
 20
-89.66033255136965
 10
79.233751065261
 20
-89.66033255136965
 10
79.4390787561819
 20
-89.66033255136965
 10
79.4390787561819
 20
-89.66033255136965
 10
79.4390787561819
 20
-89.66033255136965
 10
79.4390787561819
 20
-90.54985620566116
 10
79.4390787561819
 20
-90.54985620566116
 10
79.08147784481297
 20
-90.52263995132768
 10
79.0032741772978
 20
-90.46579587582106
 10
78.70492890827516
 20
-90.1326551423974
 10
78.50614689877625
 20
-89.91113550269583
 10
78.43827851771682
 20
-89.85463593673774
 10
78.30081920785535
 20
-89.85463593673774
 10
78.18230792316275
 20
-89.85463593673774
 10
78.05139429472327
 20
-89.91664765547223
 10
78.05139429472327
 20
-90.08683537244357
 10
78.05139429472327
 20
-90.31214461717892
 10
78.28187118268649
 20
-90.31937931769794
 10
78.39831541008793
 20
-90.32316892273171
 10
78.39831541008793
 20
-90.32316892273171
 10
78.39831541008793
 20
-90.51712779855127
 10
78.39831541008793
 20
-90.51712779855127
 10
78.2711913866822
 20
-90.50989309803225
 10
78.15922578341159
 20
-90.50059134022207
 10
78.040714498719
 20
-90.43100041142003
 10
77.87982853955782
 20
-90.33591577602714
 10
77.84606660380237
 20
-90.17468530731745
 10
77.84606660380237
 20
-90.07408851914815
 10
77.84606660380237
 20
-89.83430987337476
 10
78.03003470271472
 20
-89.65516490814177
 10
78.3028862651465
 20
-89.65516490814177
 10
78.53164060536709
 20
-89.65516490814177
 10
78.6308593553423
 20
-89.75576169631107
 10
78.8572021287232
 20
-90.02275659641792
 97
        0
 97
        0
 75
     2
 76
     1
 98
        0
  0
POLYLINE
  5
E1
330
D9
100
AcDbEntity
  8
_U+30EC_U+30A4_U+30E4_U+30FC 1
370
     0
100
AcDb2dPolyline
 66
     1
 10
0.0
 20
0.0
 30
0.0
  0
VERTEX
  5
E2
330
E1
100
AcDbEntity
  8
_U+30EC_U+30A4_U+30E4_U+30FC 1
370
     0
100
AcDbVertex
100
AcDb2dVertex
 10
79.4390787561819
 20
-89.4667181850986
 30
0.0
  0
VERTEX
  5
E3
330
E1
100
AcDbEntity
  8
_U+30EC_U+30A4_U+30E4_U+30FC 1
370
     0
100
AcDbVertex
100
AcDb2dVertex
 10
79.18724227621014
 20
-89.4667181850986
 30
0.0
  0
VERTEX
  5
E4
330
E1
100
AcDbEntity
  8
_U+30EC_U+30A4_U+30E4_U+30FC 1
370
     0
100
AcDbVertex
100
AcDb2dVertex
 10
79.18724227621014
 20
-89.24898815043082
 30
0.0
  0
VERTEX
  5
E5
330
E1
100
AcDbEntity
  8
_U+30EC_U+30A4_U+30E4_U+30FC 1
370
     0
100
AcDbVertex
100
AcDb2dVertex
 10
79.4390787561819
 20
-89.24898815043082
 30
0.0
  0
VERTEX
  5
E6
330
E1
100
AcDbEntity
  8
_U+30EC_U+30A4_U+30E4_U+30FC 1
370
     0
100
AcDbVertex
100
AcDb2dVertex
 10
79.4390787561819
 20
-89.4667181850986
 30
0.0
  0
SEQEND
  5
E7
330
E1
100
AcDbEntity
  8
_U+30EC_U+30A4_U+30E4_U+30FC 1
370
     0
  0
HATCH
  5
E8
330
D9
100
AcDbEntity
  8
_U+30EC_U+30A4_U+30E4_U+30FC 1
 62
   179
420
  2234388
100
AcDbHatch
 10
0.0
 20
0.0
 30
0.0
210
0.0
220
0.0
230
1.0
  2
SOLID
 70
     1
 71
     0
 91
        1
 92
        1
 93
        4
 72
     1
 10
79.4390787561819
 20
-89.4667181850986
 11
79.18724227621014
 21
-89.4667181850986
 72
     1
 10
79.18724227621014
 20
-89.4667181850986
 11
79.18724227621014
 21
-89.24898815043082
 72
     1
 10
79.18724227621014
 20
-89.24898815043082
 11
79.4390787561819
 21
-89.24898815043082
 72
     1
 10
79.4390787561819
 20
-89.24898815043082
 11
79.4390787561819
 21
-89.4667181850986
 97
        0
 75
     2
 76
     1
 98
        0
  0
SPLINE
  5
E9
330
D9
100
AcDbEntity
  8
_U+30EC_U+30A4_U+30E4_U+30FC 1
370
     0
100
AcDbSpline
210
0.0
220
0.0
230
1.0
 70
    11
 71
     3
 72
    26
 73
    22
 74
     0
 42
0.0000000001
 43
0.0000000001
 12
1.0
 22
0.0
 32
0.0
 13
1.0
 23
0.0
 33
0.0
 40
0.0
 40
0.0
 40
0.0
 40
0.0
 40
1.0
 40
1.0
 40
1.0
 40
2.0
 40
2.0
 40
2.0
 40
3.0
 40
3.0
 40
3.0
 40
4.0
 40
4.0
 40
4.0
 40
5.0
 40
5.0
 40
5.0
 40
6.0
 40
6.0
 40
6.0
 40
7.0
 40
7.0
 40
7.0
 40
7.0
 10
79.4390787561819
 20
-88.68916013407771
 30
0.0
 10
79.4390787561819
 20
-88.68916013407771
 30
0.0
 10
79.4390787561819
 20
-88.89414331545008
 30
0.0
 10
79.4390787561819
 20
-88.89414331545008
 30
0.0
 10
79.13005369115498
 20
-88.87209470434448
 30
0.0
 10
78.61191133017341
 20
-88.70569659240691
 30
0.0
 10
78.10617131293874
 20
-88.35429685291143
 30
0.0
 10
78.10617131293874
 20
-88.35429685291143
 30
0.0
 10
78.10617131293874
 20
-89.07914494300799
 30
0.0
 10
78.10617131293874
 20
-89.07914494300799
 30
0.0
 10
78.10617131293874
 20
-89.07914494300799
 30
0.0
 10
77.8946424501444
 20
-89.07914494300799
 30
0.0
 10
77.8946424501444
 20
-89.07914494300799
 30
0.0
 10
77.8946424501444
 20
-89.07914494300799
 30
0.0
 10
77.8946424501444
 20
-88.14931367153906
 30
0.0
 10
77.8946424501444
 20
-88.14931367153906
 30
0.0
 10
77.8946424501444
 20
-88.14931367153906
 30
0.0
 10
78.10617131293874
 20
-88.14931367153906
 30
0.0
 10
78.10617131293874
 20
-88.14931367153906
 30
0.0
 10
78.39624835279677
 20
-88.42939993448988
 30
0.0
 10
78.98846026671121
 20
-88.65987682245309
 30
0.0
 10
79.4390787561819
 20
-88.68916013407771
 30
0.0
  0
HATCH
  5
EA
330
D9
100
AcDbEntity
  8
_U+30EC_U+30A4_U+30E4_U+30FC 1
 62
   179
420
  2234388
100
AcDbHatch
 10
0.0
 20
0.0
 30
0.0
210
0.0
220
0.0
230
1.0
  2
SOLID
 70
     1
 71
     0
 91
        1
 92
        1
 93
        1
 72
     4
 94
        3
 73
     0
 74
     1
 95
       26
 96
       22
 40
0.0
 40
0.0
 40
0.0
 40
0.0
 40
1.0
 40
1.0
 40
1.0
 40
2.0
 40
2.0
 40
2.0
 40
3.0
 40
3.0
 40
3.0
 40
4.0
 40
4.0
 40
4.0
 40
5.0
 40
5.0
 40
5.0
 40
6.0
 40
6.0
 40
6.0
 40
7.0
 40
7.0
 40
7.0
 40
7.0
 10
79.4390787561819
 20
-88.68916013407771
 10
79.4390787561819
 20
-88.68916013407771
 10
79.4390787561819
 20
-88.89414331545008
 10
79.4390787561819
 20
-88.89414331545008
 10
79.13005369115498
 20
-88.87209470434448
 10
78.61191133017341
 20
-88.70569659240691
 10
78.10617131293874
 20
-88.35429685291143
 10
78.10617131293874
 20
-88.35429685291143
 10
78.10617131293874
 20
-89.07914494300799
 10
78.10617131293874
 20
-89.07914494300799
 10
78.10617131293874
 20
-89.07914494300799
 10
77.8946424501444
 20
-89.07914494300799
 10
77.8946424501444
 20
-89.07914494300799
 10
77.8946424501444
 20
-89.07914494300799
 10
77.8946424501444
 20
-88.14931367153906
 10
77.8946424501444
 20
-88.14931367153906
 10
77.8946424501444
 20
-88.14931367153906
 10
78.10617131293874
 20
-88.14931367153906
 10
78.10617131293874
 20
-88.14931367153906
 10
78.39624835279677
 20
-88.42939993448988
 10
78.98846026671121
 20
-88.65987682245309
 10
79.4390787561819
 20
-88.68916013407771
 97
        0
 97
        0
 75
     2
 76
     1
 98
        0
  0
ENDBLK
  5
DC
330
D9
100
AcDbEntity
  8
0
100
AcDbBlockEnd
  0
ENDSEC
  0
SECTION
  2
ENTITIES
  0
POLYLINE
  5
41
330
1F
100
AcDbEntity
  8
_U+30EC_U+30A4_U+30E4_U+30FC 1
 62
   179
420
  2234388
370
    25
100
AcDb2dPolyline
 66
     1
 10
0.0
 20
0.0
 30
0.0
  0
VERTEX
  5
42
330
41
100
AcDbEntity
  8
_U+30EC_U+30A4_U+30E4_U+30FC 1
 62
   179
420
  2234388
370
    25
100
AcDbVertex
100
AcDb2dVertex
 10
46.03541743664977
 20
-82.35949997941015
 30
0.0
  0
VERTEX
  5
43
330
41
100
AcDbEntity
  8
_U+30EC_U+30A4_U+30E4_U+30FC 1
 62
   179
420
  2234388
370
    25
100
AcDbVertex
100
AcDb2dVertex
 10
76.03532139351067
 20
-82.35949997941015
 30
0.0
  0
SEQEND
  5
44
330
41
100
AcDbEntity
  8
_U+30EC_U+30A4_U+30E4_U+30FC 1
 62
   179
420
  2234388
370
    25
  0
POLYLINE
  5
45
330
1F
100
AcDbEntity
  8
_U+30EC_U+30A4_U+30E4_U+30FC 1
 62
   179
420
  2234388
370
    25
100
AcDb2dPolyline
 66
     1
 10
0.0
 20
0.0
 30
0.0
  0
VERTEX
  5
46
330
45
100
AcDbEntity
  8
_U+30EC_U+30A4_U+30E4_U+30FC 1
 62
   179
420
  2234388
370
    25
100
AcDbVertex
100
AcDb2dVertex
 10
46.03541743664977
 20
-83.35923692360453
 30
0.0
  0
VERTEX
  5
47
330
45
100
AcDbEntity
  8
_U+30EC_U+30A4_U+30E4_U+30FC 1
 62
   179
420
  2234388
370
    25
100
AcDbVertex
100
AcDb2dVertex
 10
61.03538705396866
 20
-83.35923692360453
 30
0.0
  0
SEQEND
  5
48
330
45
100
AcDbEntity
  8
_U+30EC_U+30A4_U+30E4_U+30FC 1
 62
   179
420
  2234388
370
    25
  0
POLYLINE
  5
49
330
1F
100
AcDbEntity
  8
_U+30EC_U+30A4_U+30E4_U+30FC 1
 62
   179
420
  2234388
370
    25
100
AcDb2dPolyline
 66
     1
 10
0.0
 20
0.0
 30
0.0
  0
VERTEX
  5
4A
330
49
100
AcDbEntity
  8
_U+30EC_U+30A4_U+30E4_U+30FC 1
 62
   179
420
  2234388
370
    25
100
AcDbVertex
100
AcDb2dVertex
 10
62.03547675067647
 20
-83.35923692360453
 30
0.0
  0
VERTEX
  5
4B
330
49
100
AcDbEntity
  8
_U+30EC_U+30A4_U+30E4_U+30FC 1
 62
   179
420
  2234388
370
    25
100
AcDbVertex
100
AcDb2dVertex
 10
76.03532139351067
 20
-83.35923692360453
 30
0.0
  0
SEQEND
  5
4C
330
49
100
AcDbEntity
  8
_U+30EC_U+30A4_U+30E4_U+30FC 1
 62
   179
420
  2234388
370
    25
  0
POLYLINE
  5
4D
330
1F
100
AcDbEntity
  8
_U+30EC_U+30A4_U+30E4_U+30FC 1
 62
   179
420
  2234388
370
    25
100
AcDb2dPolyline
 66
     1
 10
0.0
 20
0.0
 30
0.0
  0
VERTEX
  5
4E
330
4D
100
AcDbEntity
  8
_U+30EC_U+30A4_U+30E4_U+30FC 1
 62
   179
420
  2234388
370
    25
100
AcDbVertex
100
AcDb2dVertex
 10
46.03541743664977
 20
-82.35949997941015
 30
0.0
  0
VERTEX
  5
4F
330
4D
100
AcDbEntity
  8
_U+30EC_U+30A4_U+30E4_U+30FC 1
 62
   179
420
  2234388
370
    25
100
AcDbVertex
100
AcDb2dVertex
 10
46.03541743664977
 20
-83.35923692360453
 30
0.0
  0
SEQEND
  5
50
330
4D
100
AcDbEntity
  8
_U+30EC_U+30A4_U+30E4_U+30FC 1
 62
   179
420
  2234388
370
    25
  0
POLYLINE
  5
51
330
1F
100
AcDbEntity
  8
_U+30EC_U+30A4_U+30E4_U+30FC 1
 62
   179
420
  2234388
370
    25
100
AcDb2dPolyline
 66
     1
 10
0.0
 20
0.0
 30
0.0
  0
VERTEX
  5
52
330
51
100
AcDbEntity
  8
_U+30EC_U+30A4_U+30E4_U+30FC 1
 62
   179
420
  2234388
370
    25
100
AcDbVertex
100
AcDb2dVertex
 10
76.03532139351067
 20
-82.35949997941015
 30
0.0
  0
VERTEX
  5
53
330
51
100
AcDbEntity
  8
_U+30EC_U+30A4_U+30E4_U+30FC 1
 62
   179
420
  2234388
370
    25
100
AcDbVertex
100
AcDb2dVertex
 10
76.03532139351067
 20
-83.35923692360453
 30
0.0
  0
SEQEND
  5
54
330
51
100
AcDbEntity
  8
_U+30EC_U+30A4_U+30E4_U+30FC 1
 62
   179
420
  2234388
370
    25
  0
POLYLINE
  5
55
330
1F
100
AcDbEntity
  8
_U+30EC_U+30A4_U+30E4_U+30FC 1
 62
   179
420
  2234388
370
    25
100
AcDb2dPolyline
 66
     1
 10
0.0
 20
0.0
 30
0.0
  0
VERTEX
  5
56
330
55
100
AcDbEntity
  8
_U+30EC_U+30A4_U+30E4_U+30FC 1
 62
   179
420
  2234388
370
    25
100
AcDbVertex
100
AcDb2dVertex
 10
62.03547675067647
 20
-96.05923692042984
 30
0.0
  0
VERTEX
  5
57
330
55
100
AcDbEntity
  8
_U+30EC_U+30A4_U+30E4_U+30FC 1
 62
   179
420
  2234388
370
    25
100
AcDbVertex
100
AcDb2dVertex
 10
65.03546361858487
 20
-96.05923692042984
 30
0.0
  0
SEQEND
  5
58
330
55
100
AcDbEntity
  8
_U+30EC_U+30A4_U+30E4_U+30FC 1
 62
   179
420
  2234388
370
    25
  0
POLYLINE
  5
59
330
1F
100
AcDbEntity
  8
_U+30EC_U+30A4_U+30E4_U+30FC 1
 62
   179
420
  2234388
370
    25
100
AcDb2dPolyline
 66
     1
 10
0.0
 20
0.0
 30
0.0
  0
VERTEX
  5
5A
330
59
100
AcDbEntity
  8
_U+30EC_U+30A4_U+30E4_U+30FC 1
 62
   179
420
  2234388
370
    25
100
AcDbVertex
100
AcDb2dVertex
 10
61.03538705396866
 20
-83.35923692360453
 30
0.0
  0
VERTEX
  5
5B
330
59
100
AcDbEntity
  8
_U+30EC_U+30A4_U+30E4_U+30FC 1
 62
   179
420
  2234388
370
    25
100
AcDbVertex
100
AcDb2dVertex
 10
61.03538705396866
 20
-97.05971469795726
 30
0.0
  0
SEQEND
  5
5C
330
59
100
AcDbEntity
  8
_U+30EC_U+30A4_U+30E4_U+30FC 1
 62
   179
420
  2234388
370
    25
  0
POLYLINE
  5
5D
330
1F
100
AcDbEntity
  8
_U+30EC_U+30A4_U+30E4_U+30FC 1
 62
   179
420
  2234388
370
    25
100
AcDb2dPolyline
 66
     1
 10
0.0
 20
0.0
 30
0.0
  0
VERTEX
  5
5E
330
5D
100
AcDbEntity
  8
_U+30EC_U+30A4_U+30E4_U+30FC 1
 62
   179
420
  2234388
370
    25
100
AcDbVertex
100
AcDb2dVertex
 10
62.03547675067647
 20
-83.35923692360453
 30
0.0
  0
VERTEX
  5
5F
330
5D
100
AcDbEntity
  8
_U+30EC_U+30A4_U+30E4_U+30FC 1
 62
   179
420
  2234388
370
    25
100
AcDbVertex
100
AcDb2dVertex
 10
62.03547675067647
 20
-96.05923692042984
 30
0.0
  0
SEQEND
  5
60
330
5D
100
AcDbEntity
  8
_U+30EC_U+30A4_U+30E4_U+30FC 1
 62
   179
420
  2234388
370
    25
  0
POLYLINE
  5
61
330
1F
100
AcDbEntity
  8
_U+30EC_U+30A4_U+30E4_U+30FC 1
 62
   179
420
  2234388
370
    25
100
AcDb2dPolyline
 66
     1
 10
0.0
 20
0.0
 30
0.0
  0
VERTEX
  5
62
330
61
100
AcDbEntity
  8
_U+30EC_U+30A4_U+30E4_U+30FC 1
 62
   179
420
  2234388
370
    25
100
AcDbVertex
100
AcDb2dVertex
 10
65.03546361858487
 20
-96.05923692042984
 30
0.0
  0
VERTEX
  5
63
330
61
100
AcDbEntity
  8
_U+30EC_U+30A4_U+30E4_U+30FC 1
 62
   179
420
  2234388
370
    25
100
AcDbVertex
100
AcDb2dVertex
 10
65.03546361858487
 20
-97.05971469795726
 30
0.0
  0
SEQEND
  5
64
330
61
100
AcDbEntity
  8
_U+30EC_U+30A4_U+30E4_U+30FC 1
 62
   179
420
  2234388
370
    25
  0
POLYLINE
  5
65
330
1F
100
AcDbEntity
  8
_U+30EC_U+30A4_U+30E4_U+30FC 1
 62
   179
420
  2234388
370
    25
100
AcDb2dPolyline
 66
     1
 10
0.0
 20
0.0
 30
0.0
  0
VERTEX
  5
66
330
65
100
AcDbEntity
  8
_U+30EC_U+30A4_U+30E4_U+30FC 1
 62
   179
420
  2234388
370
    25
100
AcDbVertex
100
AcDb2dVertex
 10
61.03538705396866
 20
-97.05971469795726
 30
0.0
  0
VERTEX
  5
67
330
65
100
AcDbEntity
  8
_U+30EC_U+30A4_U+30E4_U+30FC 1
 62
   179
420
  2234388
370
    25
100
AcDbVertex
100
AcDb2dVertex
 10
65.03546361858487
 20
-97.05971469795726
 30
0.0
  0
SEQEND
  5
68
330
65
100
AcDbEntity
  8
_U+30EC_U+30A4_U+30E4_U+30FC 1
 62
   179
420
  2234388
370
    25
  0
SPLINE
  5
69
330
1F
100
AcDbEntity
  8
_U+30EC_U+30A4_U+30E4_U+30FC 1
 62
   179
420
  2234388
370
     9
100
AcDbSpline
210
0.0
220
0.0
230
1.0
 70
    11
 71
     3
 72
    17
 73
    13
 74
     0
 42
0.0000000001
 43
0.0000000001
 12
1.0
 22
0.0
 32
0.0
 13
1.0
 23
0.0
 33
0.0
 40
0.0
 40
0.0
 40
0.0
 40
0.0
 40
1.0
 40
1.0
 40
1.0
 40
2.0
 40
2.0
 40
2.0
 40
3.0
 40
3.0
 40
3.0
 40
4.0
 40
4.0
 40
4.0
 40
4.0
 10
80.1353399000216
 20
-82.35949997941015
 30
0.0
 10
80.1353399000216
 20
-82.30436081275738
 30
0.0
 10
80.09053712338684
 20
-82.2595933127685
 30
0.0
 10
80.03543323590377
 20
-82.2595933127685
 30
0.0
 10
79.98029407064382
 20
-82.2595933127685
 30
0.0
 10
79.93552657178593
 20
-82.30436081275738
 30
0.0
 10
79.93552657178593
 20
-82.35949997941015
 30
0.0
 10
79.93552657178593
 20
-82.41460386828538
 30
0.0
 10
79.98029407064382
 20
-82.45940664605178
 30
0.0
 10
80.03543323590377
 20
-82.45940664605178
 30
0.0
 10
80.09053712338684
 20
-82.45940664605178
 30
0.0
 10
80.1353399000216
 20
-82.41460386828538
 30
0.0
 10
80.1353399000216
 20
-82.35949997941015
 30
0.0
  0
SPLINE
  5
6A
330
1F
100
AcDbEntity
  8
_U+30EC_U+30A4_U+30E4_U+30FC 1
 62
   179
420
  2234388
370
     9
100
AcDbSpline
210
0.0
220
0.0
230
1.0
 70
    11
 71
     3
 72
    17
 73
    13
 74
     0
 42
0.0000000001
 43
0.0000000001
 12
1.0
 22
0.0
 32
0.0
 13
1.0
 23
0.0
 33
0.0
 40
0.0
 40
0.0
 40
0.0
 40
0.0
 40
1.0
 40
1.0
 40
1.0
 40
2.0
 40
2.0
 40
2.0
 40
3.0
 40
3.0
 40
3.0
 40
4.0
 40
4.0
 40
4.0
 40
4.0
 10
80.1353399000216
 20
-83.35923692360453
 30
0.0
 10
80.1353399000216
 20
-83.3041330347296
 30
0.0
 10
80.09053712338684
 20
-83.25933025696288
 30
0.0
 10
80.03543323590377
 20
-83.25933025696288
 30
0.0
 10
79.98029407064382
 20
-83.25933025696288
 30
0.0
 10
79.93552657178593
 20
-83.3041330347296
 30
0.0
 10
79.93552657178593
 20
-83.35923692360453
 30
0.0
 10
79.93552657178593
 20
-83.4143760902576
 30
0.0
 10
79.98029407064382
 20
-83.45914359024648
 30
0.0
 10
80.03543323590377
 20
-83.45914359024648
 30
0.0
 10
80.09053712338684
 20
-83.45914359024648
 30
0.0
 10
80.1353399000216
 20
-83.4143760902576
 30
0.0
 10
80.1353399000216
 20
-83.35923692360453
 30
0.0
  0
SPLINE
  5
6B
330
1F
100
AcDbEntity
  8
_U+30EC_U+30A4_U+30E4_U+30FC 1
 62
   179
420
  2234388
370
     9
100
AcDbSpline
210
0.0
220
0.0
230
1.0
 70
    11
 71
     3
 72
    17
 73
    13
 74
     0
 42
0.0000000001
 43
0.0000000001
 12
1.0
 22
0.0
 32
0.0
 13
1.0
 23
0.0
 33
0.0
 40
0.0
 40
0.0
 40
0.0
 40
0.0
 40
1.0
 40
1.0
 40
1.0
 40
2.0
 40
2.0
 40
2.0
 40
3.0
 40
3.0
 40
3.0
 40
4.0
 40
4.0
 40
4.0
 40
4.0
 10
46.1353241007676
 20
-78.35903525818806
 30
0.0
 10
46.1353241007676
 20
-78.30393136931282
 30
0.0
 10
46.09055660190972
 20
-78.25912859154641
 30
0.0
 10
46.03541743664977
 20
-78.25912859154641
 30
0.0
 10
45.97996077139792
 20
-78.25912859154641
 30
0.0
 10
45.93519443296066
 20
-78.30393136931282
 30
0.0
 10
45.93519443296066
 20
-78.35903525818806
 30
0.0
 10
45.93519443296066
 20
-78.4148447026185
 30
0.0
 10
45.97996077139792
 20
-78.45964748038521
 30
0.0
 10
46.03541743664977
 20
-78.45964748038521
 30
0.0
 10
46.09055660190972
 20
-78.45964748038521
 30
0.0
 10
46.1353241007676
 20
-78.4148447026185
 30
0.0
 10
46.1353241007676
 20
-78.35903525818806
 30
0.0
  0
SPLINE
  5
6C
330
1F
100
AcDbEntity
  8
_U+30EC_U+30A4_U+30E4_U+30FC 1
 62
   179
420
  2234388
370
     9
100
AcDbSpline
210
0.0
220
0.0
230
1.0
 70
    11
 71
     3
 72
    17
 73
    13
 74
     0
 42
0.0000000001
 43
0.0000000001
 12
1.0
 22
0.0
 32
0.0
 13
1.0
 23
0.0
 33
0.0
 40
0.0
 40
0.0
 40
0.0
 40
0.0
 40
1.0
 40
1.0
 40
1.0
 40
2.0
 40
2.0
 40
2.0
 40
3.0
 40
3.0
 40
3.0
 40
4.0
 40
4.0
 40
4.0
 40
4.0
 10
76.13558083539729
 20
-78.35903525818806
 30
0.0
 10
76.13558083539729
 20
-78.30393136931282
 30
0.0
 10
76.09077805876252
 20
-78.25912859154641
 30
0.0
 10
76.03532139351067
 20
-78.25912859154641
 30
0.0
 10
75.98021942544953
 20
-78.25912859154641
 30
0.0
 10
75.93541664768281
 20
-78.30393136931282
 30
0.0
 10
75.93541664768281
 20
-78.35903525818806
 30
0.0
 10
75.93541664768281
 20
-78.4148447026185
 30
0.0
 10
75.98021942544953
 20
-78.45964748038521
 30
0.0
 10
76.03532139351067
 20
-78.45964748038521
 30
0.0
 10
76.09077805876252
 20
-78.45964748038521
 30
0.0
 10
76.13558083539729
 20
-78.4148447026185
 30
0.0
 10
76.13558083539729
 20
-78.35903525818806
 30
0.0
  0
SPLINE
  5
6D
330
1F
100
AcDbEntity
  8
_U+30EC_U+30A4_U+30E4_U+30FC 1
 62
   179
420
  2234388
370
     9
100
AcDbSpline
210
0.0
220
0.0
230
1.0
 70
    11
 71
     3
 72
    17
 73
    13
 74
     0
 42
0.0000000001
 43
0.0000000001
 12
1.0
 22
0.0
 32
0.0
 13
1.0
 23
0.0
 33
0.0
 40
0.0
 40
0.0
 40
0.0
 40
0.0
 40
1.0
 40
1.0
 40
1.0
 40
2.0
 40
2.0
 40
2.0
 40
3.0
 40
3.0
 40
3.0
 40
4.0
 40
4.0
 40
4.0
 40
4.0
 10
80.1353399000216
 20
-96.05923692042984
 30
0.0
 10
80.1353399000216
 20
-96.00413303155429
 30
0.0
 10
80.09053712338684
 20
-95.95933025378821
 30
0.0
 10
80.03543323590377
 20
-95.95933025378821
 30
0.0
 10
79.98029407064382
 20
-95.95933025378821
 30
0.0
 10
79.93552657178593
 20
-96.00413303155429
 30
0.0
 10
79.93552657178593
 20
-96.05923692042984
 30
0.0
 10
79.93552657178593
 20
-96.11437608708228
 30
0.0
 10
79.98029407064382
 20
-96.15914358707148
 30
0.0
 10
80.03543323590377
 20
-96.15914358707148
 30
0.0
 10
80.09053712338684
 20
-96.15914358707148
 30
0.0
 10
80.1353399000216
 20
-96.11437608708228
 30
0.0
 10
80.1353399000216
 20
-96.05923692042984
 30
0.0
  0
SPLINE
  5
6E
330
1F
100
AcDbEntity
  8
_U+30EC_U+30A4_U+30E4_U+30FC 1
 62
   179
420
  2234388
370
     9
100
AcDbSpline
210
0.0
220
0.0
230
1.0
 70
    11
 71
     3
 72
    17
 73
    13
 74
     0
 42
0.0000000001
 43
0.0000000001
 12
1.0
 22
0.0
 32
0.0
 13
1.0
 23
0.0
 33
0.0
 40
0.0
 40
0.0
 40
0.0
 40
0.0
 40
1.0
 40
1.0
 40
1.0
 40
2.0
 40
2.0
 40
2.0
 40
3.0
 40
3.0
 40
3.0
 40
4.0
 40
4.0
 40
4.0
 40
4.0
 10
65.13537028270271
 20
-101.0594738636241
 30
0.0
 10
65.13537028270271
 20
-101.0043346969711
 30
0.0
 10
65.09060278384482
 20
-100.9595671969825
 30
0.0
 10
65.03546361858487
 20
-100.9595671969825
 30
0.0
 10
64.9803597311018
 20
-100.9595671969825
 30
0.0
 10
64.93555695446703
 20
-101.0043346969711
 30
0.0
 10
64.93555695446703
 20
-101.0594738636241
 30
0.0
 10
64.93555695446703
 20
-101.1145777524991
 30
0.0
 10
64.9803597311018
 20
-101.1593805302658
 30
0.0
 10
65.03546361858487
 20
-101.1593805302658
 30
0.0
 10
65.09060278384482
 20
-101.1593805302658
 30
0.0
 10
65.13537028270271
 20
-101.1145777524991
 30
0.0
 10
65.13537028270271
 20
-101.0594738636241
 30
0.0
  0
SPLINE
  5
6F
330
1F
100
AcDbEntity
  8
_U+30EC_U+30A4_U+30E4_U+30FC 1
 62
   179
420
  2234388
370
     9
100
AcDbSpline
210
0.0
220
0.0
230
1.0
 70
    11
 71
     3
 72
    17
 73
    13
 74
     0
 42
0.0000000001
 43
0.0000000001
 12
1.0
 22
0.0
 32
0.0
 13
1.0
 23
0.0
 33
0.0
 40
0.0
 40
0.0
 40
0.0
 40
0.0
 40
1.0
 40
1.0
 40
1.0
 40
2.0
 40
2.0
 40
2.0
 40
3.0
 40
3.0
 40
3.0
 40
4.0
 40
4.0
 40
4.0
 40
4.0
 10
61.13564649585528
 20
-101.0594738636241
 30
0.0
 10
61.13564649585528
 20
-101.0043346969711
 30
0.0
 10
61.09084371922051
 20
-100.9595671969825
 30
0.0
 10
61.03538705396866
 20
-100.9595671969825
 30
0.0
 10
60.98024788870871
 20
-100.9595671969825
 30
0.0
 10
60.93548038985082
 20
-101.0043346969711
 30
0.0
 10
60.93548038985082
 20
-101.0594738636241
 30
0.0
 10
60.93548038985082
 20
-101.1145777524991
 30
0.0
 10
60.98024788870871
 20
-101.1593805302658
 30
0.0
 10
61.03538705396866
 20
-101.1593805302658
 30
0.0
 10
61.09084371922051
 20
-101.1593805302658
 30
0.0
 10
61.13564649585528
 20
-101.1145777524991
 30
0.0
 10
61.13564649585528
 20
-101.0594738636241
 30
0.0
  0
SPLINE
  5
70
330
1F
100
AcDbEntity
  8
_U+30EC_U+30A4_U+30E4_U+30FC 1
 62
   179
420
  2234388
370
     9
100
AcDbSpline
210
0.0
220
0.0
230
1.0
 70
    11
 71
     3
 72
    17
 73
    13
 74
     0
 42
0.0000000001
 43
0.0000000001
 12
1.0
 22
0.0
 32
0.0
 13
1.0
 23
0.0
 33
0.0
 40
0.0
 40
0.0
 40
0.0
 40
0.0
 40
1.0
 40
1.0
 40
1.0
 40
2.0
 40
2.0
 40
2.0
 40
3.0
 40
3.0
 40
3.0
 40
4.0
 40
4.0
 40
4.0
 40
4.0
 10
46.1353241007676
 20
-101.0594738636241
 30
0.0
 10
46.1353241007676
 20
-101.0043346969711
 30
0.0
 10
46.09055660190972
 20
-100.9595671969825
 30
0.0
 10
46.03541743664977
 20
-100.9595671969825
 30
0.0
 10
45.97996077139792
 20
-100.9595671969825
 30
0.0
 10
45.93519443296066
 20
-101.0043346969711
 30
0.0
 10
45.93519443296066
 20
-101.0594738636241
 30
0.0
 10
45.93519443296066
 20
-101.1145777524991
 30
0.0
 10
45.97996077139792
 20
-101.1593805302658
 30
0.0
 10
46.03541743664977
 20
-101.1593805302658
 30
0.0
 10
46.09055660190972
 20
-101.1593805302658
 30
0.0
 10
46.1353241007676
 20
-101.1145777524991
 30
0.0
 10
46.1353241007676
 20
-101.0594738636241
 30
0.0
  0
POLYLINE
  5
71
330
1F
100
AcDbEntity
  8
_U+30EC_U+30A4_U+30E4_U+30FC 1
 62
   179
420
  2234388
370
     9
100
AcDb2dPolyline
 66
     1
 10
0.0
 20
0.0
 30
0.0
  0
VERTEX
  5
72
330
71
100
AcDbEntity
  8
_U+30EC_U+30A4_U+30E4_U+30FC 1
 62
   179
420
  2234388
370
     9
100
AcDbVertex
100
AcDb2dVertex
 10
80.03543323590377
 20
-82.35949997941015
 30
0.0
  0
VERTEX
  5
73
330
71
100
AcDbEntity
  8
_U+30EC_U+30A4_U+30E4_U+30FC 1
 62
   179
420
  2234388
370
     9
100
AcDbVertex
100
AcDb2dVertex
 10
80.03543323590377
 20
-78.58918748035272
 30
0.0
  0
SEQEND
  5
74
330
71
100
AcDbEntity
  8
_U+30EC_U+30A4_U+30E4_U+30FC 1
 62
   179
420
  2234388
370
     9
  0
POLYLINE
  5
75
330
1F
100
AcDbEntity
  8
_U+30EC_U+30A4_U+30E4_U+30FC 1
 62
   179
420
  2234388
370
     9
100
AcDb2dPolyline
 66
     1
 10
0.0
 20
0.0
 30
0.0
  0
VERTEX
  5
76
330
75
100
AcDbEntity
  8
_U+30EC_U+30A4_U+30E4_U+30FC 1
 62
   179
420
  2234388
370
     9
100
AcDbVertex
100
AcDb2dVertex
 10
80.03543323590377
 20
-82.35949997941015
 30
0.0
  0
VERTEX
  5
77
330
75
100
AcDbEntity
  8
_U+30EC_U+30A4_U+30E4_U+30FC 1
 62
   179
420
  2234388
370
     9
100
AcDbVertex
100
AcDb2dVertex
 10
80.03543323590377
 20
-83.35923692360453
 30
0.0
  0
SEQEND
  5
78
330
75
100
AcDbEntity
  8
_U+30EC_U+30A4_U+30E4_U+30FC 1
 62
   179
420
  2234388
370
     9
  0
POLYLINE
  5
79
330
1F
100
AcDbEntity
  8
_U+30EC_U+30A4_U+30E4_U+30FC 1
 62
   179
420
  2234388
370
     9
100
AcDb2dPolyline
 66
     1
 10
0.0
 20
0.0
 30
0.0
  0
VERTEX
  5
7A
330
79
100
AcDbEntity
  8
_U+30EC_U+30A4_U+30E4_U+30FC 1
 62
   179
420
  2234388
370
     9
100
AcDbVertex
100
AcDb2dVertex
 10
78.57539188426364
 20
-82.35949997941015
 30
0.0
  0
VERTEX
  5
7B
330
79
100
AcDbEntity
  8
_U+30EC_U+30A4_U+30E4_U+30FC 1
 62
   179
420
  2234388
370
     9
100
AcDbVertex
100
AcDb2dVertex
 10
81.03552497974124
 20
-82.35949997941015
 30
0.0
  0
SEQEND
  5
7C
330
79
100
AcDbEntity
  8
_U+30EC_U+30A4_U+30E4_U+30FC 1
 62
   179
420
  2234388
370
     9
  0
POLYLINE
  5
7D
330
1F
100
AcDbEntity
  8
_U+30EC_U+30A4_U+30E4_U+30FC 1
 62
   179
420
  2234388
370
     9
100
AcDb2dPolyline
 66
     1
 10
0.0
 20
0.0
 30
0.0
  0
VERTEX
  5
7E
330
7D
100
AcDbEntity
  8
_U+30EC_U+30A4_U+30E4_U+30FC 1
 62
   179
420
  2234388
370
     9
100
AcDbVertex
100
AcDb2dVertex
 10
78.57539188426364
 20
-83.35923692360453
 30
0.0
  0
VERTEX
  5
7F
330
7D
100
AcDbEntity
  8
_U+30EC_U+30A4_U+30E4_U+30FC 1
 62
   179
420
  2234388
370
     9
100
AcDbVertex
100
AcDb2dVertex
 10
81.03552497974124
 20
-83.35923692360453
 30
0.0
  0
SEQEND
  5
80
330
7D
100
AcDbEntity
  8
_U+30EC_U+30A4_U+30E4_U+30FC 1
 62
   179
420
  2234388
370
     9
  0
INSERT
  5
82
330
1F
100
AcDbEntity
  8
_U+30EC_U+30A4_U+30E4_U+30FC 1
100
AcDbBlockReference
  2
block 2
 10
0.0
 20
0.0
 30
0.0
  0
POLYLINE
  5
87
330
1F
100
AcDbEntity
  8
_U+30EC_U+30A4_U+30E4_U+30FC 1
 62
   179
420
  2234388
370
     9
100
AcDb2dPolyline
 66
     1
 10
0.0
 20
0.0
 30
0.0
  0
VERTEX
  5
88
330
87
100
AcDbEntity
  8
_U+30EC_U+30A4_U+30E4_U+30FC 1
 62
   179
420
  2234388
370
     9
100
AcDbVertex
100
AcDb2dVertex
 10
46.03541743664977
 20
-78.35903525818806
 30
0.0
  0
VERTEX
  5
89
330
87
100
AcDbEntity
  8
_U+30EC_U+30A4_U+30E4_U+30FC 1
 62
   179
420
  2234388
370
     9
100
AcDbVertex
100
AcDb2dVertex
 10
76.03532139351067
 20
-78.35903525818806
 30
0.0
  0
SEQEND
  5
8A
330
87
100
AcDbEntity
  8
_U+30EC_U+30A4_U+30E4_U+30FC 1
 62
   179
420
  2234388
370
     9
  0
POLYLINE
  5
8B
330
1F
100
AcDbEntity
  8
_U+30EC_U+30A4_U+30E4_U+30FC 1
 62
   179
420
  2234388
370
     9
100
AcDb2dPolyline
 66
     1
 10
0.0
 20
0.0
 30
0.0
  0
VERTEX
  5
8C
330
8B
100
AcDbEntity
  8
_U+30EC_U+30A4_U+30E4_U+30FC 1
 62
   179
420
  2234388
370
     9
100
AcDbVertex
100
AcDb2dVertex
 10
46.03541743664977
 20
-79.81907664671176
 30
0.0
  0
VERTEX
  5
8D
330
8B
100
AcDbEntity
  8
_U+30EC_U+30A4_U+30E4_U+30FC 1
 62
   179
420
  2234388
370
     9
100
AcDbVertex
100
AcDb2dVertex
 10
46.03541743664977
 20
-77.35926303621584
 30
0.0
  0
SEQEND
  5
8E
330
8B
100
AcDbEntity
  8
_U+30EC_U+30A4_U+30E4_U+30FC 1
 62
   179
420
  2234388
370
     9
  0
POLYLINE
  5
8F
330
1F
100
AcDbEntity
  8
_U+30EC_U+30A4_U+30E4_U+30FC 1
 62
   179
420
  2234388
370
     9
100
AcDb2dPolyline
 66
     1
 10
0.0
 20
0.0
 30
0.0
  0
VERTEX
  5
90
330
8F
100
AcDbEntity
  8
_U+30EC_U+30A4_U+30E4_U+30FC 1
 62
   179
420
  2234388
370
     9
100
AcDbVertex
100
AcDb2dVertex
 10
76.03532139351067
 20
-79.81907664671176
 30
0.0
  0
VERTEX
  5
91
330
8F
100
AcDbEntity
  8
_U+30EC_U+30A4_U+30E4_U+30FC 1
 62
   179
420
  2234388
370
     9
100
AcDbVertex
100
AcDb2dVertex
 10
76.03532139351067
 20
-77.35926303621584
 30
0.0
  0
SEQEND
  5
92
330
8F
100
AcDbEntity
  8
_U+30EC_U+30A4_U+30E4_U+30FC 1
 62
   179
420
  2234388
370
     9
  0
INSERT
  5
94
330
1F
100
AcDbEntity
  8
_U+30EC_U+30A4_U+30E4_U+30FC 1
100
AcDbBlockReference
  2
block 3
 10
0.0
 20
0.0
 30
0.0
  0
POLYLINE
  5
9C
330
1F
100
AcDbEntity
  8
_U+30EC_U+30A4_U+30E4_U+30FC 1
 62
   179
420
  2234388
370
     9
100
AcDb2dPolyline
 66
     1
 10
0.0
 20
0.0
 30
0.0
  0
VERTEX
  5
9D
330
9C
100
AcDbEntity
  8
_U+30EC_U+30A4_U+30E4_U+30FC 1
 62
   179
420
  2234388
370
     9
100
AcDbVertex
100
AcDb2dVertex
 10
46.03541743664977
 20
-101.0594738636241
 30
0.0
  0
VERTEX
  5
9E
330
9C
100
AcDbEntity
  8
_U+30EC_U+30A4_U+30E4_U+30FC 1
 62
   179
420
  2234388
370
     9
100
AcDbVertex
100
AcDb2dVertex
 10
61.03538705396866
 20
-101.0594738636241
 30
0.0
  0
SEQEND
  5
9F
330
9C
100
AcDbEntity
  8
_U+30EC_U+30A4_U+30E4_U+30FC 1
 62
   179
420
  2234388
370
     9
  0
POLYLINE
  5
A0
330
1F
100
AcDbEntity
  8
_U+30EC_U+30A4_U+30E4_U+30FC 1
 62
   179
420
  2234388
370
     9
100
AcDb2dPolyline
 66
     1
 10
0.0
 20
0.0
 30
0.0
  0
VERTEX
  5
A1
330
A0
100
AcDbEntity
  8
_U+30EC_U+30A4_U+30E4_U+30FC 1
 62
   179
420
  2234388
370
     9
100
AcDbVertex
100
AcDb2dVertex
 10
46.03541743664977
 20
-85.8996602563029
 30
0.0
  0
VERTEX
  5
A2
330
A0
100
AcDbEntity
  8
_U+30EC_U+30A4_U+30E4_U+30FC 1
 62
   179
420
  2234388
370
     9
100
AcDbVertex
100
AcDb2dVertex
 10
46.03541743664977
 20
-102.059246085596
 30
0.0
  0
SEQEND
  5
A3
330
A0
100
AcDbEntity
  8
_U+30EC_U+30A4_U+30E4_U+30FC 1
 62
   179
420
  2234388
370
     9
  0
POLYLINE
  5
A4
330
1F
100
AcDbEntity
  8
_U+30EC_U+30A4_U+30E4_U+30FC 1
 62
   179
420
  2234388
370
     9
100
AcDb2dPolyline
 66
     1
 10
0.0
 20
0.0
 30
0.0
  0
VERTEX
  5
A5
330
A4
100
AcDbEntity
  8
_U+30EC_U+30A4_U+30E4_U+30FC 1
 62
   179
420
  2234388
370
     9
100
AcDbVertex
100
AcDb2dVertex
 10
61.03538705396866
 20
-99.59943247510044
 30
0.0
  0
VERTEX
  5
A6
330
A4
100
AcDbEntity
  8
_U+30EC_U+30A4_U+30E4_U+30FC 1
 62
   179
420
  2234388
370
     9
100
AcDbVertex
100
AcDb2dVertex
 10
61.03538705396866
 20
-102.059246085596
 30
0.0
  0
SEQEND
  5
A7
330
A4
100
AcDbEntity
  8
_U+30EC_U+30A4_U+30E4_U+30FC 1
 62
   179
420
  2234388
370
     9
  0
INSERT
  5
A9
330
1F
100
AcDbEntity
  8
_U+30EC_U+30A4_U+30E4_U+30FC 1
100
AcDbBlockReference
  2
block 4
 10
0.0
 20
0.0
 30
0.0
  0
POLYLINE
  5
B0
330
1F
100
AcDbEntity
  8
_U+30EC_U+30A4_U+30E4_U+30FC 1
 62
   179
420
  2234388
370
     9
100
AcDb2dPolyline
 66
     1
 10
0.0
 20
0.0
 30
0.0
  0
VERTEX
  5
B1
330
B0
100
AcDbEntity
  8
_U+30EC_U+30A4_U+30E4_U+30FC 1
 62
   179
420
  2234388
370
     9
100
AcDbVertex
100
AcDb2dVertex
 10
61.03538705396866
 20
-101.0594738636241
 30
0.0
  0
VERTEX
  5
B2
330
B0
100
AcDbEntity
  8
_U+30EC_U+30A4_U+30E4_U+30FC 1
 62
   179
420
  2234388
370
     9
100
AcDbVertex
100
AcDb2dVertex
 10
65.03546361858487
 20
-101.0594738636241
 30
0.0
  0
SEQEND
  5
B3
330
B0
100
AcDbEntity
  8
_U+30EC_U+30A4_U+30E4_U+30FC 1
 62
   179
420
  2234388
370
     9
  0
POLYLINE
  5
B4
330
1F
100
AcDbEntity
  8
_U+30EC_U+30A4_U+30E4_U+30FC 1
 62
   179
420
  2234388
370
     9
100
AcDb2dPolyline
 66
     1
 10
0.0
 20
0.0
 30
0.0
  0
VERTEX
  5
B5
330
B4
100
AcDbEntity
  8
_U+30EC_U+30A4_U+30E4_U+30FC 1
 62
   179
420
  2234388
370
     9
100
AcDbVertex
100
AcDb2dVertex
 10
65.03546361858487
 20
-99.59943247510044
 30
0.0
  0
VERTEX
  5
B6
330
B4
100
AcDbEntity
  8
_U+30EC_U+30A4_U+30E4_U+30FC 1
 62
   179
420
  2234388
370
     9
100
AcDbVertex
100
AcDb2dVertex
 10
65.03546361858487
 20
-102.059246085596
 30
0.0
  0
SEQEND
  5
B7
330
B4
100
AcDbEntity
  8
_U+30EC_U+30A4_U+30E4_U+30FC 1
 62
   179
420
  2234388
370
     9
  0
INSERT
  5
B9
330
1F
100
AcDbEntity
  8
_U+30EC_U+30A4_U+30E4_U+30FC 1
100
AcDbBlockReference
  2
block 5
 10
0.0
 20
0.0
 30
0.0
  0
POLYLINE
  5
D1
330
1F
100
AcDbEntity
  8
_U+30EC_U+30A4_U+30E4_U+30FC 1
 62
   179
420
  2234388
370
     9
100
AcDb2dPolyline
 66
     1
 10
0.0
 20
0.0
 30
0.0
  0
VERTEX
  5
D2
330
D1
100
AcDbEntity
  8
_U+30EC_U+30A4_U+30E4_U+30FC 1
 62
   179
420
  2234388
370
     9
100
AcDbVertex
100
AcDb2dVertex
 10
80.03543323590377
 20
-83.35923692360453
 30
0.0
  0
VERTEX
  5
D3
330
D1
100
AcDbEntity
  8
_U+30EC_U+30A4_U+30E4_U+30FC 1
 62
   179
420
  2234388
370
     9
100
AcDbVertex
100
AcDb2dVertex
 10
80.03543323590377
 20
-96.05923692042984
 30
0.0
  0
SEQEND
  5
D4
330
D1
100
AcDbEntity
  8
_U+30EC_U+30A4_U+30E4_U+30FC 1
 62
   179
420
  2234388
370
     9
  0
POLYLINE
  5
D5
330
1F
100
AcDbEntity
  8
_U+30EC_U+30A4_U+30E4_U+30FC 1
 62
   179
420
  2234388
370
     9
100
AcDb2dPolyline
 66
     1
 10
0.0
 20
0.0
 30
0.0
  0
VERTEX
  5
D6
330
D5
100
AcDbEntity
  8
_U+30EC_U+30A4_U+30E4_U+30FC 1
 62
   179
420
  2234388
370
     9
100
AcDbVertex
100
AcDb2dVertex
 10
67.57553410933784
 20
-96.05923692042984
 30
0.0
  0
VERTEX
  5
D7
330
D5
100
AcDbEntity
  8
_U+30EC_U+30A4_U+30E4_U+30FC 1
 62
   179
420
  2234388
370
     9
100
AcDbVertex
100
AcDb2dVertex
 10
81.03552497974124
 20
-96.05923692042984
 30
0.0
  0
SEQEND
  5
D8
330
D5
100
AcDbEntity
  8
_U+30EC_U+30A4_U+30E4_U+30FC 1
 62
   179
420
  2234388
370
     9
  0
INSERT
  5
DA
330
1F
100
AcDbEntity
  8
_U+30EC_U+30A4_U+30E4_U+30FC 1
100
AcDbBlockReference
  2
block 6
 10
0.0
 20
0.0
 30
0.0
  0
ENDSEC
  0
SECTION
  2
OBJECTS
  0
DICTIONARY
  5
C
330
0
100
AcDbDictionary
281
     1
  3
ACAD_GROUP
350
D
  3
ACAD_LAYOUT
350
1A
  3
ACAD_MATERIAL
350
3B
  3
ACAD_MLEADERSTYLE
350
EC
  3
ACAD_MLINESTYLE
350
17
  3
ACAD_PLOTSETTINGS
350
19
  3
ACAD_PLOTSTYLENAME
350
E
  3
ACAD_TABLESTYLE
350
EB
  3
ACAD_VISUALSTYLE
350
2A
  0
SUN
  5
3F
330
29
100
AcDbSun
 90
        1
290
     0
 63
     7
421
 16777215
 40
1.0
291
     1
 91
  2455826
 92
 54000000
292
     0
 70
     2
 71
   256
280
     1
  0
DICTIONARY
  5
D
102
{ACAD_REACTORS
330
C
102
}
330
C
100
AcDbDictionary
281
     1
  0
DICTIONARY
  5
1A
102
{ACAD_REACTORS
330
C
102
}
330
C
100
AcDbDictionary
281
     1
  3
Layout1
350
1E
  3
Layout2
350
26
  3
Model
350
22
  0
DICTIONARY
  5
3B
102
{ACAD_REACTORS
330
C
102
}
330
C
100
AcDbDictionary
281
     1
  3
ByBlock
350
3D
  3
ByLayer
350
3C
  3
Global
350
3E
  0
DICTIONARY
  5
EC
102
{ACAD_REACTORS
330
C
102
}
330
C
100
AcDbDictionary
281
     1
  0
DICTIONARY
  5
17
102
{ACAD_REACTORS
330
C
102
}
330
C
100
AcDbDictionary
281
     1
  3
Standard
350
18
  0
DICTIONARY
  5
19
102
{ACAD_REACTORS
330
C
102
}
330
C
100
AcDbDictionary
281
     1
  0
ACDBDICTIONARYWDFLT
  5
E
102
{ACAD_REACTORS
330
C
102
}
330
C
100
AcDbDictionary
281
     1
  3
Normal
350
F
100
AcDbDictionaryWithDefault
340
F
  0
DICTIONARY
  5
EB
102
{ACAD_REACTORS
330
C
102
}
330
C
100
AcDbDictionary
281
     1
  0
DICTIONARY
  5
2A
102
{ACAD_REACTORS
330
C
102
}
330
C
100
AcDbDictionary
281
     1
  3
2dWireframe
350
2F
  3
3D Hidden
350
31
  3
3dWireframe
350
30
  3
Basic
350
32
  3
Brighten
350
36
  3
ColorChange
350
3A
  3
Conceptual
350
34
  3
Dim
350
35
  3
Facepattern
350
39
  3
Flat
350
2B
  3
FlatWithEdges
350
2C
  3
Gouraud
350
2D
  3
GouraudWithEdges
350
2E
  3
Linepattern
350
38
  3
Realistic
350
33
  3
Thicken
350
37
  0
LAYOUT
  5
1E
102
{ACAD_REACTORS
330
1A
102
}
330
1A
100
AcDbPlotSettings
  1

  2
none_device
  4

  6

 40
0.0
 41
0.0
 42
0.0
 43
0.0
 44
0.0
 45
0.0
 46
0.0
 47
0.0
 48
0.0
 49
0.0
140
0.0
141
0.0
142
1.0
143
1.0
 70
   688
 72
     0
 73
     0
 74
     5
  7

 75
    16
 76
     0
 77
     2
 78
   300
147
1.0
148
0.0
149
0.0
100
AcDbLayout
  1
Layout1
 70
     1
 71
     1
 10
0.0
 20
0.0
 11
12.0
 21
9.0
 12
0.0
 22
0.0
 32
0.0
 14
1.000000000000000E+20
 24
1.000000000000000E+20
 34
1.000000000000000E+20
 15
-1.000000000000000E+20
 25
-1.000000000000000E+20
 35
-1.000000000000000E+20
146
0.0
 13
0.0
 23
0.0
 33
0.0
 16
1.0
 26
0.0
 36
0.0
 17
0.0
 27
1.0
 37
0.0
 76
     0
330
1B
  0
LAYOUT
  5
26
102
{ACAD_REACTORS
330
1A
102
}
330
1A
100
AcDbPlotSettings
  1

  2
none_device
  4

  6

 40
0.0
 41
0.0
 42
0.0
 43
0.0
 44
0.0
 45
0.0
 46
0.0
 47
0.0
 48
0.0
 49
0.0
140
0.0
141
0.0
142
1.0
143
1.0
 70
   688
 72
     0
 73
     0
 74
     5
  7

 75
    16
 76
     0
 77
     2
 78
   300
147
1.0
148
0.0
149
0.0
100
AcDbLayout
  1
Layout2
 70
     1
 71
     2
 10
0.0
 20
0.0
 11
0.0
 21
0.0
 12
0.0
 22
0.0
 32
0.0
 14
0.0
 24
0.0
 34
0.0
 15
0.0
 25
0.0
 35
0.0
146
0.0
 13
0.0
 23
0.0
 33
0.0
 16
1.0
 26
0.0
 36
0.0
 17
0.0
 27
1.0
 37
0.0
 76
     0
330
23
  0
LAYOUT
  5
22
102
{ACAD_REACTORS
330
1A
102
}
330
1A
100
AcDbPlotSettings
  1

  2
none_device
  4

  6

 40
0.0
 41
0.0
 42
0.0
 43
0.0
 44
0.0
 45
0.0
 46
0.0
 47
0.0
 48
0.0
 49
0.0
140
0.0
141
0.0
142
1.0
143
1.0
 70
  1712
 72
     0
 73
     0
 74
     0
  7

 75
     0
 76
     0
 77
     2
 78
   300
147
1.0
148
0.0
149
0.0
100
AcDbLayout
  1
Model
 70
     1
 71
     0
 10
0.0
 20
0.0
 11
12.0
 21
9.0
 12
0.0
 22
0.0
 32
0.0
 14
1.000000000000000E+20
 24
1.000000000000000E+20
 34
1.000000000000000E+20
 15
-1.000000000000000E+20
 25
-1.000000000000000E+20
 35
-1.000000000000000E+20
146
0.0
 13
0.0
 23
0.0
 33
0.0
 16
1.0
 26
0.0
 36
0.0
 17
0.0
 27
1.0
 37
0.0
 76
     0
330
1F
331
29
  0
MATERIAL
  5
3D
102
{ACAD_REACTORS
330
3B
102
}
330
3B
100
AcDbMaterial
  1
ByBlock
 72
     1
 94
      127
  0
MATERIAL
  5
3C
102
{ACAD_REACTORS
330
3B
102
}
330
3B
100
AcDbMaterial
  1
ByLayer
 72
     1
 94
      127
  0
MATERIAL
  5
3E
102
{ACAD_REACTORS
330
3B
102
}
330
3B
100
AcDbMaterial
  1
Global
 72
     1
 94
      127
  0
MLINESTYLE
  5
18
102
{ACAD_REACTORS
330
17
102
}
330
17
100
AcDbMlineStyle
  2
Standard
 70
     0
  3

 62
   256
 51
90.0
 52
90.0
 71
     2
 49
0.5
 62
   256
  6
BYLAYER
 49
-0.5
 62
   256
  6
BYLAYER
  0
ACDBPLACEHOLDER
  5
F
102
{ACAD_REACTORS
330
E
102
}
330
E
  0
VISUALSTYLE
  5
2F
102
{ACAD_REACTORS
330
2A
102
}
330
2A
100
AcDbVisualStyle
  2
2dWireframe
 70
     4
177
     2
291
     0
 71
     0
176
     1
 72
     2
176
     1
 73
     0
176
     1
 90
        0
176
     1
 40
-0.6
176
     1
 41
-30.0
176
     1
 62
     5
 63
     7
421
 16777215
176
     1
 74
     1
176
     1
 91
        4
176
     1
 64
     7
176
     1
 65
   257
176
     1
 75
     1
176
     1
175
     1
176
     1
 42
1.0
176
     1
 92
        0
176
     1
 66
   257
176
     1
 43
1.0
176
     1
 76
     1
176
     1
 77
     6
176
     1
 78
     2
176
     1
 67
     7
176
     1
 79
     5
176
     1
170
     0
176
     1
171
     0
176
     1
290
     0
176
     1
 93
        1
176
     1
 44
0.0
176
     1
173
     0
176
     1
  0
VISUALSTYLE
  5
31
102
{ACAD_REACTORS
330
2A
102
}
330
2A
100
AcDbVisualStyle
  2
3D Hidden
 70
     6
177
     2
291
     0
 71
     1
176
     1
 72
     2
176
     1
 73
     2
176
     1
 90
        0
176
     1
 40
-0.6
176
     1
 41
-30.0
176
     1
 62
     5
 63
     7
421
 16777215
176
     1
 74
     2
176
     1
 91
        2
176
     1
 64
     7
176
     1
 65
   257
176
     1
 75
     2
176
     1
175
     1
176
     1
 42
40.0
176
     1
 92
        0
176
     1
 66
   257
176
     1
 43
1.0
176
     1
 76
     1
176
     1
 77
     6
176
     1
 78
     2
176
     1
 67
     7
176
     1
 79
     3
176
     1
170
     0
176
     1
171
     0
176
     1
290
     0
176
     1
 93
        1
176
     1
 44
0.0
176
     1
173
     0
176
     1
  0
VISUALSTYLE
  5
30
102
{ACAD_REACTORS
330
2A
102
}
330
2A
100
AcDbVisualStyle
  2
3dWireframe
 70
     5
177
     2
291
     0
 71
     0
176
     1
 72
     2
176
     1
 73
     0
176
     1
 90
        0
176
     1
 40
-0.6
176
     1
 41
-30.0
176
     1
 62
     5
 63
     7
421
 16777215
176
     1
 74
     1
176
     1
 91
        4
176
     1
 64
     7
176
     1
 65
   257
176
     1
 75
     1
176
     1
175
     1
176
     1
 42
1.0
176
     1
 92
        0
176
     1
 66
   257
176
     1
 43
1.0
176
     1
 76
     1
176
     1
 77
     6
176
     1
 78
     2
176
     1
 67
     7
176
     1
 79
     5
176
     1
170
     0
176
     1
171
     0
176
     1
290
     0
176
     1
 93
        1
176
     1
 44
0.0
176
     1
173
     0
176
     1
  0
VISUALSTYLE
  5
32
102
{ACAD_REACTORS
330
2A
102
}
330
2A
100
AcDbVisualStyle
  2
Basic
 70
     7
177
     2
291
     1
 71
     1
176
     1
 72
     0
176
     1
 73
     1
176
     1
 90
        0
176
     1
 40
-0.6
176
     1
 41
-30.0
176
     1
 62
     5
 63
     7
421
 16777215
176
     1
 74
     0
176
     1
 91
        4
176
     1
 64
     7
176
     1
 65
   257
176
     1
 75
     1
176
     1
175
     1
176
     1
 42
1.0
176
     1
 92
        8
176
     1
 66
     7
176
     1
 43
1.0
176
     1
 76
     1
176
     1
 77
     6
176
     1
 78
     2
176
     1
 67
     7
176
     1
 79
     5
176
     1
170
     0
176
     1
171
     0
176
     1
290
     0
176
     1
 93
        1
176
     1
 44
0.0
176
     1
173
     0
176
     1
  0
VISUALSTYLE
  5
36
102
{ACAD_REACTORS
330
2A
102
}
330
2A
100
AcDbVisualStyle
  2
Brighten
 70
    12
177
     2
291
     1
 71
     2
176
     1
 72
     2
176
     1
 73
     0
176
     1
 90
        0
176
     1
 40
-0.6
176
     1
 41
-30.0
176
     1
 62
     5
 63
     7
421
 16777215
176
     1
 74
     1
176
     1
 91
        4
176
     1
 64
     7
176
     1
 65
   257
176
     1
 75
     1
176
     1
175
     1
176
     1
 42
1.0
176
     1
 92
        8
176
     1
 66
     7
176
     1
 43
1.0
176
     1
 76
     1
176
     1
 77
     6
176
     1
 78
     2
176
     1
 67
     7
176
     1
 79
     5
176
     1
170
     0
176
     1
171
     0
176
     1
290
     0
176
     1
 93
        1
176
     1
 44
50.0
176
     1
173
     0
176
     1
  0
VISUALSTYLE
  5
3A
102
{ACAD_REACTORS
330
2A
102
}
330
2A
100
AcDbVisualStyle
  2
ColorChange
 70
    16
177
     2
291
     1
 71
     2
176
     1
 72
     2
176
     1
 73
     3
176
     1
 90
        0
176
     1
 40
-0.6
176
     1
 41
-30.0
176
     1
 62
     5
 63
     8
421
  8421504
176
     1
 74
     1
176
     1
 91
        4
176
     1
 64
     7
176
     1
 65
   257
176
     1
 75
     1
176
     1
175
     1
176
     1
 42
1.0
176
     1
 92
        8
176
     1
 66
     8
424
  8421504
176
     1
 43
1.0
176
     1
 76
     1
176
     1
 77
     6
176
     1
 78
     2
176
     1
 67
     7
176
     1
 79
     5
176
     1
170
     0
176
     1
171
     0
176
     1
290
     0
176
     1
 93
        1
176
     1
 44
0.0
176
     1
173
     0
176
     1
  0
VISUALSTYLE
  5
34
102
{ACAD_REACTORS
330
2A
102
}
330
2A
100
AcDbVisualStyle
  2
Conceptual
 70
     9
177
     2
291
     0
 71
     3
176
     1
 72
     2
176
     1
 73
     0
176
     1
 90
        0
176
     1
 40
-0.6
176
     1
 41
-30.0
176
     1
 62
     5
 63
     7
421
 16777215
176
     1
 74
     2
176
     1
 91
        2
176
     1
 64
     7
176
     1
 65
   257
176
     1
 75
     1
176
     1
175
     1
176
     1
 42
40.0
176
     1
 92
        8
176
     1
 66
     7
176
     1
 43
1.0
176
     1
 76
     1
176
     1
 77
     6
176
     1
 78
     2
176
     1
 67
     7
176
     1
 79
     3
176
     1
170
     0
176
     1
171
     0
176
     1
290
     0
176
     1
 93
        1
176
     1
 44
0.0
176
     1
173
     0
176
     1
  0
VISUALSTYLE
  5
35
102
{ACAD_REACTORS
330
2A
102
}
330
2A
100
AcDbVisualStyle
  2
Dim
 70
    11
177
     2
291
     1
 71
     2
176
     1
 72
     2
176
     1
 73
     0
176
     1
 90
        0
176
     1
 40
-0.6
176
     1
 41
-30.0
176
     1
 62
     5
 63
     7
421
 16777215
176
     1
 74
     1
176
     1
 91
        4
176
     1
 64
     7
176
     1
 65
   257
176
     1
 75
     1
176
     1
175
     1
176
     1
 42
1.0
176
     1
 92
        8
176
     1
 66
     7
176
     1
 43
1.0
176
     1
 76
     1
176
     1
 77
     6
176
     1
 78
     2
176
     1
 67
     7
176
     1
 79
     5
176
     1
170
     0
176
     1
171
     0
176
     1
290
     0
176
     1
 93
        1
176
     1
 44
-50.0
176
     1
173
     0
176
     1
  0
VISUALSTYLE
  5
39
102
{ACAD_REACTORS
330
2A
102
}
330
2A
100
AcDbVisualStyle
  2
Facepattern
 70
    15
177
     2
291
     1
 71
     2
176
     1
 72
     2
176
     1
 73
     0
176
     1
 90
        0
176
     1
 40
-0.6
176
     1
 41
-30.0
176
     1
 62
     5
 63
     7
421
 16777215
176
     1
 74
     1
176
     1
 91
        4
176
     1
 64
     7
176
     1
 65
   257
176
     1
 75
     1
176
     1
175
     1
176
     1
 42
1.0
176
     1
 92
        8
176
     1
 66
     7
176
     1
 43
1.0
176
     1
 76
     1
176
     1
 77
     6
176
     1
 78
     2
176
     1
 67
     7
176
     1
 79
     5
176
     1
170
     0
176
     1
171
     0
176
     1
290
     0
176
     1
 93
        1
176
     1
 44
0.0
176
     1
173
     0
176
     1
  0
VISUALSTYLE
  5
2B
102
{ACAD_REACTORS
330
2A
102
}
330
2A
100
AcDbVisualStyle
  2
Flat
 70
     0
177
     2
291
     1
 71
     2
176
     1
 72
     1
176
     1
 73
     1
176
     1
 90
        2
176
     1
 40
-0.6
176
     1
 41
30.0
176
     1
 62
     5
 63
     7
421
 16777215
176
     1
 74
     0
176
     1
 91
        4
176
     1
 64
     7
176
     1
 65
   257
176
     1
 75
     1
176
     1
175
     1
176
     1
 42
1.0
176
     1
 92
        8
176
     1
 66
     7
176
     1
 43
1.0
176
     1
 76
     1
176
     1
 77
     6
176
     1
 78
     2
176
     1
 67
     7
176
     1
 79
     5
176
     1
170
     0
176
     1
171
     0
176
     1
290
     0
176
     1
 93
       13
176
     1
 44
0.0
176
     1
173
     0
176
     1
  0
VISUALSTYLE
  5
2C
102
{ACAD_REACTORS
330
2A
102
}
330
2A
100
AcDbVisualStyle
  2
FlatWithEdges
 70
     1
177
     2
291
     1
 71
     2
176
     1
 72
     1
176
     1
 73
     1
176
     1
 90
        2
176
     1
 40
-0.6
176
     1
 41
30.0
176
     1
 62
     5
 63
     7
421
 16777215
176
     1
 74
     1
176
     1
 91
        4
176
     1
 64
     7
176
     1
 65
   257
176
     1
 75
     1
176
     1
175
     1
176
     1
 42
1.0
176
     1
 92
        0
176
     1
 66
   257
176
     1
 43
1.0
176
     1
 76
     1
176
     1
 77
     6
176
     1
 78
     2
176
     1
 67
     7
176
     1
 79
     5
176
     1
170
     0
176
     1
171
     0
176
     1
290
     0
176
     1
 93
       13
176
     1
 44
0.0
176
     1
173
     0
176
     1
  0
VISUALSTYLE
  5
2D
102
{ACAD_REACTORS
330
2A
102
}
330
2A
100
AcDbVisualStyle
  2
Gouraud
 70
     2
177
     2
291
     1
 71
     2
176
     1
 72
     2
176
     1
 73
     1
176
     1
 90
        2
176
     1
 40
-0.6
176
     1
 41
30.0
176
     1
 62
     5
 63
     7
421
 16777215
176
     1
 74
     0
176
     1
 91
        4
176
     1
 64
     7
176
     1
 65
   257
176
     1
 75
     1
176
     1
175
     1
176
     1
 42
1.0
176
     1
 92
        0
176
     1
 66
     7
176
     1
 43
1.0
176
     1
 76
     1
176
     1
 77
     6
176
     1
 78
     2
176
     1
 67
     7
176
     1
 79
     5
176
     1
170
     0
176
     1
171
     0
176
     1
290
     0
176
     1
 93
       13
176
     1
 44
0.0
176
     1
173
     0
176
     1
  0
VISUALSTYLE
  5
2E
102
{ACAD_REACTORS
330
2A
102
}
330
2A
100
AcDbVisualStyle
  2
GouraudWithEdges
 70
     3
177
     2
291
     1
 71
     2
176
     1
 72
     2
176
     1
 73
     1
176
     1
 90
        2
176
     1
 40
-0.6
176
     1
 41
30.0
176
     1
 62
     5
 63
     7
421
 16777215
176
     1
 74
     1
176
     1
 91
        4
176
     1
 64
     7
176
     1
 65
   257
176
     1
 75
     1
176
     1
175
     1
176
     1
 42
1.0
176
     1
 92
        0
176
     1
 66
   257
176
     1
 43
1.0
176
     1
 76
     1
176
     1
 77
     6
176
     1
 78
     2
176
     1
 67
     7
176
     1
 79
     5
176
     1
170
     0
176
     1
171
     0
176
     1
290
     0
176
     1
 93
       13
176
     1
 44
0.0
176
     1
173
     0
176
     1
  0
VISUALSTYLE
  5
38
102
{ACAD_REACTORS
330
2A
102
}
330
2A
100
AcDbVisualStyle
  2
Linepattern
 70
    14
177
     2
291
     1
 71
     2
176
     1
 72
     2
176
     1
 73
     0
176
     1
 90
        0
176
     1
 40
-0.6
176
     1
 41
-30.0
176
     1
 62
     5
 63
     7
421
 16777215
176
     1
 74
     1
176
     1
 91
        4
176
     1
 64
     7
176
     1
 65
   257
176
     1
 75
     7
176
     1
175
     7
176
     1
 42
1.0
176
     1
 92
        8
176
     1
 66
     7
176
     1
 43
1.0
176
     1
 76
     1
176
     1
 77
     6
176
     1
 78
     2
176
     1
 67
     7
176
     1
 79
     5
176
     1
170
     0
176
     1
171
     0
176
     1
290
     0
176
     1
 93
        1
176
     1
 44
0.0
176
     1
173
     0
176
     1
  0
VISUALSTYLE
  5
33
102
{ACAD_REACTORS
330
2A
102
}
330
2A
100
AcDbVisualStyle
  2
Realistic
 70
     8
177
     2
291
     0
 71
     2
176
     1
 72
     2
176
     1
 73
     0
176
     1
 90
        0
176
     1
 40
-0.6
176
     1
 41
-30.0
176
     1
 62
     5
 63
     7
421
 16777215
176
     1
 74
     1
176
     1
 91
        0
176
     1
 64
     7
176
     1
 65
   257
176
     1
 75
     1
176
     1
175
     1
176
     1
 42
1.0
176
     1
 92
        8
176
     1
 66
     8
424
  7895160
176
     1
 43
1.0
176
     1
 76
     1
176
     1
 77
     6
176
     1
 78
     2
176
     1
 67
     7
176
     1
 79
     5
176
     1
170
     0
176
     1
171
     0
176
     1
290
     0
176
     1
 93
       13
176
     1
 44
0.0
176
     1
173
     0
176
     1
  0
VISUALSTYLE
  5
37
102
{ACAD_REACTORS
330
2A
102
}
330
2A
100
AcDbVisualStyle
  2
Thicken
 70
    13
177
     2
291
     1
 71
     2
176
     1
 72
     2
176
     1
 73
     0
176
     1
 90
        0
176
     1
 40
-0.6
176
     1
 41
-30.0
176
     1
 62
     5
 63
     7
421
 16777215
176
     1
 74
     1
176
     1
 91
        4
176
     1
 64
     7
176
     1
 65
   257
176
     1
 75
     1
176
     1
175
     1
176
     1
 42
1.0
176
     1
 92
       12
176
     1
 66
     7
176
     1
 43
1.0
176
     1
 76
     1
176
     1
 77
     6
176
     1
 78
     2
176
     1
 67
     7
176
     1
 79
     5
176
     1
170
     0
176
     1
171
     0
176
     1
290
     0
176
     1
 93
        1
176
     1
 44
0.0
176
     1
173
     0
176
     1
  0
ENDSEC
  0
EOF
