  0
SECTION
  2
HEADER
  9
$ACADVER
  1
AC1024
  9
$ACADMAINTVER
 70
   226
  9
$DWGCODEPAGE
  3
ANSI_932
  9
$INSBASE
 10
0.0
 20
0.0
 30
0.0
  9
$EXTMIN
 10
1.000000000000000E+20
 20
1.000000000000000E+20
 30
1.000000000000000E+20
  9
$EXTMAX
 10
-1.000000000000000E+20
 20
-1.000000000000000E+20
 30
-1.000000000000000E+20
  9
$LIMMIN
 10
0.0
 20
0.0
  9
$LIMMAX
 10
12.0
 20
9.0
  9
$ORTHOMODE
 70
     0
  9
$REGENMODE
 70
     1
  9
$FILLMODE
 70
     1
  9
$QTEXTMODE
 70
     0
  9
$MIRRTEXT
 70
     0
  9
$LTSCALE
 40
1.0
  9
$ATTMODE
 70
     1
  9
$TEXTSIZE
 40
0.2
  9
$TRACEWID
 40
0.05
  9
$TEXTSTYLE
  7
Standard
  9
$CLAYER
  8
0
  9
$CELTYPE
  6
ByLayer
  9
$CECOLOR
 62
   256
  9
$CELTSCALE
 40
1.0
  9
$DISPSILH
 70
     0
  9
$DIMSCALE
 40
1.0
  9
$DIMASZ
 40
0.18
  9
$DIMEXO
 40
0.0625
  9
$DIMDLI
 40
0.38
  9
$DIMRND
 40
0.0
  9
$DIMDLE
 40
0.0
  9
$DIMEXE
 40
0.18
  9
$DIMTP
 40
0.0
  9
$DIMTM
 40
0.0
  9
$DIMTXT
 40
0.18
  9
$DIMCEN
 40
0.09
  9
$DIMTSZ
 40
0.0
  9
$DIMTOL
 70
     0
  9
$DIMLIM
 70
     0
  9
$DIMTIH
 70
     1
  9
$DIMTOH
 70
     1
  9
$DIMSE1
 70
     0
  9
$DIMSE2
 70
     0
  9
$DIMTAD
 70
     0
  9
$DIMZIN
 70
     0
  9
$DIMBLK
  1

  9
$DIMASO
 70
     1
  9
$DIMSHO
 70
     1
  9
$DIMPOST
  1

  9
$DIMAPOST
  1

  9
$DIMALT
 70
     0
  9
$DIMALTD
 70
     2
  9
$DIMALTF
 40
25.4
  9
$DIMLFAC
 40
1.0
  9
$DIMTOFL
 70
     0
  9
$DIMTVP
 40
0.0
  9
$DIMTIX
 70
     0
  9
$DIMSOXD
 70
     0
  9
$DIMSAH
 70
     0
  9
$DIMBLK1
  1

  9
$DIMBLK2
  1

  9
$DIMSTYLE
  2
Standard
  9
$DIMCLRD
 70
     0
  9
$DIMCLRE
 70
     0
  9
$DIMCLRT
 70
     0
  9
$DIMTFAC
 40
1.0
  9
$DIMGAP
 40
0.09
  9
$DIMJUST
 70
     0
  9
$DIMSD1
 70
     0
  9
$DIMSD2
 70
     0
  9
$DIMTOLJ
 70
     1
  9
$DIMTZIN
 70
     0
  9
$DIMALTZ
 70
     0
  9
$DIMALTTZ
 70
     0
  9
$DIMUPT
 70
     0
  9
$DIMDEC
 70
     4
  9
$DIMTDEC
 70
     4
  9
$DIMALTU
 70
     2
  9
$DIMALTTD
 70
     2
  9
$DIMTXSTY
  7
Standard
  9
$DIMAUNIT
 70
     0
  9
$DIMADEC
 70
     0
  9
$DIMALTRND
 40
0.0
  9
$DIMAZIN
 70
     0
  9
$DIMDSEP
 70
    46
  9
$DIMATFIT
 70
     3
  9
$DIMFRAC
 70
     0
  9
$DIMLDRBLK
  1

  9
$DIMLUNIT
 70
     2
  9
$DIMLWD
 70
    -2
  9
$DIMLWE
 70
    -2
  9
$DIMTMOVE
 70
     0
  9
$DIMFXL
 40
1.0
  9
$DIMFXLON
 70
     0
  9
$DIMJOGANG
 40
0.7853981633974483
  9
$DIMTFILL
 70
     0
  9
$DIMTFILLCLR
 70
     0
  9
$DIMARCSYM
 70
     0
  9
$DIMLTYPE
  6

  9
$DIMLTEX1
  6

  9
$DIMLTEX2
  6

  9
$DIMTXTDIRECTION
 70
     0
  9
$LUNITS
 70
     2
  9
$LUPREC
 70
     4
  9
$SKETCHINC
 40
0.1
  9
$FILLETRAD
 40
0.0
  9
$AUNITS
 70
     0
  9
$AUPREC
 70
     0
  9
$MENU
  1
.
  9
$ELEVATION
 40
0.0
  9
$PELEVATION
 40
0.0
  9
$THICKNESS
 40
0.0
  9
$LIMCHECK
 70
     0
  9
$CHAMFERA
 40
0.0
  9
$CHAMFERB
 40
0.0
  9
$CHAMFERC
 40
0.0
  9
$CHAMFERD
 40
0.0
  9
$SKPOLY
 70
     0
  9
$TDCREATE
 40
2459676.424305555
  9
$TDUCREATE
 40
2459676.049305556
  9
$TDUPDATE
 40
2459676.424305555
  9
$TDUUPDATE
 40
2459676.049305556
  9
$TDINDWG
 40
0.0000000000
  9
$TDUSRTIMER
 40
0.0000000000
  9
$USRTIMER
 70
     1
  9
$ANGBASE
 50
0.0
  9
$ANGDIR
 70
     0
  9
$PDMODE
 70
     0
  9
$PDSIZE
 40
0.0
  9
$PLINEWID
 40
0.0
  9
$SPLFRAME
 70
     0
  9
$SPLINETYPE
 70
     6
  9
$SPLINESEGS
 70
     8
  9
$HANDSEED
  5
14A
  9
$SURFTAB1
 70
     6
  9
$SURFTAB2
 70
     6
  9
$SURFTYPE
 70
     6
  9
$SURFU
 70
     6
  9
$SURFV
 70
     6
  9
$UCSBASE
  2

  9
$UCSNAME
  2

  9
$UCSORG
 10
0.0
 20
0.0
 30
0.0
  9
$UCSXDIR
 10
1.0
 20
0.0
 30
0.0
  9
$UCSYDIR
 10
0.0
 20
1.0
 30
0.0
  9
$UCSORTHOREF
  2

  9
$UCSORTHOVIEW
 70
     0
  9
$UCSORGTOP
 10
0.0
 20
0.0
 30
0.0
  9
$UCSORGBOTTOM
 10
0.0
 20
0.0
 30
0.0
  9
$UCSORGLEFT
 10
0.0
 20
0.0
 30
0.0
  9
$UCSORGRIGHT
 10
0.0
 20
0.0
 30
0.0
  9
$UCSORGFRONT
 10
0.0
 20
0.0
 30
0.0
  9
$UCSORGBACK
 10
0.0
 20
0.0
 30
0.0
  9
$PUCSBASE
  2

  9
$PUCSNAME
  2

  9
$PUCSORG
 10
0.0
 20
0.0
 30
0.0
  9
$PUCSXDIR
 10
1.0
 20
0.0
 30
0.0
  9
$PUCSYDIR
 10
0.0
 20
1.0
 30
0.0
  9
$PUCSORTHOREF
  2

  9
$PUCSORTHOVIEW
 70
     0
  9
$PUCSORGTOP
 10
0.0
 20
0.0
 30
0.0
  9
$PUCSORGBOTTOM
 10
0.0
 20
0.0
 30
0.0
  9
$PUCSORGLEFT
 10
0.0
 20
0.0
 30
0.0
  9
$PUCSORGRIGHT
 10
0.0
 20
0.0
 30
0.0
  9
$PUCSORGFRONT
 10
0.0
 20
0.0
 30
0.0
  9
$PUCSORGBACK
 10
0.0
 20
0.0
 30
0.0
  9
$USERI1
 70
     0
  9
$USERI2
 70
     0
  9
$USERI3
 70
     0
  9
$USERI4
 70
     0
  9
$USERI5
 70
     0
  9
$USERR1
 40
0.0
  9
$USERR2
 40
0.0
  9
$USERR3
 40
0.0
  9
$USERR4
 40
0.0
  9
$USERR5
 40
0.0
  9
$WORLDVIEW
 70
     1
  9
$SHADEDGE
 70
     3
  9
$SHADEDIF
 70
    70
  9
$TILEMODE
 70
     1
  9
$MAXACTVP
 70
    64
  9
$PINSBASE
 10
0.0
 20
0.0
 30
0.0
  9
$PLIMCHECK
 70
     0
  9
$PEXTMIN
 10
1.000000000000000E+20
 20
1.000000000000000E+20
 30
1.000000000000000E+20
  9
$PEXTMAX
 10
-1.000000000000000E+20
 20
-1.000000000000000E+20
 30
-1.000000000000000E+20
  9
$PLIMMIN
 10
0.0
 20
0.0
  9
$PLIMMAX
 10
12.0
 20
9.0
  9
$UNITMODE
 70
     0
  9
$VISRETAIN
 70
     1
  9
$PLINEGEN
 70
     0
  9
$PSLTSCALE
 70
     1
  9
$TREEDEPTH
 70
  3020
  9
$CMLSTYLE
  2
Standard
  9
$CMLJUST
 70
     0
  9
$CMLSCALE
 40
1.0
  9
$PROXYGRAPHICS
 70
     1
  9
$MEASUREMENT
 70
     0
  9
$CELWEIGHT
370
    -1
  9
$ENDCAPS
280
     0
  9
$JOINSTYLE
280
     0
  9
$LWDISPLAY
290
     1
  9
$INSUNITS
 70
     4
  9
$HYPERLINKBASE
  1

  9
$STYLESHEET
  1

  9
$XEDIT
290
     1
  9
$CEPSNTYPE
380
     0
  9
$PSTYLEMODE
290
     1
  9
$FINGERPRINTGUID
  2
{5B5311AF-DE15-9E43-8068-52F067DEC83A}
  9
$VERSIONGUID
  2
{AA2C21AF-5256-B74F-95D9-18A6B1937A2F}
  9
$EXTNAMES
290
     1
  9
$PSVPSCALE
 40
0.0
  9
$OLESTARTUP
290
     0
  9
$SORTENTS
280
   127
  9
$INDEXCTL
280
     0
  9
$HIDETEXT
280
     1
  9
$XCLIPFRAME
280
     2
  9
$HALOGAP
280
     0
  9
$OBSCOLOR
 70
   257
  9
$OBSLTYPE
280
     0
  9
$INTERSECTIONDISPLAY
280
     0
  9
$INTERSECTIONCOLOR
 70
   257
  9
$DIMASSOC
280
     2
  9
$PROJECTNAME
  1

  9
$CAMERADISPLAY
290
     0
  9
$LENSLENGTH
 40
50.0
  9
$CAMERAHEIGHT
 40
0.0
  9
$STEPSPERSEC
 40
2.0
  9
$STEPSIZE
 40
6.0
  9
$3DDWFPREC
 40
2.0
  9
$PSOLWIDTH
 40
0.25
  9
$PSOLHEIGHT
 40
4.0
  9
$LOFTANG1
 40
1.570796326794896
  9
$LOFTANG2
 40
1.570796326794896
  9
$LOFTMAG1
 40
0.0
  9
$LOFTMAG2
 40
0.0
  9
$LOFTPARAM
 70
     7
  9
$LOFTNORMALS
280
     1
  9
$LATITUDE
 40
37.795
  9
$LONGITUDE
 40
-122.394
  9
$NORTHDIRECTION
 40
0.0
  9
$TIMEZONE
 70
 -8000
  9
$LIGHTGLYPHDISPLAY
280
     1
  9
$TILEMODELIGHTSYNCH
280
     1
  9
$CMATERIAL
347
11
  9
$SOLIDHIST
280
     0
  9
$SHOWHIST
280
     1
  9
$DWFFRAME
280
     2
  9
$DGNFRAME
280
     0
  9
$REALWORLDSCALE
290
     1
  9
$INTERFERECOLOR
 62
     1
  9
$INTERFEREOBJVS
345
33
  9
$INTERFEREVPVS
346
30
  9
$CSHADOW
280
     0
  9
$SHADOWPLANELOCATION
 40
0.0
  0
ENDSEC
  0
SECTION
  2
CLASSES
  0
CLASS
  1
ACDBDICTIONARYWDFLT
  2
AcDbDictionaryWithDefault
  3
ObjectDBX Classes
 90
        0
 91
        1
280
     0
281
     0
  0
CLASS
  1
MATERIAL
  2
AcDbMaterial
  3
ObjectDBX Classes
 90
     1153
 91
        3
280
     0
281
     0
  0
CLASS
  1
VISUALSTYLE
  2
AcDbVisualStyle
  3
ObjectDBX Classes
 90
     4095
 91
       24
280
     0
281
     0
  0
CLASS
  1
SCALE
  2
AcDbScale
  3
ObjectDBX Classes
 90
     1153
 91
       17
280
     0
281
     0
  0
CLASS
  1
TABLESTYLE
  2
AcDbTableStyle
  3
ObjectDBX Classes
 90
     4095
 91
        1
280
     0
281
     0
  0
CLASS
  1
MLEADERSTYLE
  2
AcDbMLeaderStyle
  3
ACDB_MLEADERSTYLE_CLASS
 90
     4095
 91
        1
280
     0
281
     0
  0
CLASS
  1
ACDBSECTIONVIEWSTYLE
  2
AcDbSectionViewStyle
  3
ObjectDBX Classes
 90
     1025
 91
        1
280
     0
281
     0
  0
CLASS
  1
ACDBDETAILVIEWSTYLE
  2
AcDbDetailViewStyle
  3
ObjectDBX Classes
 90
     1025
 91
        1
280
     0
281
     0
  0
CLASS
  1
DICTIONARYVAR
  2
AcDbDictionaryVar
  3
ObjectDBX Classes
 90
        0
 91
        5
280
     0
281
     0
  0
CLASS
  1
CELLSTYLEMAP
  2
AcDbCellStyleMap
  3
ObjectDBX Classes
 90
     1152
 91
        1
280
     0
281
     0
  0
ENDSEC
  0
SECTION
  2
TABLES
  0
TABLE
  2
VPORT
  5
8
330
0
100
AcDbSymbolTable
 70
     1
  0
VPORT
  5
57
330
8
100
AcDbSymbolTableRecord
100
AcDbViewportTableRecord
  2
*Active
 70
     0
 10
0.0
 20
0.0
 11
1.0
 21
1.0
 12
0.0
 22
0.0
 13
0.0
 23
0.0
 14
1.0
 24
1.0
 15
0.0
 25
0.0
 16
0.0
 26
0.0
 36
1.0
 17
104.9999999737534
 27
-148.4999999628701
 37
0.0
 40
302.939999924255
 41
0.7070707070707534
 42
50.0
 43
0.0
 44
0.0
 50
0.0
 51
0.0
 71
     0
 72
   100
 73
     1
 74
     0
 75
     1
 76
     0
 77
     0
 78
     0
281
     0
 65
     1
110
0.0
120
0.0
130
0.0
111
1.0
121
0.0
131
0.0
112
0.0
122
1.0
132
0.0
 79
     0
146
0.0
 60
     3
 61
     5
292
     1
282
     1
141
0.0
142
0.0
 63
   250
421
  3355443
  0
ENDTAB
  0
TABLE
  2
LTYPE
  5
5
330
0
100
AcDbSymbolTable
 70
     2
  0
LTYPE
  5
5B
330
5
100
AcDbSymbolTableRecord
100
AcDbLinetypeTableRecord
  2
ByBlock
 70
     0
  3

 72
    65
 73
     0
 40
0.0
  0
LTYPE
  5
5C
330
5
100
AcDbSymbolTableRecord
100
AcDbLinetypeTableRecord
  2
ByLayer
 70
     0
  3

 72
    65
 73
     0
 40
0.0
  0
LTYPE
  5
5D
330
5
100
AcDbSymbolTableRecord
100
AcDbLinetypeTableRecord
  2
Continuous
 70
     0
  3
Solid line
 72
    65
 73
     0
 40
0.0
  0
LTYPE
  5
7E
330
5
100
AcDbSymbolTableRecord
100
AcDbLinetypeTableRecord
  2
AI-Linetype-0
 70
     0
  3
Adobe Illustrator Linetype No. 0
 72
    65
 73
     2
 40
1.411111110758333
 49
0.7055555553791667
 74
     0
 49
-0.7055555553791667
 74
     0
  0
ENDTAB
  0
TABLE
  2
LAYER
  5
2
330
0
100
AcDbSymbolTable
 70
     2
  0
LAYER
  5
54
330
2
100
AcDbSymbolTableRecord
100
AcDbLayerTableRecord
  2
0
 70
     0
 62
     7
  6
Continuous
370
    -3
390
F
347
21
  0
LAYER
  5
78
330
2
100
AcDbSymbolTableRecord
100
AcDbLayerTableRecord
  2
レイヤー 1
 70
     0
 62
     7
  6
Continuous
370
     0
390
F
347
21
  0
ENDTAB
  0
TABLE
  2
STYLE
  5
3
330
0
100
AcDbSymbolTable
 70
     2
  0
STYLE
  5
55
330
3
100
AcDbSymbolTableRecord
100
AcDbTextStyleTableRecord
  2
Standard
 70
     0
 40
0.0
 41
1.0
 50
0.0
 71
     0
 42
0.2
  3
txt
  4

  0
STYLE
  5
5A
330
3
100
AcDbSymbolTableRecord
100
AcDbTextStyleTableRecord
  2
Annotative
 70
     0
 40
0.0
 41
1.0
 50
0.0
 71
     0
 42
0.2
  3
txt
  4

1001
AcadAnnotative
1000
AnnotativeData
1002
{
1070
     1
1070
     1
1002
}
  0
ENDTAB
  0
TABLE
  2
VIEW
  5
6
330
0
100
AcDbSymbolTable
 70
     0
  0
ENDTAB
  0
TABLE
  2
UCS
  5
7
330
0
100
AcDbSymbolTable
 70
     0
  0
ENDTAB
  0
TABLE
  2
APPID
  5
9
330
0
100
AcDbSymbolTable
 70
     2
  0
APPID
  5
56
330
9
100
AcDbSymbolTableRecord
100
AcDbRegAppTableRecord
  2
ACAD
 70
     0
  0
APPID
  5
5E
330
9
100
AcDbSymbolTableRecord
100
AcDbRegAppTableRecord
  2
AcadAnnotative
 70
     0
  0
ENDTAB
  0
TABLE
  2
DIMSTYLE
  5
A
330
0
100
AcDbSymbolTable
 70
     2
100
AcDbDimStyleTable
 71
     0
  0
DIMSTYLE
105
58
330
A
100
AcDbSymbolTableRecord
100
AcDbDimStyleTableRecord
  2
Standard
 70
     0
340
55
  0
DIMSTYLE
105
59
330
A
100
AcDbSymbolTableRecord
100
AcDbDimStyleTableRecord
  2
Annotative
 70
     0
340
55
1001
AcadAnnotative
1000
AnnotativeData
1002
{
1070
     1
1070
     1
1002
}
  0
ENDTAB
  0
TABLE
  2
BLOCK_RECORD
  5
1
330
0
100
AcDbSymbolTable
 70
    16
  0
BLOCK_RECORD
  5
70
330
1
100
AcDbSymbolTableRecord
100
AcDbBlockTableRecord
  2
*Model_Space
340
73
 70
     0
280
     1
281
     0
  0
BLOCK_RECORD
  5
6C
330
1
100
AcDbSymbolTableRecord
100
AcDbBlockTableRecord
  2
*Paper_Space
340
6F
 70
     0
280
     1
281
     0
  0
BLOCK_RECORD
  5
74
330
1
100
AcDbSymbolTableRecord
100
AcDbBlockTableRecord
  2
*Paper_Space0
340
77
 70
     0
280
     1
281
     0
  0
BLOCK_RECORD
  5
79
330
1
100
AcDbSymbolTableRecord
100
AcDbBlockTableRecord
  2
Block_0
340
0
102
{BLKREFS
331
7A
102
}
 70
     0
280
     1
281
     0
  0
BLOCK_RECORD
  5
7F
330
1
100
AcDbSymbolTableRecord
100
AcDbBlockTableRecord
  2
Block_1
340
0
102
{BLKREFS
331
80
102
}
 70
     0
280
     1
281
     0
  0
BLOCK_RECORD
  5
86
330
1
100
AcDbSymbolTableRecord
100
AcDbBlockTableRecord
  2
Block_2
340
0
102
{BLKREFS
331
87
102
}
 70
     0
280
     1
281
     0
  0
BLOCK_RECORD
  5
8A
330
1
100
AcDbSymbolTableRecord
100
AcDbBlockTableRecord
  2
Block_3
340
0
102
{BLKREFS
331
8B
102
}
 70
     0
280
     1
281
     0
  0
BLOCK_RECORD
  5
A1
330
1
100
AcDbSymbolTableRecord
100
AcDbBlockTableRecord
  2
Block_4
340
0
102
{BLKREFS
331
A2
102
}
 70
     0
280
     1
281
     0
  0
BLOCK_RECORD
  5
B7
330
1
100
AcDbSymbolTableRecord
100
AcDbBlockTableRecord
  2
Block_5
340
0
102
{BLKREFS
331
B8
102
}
 70
     0
280
     1
281
     0
  0
BLOCK_RECORD
  5
BB
330
1
100
AcDbSymbolTableRecord
100
AcDbBlockTableRecord
  2
Block_6
340
0
102
{BLKREFS
331
BC
102
}
 70
     0
280
     1
281
     0
  0
BLOCK_RECORD
  5
C7
330
1
100
AcDbSymbolTableRecord
100
AcDbBlockTableRecord
  2
Block_7
340
0
102
{BLKREFS
331
C8
102
}
 70
     0
280
     1
281
     0
  0
BLOCK_RECORD
  5
CB
330
1
100
AcDbSymbolTableRecord
100
AcDbBlockTableRecord
  2
Block_8
340
0
102
{BLKREFS
331
CC
102
}
 70
     0
280
     1
281
     0
  0
BLOCK_RECORD
  5
DB
330
1
100
AcDbSymbolTableRecord
100
AcDbBlockTableRecord
  2
Block_9
340
0
102
{BLKREFS
331
DC
102
}
 70
     0
280
     1
281
     0
  0
BLOCK_RECORD
  5
DF
330
1
100
AcDbSymbolTableRecord
100
AcDbBlockTableRecord
  2
Block_10
340
0
102
{BLKREFS
331
E0
102
}
 70
     0
280
     1
281
     0
  0
BLOCK_RECORD
  5
EC
330
1
100
AcDbSymbolTableRecord
100
AcDbBlockTableRecord
  2
Block_11
340
0
102
{BLKREFS
331
ED
102
}
 70
     0
280
     1
281
     0
  0
BLOCK_RECORD
  5
F0
330
1
100
AcDbSymbolTableRecord
100
AcDbBlockTableRecord
  2
Block_12
340
0
102
{BLKREFS
331
F1
102
}
 70
     0
280
     1
281
     0
  0
BLOCK_RECORD
  5
FF
330
1
100
AcDbSymbolTableRecord
100
AcDbBlockTableRecord
  2
Block_13
340
0
102
{BLKREFS
331
100
102
}
 70
     0
280
     1
281
     0
  0
BLOCK_RECORD
  5
103
330
1
100
AcDbSymbolTableRecord
100
AcDbBlockTableRecord
  2
Block_14
340
0
102
{BLKREFS
331
104
102
}
 70
     0
280
     1
281
     0
  0
ENDTAB
  0
ENDSEC
  0
SECTION
  2
BLOCKS
  0
BLOCK
  5
71
330
70
100
AcDbEntity
  8
0
100
AcDbBlockBegin
  2
*Model_Space
 70
     0
 10
0.0
 20
0.0
 30
0.0
  3
*Model_Space
  1

  0
ENDBLK
  5
72
330
70
100
AcDbEntity
  8
0
100
AcDbBlockEnd
  0
BLOCK
  5
6D
330
6C
100
AcDbEntity
 67
     1
  8
0
100
AcDbBlockBegin
  2
*Paper_Space
 70
     0
 10
0.0
 20
0.0
 30
0.0
  3
*Paper_Space
  1

  0
ENDBLK
  5
6E
330
6C
100
AcDbEntity
 67
     1
  8
0
100
AcDbBlockEnd
  0
BLOCK
  5
75
330
74
100
AcDbEntity
 67
     1
  8
0
100
AcDbBlockBegin
  2
*Paper_Space0
 70
     0
 10
0.0
 20
0.0
 30
0.0
  3
*Paper_Space0
  1

  0
ENDBLK
  5
76
330
74
100
AcDbEntity
 67
     1
  8
0
100
AcDbBlockEnd
  0
BLOCK
  5
7B
330
79
100
AcDbEntity
  8
0
100
AcDbBlockBegin
  2
Block_0
 70
     0
 10
0.0
 20
0.0
 30
0.0
  3
Block_0
  1

  0
LINE
  5
7D
330
79
100
AcDbEntity
  8
レイヤー 1
  6
AI-Linetype-0
 62
   154
420
    23468
370
    25
100
AcDbLine
 10
107.8516804121327
 20
-153.9842343721697
 30
0.0
 11
117.8975347879426
 21
-153.9842343721697
 31
0.0
  0
INSERT
  5
80
330
79
100
AcDbEntity
  8
レイヤー 1
100
AcDbBlockReference
  2
Block_1
 10
0.0
 20
0.0
 30
0.0
  0
INSERT
  5
87
330
79
100
AcDbEntity
  8
レイヤー 1
100
AcDbBlockReference
  2
Block_2
 10
0.0
 20
0.0
 30
0.0
  0
ENDBLK
  5
7C
330
79
100
AcDbEntity
  8
0
100
AcDbBlockEnd
  0
BLOCK
  5
81
330
7F
100
AcDbEntity
  8
0
100
AcDbBlockBegin
  2
Block_1
 70
     0
 10
0.0
 20
0.0
 30
0.0
  3
Block_1
  1

  0
LINE
  5
83
330
7F
100
AcDbEntity
  8
レイヤー 1
 62
    18
420
        0
370
     9
100
AcDbLine
 10
112.658657962448
 20
-153.7781567086423
 30
0.0
 11
112.3918131045877
 21
-152.8143844753712
 31
0.0
  0
LINE
  5
84
330
7F
100
AcDbEntity
  8
レイヤー 1
 62
    18
420
        0
370
     9
100
AcDbLine
 10
112.658657962448
 20
-153.7781567086423
 30
0.0
 11
112.624223755071
 21
-152.1641961458375
 31
0.0
  0
LINE
  5
85
330
7F
100
AcDbEntity
  8
レイヤー 1
 62
    18
420
        0
370
     9
100
AcDbLine
 10
112.658657962448
 20
-153.7781567086423
 30
0.0
 11
112.909506039954
 21
-152.8099762532548
 31
0.0
  0
ENDBLK
  5
82
330
7F
100
AcDbEntity
  8
0
100
AcDbBlockEnd
  0
BLOCK
  5
88
330
86
100
AcDbEntity
  8
0
100
AcDbBlockBegin
  2
Block_2
 70
     0
 10
0.0
 20
0.0
 30
0.0
  3
Block_2
  1

  0
INSERT
  5
8B
330
86
100
AcDbEntity
  8
レイヤー 1
100
AcDbBlockReference
  2
Block_3
 10
0.0
 20
0.0
 30
0.0
  0
ENDBLK
  5
89
330
86
100
AcDbEntity
  8
0
100
AcDbBlockEnd
  0
BLOCK
  5
8C
330
8A
100
AcDbEntity
  8
0
100
AcDbBlockBegin
  2
Block_3
 70
     0
 10
0.0
 20
0.0
 30
0.0
  3
Block_3
  1

  0
SPLINE
  5
8E
330
8A
100
AcDbEntity
  8
レイヤー 1
100
AcDbSpline
210
0.0
220
0.0
230
1.0
 70
     9
 71
     3
 72
    17
 73
    13
 74
     0
 42
0.0000000001
 43
0.0000000001
 40
0.0
 40
0.0
 40
0.0
 40
0.0
 40
1.0
 40
1.0
 40
1.0
 40
2.0
 40
2.0
 40
2.0
 40
3.0
 40
3.0
 40
3.0
 40
4.0
 40
4.0
 40
4.0
 40
4.0
 10
108.6724364962694
 20
-151.0977538684755
 30
0.0
 10
108.6555555283917
 20
-151.1273816896487
 30
0.0
 10
108.6049126247585
 20
-151.2203992677504
 30
0.0
 10
108.5942328287542
 20
-151.2393472929193
 30
0.0
 10
108.78440209954
 20
-151.2986029352656
 30
0.0
 10
108.8057616915485
 20
-151.3051486166876
 30
0.0
 10
108.8777641871903
 20
-151.3327093805696
 30
0.0
 10
108.9325412054057
 20
-151.2458929743413
 30
0.0
 10
108.9559678547054
 20
-151.1718234214084
 30
0.0
 10
108.970781765292
 20
-151.0977538684755
 30
0.0
 10
108.970781765292
 20
-151.0977538684755
 30
0.0
 10
108.6724364962694
 20
-151.0977538684755
 30
0.0
 10
108.6724364962694
 20
-151.0977538684755
 30
0.0
  0
SPLINE
  5
8F
330
8A
100
AcDbEntity
  8
レイヤー 1
100
AcDbSpline
210
0.0
220
0.0
230
1.0
 70
    11
 71
     3
 72
    20
 73
    16
 74
     0
 42
0.0000000001
 43
0.0000000001
 40
0.0
 40
0.0
 40
0.0
 40
0.0
 40
1.0
 40
1.0
 40
1.0
 40
2.0
 40
2.0
 40
2.0
 40
3.0
 40
3.0
 40
3.0
 40
4.0
 40
4.0
 40
4.0
 40
5.0
 40
5.0
 40
5.0
 40
5.0
 10
108.6090467393408
 20
-150.2475043027159
 30
0.0
 10
108.6090467393408
 20
-150.2475043027159
 30
0.0
 10
108.5773518608765
 20
-150.2475043027159
 30
0.0
 10
108.5773518608765
 20
-150.2475043027159
 30
0.0
 10
108.6238606499273
 20
-150.3467230526911
 30
0.0
 10
108.6555555283917
 20
-150.4269937774974
 30
0.0
 10
108.6893174641471
 20
-150.5541178009031
 30
0.0
 10
108.6893174641471
 20
-150.5541178009031
 30
0.0
 10
108.8967122123591
 20
-150.5541178009031
 30
0.0
 10
108.8967122123591
 20
-150.5541178009031
 30
0.0
 10
108.9284070908234
 20
-150.4611002228014
 30
0.0
 10
108.9518337401231
 20
-150.3763508738642
 30
0.0
 10
108.9749158798743
 20
-150.2475043027159
 30
0.0
 10
108.9749158798743
 20
-150.2475043027159
 30
0.0
 10
108.6090467393408
 20
-150.2475043027159
 30
0.0
 10
108.6090467393408
 20
-150.2475043027159
 30
0.0
  0
SPLINE
  5
90
330
8A
100
AcDbEntity
  8
レイヤー 1
100
AcDbSpline
210
0.0
220
0.0
230
1.0
 70
     9
 71
     3
 72
   242
 73
   238
 74
     0
 42
0.0000000001
 43
0.0000000001
 40
0.0
 40
0.0
 40
0.0
 40
0.0
 40
1.0
 40
1.0
 40
1.0
 40
2.0
 40
2.0
 40
2.0
 40
3.0
 40
3.0
 40
3.0
 40
4.0
 40
4.0
 40
4.0
 40
5.0
 40
5.0
 40
5.0
 40
6.0
 40
6.0
 40
6.0
 40
7.0
 40
7.0
 40
7.0
 40
8.0
 40
8.0
 40
8.0
 40
9.0
 40
9.0
 40
9.0
 40
10.0
 40
10.0
 40
10.0
 40
11.0
 40
11.0
 40
11.0
 40
12.0
 40
12.0
 40
12.0
 40
13.0
 40
13.0
 40
13.0
 40
14.0
 40
14.0
 40
14.0
 40
15.0
 40
15.0
 40
15.0
 40
16.0
 40
16.0
 40
16.0
 40
17.0
 40
17.0
 40
17.0
 40
18.0
 40
18.0
 40
18.0
 40
19.0
 40
19.0
 40
19.0
 40
20.0
 40
20.0
 40
20.0
 40
21.0
 40
21.0
 40
21.0
 40
22.0
 40
22.0
 40
22.0
 40
23.0
 40
23.0
 40
23.0
 40
24.0
 40
24.0
 40
24.0
 40
25.0
 40
25.0
 40
25.0
 40
26.0
 40
26.0
 40
26.0
 40
27.0
 40
27.0
 40
27.0
 40
28.0
 40
28.0
 40
28.0
 40
29.0
 40
29.0
 40
29.0
 40
30.0
 40
30.0
 40
30.0
 40
31.0
 40
31.0
 40
31.0
 40
32.0
 40
32.0
 40
32.0
 40
33.0
 40
33.0
 40
33.0
 40
34.0
 40
34.0
 40
34.0
 40
35.0
 40
35.0
 40
35.0
 40
36.0
 40
36.0
 40
36.0
 40
37.0
 40
37.0
 40
37.0
 40
38.0
 40
38.0
 40
38.0
 40
39.0
 40
39.0
 40
39.0
 40
40.0
 40
40.0
 40
40.0
 40
41.0
 40
41.0
 40
41.0
 40
42.0
 40
42.0
 40
42.0
 40
43.0
 40
43.0
 40
43.0
 40
44.0
 40
44.0
 40
44.0
 40
45.0
 40
45.0
 40
45.0
 40
46.0
 40
46.0
 40
46.0
 40
47.0
 40
47.0
 40
47.0
 40
48.0
 40
48.0
 40
48.0
 40
49.0
 40
49.0
 40
49.0
 40
50.0
 40
50.0
 40
50.0
 40
51.0
 40
51.0
 40
51.0
 40
52.0
 40
52.0
 40
52.0
 40
53.0
 40
53.0
 40
53.0
 40
54.0
 40
54.0
 40
54.0
 40
55.0
 40
55.0
 40
55.0
 40
56.0
 40
56.0
 40
56.0
 40
57.0
 40
57.0
 40
57.0
 40
58.0
 40
58.0
 40
58.0
 40
59.0
 40
59.0
 40
59.0
 40
60.0
 40
60.0
 40
60.0
 40
61.0
 40
61.0
 40
61.0
 40
62.0
 40
62.0
 40
62.0
 40
63.0
 40
63.0
 40
63.0
 40
64.0
 40
64.0
 40
64.0
 40
65.0
 40
65.0
 40
65.0
 40
66.0
 40
66.0
 40
66.0
 40
67.0
 40
67.0
 40
67.0
 40
68.0
 40
68.0
 40
68.0
 40
69.0
 40
69.0
 40
69.0
 40
70.0
 40
70.0
 40
70.0
 40
71.0
 40
71.0
 40
71.0
 40
72.0
 40
72.0
 40
72.0
 40
73.0
 40
73.0
 40
73.0
 40
74.0
 40
74.0
 40
74.0
 40
75.0
 40
75.0
 40
75.0
 40
76.0
 40
76.0
 40
76.0
 40
77.0
 40
77.0
 40
77.0
 40
78.0
 40
78.0
 40
78.0
 40
79.0
 40
79.0
 40
79.0
 40
79.0
 10
109.2374321558503
 20
-150.7125921932246
 30
0.0
 10
109.2374321558503
 20
-150.7125921932246
 30
0.0
 10
108.9835286185874
 20
-150.7125921932246
 30
0.0
 10
108.9835286185874
 20
-150.7125921932246
 30
0.0
 10
108.9835286185874
 20
-150.7125921932246
 30
0.0
 10
108.7061984320248
 20
-150.7125921932246
 30
0.0
 10
108.7061984320248
 20
-150.7125921932246
 30
0.0
 10
108.7061984320248
 20
-150.7125921932246
 30
0.0
 10
108.8333224554305
 20
-150.7549668676932
 30
0.0
 10
108.8333224554305
 20
-150.7549668676932
 30
0.0
 10
108.8436577418863
 20
-150.759445491824
 30
0.0
 10
108.8564045951817
 20
-150.7656466636975
 30
0.0
 10
108.8564045951817
 20
-150.7783935169929
 30
0.0
 10
108.8564045951817
 20
-150.7994085994529
 30
0.0
 10
108.8247097167174
 20
-150.8059542808749
 30
0.0
 10
108.8036946342574
 20
-150.8100883954572
 30
0.0
 10
108.7930148382531
 20
-150.8331705352084
 30
0.0
 10
108.76338701708
 20
-150.8989718589766
 30
0.0
 10
108.7444389919111
 20
-150.9434135907364
 30
0.0
 10
108.7444389919111
 20
-150.9434135907364
 30
0.0
 10
109.0152234970517
 20
-150.9434135907364
 30
0.0
 10
109.0152234970517
 20
-150.9434135907364
 30
0.0
 10
109.1061740178623
 20
-150.9434135907364
 30
0.0
 10
109.3028889700701
 20
-150.9389349666055
 30
0.0
 10
109.4444823945138
 20
-150.9306667374409
 30
0.0
 10
109.4444823945138
 20
-150.9306667374409
 30
0.0
 10
109.4444823945138
 20
-151.1084336644798
 30
0.0
 10
109.4444823945138
 20
-151.1084336644798
 30
0.0
 10
109.3621446124164
 20
-151.103955040349
 30
0.0
 10
109.3407850204078
 20
-151.103955040349
 30
0.0
 10
109.1609510360778
 20
-151.0998209257667
 30
0.0
 10
109.1292561576135
 20
-151.2541612035059
 30
0.0
 10
109.0848144258538
 20
-151.3347764378607
 30
0.0
 10
109.0403726940941
 20
-151.4043673666628
 30
0.0
 10
109.1609510360778
 20
-151.4636230090091
 30
0.0
 10
109.2670599770235
 20
-151.5314913900685
 30
0.0
 10
109.370412841581
 20
-151.613829172166
 30
0.0
 10
109.370412841581
 20
-151.613829172166
 30
0.0
 10
109.2522460664369
 20
-151.7809163032006
 30
0.0
 10
109.2522460664369
 20
-151.7809163032006
 30
0.0
 10
109.2288194171372
 20
-151.7619682780317
 30
0.0
 10
109.2160725638418
 20
-151.7537000488671
 30
0.0
 10
109.1041069605712
 20
-151.66895069993
 30
0.0
 10
109.0551866046806
 20
-151.6307101400437
 30
0.0
 10
108.9962754718829
 20
-151.5948811469971
 30
0.0
 10
108.915660237528
 20
-151.5504394152374
 30
0.0
 10
108.7041313747337
 20
-151.7368190809894
 30
0.0
 10
108.4988036838128
 20
-151.7599012207405
 30
0.0
 10
108.2090711535033
 20
-151.7895290419137
 30
0.0
 10
108.2090711535033
 20
-151.7895290419137
 30
0.0
 10
108.1053737793972
 20
-151.6096950575837
 30
0.0
 10
108.1053737793972
 20
-151.6096950575837
 30
0.0
 10
108.4226670735888
 20
-151.6055609430014
 30
0.0
 10
108.5983669433365
 20
-151.5800672364105
 30
0.0
 10
108.7506401637845
 20
-151.4701686904311
 30
0.0
 10
108.6321288790919
 20
-151.4191812772494
 30
0.0
 10
108.5432454155725
 20
-151.3919650229159
 30
0.0
 10
108.5074164225259
 20
-151.3792181696205
 30
0.0
 10
108.488468397357
 20
-151.4067789335024
 30
0.0
 10
108.4736544867705
 20
-151.4257269586713
 30
0.0
 10
108.4460937228884
 20
-151.4594888944268
 30
0.0
 10
108.4460937228884
 20
-151.4594888944268
 30
0.0
 10
108.2493787706807
 20
-151.3771511123293
 30
0.0
 10
108.2493787706807
 20
-151.3771511123293
 30
0.0
 10
108.3317165527782
 20
-151.2965358779745
 30
0.0
 10
108.3930392524156
 20
-151.2014512425816
 30
0.0
 10
108.4502278374708
 20
-151.0998209257667
 30
0.0
 10
108.260058566685
 20
-151.103955040349
 30
0.0
 10
108.2386989746764
 20
-151.103955040349
 30
0.0
 10
108.1563611925789
 20
-151.1084336644798
 30
0.0
 10
108.1563611925789
 20
-151.1084336644798
 30
0.0
 10
108.1563611925789
 20
-150.9306667374409
 30
0.0
 10
108.1563611925789
 20
-150.9306667374409
 30
0.0
 10
108.2958875597316
 20
-150.9368679093144
 30
0.0
 10
108.5053493652347
 20
-150.9413465334452
 30
0.0
 10
108.5308430718256
 20
-150.9413465334452
 30
0.0
 10
108.5477240397033
 20
-150.9072400881412
 30
0.0
 10
108.6025010579188
 20
-150.7866617461575
 30
0.0
 10
108.6217935926362
 20
-150.7125921932246
 30
0.0
 10
108.6025010579188
 20
-150.7125921932246
 30
0.0
 10
108.4250786404284
 20
-150.7191378746466
 30
0.0
 10
108.2304307455118
 20
-150.731884727942
 30
0.0
 10
108.2304307455118
 20
-150.731884727942
 30
0.0
 10
108.2304307455118
 20
-150.8652099232212
 30
0.0
 10
108.2304307455118
 20
-150.8652099232212
 30
0.0
 10
108.1815103896213
 20
-150.8903591202635
 30
0.0
 10
108.122254747275
 20
-150.9220539987278
 30
0.0
 10
107.9892740615443
 20
-150.9878553224961
 30
0.0
 10
107.9892740615443
 20
-150.9878553224961
 30
0.0
 10
107.9892740615443
 20
-151.1335828615221
 30
0.0
 10
107.9892740615443
 20
-151.1335828615221
 30
0.0
 10
107.9892740615443
 20
-151.1335828615221
 30
0.0
 10
107.9892740615443
 20
-151.6014268284191
 30
0.0
 10
107.9892740615443
 20
-151.6014268284191
 30
0.0
 10
107.9892740615443
 20
-151.7282063422763
 30
0.0
 10
107.9531005589492
 20
-151.7874619846226
 30
0.0
 10
107.6695692005131
 20
-151.7788492459095
 30
0.0
 10
107.6695692005131
 20
-151.7788492459095
 30
0.0
 10
107.5658718264071
 20
-151.5717990072459
 30
0.0
 10
107.5658718264071
 20
-151.5717990072459
 30
0.0
 10
107.6296060928843
 20
-151.5842013509928
 30
0.0
 10
107.6781819392263
 20
-151.5886799751237
 30
0.0
 10
107.7184895564037
 20
-151.5886799751237
 30
0.0
 10
107.7946261666277
 20
-151.5886799751237
 30
0.0
 10
107.8049614530835
 20
-151.5652533258239
 30
0.0
 10
107.8049614530835
 20
-151.4997965116042
 30
0.0
 10
107.8049614530835
 20
-151.4997965116042
 30
0.0
 10
107.8049614530835
 20
-151.0701931045935
 30
0.0
 10
107.8049614530835
 20
-151.0701931045935
 30
0.0
 10
107.7078097603994
 20
-151.110500721771
 30
0.0
 10
107.6909287925217
 20
-151.1167018936444
 30
0.0
 10
107.6444200034708
 20
-151.1359944283618
 30
0.0
 10
107.63994137934
 20
-151.1570095108218
 30
0.0
 10
107.6358072647577
 20
-151.186637331995
 30
0.0
 10
107.6168592395888
 20
-151.186637331995
 30
0.0
 10
107.6082465008757
 20
-151.186637331995
 30
0.0
 10
107.5979112144199
 20
-151.1825032174127
 30
0.0
 10
107.591365532998
 20
-151.159076568113
 30
0.0
 10
107.591365532998
 20
-151.159076568113
 30
0.0
 10
107.5386555720736
 20
-150.9664957304875
 30
0.0
 10
107.5386555720736
 20
-150.9664957304875
 30
0.0
 10
107.6843831110997
 20
-150.9199869414367
 30
0.0
 10
107.750184434868
 20
-150.8969048016855
 30
0.0
 10
107.8049614530835
 20
-150.8755452096769
 30
0.0
 10
107.8049614530835
 20
-150.8755452096769
 30
0.0
 10
107.8049614530835
 20
-150.4631672800925
 30
0.0
 10
107.8049614530835
 20
-150.4631672800925
 30
0.0
 10
107.8049614530835
 20
-150.4631672800925
 30
0.0
 10
107.7522514921591
 20
-150.4631672800925
 30
0.0
 10
107.7522514921591
 20
-150.4631672800925
 30
0.0
 10
107.7522514921591
 20
-150.4631672800925
 30
0.0
 10
107.674047824644
 20
-150.4631672800925
 30
0.0
 10
107.674047824644
 20
-150.4631672800925
 30
0.0
 10
107.6061794435845
 20
-150.4631672800925
 30
0.0
 10
107.5979112144199
 20
-150.4631672800925
 30
0.0
 10
107.5617377118248
 20
-150.469368451966
 30
0.0
 10
107.5617377118248
 20
-150.469368451966
 30
0.0
 10
107.5617377118248
 20
-150.2747205570494
 30
0.0
 10
107.5617377118248
 20
-150.2747205570494
 30
0.0
 10
107.5892984757068
 20
-150.2812662384713
 30
0.0
 10
107.5979112144199
 20
-150.2812662384713
 30
0.0
 10
107.667502143222
 20
-150.2812662384713
 30
0.0
 10
107.667502143222
 20
-150.2812662384713
 30
0.0
 10
107.8008273385012
 20
-150.2812662384713
 30
0.0
 10
107.8008273385012
 20
-150.2812662384713
 30
0.0
 10
107.8008273385012
 20
-150.2113308001208
 30
0.0
 10
107.8008273385012
 20
-150.1289930180233
 30
0.0
 10
107.79876028121
 20
-150.1245143938925
 30
0.0
 10
107.7901475424969
 20
-149.9446804095624
 30
0.0
 10
107.7901475424969
 20
-149.9257323843935
 30
0.0
 10
107.7880804852057
 20
-149.8792235953427
 30
0.0
 10
107.7880804852057
 20
-149.8792235953427
 30
0.0
 10
108.0040879721309
 20
-149.8878363340558
 30
0.0
 10
108.0040879721309
 20
-149.8878363340558
 30
0.0
 10
108.0144232585866
 20
-149.8878363340558
 30
0.0
 10
108.0357828505952
 20
-149.8899033913469
 30
0.0
 10
108.0357828505952
 20
-149.9067843592247
 30
0.0
 10
108.0357828505952
 20
-149.9257323843935
 30
0.0
 10
108.0209689400086
 20
-149.9364121803978
 30
0.0
 10
107.9954752334178
 20
-149.9553602055667
 30
0.0
 10
107.9954752334178
 20
-150.0060031091999
 30
0.0
 10
107.9892740615443
 20
-150.2347574494204
 30
0.0
 10
107.9913411188355
 20
-150.2812662384713
 30
0.0
 10
108.1201876899838
 20
-150.2812662384713
 30
0.0
 10
108.1329345432793
 20
-150.2812662384713
 30
0.0
 10
108.2304307455118
 20
-150.2726534997582
 30
0.0
 10
108.2304307455118
 20
-150.2726534997582
 30
0.0
 10
108.2304307455118
 20
-150.4673013946748
 30
0.0
 10
108.2304307455118
 20
-150.4673013946748
 30
0.0
 10
108.1921901856255
 20
-150.4652343373837
 30
0.0
 10
108.1246663141147
 20
-150.4611002228014
 30
0.0
 10
107.9892740615443
 20
-150.4631672800925
 30
0.0
 10
107.9892740615443
 20
-150.4631672800925
 30
0.0
 10
107.9892740615443
 20
-150.8014756567441
 30
0.0
 10
107.9892740615443
 20
-150.8014756567441
 30
0.0
 10
108.0440510797598
 20
-150.7783935169929
 30
0.0
 10
108.1098524035281
 20
-150.7508327531109
 30
0.0
 10
108.1584282498701
 20
-150.7274061038112
 30
0.0
 10
108.1584282498701
 20
-150.7274061038112
 30
0.0
 10
108.1584282498701
 20
-150.5499836863208
 30
0.0
 10
108.1584282498701
 20
-150.5499836863208
 30
0.0
 10
108.2724609104319
 20
-150.5623860300677
 30
0.0
 10
108.3909721951245
 20
-150.5623860300677
 30
0.0
 10
108.5074164225259
 20
-150.5623860300677
 30
0.0
 10
108.4839897732262
 20
-150.4673013946748
 30
0.0
 10
108.4567735188927
 20
-150.3849636125773
 30
0.0
 10
108.3930392524156
 20
-150.2516384172982
 30
0.0
 10
108.3485975206559
 20
-150.2537054745893
 30
0.0
 10
108.2662597385584
 20
-150.2578395891716
 30
0.0
 10
108.2280191786721
 20
-150.2599066464628
 30
0.0
 10
108.2280191786721
 20
-150.2599066464628
 30
0.0
 10
108.2280191786721
 20
-150.0800726621328
 30
0.0
 10
108.2280191786721
 20
-150.0800726621328
 30
0.0
 10
108.3530761447867
 20
-150.0886854008459
 30
0.0
 10
108.5263644476948
 20
-150.0928195154282
 30
0.0
 10
108.6090467393408
 20
-150.0928195154282
 30
0.0
 10
108.6090467393408
 20
-150.0928195154282
 30
0.0
 10
108.6913845214382
 20
-150.0928195154282
 30
0.0
 10
108.6913845214382
 20
-150.0928195154282
 30
0.0
 10
108.6913845214382
 20
-149.9298664989759
 30
0.0
 10
108.6913845214382
 20
-149.9195312125201
 30
0.0
 10
108.6893174641471
 20
-149.8644096847561
 30
0.0
 10
108.6893174641471
 20
-149.8644096847561
 30
0.0
 10
108.9135931802369
 20
-149.8899033913469
 30
0.0
 10
108.9135931802369
 20
-149.8899033913469
 30
0.0
 10
108.9177272948192
 20
-149.8899033913469
 30
0.0
 10
108.9390868868277
 20
-149.8919704486381
 30
0.0
 10
108.9390868868277
 20
-149.9088514165158
 30
0.0
 10
108.9390868868277
 20
-149.9236653271024
 30
0.0
 10
108.9284070908234
 20
-149.9322780658155
 30
0.0
 10
108.9008463269414
 20
-149.9470919764021
 30
0.0
 10
108.894645155068
 20
-150.0125487906219
 30
0.0
 10
108.8925780977768
 20
-150.0335638730819
 30
0.0
 10
108.8925780977768
 20
-150.0928195154282
 30
0.0
 10
108.8925780977768
 20
-150.0928195154282
 30
0.0
 10
108.9876627331697
 20
-150.0928195154282
 30
0.0
 10
108.9876627331697
 20
-150.0928195154282
 30
0.0
 10
109.0700005152672
 20
-150.0928195154282
 30
0.0
 10
109.2436333277238
 20
-150.0886854008459
 30
0.0
 10
109.3683457842898
 20
-150.0800726621328
 30
0.0
 10
109.3683457842898
 20
-150.0800726621328
 30
0.0
 10
109.3683457842898
 20
-150.2599066464628
 30
0.0
 10
109.3683457842898
 20
-150.2599066464628
 30
0.0
 10
109.3387179631167
 20
-150.2578395891716
 30
0.0
 10
109.2202066784241
 20
-150.2537054745893
 30
0.0
 10
109.1802435707952
 20
-150.2516384172982
 30
0.0
 10
109.1654296602086
 20
-150.3022813209313
 30
0.0
 10
109.1316677244532
 20
-150.4145914337505
 30
0.0
 10
109.0658664006849
 20
-150.5541178009031
 30
0.0
 10
109.1082410751535
 20
-150.5541178009031
 30
0.0
 10
109.3852267521675
 20
-150.5351697757342
 30
0.0
 10
109.446549451805
 20
-150.5327582088946
 30
0.0
 10
109.446549451805
 20
-150.5327582088946
 30
0.0
 10
109.446549451805
 20
-150.7170708173554
 30
0.0
 10
109.446549451805
 20
-150.7170708173554
 30
0.0
 10
109.4172661401804
 20
-150.7170708173554
 30
0.0
 10
109.4000406627541
 20
-150.7125921932246
 30
0.0
 10
109.2374321558503
 20
-150.7125921932246
 30
0.0
  0
HATCH
  5
91
330
8A
100
AcDbEntity
  8
レイヤー 1
 62
    18
420
        0
440
 33554687
100
AcDbHatch
 10
0.0
 20
0.0
 30
0.0
210
0.0
220
0.0
230
1.0
  2
SOLID
 70
     1
 71
     1
 91
        3
 92
        1
 93
        1
 72
     4
 94
        3
 73
     0
 74
     0
 95
       17
 96
       13
 40
0.0
 40
0.0
 40
0.0
 40
0.0
 40
1.0
 40
1.0
 40
1.0
 40
2.0
 40
2.0
 40
2.0
 40
3.0
 40
3.0
 40
3.0
 40
4.0
 40
4.0
 40
4.0
 40
4.0
 10
108.6724364962694
 20
-151.0977538684755
 10
108.6555555283917
 20
-151.1273816896487
 10
108.6049126247585
 20
-151.2203992677504
 10
108.5942328287542
 20
-151.2393472929193
 10
108.78440209954
 20
-151.2986029352656
 10
108.8057616915485
 20
-151.3051486166876
 10
108.8777641871903
 20
-151.3327093805696
 10
108.9325412054057
 20
-151.2458929743413
 10
108.9559678547054
 20
-151.1718234214084
 10
108.970781765292
 20
-151.0977538684755
 10
108.970781765292
 20
-151.0977538684755
 10
108.6724364962694
 20
-151.0977538684755
 10
108.6724364962694
 20
-151.0977538684755
 97
        0
 97
        1
330
8E
 92
        1
 93
        1
 72
     4
 94
        3
 73
     0
 74
     0
 95
       20
 96
       16
 40
0.0
 40
0.0
 40
0.0
 40
0.0
 40
1.0
 40
1.0
 40
1.0
 40
2.0
 40
2.0
 40
2.0
 40
3.0
 40
3.0
 40
3.0
 40
4.0
 40
4.0
 40
4.0
 40
5.0
 40
5.0
 40
5.0
 40
5.0
 10
108.6090467393408
 20
-150.2475043027159
 10
108.6090467393408
 20
-150.2475043027159
 10
108.5773518608765
 20
-150.2475043027159
 10
108.5773518608765
 20
-150.2475043027159
 10
108.6238606499273
 20
-150.3467230526911
 10
108.6555555283917
 20
-150.4269937774974
 10
108.6893174641471
 20
-150.5541178009031
 10
108.6893174641471
 20
-150.5541178009031
 10
108.8967122123591
 20
-150.5541178009031
 10
108.8967122123591
 20
-150.5541178009031
 10
108.9284070908234
 20
-150.4611002228014
 10
108.9518337401231
 20
-150.3763508738642
 10
108.9749158798743
 20
-150.2475043027159
 10
108.9749158798743
 20
-150.2475043027159
 10
108.6090467393408
 20
-150.2475043027159
 10
108.6090467393408
 20
-150.2475043027159
 97
        0
 97
        1
330
8F
 92
        1
 93
        1
 72
     4
 94
        3
 73
     0
 74
     0
 95
      242
 96
      238
 40
0.0
 40
0.0
 40
0.0
 40
0.0
 40
1.0
 40
1.0
 40
1.0
 40
2.0
 40
2.0
 40
2.0
 40
3.0
 40
3.0
 40
3.0
 40
4.0
 40
4.0
 40
4.0
 40
5.0
 40
5.0
 40
5.0
 40
6.0
 40
6.0
 40
6.0
 40
7.0
 40
7.0
 40
7.0
 40
8.0
 40
8.0
 40
8.0
 40
9.0
 40
9.0
 40
9.0
 40
10.0
 40
10.0
 40
10.0
 40
11.0
 40
11.0
 40
11.0
 40
12.0
 40
12.0
 40
12.0
 40
13.0
 40
13.0
 40
13.0
 40
14.0
 40
14.0
 40
14.0
 40
15.0
 40
15.0
 40
15.0
 40
16.0
 40
16.0
 40
16.0
 40
17.0
 40
17.0
 40
17.0
 40
18.0
 40
18.0
 40
18.0
 40
19.0
 40
19.0
 40
19.0
 40
20.0
 40
20.0
 40
20.0
 40
21.0
 40
21.0
 40
21.0
 40
22.0
 40
22.0
 40
22.0
 40
23.0
 40
23.0
 40
23.0
 40
24.0
 40
24.0
 40
24.0
 40
25.0
 40
25.0
 40
25.0
 40
26.0
 40
26.0
 40
26.0
 40
27.0
 40
27.0
 40
27.0
 40
28.0
 40
28.0
 40
28.0
 40
29.0
 40
29.0
 40
29.0
 40
30.0
 40
30.0
 40
30.0
 40
31.0
 40
31.0
 40
31.0
 40
32.0
 40
32.0
 40
32.0
 40
33.0
 40
33.0
 40
33.0
 40
34.0
 40
34.0
 40
34.0
 40
35.0
 40
35.0
 40
35.0
 40
36.0
 40
36.0
 40
36.0
 40
37.0
 40
37.0
 40
37.0
 40
38.0
 40
38.0
 40
38.0
 40
39.0
 40
39.0
 40
39.0
 40
40.0
 40
40.0
 40
40.0
 40
41.0
 40
41.0
 40
41.0
 40
42.0
 40
42.0
 40
42.0
 40
43.0
 40
43.0
 40
43.0
 40
44.0
 40
44.0
 40
44.0
 40
45.0
 40
45.0
 40
45.0
 40
46.0
 40
46.0
 40
46.0
 40
47.0
 40
47.0
 40
47.0
 40
48.0
 40
48.0
 40
48.0
 40
49.0
 40
49.0
 40
49.0
 40
50.0
 40
50.0
 40
50.0
 40
51.0
 40
51.0
 40
51.0
 40
52.0
 40
52.0
 40
52.0
 40
53.0
 40
53.0
 40
53.0
 40
54.0
 40
54.0
 40
54.0
 40
55.0
 40
55.0
 40
55.0
 40
56.0
 40
56.0
 40
56.0
 40
57.0
 40
57.0
 40
57.0
 40
58.0
 40
58.0
 40
58.0
 40
59.0
 40
59.0
 40
59.0
 40
60.0
 40
60.0
 40
60.0
 40
61.0
 40
61.0
 40
61.0
 40
62.0
 40
62.0
 40
62.0
 40
63.0
 40
63.0
 40
63.0
 40
64.0
 40
64.0
 40
64.0
 40
65.0
 40
65.0
 40
65.0
 40
66.0
 40
66.0
 40
66.0
 40
67.0
 40
67.0
 40
67.0
 40
68.0
 40
68.0
 40
68.0
 40
69.0
 40
69.0
 40
69.0
 40
70.0
 40
70.0
 40
70.0
 40
71.0
 40
71.0
 40
71.0
 40
72.0
 40
72.0
 40
72.0
 40
73.0
 40
73.0
 40
73.0
 40
74.0
 40
74.0
 40
74.0
 40
75.0
 40
75.0
 40
75.0
 40
76.0
 40
76.0
 40
76.0
 40
77.0
 40
77.0
 40
77.0
 40
78.0
 40
78.0
 40
78.0
 40
79.0
 40
79.0
 40
79.0
 40
79.0
 10
109.2374321558503
 20
-150.7125921932246
 10
109.2374321558503
 20
-150.7125921932246
 10
108.9835286185874
 20
-150.7125921932246
 10
108.9835286185874
 20
-150.7125921932246
 10
108.9835286185874
 20
-150.7125921932246
 10
108.7061984320248
 20
-150.7125921932246
 10
108.7061984320248
 20
-150.7125921932246
 10
108.7061984320248
 20
-150.7125921932246
 10
108.8333224554305
 20
-150.7549668676932
 10
108.8333224554305
 20
-150.7549668676932
 10
108.8436577418863
 20
-150.759445491824
 10
108.8564045951817
 20
-150.7656466636975
 10
108.8564045951817
 20
-150.7783935169929
 10
108.8564045951817
 20
-150.7994085994529
 10
108.8247097167174
 20
-150.8059542808749
 10
108.8036946342574
 20
-150.8100883954572
 10
108.7930148382531
 20
-150.8331705352084
 10
108.76338701708
 20
-150.8989718589766
 10
108.7444389919111
 20
-150.9434135907364
 10
108.7444389919111
 20
-150.9434135907364
 10
109.0152234970517
 20
-150.9434135907364
 10
109.0152234970517
 20
-150.9434135907364
 10
109.1061740178623
 20
-150.9434135907364
 10
109.3028889700701
 20
-150.9389349666055
 10
109.4444823945138
 20
-150.9306667374409
 10
109.4444823945138
 20
-150.9306667374409
 10
109.4444823945138
 20
-151.1084336644798
 10
109.4444823945138
 20
-151.1084336644798
 10
109.3621446124164
 20
-151.103955040349
 10
109.3407850204078
 20
-151.103955040349
 10
109.1609510360778
 20
-151.0998209257667
 10
109.1292561576135
 20
-151.2541612035059
 10
109.0848144258538
 20
-151.3347764378607
 10
109.0403726940941
 20
-151.4043673666628
 10
109.1609510360778
 20
-151.4636230090091
 10
109.2670599770235
 20
-151.5314913900685
 10
109.370412841581
 20
-151.613829172166
 10
109.370412841581
 20
-151.613829172166
 10
109.2522460664369
 20
-151.7809163032006
 10
109.2522460664369
 20
-151.7809163032006
 10
109.2288194171372
 20
-151.7619682780317
 10
109.2160725638418
 20
-151.7537000488671
 10
109.1041069605712
 20
-151.66895069993
 10
109.0551866046806
 20
-151.6307101400437
 10
108.9962754718829
 20
-151.5948811469971
 10
108.915660237528
 20
-151.5504394152374
 10
108.7041313747337
 20
-151.7368190809894
 10
108.4988036838128
 20
-151.7599012207405
 10
108.2090711535033
 20
-151.7895290419137
 10
108.2090711535033
 20
-151.7895290419137
 10
108.1053737793972
 20
-151.6096950575837
 10
108.1053737793972
 20
-151.6096950575837
 10
108.4226670735888
 20
-151.6055609430014
 10
108.5983669433365
 20
-151.5800672364105
 10
108.7506401637845
 20
-151.4701686904311
 10
108.6321288790919
 20
-151.4191812772494
 10
108.5432454155725
 20
-151.3919650229159
 10
108.5074164225259
 20
-151.3792181696205
 10
108.488468397357
 20
-151.4067789335024
 10
108.4736544867705
 20
-151.4257269586713
 10
108.4460937228884
 20
-151.4594888944268
 10
108.4460937228884
 20
-151.4594888944268
 10
108.2493787706807
 20
-151.3771511123293
 10
108.2493787706807
 20
-151.3771511123293
 10
108.3317165527782
 20
-151.2965358779745
 10
108.3930392524156
 20
-151.2014512425816
 10
108.4502278374708
 20
-151.0998209257667
 10
108.260058566685
 20
-151.103955040349
 10
108.2386989746764
 20
-151.103955040349
 10
108.1563611925789
 20
-151.1084336644798
 10
108.1563611925789
 20
-151.1084336644798
 10
108.1563611925789
 20
-150.9306667374409
 10
108.1563611925789
 20
-150.9306667374409
 10
108.2958875597316
 20
-150.9368679093144
 10
108.5053493652347
 20
-150.9413465334452
 10
108.5308430718256
 20
-150.9413465334452
 10
108.5477240397033
 20
-150.9072400881412
 10
108.6025010579188
 20
-150.7866617461575
 10
108.6217935926362
 20
-150.7125921932246
 10
108.6025010579188
 20
-150.7125921932246
 10
108.4250786404284
 20
-150.7191378746466
 10
108.2304307455118
 20
-150.731884727942
 10
108.2304307455118
 20
-150.731884727942
 10
108.2304307455118
 20
-150.8652099232212
 10
108.2304307455118
 20
-150.8652099232212
 10
108.1815103896213
 20
-150.8903591202635
 10
108.122254747275
 20
-150.9220539987278
 10
107.9892740615443
 20
-150.9878553224961
 10
107.9892740615443
 20
-150.9878553224961
 10
107.9892740615443
 20
-151.1335828615221
 10
107.9892740615443
 20
-151.1335828615221
 10
107.9892740615443
 20
-151.1335828615221
 10
107.9892740615443
 20
-151.6014268284191
 10
107.9892740615443
 20
-151.6014268284191
 10
107.9892740615443
 20
-151.7282063422763
 10
107.9531005589492
 20
-151.7874619846226
 10
107.6695692005131
 20
-151.7788492459095
 10
107.6695692005131
 20
-151.7788492459095
 10
107.5658718264071
 20
-151.5717990072459
 10
107.5658718264071
 20
-151.5717990072459
 10
107.6296060928843
 20
-151.5842013509928
 10
107.6781819392263
 20
-151.5886799751237
 10
107.7184895564037
 20
-151.5886799751237
 10
107.7946261666277
 20
-151.5886799751237
 10
107.8049614530835
 20
-151.5652533258239
 10
107.8049614530835
 20
-151.4997965116042
 10
107.8049614530835
 20
-151.4997965116042
 10
107.8049614530835
 20
-151.0701931045935
 10
107.8049614530835
 20
-151.0701931045935
 10
107.7078097603994
 20
-151.110500721771
 10
107.6909287925217
 20
-151.1167018936444
 10
107.6444200034708
 20
-151.1359944283618
 10
107.63994137934
 20
-151.1570095108218
 10
107.6358072647577
 20
-151.186637331995
 10
107.6168592395888
 20
-151.186637331995
 10
107.6082465008757
 20
-151.186637331995
 10
107.5979112144199
 20
-151.1825032174127
 10
107.591365532998
 20
-151.159076568113
 10
107.591365532998
 20
-151.159076568113
 10
107.5386555720736
 20
-150.9664957304875
 10
107.5386555720736
 20
-150.9664957304875
 10
107.6843831110997
 20
-150.9199869414367
 10
107.750184434868
 20
-150.8969048016855
 10
107.8049614530835
 20
-150.8755452096769
 10
107.8049614530835
 20
-150.8755452096769
 10
107.8049614530835
 20
-150.4631672800925
 10
107.8049614530835
 20
-150.4631672800925
 10
107.8049614530835
 20
-150.4631672800925
 10
107.7522514921591
 20
-150.4631672800925
 10
107.7522514921591
 20
-150.4631672800925
 10
107.7522514921591
 20
-150.4631672800925
 10
107.674047824644
 20
-150.4631672800925
 10
107.674047824644
 20
-150.4631672800925
 10
107.6061794435845
 20
-150.4631672800925
 10
107.5979112144199
 20
-150.4631672800925
 10
107.5617377118248
 20
-150.469368451966
 10
107.5617377118248
 20
-150.469368451966
 10
107.5617377118248
 20
-150.2747205570494
 10
107.5617377118248
 20
-150.2747205570494
 10
107.5892984757068
 20
-150.2812662384713
 10
107.5979112144199
 20
-150.2812662384713
 10
107.667502143222
 20
-150.2812662384713
 10
107.667502143222
 20
-150.2812662384713
 10
107.8008273385012
 20
-150.2812662384713
 10
107.8008273385012
 20
-150.2812662384713
 10
107.8008273385012
 20
-150.2113308001208
 10
107.8008273385012
 20
-150.1289930180233
 10
107.79876028121
 20
-150.1245143938925
 10
107.7901475424969
 20
-149.9446804095624
 10
107.7901475424969
 20
-149.9257323843935
 10
107.7880804852057
 20
-149.8792235953427
 10
107.7880804852057
 20
-149.8792235953427
 10
108.0040879721309
 20
-149.8878363340558
 10
108.0040879721309
 20
-149.8878363340558
 10
108.0144232585866
 20
-149.8878363340558
 10
108.0357828505952
 20
-149.8899033913469
 10
108.0357828505952
 20
-149.9067843592247
 10
108.0357828505952
 20
-149.9257323843935
 10
108.0209689400086
 20
-149.9364121803978
 10
107.9954752334178
 20
-149.9553602055667
 10
107.9954752334178
 20
-150.0060031091999
 10
107.9892740615443
 20
-150.2347574494204
 10
107.9913411188355
 20
-150.2812662384713
 10
108.1201876899838
 20
-150.2812662384713
 10
108.1329345432793
 20
-150.2812662384713
 10
108.2304307455118
 20
-150.2726534997582
 10
108.2304307455118
 20
-150.2726534997582
 10
108.2304307455118
 20
-150.4673013946748
 10
108.2304307455118
 20
-150.4673013946748
 10
108.1921901856255
 20
-150.4652343373837
 10
108.1246663141147
 20
-150.4611002228014
 10
107.9892740615443
 20
-150.4631672800925
 10
107.9892740615443
 20
-150.4631672800925
 10
107.9892740615443
 20
-150.8014756567441
 10
107.9892740615443
 20
-150.8014756567441
 10
108.0440510797598
 20
-150.7783935169929
 10
108.1098524035281
 20
-150.7508327531109
 10
108.1584282498701
 20
-150.7274061038112
 10
108.1584282498701
 20
-150.7274061038112
 10
108.1584282498701
 20
-150.5499836863208
 10
108.1584282498701
 20
-150.5499836863208
 10
108.2724609104319
 20
-150.5623860300677
 10
108.3909721951245
 20
-150.5623860300677
 10
108.5074164225259
 20
-150.5623860300677
 10
108.4839897732262
 20
-150.4673013946748
 10
108.4567735188927
 20
-150.3849636125773
 10
108.3930392524156
 20
-150.2516384172982
 10
108.3485975206559
 20
-150.2537054745893
 10
108.2662597385584
 20
-150.2578395891716
 10
108.2280191786721
 20
-150.2599066464628
 10
108.2280191786721
 20
-150.2599066464628
 10
108.2280191786721
 20
-150.0800726621328
 10
108.2280191786721
 20
-150.0800726621328
 10
108.3530761447867
 20
-150.0886854008459
 10
108.5263644476948
 20
-150.0928195154282
 10
108.6090467393408
 20
-150.0928195154282
 10
108.6090467393408
 20
-150.0928195154282
 10
108.6913845214382
 20
-150.0928195154282
 10
108.6913845214382
 20
-150.0928195154282
 10
108.6913845214382
 20
-149.9298664989759
 10
108.6913845214382
 20
-149.9195312125201
 10
108.6893174641471
 20
-149.8644096847561
 10
108.6893174641471
 20
-149.8644096847561
 10
108.9135931802369
 20
-149.8899033913469
 10
108.9135931802369
 20
-149.8899033913469
 10
108.9177272948192
 20
-149.8899033913469
 10
108.9390868868277
 20
-149.8919704486381
 10
108.9390868868277
 20
-149.9088514165158
 10
108.9390868868277
 20
-149.9236653271024
 10
108.9284070908234
 20
-149.9322780658155
 10
108.9008463269414
 20
-149.9470919764021
 10
108.894645155068
 20
-150.0125487906219
 10
108.8925780977768
 20
-150.0335638730819
 10
108.8925780977768
 20
-150.0928195154282
 10
108.8925780977768
 20
-150.0928195154282
 10
108.9876627331697
 20
-150.0928195154282
 10
108.9876627331697
 20
-150.0928195154282
 10
109.0700005152672
 20
-150.0928195154282
 10
109.2436333277238
 20
-150.0886854008459
 10
109.3683457842898
 20
-150.0800726621328
 10
109.3683457842898
 20
-150.0800726621328
 10
109.3683457842898
 20
-150.2599066464628
 10
109.3683457842898
 20
-150.2599066464628
 10
109.3387179631167
 20
-150.2578395891716
 10
109.2202066784241
 20
-150.2537054745893
 10
109.1802435707952
 20
-150.2516384172982
 10
109.1654296602086
 20
-150.3022813209313
 10
109.1316677244532
 20
-150.4145914337505
 10
109.0658664006849
 20
-150.5541178009031
 10
109.1082410751535
 20
-150.5541178009031
 10
109.3852267521675
 20
-150.5351697757342
 10
109.446549451805
 20
-150.5327582088946
 10
109.446549451805
 20
-150.5327582088946
 10
109.446549451805
 20
-150.7170708173554
 10
109.446549451805
 20
-150.7170708173554
 10
109.4172661401804
 20
-150.7170708173554
 10
109.4000406627541
 20
-150.7125921932246
 10
109.2374321558503
 20
-150.7125921932246
 97
        0
 97
        1
330
90
 75
     2
 76
     1
 98
        1
 10
0.0
 20
0.0
450
        0
451
        0
460
0.0
461
0.0
452
        0
462
0.0
453
        0
470

  0
SPLINE
  5
92
330
8A
100
AcDbEntity
  8
レイヤー 1
100
AcDbSpline
210
0.0
220
0.0
230
1.0
 70
    11
 71
     3
 72
    17
 73
    13
 74
     0
 42
0.0000000001
 43
0.0000000001
 40
0.0
 40
0.0
 40
0.0
 40
0.0
 40
1.0
 40
1.0
 40
1.0
 40
2.0
 40
2.0
 40
2.0
 40
3.0
 40
3.0
 40
3.0
 40
4.0
 40
4.0
 40
4.0
 40
4.0
 10
111.093649603303
 20
-151.5125433648996
 30
0.0
 10
111.093649603303
 20
-151.5125433648996
 30
0.0
 10
110.3870605192782
 20
-151.5125433648996
 30
0.0
 10
110.3870605192782
 20
-151.5125433648996
 30
0.0
 10
110.3870605192782
 20
-151.5125433648996
 30
0.0
 10
110.3870605192782
 20
-151.6265760254614
 30
0.0
 10
110.3870605192782
 20
-151.6265760254614
 30
0.0
 10
110.3870605192782
 20
-151.6265760254614
 30
0.0
 10
111.093649603303
 20
-151.6265760254614
 30
0.0
 10
111.093649603303
 20
-151.6265760254614
 30
0.0
 10
111.093649603303
 20
-151.6265760254614
 30
0.0
 10
111.093649603303
 20
-151.5125433648996
 30
0.0
 10
111.093649603303
 20
-151.5125433648996
 30
0.0
  0
SPLINE
  5
93
330
8A
100
AcDbEntity
  8
レイヤー 1
100
AcDbSpline
210
0.0
220
0.0
230
1.0
 70
    11
 71
     3
 72
    17
 73
    13
 74
     0
 42
0.0000000001
 43
0.0000000001
 40
0.0
 40
0.0
 40
0.0
 40
0.0
 40
1.0
 40
1.0
 40
1.0
 40
2.0
 40
2.0
 40
2.0
 40
3.0
 40
3.0
 40
3.0
 40
4.0
 40
4.0
 40
4.0
 40
4.0
 10
111.093649603303
 20
-151.2689751140925
 30
0.0
 10
111.093649603303
 20
-151.2689751140925
 30
0.0
 10
110.3870605192782
 20
-151.2689751140925
 30
0.0
 10
110.3870605192782
 20
-151.2689751140925
 30
0.0
 10
110.3870605192782
 20
-151.2689751140925
 30
0.0
 10
110.3870605192782
 20
-151.3833522842027
 30
0.0
 10
110.3870605192782
 20
-151.3833522842027
 30
0.0
 10
110.3870605192782
 20
-151.3833522842027
 30
0.0
 10
111.093649603303
 20
-151.3833522842027
 30
0.0
 10
111.093649603303
 20
-151.3833522842027
 30
0.0
 10
111.093649603303
 20
-151.3833522842027
 30
0.0
 10
111.093649603303
 20
-151.2689751140925
 30
0.0
 10
111.093649603303
 20
-151.2689751140925
 30
0.0
  0
SPLINE
  5
94
330
8A
100
AcDbEntity
  8
レイヤー 1
100
AcDbSpline
210
0.0
220
0.0
230
1.0
 70
    11
 71
     3
 72
    17
 73
    13
 74
     0
 42
0.0000000001
 43
0.0000000001
 40
0.0
 40
0.0
 40
0.0
 40
0.0
 40
1.0
 40
1.0
 40
1.0
 40
2.0
 40
2.0
 40
2.0
 40
3.0
 40
3.0
 40
3.0
 40
4.0
 40
4.0
 40
4.0
 40
4.0
 10
111.093649603303
 20
-151.0364311688381
 30
0.0
 10
111.093649603303
 20
-151.0364311688381
 30
0.0
 10
110.3870605192782
 20
-151.0364311688381
 30
0.0
 10
110.3870605192782
 20
-151.0364311688381
 30
0.0
 10
110.3870605192782
 20
-151.0364311688381
 30
0.0
 10
110.3870605192782
 20
-151.1442626575264
 30
0.0
 10
110.3870605192782
 20
-151.1442626575264
 30
0.0
 10
110.3870605192782
 20
-151.1442626575264
 30
0.0
 10
111.093649603303
 20
-151.1442626575264
 30
0.0
 10
111.093649603303
 20
-151.1442626575264
 30
0.0
 10
111.093649603303
 20
-151.1442626575264
 30
0.0
 10
111.093649603303
 20
-151.0364311688381
 30
0.0
 10
111.093649603303
 20
-151.0364311688381
 30
0.0
  0
SPLINE
  5
95
330
8A
100
AcDbEntity
  8
レイヤー 1
100
AcDbSpline
210
0.0
220
0.0
230
1.0
 70
     9
 71
     3
 72
   203
 73
   199
 74
     0
 42
0.0000000001
 43
0.0000000001
 40
0.0
 40
0.0
 40
0.0
 40
0.0
 40
1.0
 40
1.0
 40
1.0
 40
2.0
 40
2.0
 40
2.0
 40
3.0
 40
3.0
 40
3.0
 40
4.0
 40
4.0
 40
4.0
 40
5.0
 40
5.0
 40
5.0
 40
6.0
 40
6.0
 40
6.0
 40
7.0
 40
7.0
 40
7.0
 40
8.0
 40
8.0
 40
8.0
 40
9.0
 40
9.0
 40
9.0
 40
10.0
 40
10.0
 40
10.0
 40
11.0
 40
11.0
 40
11.0
 40
12.0
 40
12.0
 40
12.0
 40
13.0
 40
13.0
 40
13.0
 40
14.0
 40
14.0
 40
14.0
 40
15.0
 40
15.0
 40
15.0
 40
16.0
 40
16.0
 40
16.0
 40
17.0
 40
17.0
 40
17.0
 40
18.0
 40
18.0
 40
18.0
 40
19.0
 40
19.0
 40
19.0
 40
20.0
 40
20.0
 40
20.0
 40
21.0
 40
21.0
 40
21.0
 40
22.0
 40
22.0
 40
22.0
 40
23.0
 40
23.0
 40
23.0
 40
24.0
 40
24.0
 40
24.0
 40
25.0
 40
25.0
 40
25.0
 40
26.0
 40
26.0
 40
26.0
 40
27.0
 40
27.0
 40
27.0
 40
28.0
 40
28.0
 40
28.0
 40
29.0
 40
29.0
 40
29.0
 40
30.0
 40
30.0
 40
30.0
 40
31.0
 40
31.0
 40
31.0
 40
32.0
 40
32.0
 40
32.0
 40
33.0
 40
33.0
 40
33.0
 40
34.0
 40
34.0
 40
34.0
 40
35.0
 40
35.0
 40
35.0
 40
36.0
 40
36.0
 40
36.0
 40
37.0
 40
37.0
 40
37.0
 40
38.0
 40
38.0
 40
38.0
 40
39.0
 40
39.0
 40
39.0
 40
40.0
 40
40.0
 40
40.0
 40
41.0
 40
41.0
 40
41.0
 40
42.0
 40
42.0
 40
42.0
 40
43.0
 40
43.0
 40
43.0
 40
44.0
 40
44.0
 40
44.0
 40
45.0
 40
45.0
 40
45.0
 40
46.0
 40
46.0
 40
46.0
 40
47.0
 40
47.0
 40
47.0
 40
48.0
 40
48.0
 40
48.0
 40
49.0
 40
49.0
 40
49.0
 40
50.0
 40
50.0
 40
50.0
 40
51.0
 40
51.0
 40
51.0
 40
52.0
 40
52.0
 40
52.0
 40
53.0
 40
53.0
 40
53.0
 40
54.0
 40
54.0
 40
54.0
 40
55.0
 40
55.0
 40
55.0
 40
56.0
 40
56.0
 40
56.0
 40
57.0
 40
57.0
 40
57.0
 40
58.0
 40
58.0
 40
58.0
 40
59.0
 40
59.0
 40
59.0
 40
60.0
 40
60.0
 40
60.0
 40
61.0
 40
61.0
 40
61.0
 40
62.0
 40
62.0
 40
62.0
 40
63.0
 40
63.0
 40
63.0
 40
64.0
 40
64.0
 40
64.0
 40
65.0
 40
65.0
 40
65.0
 40
66.0
 40
66.0
 40
66.0
 40
66.0
 10
110.9286295295595
 20
-150.780460574284
 30
0.0
 10
110.9286295295595
 20
-150.780460574284
 30
0.0
 10
110.3701795514005
 20
-150.780460574284
 30
0.0
 10
110.3701795514005
 20
-150.780460574284
 30
0.0
 10
110.3594997553962
 20
-150.8249023060438
 30
0.0
 10
110.3512315262316
 20
-150.856597184508
 30
0.0
 10
110.3384846729362
 20
-150.8948377443943
 30
0.0
 10
110.363978379527
 20
-150.8948377443943
 30
0.0
 10
110.3787922901136
 20
-150.8969048016855
 30
0.0
 10
110.3849934619871
 20
-150.8969048016855
 30
0.0
 10
110.3849934619871
 20
-150.8969048016855
 30
0.0
 10
110.5734401850302
 20
-150.8969048016855
 30
0.0
 10
110.5734401850302
 20
-150.8969048016855
 30
0.0
 10
110.5734401850302
 20
-150.8969048016855
 30
0.0
 10
110.9479220642769
 20
-150.8969048016855
 30
0.0
 10
110.9479220642769
 20
-150.8969048016855
 30
0.0
 10
110.9985649679101
 20
-150.8969048016855
 30
0.0
 10
111.2820963263461
 20
-150.8841579483901
 30
0.0
 10
111.3137912048104
 20
-150.8841579483901
 30
0.0
 10
111.3117241475193
 20
-150.9117187122721
 30
0.0
 10
111.3096570902281
 20
-150.9306667374409
 30
0.0
 10
111.3096570902281
 20
-150.9602945586141
 30
0.0
 10
111.3072455233885
 20
-150.9919894370784
 30
0.0
 10
111.3072455233885
 20
-151.1273816896487
 30
0.0
 10
111.3072455233885
 20
-151.1549424535307
 30
0.0
 10
111.3072455233885
 20
-151.1549424535307
 30
0.0
 10
111.3072455233885
 20
-151.4002332520805
 30
0.0
 10
111.3072455233885
 20
-151.4002332520805
 30
0.0
 10
111.3072455233885
 20
-151.4446749838402
 30
0.0
 10
111.3117241475193
 20
-151.641389936048
 30
0.0
 10
111.3158582621016
 20
-151.793663156496
 30
0.0
 10
111.3158582621016
 20
-151.793663156496
 30
0.0
 10
111.0895154887207
 20
-151.793663156496
 30
0.0
 10
111.0895154887207
 20
-151.793663156496
 30
0.0
 10
111.0895154887207
 20
-151.793663156496
 30
0.0
 10
111.0915825460118
 20
-151.7599012207405
 30
0.0
 10
111.0915825460118
 20
-151.7599012207405
 30
0.0
 10
111.0915825460118
 20
-151.7599012207405
 30
0.0
 10
110.3891275765694
 20
-151.7599012207405
 30
0.0
 10
110.3891275765694
 20
-151.7599012207405
 30
0.0
 10
110.3891275765694
 20
-151.7599012207405
 30
0.0
 10
110.391539143409
 20
-151.793663156496
 30
0.0
 10
110.391539143409
 20
-151.793663156496
 30
0.0
 10
110.391539143409
 20
-151.793663156496
 30
0.0
 10
110.1734645991927
 20
-151.793663156496
 30
0.0
 10
110.1734645991927
 20
-151.793663156496
 30
0.0
 10
110.177598713775
 20
-151.7388861382805
 30
0.0
 10
110.177598713775
 20
-151.7261392849851
 30
0.0
 10
110.184144395197
 20
-151.6117621148748
 30
0.0
 10
110.1862114524882
 20
-151.5842013509928
 30
0.0
 10
110.1882785097793
 20
-151.4512206652622
 30
0.0
 10
110.1882785097793
 20
-151.4319281305448
 30
0.0
 10
110.1882785097793
 20
-151.4319281305448
 30
0.0
 10
110.1882785097793
 20
-151.2290120064636
 30
0.0
 10
110.1882785097793
 20
-151.2290120064636
 30
0.0
 10
110.0487521426267
 20
-151.4784369195957
 30
0.0
 10
109.8795979543009
 20
-151.6096950575837
 30
0.0
 10
109.7738335229037
 20
-151.6751518718034
 30
0.0
 10
109.7738335229037
 20
-151.6751518718034
 30
0.0
 10
109.6002007104472
 20
-151.5356255046508
 30
0.0
 10
109.6002007104472
 20
-151.5356255046508
 30
0.0
 10
109.6890841739666
 20
-151.4849826010176
 30
0.0
 10
109.8327446557015
 20
-151.3981661947893
 30
0.0
 10
109.9705484751115
 20
-151.2035182998727
 30
0.0
 10
110.0614989959221
 20
-151.0767387860155
 30
0.0
 10
110.1269558101419
 20
-150.9327337947321
 30
0.0
 10
110.1607177458973
 20
-150.780460574284
 30
0.0
 10
109.9323079152252
 20
-150.7825276315752
 30
0.0
 10
109.7524739308952
 20
-150.7890733129972
 30
0.0
 10
109.6573892955023
 20
-150.7911403702883
 30
0.0
 10
109.6573892955023
 20
-150.7911403702883
 30
0.0
 10
109.6573892955023
 20
-150.6133734432494
 30
0.0
 10
109.6573892955023
 20
-150.6133734432494
 30
0.0
 10
109.8541042477101
 20
-150.6195746151229
 30
0.0
 10
110.1376356061461
 20
-150.6240532392537
 30
0.0
 10
110.287841769303
 20
-150.6240532392537
 30
0.0
 10
110.287841769303
 20
-150.6240532392537
 30
0.0
 10
110.5014376893885
 20
-150.6240532392537
 30
0.0
 10
110.5014376893885
 20
-150.6240532392537
 30
0.0
 10
110.5014376893885
 20
-150.6240532392537
 30
0.0
 10
110.5014376893885
 20
-150.5158772410169
 30
0.0
 10
110.5014376893885
 20
-150.5158772410169
 30
0.0
 10
110.5014376893885
 20
-150.5158772410169
 30
0.0
 10
110.3553656408139
 20
-150.5158772410169
 30
0.0
 10
110.3553656408139
 20
-150.5158772410169
 30
0.0
 10
110.1862114524882
 20
-150.5158772410169
 30
0.0
 10
110.0170572641624
 20
-150.5203558651477
 30
0.0
 10
109.8499701331278
 20
-150.5265570370211
 30
0.0
 10
109.8499701331278
 20
-150.5265570370211
 30
0.0
 10
109.8499701331278
 20
-150.3553357914042
 30
0.0
 10
109.8499701331278
 20
-150.3553357914042
 30
0.0
 10
110.004310410867
 20
-150.36567107786
 30
0.0
 10
110.1903455670705
 20
-150.36567107786
 30
0.0
 10
110.3553656408139
 20
-150.36567107786
 30
0.0
 10
110.3553656408139
 20
-150.36567107786
 30
0.0
 10
110.5014376893885
 20
-150.36567107786
 30
0.0
 10
110.5014376893885
 20
-150.36567107786
 30
0.0
 10
110.5014376893885
 20
-150.36567107786
 30
0.0
 10
110.5014376893885
 20
-150.2475043027159
 30
0.0
 10
110.5014376893885
 20
-150.2475043027159
 30
0.0
 10
110.5014376893885
 20
-150.2475043027159
 30
0.0
 10
110.3701795514005
 20
-150.2475043027159
 30
0.0
 10
110.3701795514005
 20
-150.2475043027159
 30
0.0
 10
110.3236707623496
 20
-150.2475043027159
 30
0.0
 10
110.1207546382684
 20
-150.2557725318805
 30
0.0
 10
110.0783799637998
 20
-150.2557725318805
 30
0.0
 10
109.8751193301701
 20
-150.2599066464628
 30
0.0
 10
109.7989827199461
 20
-150.2619737037539
 30
0.0
 10
109.7207790524309
 20
-150.2643852705936
 30
0.0
 10
109.7207790524309
 20
-150.2643852705936
 30
0.0
 10
109.7207790524309
 20
-150.0800726621328
 30
0.0
 10
109.7207790524309
 20
-150.0800726621328
 30
0.0
 10
109.8351562225412
 20
-150.0886854008459
 30
0.0
 10
109.8795979543009
 20
-150.0886854008459
 30
0.0
 10
110.2623480627122
 20
-150.097298139559
 30
0.0
 10
110.1989583057836
 20
-150.0018689946176
 30
0.0
 10
110.1713975419016
 20
-149.9743082307356
 30
0.0
 10
110.135568548855
 20
-149.938479237689
 30
0.0
 10
110.135568548855
 20
-149.938479237689
 30
0.0
 10
110.3109239090542
 20
-149.855796946043
 30
0.0
 10
110.3109239090542
 20
-149.855796946043
 30
0.0
 10
110.3512315262316
 20
-149.8919704486381
 30
0.0
 10
110.3956732579913
 20
-149.9343451231067
 30
0.0
 10
110.4697428109242
 20
-150.0442436690861
 30
0.0
 10
110.4697428109242
 20
-150.0442436690861
 30
0.0
 10
110.3553656408139
 20
-150.0993651968501
 30
0.0
 10
110.3553656408139
 20
-150.0993651968501
 30
0.0
 10
110.3553656408139
 20
-150.0993651968501
 30
0.0
 10
110.3660454368182
 20
-150.0993651968501
 30
0.0
 10
110.3660454368182
 20
-150.0993651968501
 30
0.0
 10
110.3660454368182
 20
-150.0993651968501
 30
0.0
 10
110.8886664219306
 20
-150.0993651968501
 30
0.0
 10
110.8886664219306
 20
-150.0993651968501
 30
0.0
 10
110.8886664219306
 20
-150.0993651968501
 30
0.0
 10
110.7932372769892
 20
-150.0549234650904
 30
0.0
 10
110.7932372769892
 20
-150.0549234650904
 30
0.0
 10
110.8207980408712
 20
-150.0166829052041
 30
0.0
 10
110.8779866259263
 20
-149.9364121803978
 30
0.0
 10
110.8928005365129
 20
-149.862342627465
 30
0.0
 10
110.8928005365129
 20
-149.862342627465
 30
0.0
 10
111.1063964565984
 20
-149.9257323843935
 30
0.0
 10
111.1063964565984
 20
-149.9257323843935
 30
0.0
 10
111.1150091953115
 20
-149.9277994416847
 30
0.0
 10
111.1360242777715
 20
-149.938479237689
 30
0.0
 10
111.1360242777715
 20
-149.959494320149
 30
0.0
 10
111.1360242777715
 20
-149.9977348800353
 30
0.0
 10
111.0705674635518
 20
-149.9977348800353
 30
0.0
 10
111.0512749288344
 20
-149.9977348800353
 30
0.0
 10
111.0409396423786
 20
-150.0166829052041
 30
0.0
 10
111.0175129930789
 20
-150.0569905223816
 30
0.0
 10
110.9878851719058
 20
-150.097298139559
 30
0.0
 10
111.3878607577433
 20
-150.090752458137
 30
0.0
 10
111.4174885789164
 20
-150.0886854008459
 30
0.0
 10
111.4936251891405
 20
-150.0824842289724
 30
0.0
 10
111.4936251891405
 20
-150.0824842289724
 30
0.0
 10
111.4936251891405
 20
-150.2643852705936
 30
0.0
 10
111.4936251891405
 20
-150.2643852705936
 30
0.0
 10
111.4746771639716
 20
-150.2643852705936
 30
0.0
 10
111.4491834573807
 20
-150.2619737037539
 30
0.0
 10
111.2290418558733
 20
-150.2537054745893
 30
0.0
 10
111.1783989522401
 20
-150.2516384172982
 30
0.0
 10
110.9582573507326
 20
-150.2475043027159
 30
0.0
 10
110.9138156189729
 20
-150.2475043027159
 30
0.0
 10
110.9138156189729
 20
-150.2475043027159
 30
0.0
 10
110.6981526415963
 20
-150.2475043027159
 30
0.0
 10
110.6981526415963
 20
-150.2475043027159
 30
0.0
 10
110.6981526415963
 20
-150.2475043027159
 30
0.0
 10
110.6981526415963
 20
-150.36567107786
 30
0.0
 10
110.6981526415963
 20
-150.36567107786
 30
0.0
 10
110.6981526415963
 20
-150.36567107786
 30
0.0
 10
110.8714409445044
 20
-150.36567107786
 30
0.0
 10
110.8714409445044
 20
-150.36567107786
 30
0.0
 10
111.0343939609567
 20
-150.36567107786
 30
0.0
 10
111.224907741291
 20
-150.36567107786
 30
0.0
 10
111.3813150763213
 20
-150.3553357914042
 30
0.0
 10
111.3813150763213
 20
-150.3553357914042
 30
0.0
 10
111.3813150763213
 20
-150.5265570370211
 30
0.0
 10
111.3813150763213
 20
-150.5265570370211
 30
0.0
 10
111.1718532708181
 20
-150.5182888078565
 30
0.0
 10
110.9751383186104
 20
-150.5158772410169
 30
0.0
 10
110.8714409445044
 20
-150.5158772410169
 30
0.0
 10
110.8714409445044
 20
-150.5158772410169
 30
0.0
 10
110.6981526415963
 20
-150.5158772410169
 30
0.0
 10
110.6981526415963
 20
-150.5158772410169
 30
0.0
 10
110.6981526415963
 20
-150.5158772410169
 30
0.0
 10
110.6981526415963
 20
-150.6240532392537
 30
0.0
 10
110.6981526415963
 20
-150.6240532392537
 30
0.0
 10
110.6981526415963
 20
-150.6240532392537
 30
0.0
 10
110.9286295295595
 20
-150.6240532392537
 30
0.0
 10
110.9286295295595
 20
-150.6240532392537
 30
0.0
 10
111.0619547248387
 20
-150.6240532392537
 30
0.0
 10
111.349620197857
 20
-150.6195746151229
 30
0.0
 10
111.5590820033602
 20
-150.6133734432494
 30
0.0
 10
111.5590820033602
 20
-150.6133734432494
 30
0.0
 10
111.5590820033602
 20
-150.7911403702883
 30
0.0
 10
111.5590820033602
 20
-150.7911403702883
 30
0.0
 10
111.3665011657348
 20
-150.7845946888663
 30
0.0
 10
111.0536864956741
 20
-150.780460574284
 30
0.0
 10
110.9286295295595
 20
-150.780460574284
 30
0.0
  0
HATCH
  5
96
330
8A
100
AcDbEntity
  8
レイヤー 1
 62
    18
420
        0
440
 33554687
100
AcDbHatch
 10
0.0
 20
0.0
 30
0.0
210
0.0
220
0.0
230
1.0
  2
SOLID
 70
     1
 71
     1
 91
        4
 92
        1
 93
        1
 72
     4
 94
        3
 73
     0
 74
     0
 95
       17
 96
       13
 40
0.0
 40
0.0
 40
0.0
 40
0.0
 40
1.0
 40
1.0
 40
1.0
 40
2.0
 40
2.0
 40
2.0
 40
3.0
 40
3.0
 40
3.0
 40
4.0
 40
4.0
 40
4.0
 40
4.0
 10
111.093649603303
 20
-151.5125433648996
 10
111.093649603303
 20
-151.5125433648996
 10
110.3870605192782
 20
-151.5125433648996
 10
110.3870605192782
 20
-151.5125433648996
 10
110.3870605192782
 20
-151.5125433648996
 10
110.3870605192782
 20
-151.6265760254614
 10
110.3870605192782
 20
-151.6265760254614
 10
110.3870605192782
 20
-151.6265760254614
 10
111.093649603303
 20
-151.6265760254614
 10
111.093649603303
 20
-151.6265760254614
 10
111.093649603303
 20
-151.6265760254614
 10
111.093649603303
 20
-151.5125433648996
 10
111.093649603303
 20
-151.5125433648996
 97
        0
 97
        1
330
92
 92
        1
 93
        1
 72
     4
 94
        3
 73
     0
 74
     0
 95
       17
 96
       13
 40
0.0
 40
0.0
 40
0.0
 40
0.0
 40
1.0
 40
1.0
 40
1.0
 40
2.0
 40
2.0
 40
2.0
 40
3.0
 40
3.0
 40
3.0
 40
4.0
 40
4.0
 40
4.0
 40
4.0
 10
111.093649603303
 20
-151.2689751140925
 10
111.093649603303
 20
-151.2689751140925
 10
110.3870605192782
 20
-151.2689751140925
 10
110.3870605192782
 20
-151.2689751140925
 10
110.3870605192782
 20
-151.2689751140925
 10
110.3870605192782
 20
-151.3833522842027
 10
110.3870605192782
 20
-151.3833522842027
 10
110.3870605192782
 20
-151.3833522842027
 10
111.093649603303
 20
-151.3833522842027
 10
111.093649603303
 20
-151.3833522842027
 10
111.093649603303
 20
-151.3833522842027
 10
111.093649603303
 20
-151.2689751140925
 10
111.093649603303
 20
-151.2689751140925
 97
        0
 97
        1
330
93
 92
        1
 93
        1
 72
     4
 94
        3
 73
     0
 74
     0
 95
       17
 96
       13
 40
0.0
 40
0.0
 40
0.0
 40
0.0
 40
1.0
 40
1.0
 40
1.0
 40
2.0
 40
2.0
 40
2.0
 40
3.0
 40
3.0
 40
3.0
 40
4.0
 40
4.0
 40
4.0
 40
4.0
 10
111.093649603303
 20
-151.0364311688381
 10
111.093649603303
 20
-151.0364311688381
 10
110.3870605192782
 20
-151.0364311688381
 10
110.3870605192782
 20
-151.0364311688381
 10
110.3870605192782
 20
-151.0364311688381
 10
110.3870605192782
 20
-151.1442626575264
 10
110.3870605192782
 20
-151.1442626575264
 10
110.3870605192782
 20
-151.1442626575264
 10
111.093649603303
 20
-151.1442626575264
 10
111.093649603303
 20
-151.1442626575264
 10
111.093649603303
 20
-151.1442626575264
 10
111.093649603303
 20
-151.0364311688381
 10
111.093649603303
 20
-151.0364311688381
 97
        0
 97
        1
330
94
 92
        1
 93
        1
 72
     4
 94
        3
 73
     0
 74
     0
 95
      203
 96
      199
 40
0.0
 40
0.0
 40
0.0
 40
0.0
 40
1.0
 40
1.0
 40
1.0
 40
2.0
 40
2.0
 40
2.0
 40
3.0
 40
3.0
 40
3.0
 40
4.0
 40
4.0
 40
4.0
 40
5.0
 40
5.0
 40
5.0
 40
6.0
 40
6.0
 40
6.0
 40
7.0
 40
7.0
 40
7.0
 40
8.0
 40
8.0
 40
8.0
 40
9.0
 40
9.0
 40
9.0
 40
10.0
 40
10.0
 40
10.0
 40
11.0
 40
11.0
 40
11.0
 40
12.0
 40
12.0
 40
12.0
 40
13.0
 40
13.0
 40
13.0
 40
14.0
 40
14.0
 40
14.0
 40
15.0
 40
15.0
 40
15.0
 40
16.0
 40
16.0
 40
16.0
 40
17.0
 40
17.0
 40
17.0
 40
18.0
 40
18.0
 40
18.0
 40
19.0
 40
19.0
 40
19.0
 40
20.0
 40
20.0
 40
20.0
 40
21.0
 40
21.0
 40
21.0
 40
22.0
 40
22.0
 40
22.0
 40
23.0
 40
23.0
 40
23.0
 40
24.0
 40
24.0
 40
24.0
 40
25.0
 40
25.0
 40
25.0
 40
26.0
 40
26.0
 40
26.0
 40
27.0
 40
27.0
 40
27.0
 40
28.0
 40
28.0
 40
28.0
 40
29.0
 40
29.0
 40
29.0
 40
30.0
 40
30.0
 40
30.0
 40
31.0
 40
31.0
 40
31.0
 40
32.0
 40
32.0
 40
32.0
 40
33.0
 40
33.0
 40
33.0
 40
34.0
 40
34.0
 40
34.0
 40
35.0
 40
35.0
 40
35.0
 40
36.0
 40
36.0
 40
36.0
 40
37.0
 40
37.0
 40
37.0
 40
38.0
 40
38.0
 40
38.0
 40
39.0
 40
39.0
 40
39.0
 40
40.0
 40
40.0
 40
40.0
 40
41.0
 40
41.0
 40
41.0
 40
42.0
 40
42.0
 40
42.0
 40
43.0
 40
43.0
 40
43.0
 40
44.0
 40
44.0
 40
44.0
 40
45.0
 40
45.0
 40
45.0
 40
46.0
 40
46.0
 40
46.0
 40
47.0
 40
47.0
 40
47.0
 40
48.0
 40
48.0
 40
48.0
 40
49.0
 40
49.0
 40
49.0
 40
50.0
 40
50.0
 40
50.0
 40
51.0
 40
51.0
 40
51.0
 40
52.0
 40
52.0
 40
52.0
 40
53.0
 40
53.0
 40
53.0
 40
54.0
 40
54.0
 40
54.0
 40
55.0
 40
55.0
 40
55.0
 40
56.0
 40
56.0
 40
56.0
 40
57.0
 40
57.0
 40
57.0
 40
58.0
 40
58.0
 40
58.0
 40
59.0
 40
59.0
 40
59.0
 40
60.0
 40
60.0
 40
60.0
 40
61.0
 40
61.0
 40
61.0
 40
62.0
 40
62.0
 40
62.0
 40
63.0
 40
63.0
 40
63.0
 40
64.0
 40
64.0
 40
64.0
 40
65.0
 40
65.0
 40
65.0
 40
66.0
 40
66.0
 40
66.0
 40
66.0
 10
110.9286295295595
 20
-150.780460574284
 10
110.9286295295595
 20
-150.780460574284
 10
110.3701795514005
 20
-150.780460574284
 10
110.3701795514005
 20
-150.780460574284
 10
110.3594997553962
 20
-150.8249023060438
 10
110.3512315262316
 20
-150.856597184508
 10
110.3384846729362
 20
-150.8948377443943
 10
110.363978379527
 20
-150.8948377443943
 10
110.3787922901136
 20
-150.8969048016855
 10
110.3849934619871
 20
-150.8969048016855
 10
110.3849934619871
 20
-150.8969048016855
 10
110.5734401850302
 20
-150.8969048016855
 10
110.5734401850302
 20
-150.8969048016855
 10
110.5734401850302
 20
-150.8969048016855
 10
110.9479220642769
 20
-150.8969048016855
 10
110.9479220642769
 20
-150.8969048016855
 10
110.9985649679101
 20
-150.8969048016855
 10
111.2820963263461
 20
-150.8841579483901
 10
111.3137912048104
 20
-150.8841579483901
 10
111.3117241475193
 20
-150.9117187122721
 10
111.3096570902281
 20
-150.9306667374409
 10
111.3096570902281
 20
-150.9602945586141
 10
111.3072455233885
 20
-150.9919894370784
 10
111.3072455233885
 20
-151.1273816896487
 10
111.3072455233885
 20
-151.1549424535307
 10
111.3072455233885
 20
-151.1549424535307
 10
111.3072455233885
 20
-151.4002332520805
 10
111.3072455233885
 20
-151.4002332520805
 10
111.3072455233885
 20
-151.4446749838402
 10
111.3117241475193
 20
-151.641389936048
 10
111.3158582621016
 20
-151.793663156496
 10
111.3158582621016
 20
-151.793663156496
 10
111.0895154887207
 20
-151.793663156496
 10
111.0895154887207
 20
-151.793663156496
 10
111.0895154887207
 20
-151.793663156496
 10
111.0915825460118
 20
-151.7599012207405
 10
111.0915825460118
 20
-151.7599012207405
 10
111.0915825460118
 20
-151.7599012207405
 10
110.3891275765694
 20
-151.7599012207405
 10
110.3891275765694
 20
-151.7599012207405
 10
110.3891275765694
 20
-151.7599012207405
 10
110.391539143409
 20
-151.793663156496
 10
110.391539143409
 20
-151.793663156496
 10
110.391539143409
 20
-151.793663156496
 10
110.1734645991927
 20
-151.793663156496
 10
110.1734645991927
 20
-151.793663156496
 10
110.177598713775
 20
-151.7388861382805
 10
110.177598713775
 20
-151.7261392849851
 10
110.184144395197
 20
-151.6117621148748
 10
110.1862114524882
 20
-151.5842013509928
 10
110.1882785097793
 20
-151.4512206652622
 10
110.1882785097793
 20
-151.4319281305448
 10
110.1882785097793
 20
-151.4319281305448
 10
110.1882785097793
 20
-151.2290120064636
 10
110.1882785097793
 20
-151.2290120064636
 10
110.0487521426267
 20
-151.4784369195957
 10
109.8795979543009
 20
-151.6096950575837
 10
109.7738335229037
 20
-151.6751518718034
 10
109.7738335229037
 20
-151.6751518718034
 10
109.6002007104472
 20
-151.5356255046508
 10
109.6002007104472
 20
-151.5356255046508
 10
109.6890841739666
 20
-151.4849826010176
 10
109.8327446557015
 20
-151.3981661947893
 10
109.9705484751115
 20
-151.2035182998727
 10
110.0614989959221
 20
-151.0767387860155
 10
110.1269558101419
 20
-150.9327337947321
 10
110.1607177458973
 20
-150.780460574284
 10
109.9323079152252
 20
-150.7825276315752
 10
109.7524739308952
 20
-150.7890733129972
 10
109.6573892955023
 20
-150.7911403702883
 10
109.6573892955023
 20
-150.7911403702883
 10
109.6573892955023
 20
-150.6133734432494
 10
109.6573892955023
 20
-150.6133734432494
 10
109.8541042477101
 20
-150.6195746151229
 10
110.1376356061461
 20
-150.6240532392537
 10
110.287841769303
 20
-150.6240532392537
 10
110.287841769303
 20
-150.6240532392537
 10
110.5014376893885
 20
-150.6240532392537
 10
110.5014376893885
 20
-150.6240532392537
 10
110.5014376893885
 20
-150.6240532392537
 10
110.5014376893885
 20
-150.5158772410169
 10
110.5014376893885
 20
-150.5158772410169
 10
110.5014376893885
 20
-150.5158772410169
 10
110.3553656408139
 20
-150.5158772410169
 10
110.3553656408139
 20
-150.5158772410169
 10
110.1862114524882
 20
-150.5158772410169
 10
110.0170572641624
 20
-150.5203558651477
 10
109.8499701331278
 20
-150.5265570370211
 10
109.8499701331278
 20
-150.5265570370211
 10
109.8499701331278
 20
-150.3553357914042
 10
109.8499701331278
 20
-150.3553357914042
 10
110.004310410867
 20
-150.36567107786
 10
110.1903455670705
 20
-150.36567107786
 10
110.3553656408139
 20
-150.36567107786
 10
110.3553656408139
 20
-150.36567107786
 10
110.5014376893885
 20
-150.36567107786
 10
110.5014376893885
 20
-150.36567107786
 10
110.5014376893885
 20
-150.36567107786
 10
110.5014376893885
 20
-150.2475043027159
 10
110.5014376893885
 20
-150.2475043027159
 10
110.5014376893885
 20
-150.2475043027159
 10
110.3701795514005
 20
-150.2475043027159
 10
110.3701795514005
 20
-150.2475043027159
 10
110.3236707623496
 20
-150.2475043027159
 10
110.1207546382684
 20
-150.2557725318805
 10
110.0783799637998
 20
-150.2557725318805
 10
109.8751193301701
 20
-150.2599066464628
 10
109.7989827199461
 20
-150.2619737037539
 10
109.7207790524309
 20
-150.2643852705936
 10
109.7207790524309
 20
-150.2643852705936
 10
109.7207790524309
 20
-150.0800726621328
 10
109.7207790524309
 20
-150.0800726621328
 10
109.8351562225412
 20
-150.0886854008459
 10
109.8795979543009
 20
-150.0886854008459
 10
110.2623480627122
 20
-150.097298139559
 10
110.1989583057836
 20
-150.0018689946176
 10
110.1713975419016
 20
-149.9743082307356
 10
110.135568548855
 20
-149.938479237689
 10
110.135568548855
 20
-149.938479237689
 10
110.3109239090542
 20
-149.855796946043
 10
110.3109239090542
 20
-149.855796946043
 10
110.3512315262316
 20
-149.8919704486381
 10
110.3956732579913
 20
-149.9343451231067
 10
110.4697428109242
 20
-150.0442436690861
 10
110.4697428109242
 20
-150.0442436690861
 10
110.3553656408139
 20
-150.0993651968501
 10
110.3553656408139
 20
-150.0993651968501
 10
110.3553656408139
 20
-150.0993651968501
 10
110.3660454368182
 20
-150.0993651968501
 10
110.3660454368182
 20
-150.0993651968501
 10
110.3660454368182
 20
-150.0993651968501
 10
110.8886664219306
 20
-150.0993651968501
 10
110.8886664219306
 20
-150.0993651968501
 10
110.8886664219306
 20
-150.0993651968501
 10
110.7932372769892
 20
-150.0549234650904
 10
110.7932372769892
 20
-150.0549234650904
 10
110.8207980408712
 20
-150.0166829052041
 10
110.8779866259263
 20
-149.9364121803978
 10
110.8928005365129
 20
-149.862342627465
 10
110.8928005365129
 20
-149.862342627465
 10
111.1063964565984
 20
-149.9257323843935
 10
111.1063964565984
 20
-149.9257323843935
 10
111.1150091953115
 20
-149.9277994416847
 10
111.1360242777715
 20
-149.938479237689
 10
111.1360242777715
 20
-149.959494320149
 10
111.1360242777715
 20
-149.9977348800353
 10
111.0705674635518
 20
-149.9977348800353
 10
111.0512749288344
 20
-149.9977348800353
 10
111.0409396423786
 20
-150.0166829052041
 10
111.0175129930789
 20
-150.0569905223816
 10
110.9878851719058
 20
-150.097298139559
 10
111.3878607577433
 20
-150.090752458137
 10
111.4174885789164
 20
-150.0886854008459
 10
111.4936251891405
 20
-150.0824842289724
 10
111.4936251891405
 20
-150.0824842289724
 10
111.4936251891405
 20
-150.2643852705936
 10
111.4936251891405
 20
-150.2643852705936
 10
111.4746771639716
 20
-150.2643852705936
 10
111.4491834573807
 20
-150.2619737037539
 10
111.2290418558733
 20
-150.2537054745893
 10
111.1783989522401
 20
-150.2516384172982
 10
110.9582573507326
 20
-150.2475043027159
 10
110.9138156189729
 20
-150.2475043027159
 10
110.9138156189729
 20
-150.2475043027159
 10
110.6981526415963
 20
-150.2475043027159
 10
110.6981526415963
 20
-150.2475043027159
 10
110.6981526415963
 20
-150.2475043027159
 10
110.6981526415963
 20
-150.36567107786
 10
110.6981526415963
 20
-150.36567107786
 10
110.6981526415963
 20
-150.36567107786
 10
110.8714409445044
 20
-150.36567107786
 10
110.8714409445044
 20
-150.36567107786
 10
111.0343939609567
 20
-150.36567107786
 10
111.224907741291
 20
-150.36567107786
 10
111.3813150763213
 20
-150.3553357914042
 10
111.3813150763213
 20
-150.3553357914042
 10
111.3813150763213
 20
-150.5265570370211
 10
111.3813150763213
 20
-150.5265570370211
 10
111.1718532708181
 20
-150.5182888078565
 10
110.9751383186104
 20
-150.5158772410169
 10
110.8714409445044
 20
-150.5158772410169
 10
110.8714409445044
 20
-150.5158772410169
 10
110.6981526415963
 20
-150.5158772410169
 10
110.6981526415963
 20
-150.5158772410169
 10
110.6981526415963
 20
-150.5158772410169
 10
110.6981526415963
 20
-150.6240532392537
 10
110.6981526415963
 20
-150.6240532392537
 10
110.6981526415963
 20
-150.6240532392537
 10
110.9286295295595
 20
-150.6240532392537
 10
110.9286295295595
 20
-150.6240532392537
 10
111.0619547248387
 20
-150.6240532392537
 10
111.349620197857
 20
-150.6195746151229
 10
111.5590820033602
 20
-150.6133734432494
 10
111.5590820033602
 20
-150.6133734432494
 10
111.5590820033602
 20
-150.7911403702883
 10
111.5590820033602
 20
-150.7911403702883
 10
111.3665011657348
 20
-150.7845946888663
 10
111.0536864956741
 20
-150.780460574284
 10
110.9286295295595
 20
-150.780460574284
 97
        0
 97
        1
330
95
 75
     2
 76
     1
 98
        1
 10
0.0
 20
0.0
450
        0
451
        0
460
0.0
461
0.0
452
        0
462
0.0
453
        0
470

  0
SPLINE
  5
97
330
8A
100
AcDbEntity
  8
レイヤー 1
100
AcDbSpline
210
0.0
220
0.0
230
1.0
 70
     9
 71
     3
 72
    29
 73
    25
 74
     0
 42
0.0000000001
 43
0.0000000001
 40
0.0
 40
0.0
 40
0.0
 40
0.0
 40
1.0
 40
1.0
 40
1.0
 40
2.0
 40
2.0
 40
2.0
 40
3.0
 40
3.0
 40
3.0
 40
4.0
 40
4.0
 40
4.0
 40
5.0
 40
5.0
 40
5.0
 40
6.0
 40
6.0
 40
6.0
 40
7.0
 40
7.0
 40
7.0
 40
8.0
 40
8.0
 40
8.0
 40
8.0
 10
112.8041395117295
 20
-150.2282117679985
 30
0.0
 10
112.8041395117295
 20
-150.2282117679985
 30
0.0
 10
112.4510172244914
 20
-150.2282117679985
 30
0.0
 10
112.4510172244914
 20
-150.2282117679985
 30
0.0
 10
112.3387071116723
 20
-150.2282117679985
 30
0.0
 10
112.1991807445196
 20
-150.2347574494204
 30
0.0
 10
112.0913492558313
 20
-150.2475043027159
 30
0.0
 10
112.0913492558313
 20
-150.2475043027159
 30
0.0
 10
112.0913492558313
 20
-150.0125487906219
 30
0.0
 10
112.0913492558313
 20
-150.0125487906219
 30
0.0
 10
112.2098605405239
 20
-150.0273627012084
 30
0.0
 10
112.3938286394362
 20
-150.0314968157907
 30
0.0
 10
112.4510172244914
 20
-150.0314968157907
 30
0.0
 10
112.4510172244914
 20
-150.0314968157907
 30
0.0
 10
112.8041395117295
 20
-150.0314968157907
 30
0.0
 10
112.8041395117295
 20
-150.0314968157907
 30
0.0
 10
112.8230875368984
 20
-150.0314968157907
 30
0.0
 10
113.0263481705281
 20
-150.0314968157907
 30
0.0
 10
113.1679415949719
 20
-150.0125487906219
 30
0.0
 10
113.1679415949719
 20
-150.0125487906219
 30
0.0
 10
113.1679415949719
 20
-150.2475043027159
 30
0.0
 10
113.1679415949719
 20
-150.2475043027159
 30
0.0
 10
113.0115342599415
 20
-150.2282117679985
 30
0.0
 10
112.8210204796072
 20
-150.2282117679985
 30
0.0
 10
112.8041395117295
 20
-150.2282117679985
 30
0.0
  0
SPLINE
  5
98
330
8A
100
AcDbEntity
  8
レイヤー 1
100
AcDbSpline
210
0.0
220
0.0
230
1.0
 70
     9
 71
     3
 72
    47
 73
    43
 74
     0
 42
0.0000000001
 43
0.0000000001
 40
0.0
 40
0.0
 40
0.0
 40
0.0
 40
1.0
 40
1.0
 40
1.0
 40
2.0
 40
2.0
 40
2.0
 40
3.0
 40
3.0
 40
3.0
 40
4.0
 40
4.0
 40
4.0
 40
5.0
 40
5.0
 40
5.0
 40
6.0
 40
6.0
 40
6.0
 40
7.0
 40
7.0
 40
7.0
 40
8.0
 40
8.0
 40
8.0
 40
9.0
 40
9.0
 40
9.0
 40
10.0
 40
10.0
 40
10.0
 40
11.0
 40
11.0
 40
11.0
 40
12.0
 40
12.0
 40
12.0
 40
13.0
 40
13.0
 40
13.0
 40
14.0
 40
14.0
 40
14.0
 40
14.0
 10
112.9057698285444
 20
-150.7570339249843
 30
0.0
 10
112.9057698285444
 20
-150.7570339249843
 30
0.0
 10
112.8041395117295
 20
-150.7570339249843
 30
0.0
 10
112.8041395117295
 20
-150.7570339249843
 30
0.0
 10
112.8041395117295
 20
-150.8438503312126
 30
0.0
 10
112.7831244292695
 20
-151.2331461210458
 30
0.0
 10
112.5864094770617
 20
-151.4532877225533
 30
0.0
 10
112.4341362566137
 20
-151.6224419108791
 30
0.0
 10
112.2267415084016
 20
-151.6923773492297
 30
0.0
 10
112.1419921594645
 20
-151.7195936035632
 30
0.0
 10
112.1419921594645
 20
-151.7195936035632
 30
0.0
 10
111.9473442645479
 20
-151.5525064725285
 30
0.0
 10
111.9473442645479
 20
-151.5525064725285
 30
0.0
 10
112.0448404667804
 20
-151.5397596192331
 30
0.0
 10
112.2201958269797
 20
-151.5166774794819
 30
0.0
 10
112.4086425500228
 20
-151.3282307564388
 30
0.0
 10
112.4827121029557
 20
-151.2565727703456
 30
0.0
 10
112.5864094770617
 20
-151.1167018936444
 30
0.0
 10
112.5864094770617
 20
-150.7570339249843
 30
0.0
 10
112.5864094770617
 20
-150.7570339249843
 30
0.0
 10
112.35558807955
 20
-150.7570339249843
 30
0.0
 10
112.35558807955
 20
-150.7570339249843
 30
0.0
 10
112.1695529233465
 20
-150.7570339249843
 30
0.0
 10
111.983517767143
 20
-150.7615125491152
 30
0.0
 10
111.797138101391
 20
-150.7763264597017
 30
0.0
 10
111.797138101391
 20
-150.7763264597017
 30
0.0
 10
111.797138101391
 20
-150.5561848581943
 30
0.0
 10
111.797138101391
 20
-150.5561848581943
 30
0.0
 10
111.9855848244341
 20
-150.5709987687808
 30
0.0
 10
112.2711832401614
 20
-150.5751328833632
 30
0.0
 10
112.35558807955
 20
-150.5751328833632
 30
0.0
 10
112.35558807955
 20
-150.5751328833632
 30
0.0
 10
112.9057698285444
 20
-150.5751328833632
 30
0.0
 10
112.9057698285444
 20
-150.5751328833632
 30
0.0
 10
112.9247178537132
 20
-150.5751328833632
 30
0.0
 10
113.2420111479047
 20
-150.5751328833632
 30
0.0
 10
113.4707654881253
 20
-150.5561848581943
 30
0.0
 10
113.4707654881253
 20
-150.5561848581943
 30
0.0
 10
113.4707654881253
 20
-150.7763264597017
 30
0.0
 10
113.4707654881253
 20
-150.7763264597017
 30
0.0
 10
113.2823187650822
 20
-150.7615125491152
 30
0.0
 10
113.093872042039
 20
-150.7570339249843
 30
0.0
 10
112.9057698285444
 20
-150.7570339249843
 30
0.0
  0
HATCH
  5
99
330
8A
100
AcDbEntity
  8
レイヤー 1
 62
    18
420
        0
440
 33554687
100
AcDbHatch
 10
0.0
 20
0.0
 30
0.0
210
0.0
220
0.0
230
1.0
  2
SOLID
 70
     1
 71
     1
 91
        2
 92
        1
 93
        1
 72
     4
 94
        3
 73
     0
 74
     0
 95
       29
 96
       25
 40
0.0
 40
0.0
 40
0.0
 40
0.0
 40
1.0
 40
1.0
 40
1.0
 40
2.0
 40
2.0
 40
2.0
 40
3.0
 40
3.0
 40
3.0
 40
4.0
 40
4.0
 40
4.0
 40
5.0
 40
5.0
 40
5.0
 40
6.0
 40
6.0
 40
6.0
 40
7.0
 40
7.0
 40
7.0
 40
8.0
 40
8.0
 40
8.0
 40
8.0
 10
112.8041395117295
 20
-150.2282117679985
 10
112.8041395117295
 20
-150.2282117679985
 10
112.4510172244914
 20
-150.2282117679985
 10
112.4510172244914
 20
-150.2282117679985
 10
112.3387071116723
 20
-150.2282117679985
 10
112.1991807445196
 20
-150.2347574494204
 10
112.0913492558313
 20
-150.2475043027159
 10
112.0913492558313
 20
-150.2475043027159
 10
112.0913492558313
 20
-150.0125487906219
 10
112.0913492558313
 20
-150.0125487906219
 10
112.2098605405239
 20
-150.0273627012084
 10
112.3938286394362
 20
-150.0314968157907
 10
112.4510172244914
 20
-150.0314968157907
 10
112.4510172244914
 20
-150.0314968157907
 10
112.8041395117295
 20
-150.0314968157907
 10
112.8041395117295
 20
-150.0314968157907
 10
112.8230875368984
 20
-150.0314968157907
 10
113.0263481705281
 20
-150.0314968157907
 10
113.1679415949719
 20
-150.0125487906219
 10
113.1679415949719
 20
-150.0125487906219
 10
113.1679415949719
 20
-150.2475043027159
 10
113.1679415949719
 20
-150.2475043027159
 10
113.0115342599415
 20
-150.2282117679985
 10
112.8210204796072
 20
-150.2282117679985
 10
112.8041395117295
 20
-150.2282117679985
 97
        0
 97
        1
330
97
 92
        1
 93
        1
 72
     4
 94
        3
 73
     0
 74
     0
 95
       47
 96
       43
 40
0.0
 40
0.0
 40
0.0
 40
0.0
 40
1.0
 40
1.0
 40
1.0
 40
2.0
 40
2.0
 40
2.0
 40
3.0
 40
3.0
 40
3.0
 40
4.0
 40
4.0
 40
4.0
 40
5.0
 40
5.0
 40
5.0
 40
6.0
 40
6.0
 40
6.0
 40
7.0
 40
7.0
 40
7.0
 40
8.0
 40
8.0
 40
8.0
 40
9.0
 40
9.0
 40
9.0
 40
10.0
 40
10.0
 40
10.0
 40
11.0
 40
11.0
 40
11.0
 40
12.0
 40
12.0
 40
12.0
 40
13.0
 40
13.0
 40
13.0
 40
14.0
 40
14.0
 40
14.0
 40
14.0
 10
112.9057698285444
 20
-150.7570339249843
 10
112.9057698285444
 20
-150.7570339249843
 10
112.8041395117295
 20
-150.7570339249843
 10
112.8041395117295
 20
-150.7570339249843
 10
112.8041395117295
 20
-150.8438503312126
 10
112.7831244292695
 20
-151.2331461210458
 10
112.5864094770617
 20
-151.4532877225533
 10
112.4341362566137
 20
-151.6224419108791
 10
112.2267415084016
 20
-151.6923773492297
 10
112.1419921594645
 20
-151.7195936035632
 10
112.1419921594645
 20
-151.7195936035632
 10
111.9473442645479
 20
-151.5525064725285
 10
111.9473442645479
 20
-151.5525064725285
 10
112.0448404667804
 20
-151.5397596192331
 10
112.2201958269797
 20
-151.5166774794819
 10
112.4086425500228
 20
-151.3282307564388
 10
112.4827121029557
 20
-151.2565727703456
 10
112.5864094770617
 20
-151.1167018936444
 10
112.5864094770617
 20
-150.7570339249843
 10
112.5864094770617
 20
-150.7570339249843
 10
112.35558807955
 20
-150.7570339249843
 10
112.35558807955
 20
-150.7570339249843
 10
112.1695529233465
 20
-150.7570339249843
 10
111.983517767143
 20
-150.7615125491152
 10
111.797138101391
 20
-150.7763264597017
 10
111.797138101391
 20
-150.7763264597017
 10
111.797138101391
 20
-150.5561848581943
 10
111.797138101391
 20
-150.5561848581943
 10
111.9855848244341
 20
-150.5709987687808
 10
112.2711832401614
 20
-150.5751328833632
 10
112.35558807955
 20
-150.5751328833632
 10
112.35558807955
 20
-150.5751328833632
 10
112.9057698285444
 20
-150.5751328833632
 10
112.9057698285444
 20
-150.5751328833632
 10
112.9247178537132
 20
-150.5751328833632
 10
113.2420111479047
 20
-150.5751328833632
 10
113.4707654881253
 20
-150.5561848581943
 10
113.4707654881253
 20
-150.5561848581943
 10
113.4707654881253
 20
-150.7763264597017
 10
113.4707654881253
 20
-150.7763264597017
 10
113.2823187650822
 20
-150.7615125491152
 10
113.093872042039
 20
-150.7570339249843
 10
112.9057698285444
 20
-150.7570339249843
 97
        0
 97
        1
330
98
 75
     2
 76
     1
 98
        1
 10
0.0
 20
0.0
450
        0
451
        0
460
0.0
461
0.0
452
        0
462
0.0
453
        0
470

  0
SPLINE
  5
9A
330
8A
100
AcDbEntity
  8
レイヤー 1
100
AcDbSpline
210
0.0
220
0.0
230
1.0
 70
     9
 71
     3
 72
    29
 73
    25
 74
     0
 42
0.0000000001
 43
0.0000000001
 40
0.0
 40
0.0
 40
0.0
 40
0.0
 40
1.0
 40
1.0
 40
1.0
 40
2.0
 40
2.0
 40
2.0
 40
3.0
 40
3.0
 40
3.0
 40
4.0
 40
4.0
 40
4.0
 40
5.0
 40
5.0
 40
5.0
 40
6.0
 40
6.0
 40
6.0
 40
7.0
 40
7.0
 40
7.0
 40
8.0
 40
8.0
 40
8.0
 40
8.0
 10
114.7516519895412
 20
-150.9199869414367
 30
0.0
 10
114.7516519895412
 20
-150.9199869414367
 30
0.0
 10
114.2672715643151
 20
-150.9199869414367
 30
0.0
 10
114.2672715643151
 20
-150.9199869414367
 30
0.0
 10
114.2397108004331
 20
-150.9199869414367
 30
0.0
 10
113.9224175062416
 20
-150.9199869414367
 30
0.0
 10
113.7108886434472
 20
-150.9454806480275
 30
0.0
 10
113.7108886434472
 20
-150.9454806480275
 30
0.0
 10
113.7108886434472
 20
-150.7150037600643
 30
0.0
 10
113.7108886434472
 20
-150.7150037600643
 30
0.0
 10
113.8693630357688
 20
-150.7380858998154
 30
0.0
 10
114.0598768161031
 20
-150.7401529571066
 30
0.0
 10
114.2672715643151
 20
-150.7401529571066
 30
0.0
 10
114.2672715643151
 20
-150.7401529571066
 30
0.0
 10
114.7516519895412
 20
-150.7401529571066
 30
0.0
 10
114.7516519895412
 20
-150.7401529571066
 30
0.0
 10
114.9376871457447
 20
-150.7401529571066
 30
0.0
 10
115.1240668114967
 20
-150.7380858998154
 30
0.0
 10
115.3080349104091
 20
-150.7150037600643
 30
0.0
 10
115.3080349104091
 20
-150.7150037600643
 30
0.0
 10
115.3080349104091
 20
-150.9454806480275
 30
0.0
 10
115.3080349104091
 20
-150.9454806480275
 30
0.0
 10
115.1240668114967
 20
-150.9220539987278
 30
0.0
 10
114.8763644461073
 20
-150.9199869414367
 30
0.0
 10
114.7516519895412
 20
-150.9199869414367
 30
0.0
  0
HATCH
  5
9B
330
8A
100
AcDbEntity
  8
レイヤー 1
 62
    18
420
        0
440
 33554687
100
AcDbHatch
 10
0.0
 20
0.0
 30
0.0
210
0.0
220
0.0
230
1.0
  2
SOLID
 70
     1
 71
     1
 91
        1
 92
        1
 93
        1
 72
     4
 94
        3
 73
     0
 74
     0
 95
       29
 96
       25
 40
0.0
 40
0.0
 40
0.0
 40
0.0
 40
1.0
 40
1.0
 40
1.0
 40
2.0
 40
2.0
 40
2.0
 40
3.0
 40
3.0
 40
3.0
 40
4.0
 40
4.0
 40
4.0
 40
5.0
 40
5.0
 40
5.0
 40
6.0
 40
6.0
 40
6.0
 40
7.0
 40
7.0
 40
7.0
 40
8.0
 40
8.0
 40
8.0
 40
8.0
 10
114.7516519895412
 20
-150.9199869414367
 10
114.7516519895412
 20
-150.9199869414367
 10
114.2672715643151
 20
-150.9199869414367
 10
114.2672715643151
 20
-150.9199869414367
 10
114.2397108004331
 20
-150.9199869414367
 10
113.9224175062416
 20
-150.9199869414367
 10
113.7108886434472
 20
-150.9454806480275
 10
113.7108886434472
 20
-150.9454806480275
 10
113.7108886434472
 20
-150.7150037600643
 10
113.7108886434472
 20
-150.7150037600643
 10
113.8693630357688
 20
-150.7380858998154
 10
114.0598768161031
 20
-150.7401529571066
 10
114.2672715643151
 20
-150.7401529571066
 10
114.2672715643151
 20
-150.7401529571066
 10
114.7516519895412
 20
-150.7401529571066
 10
114.7516519895412
 20
-150.7401529571066
 10
114.9376871457447
 20
-150.7401529571066
 10
115.1240668114967
 20
-150.7380858998154
 10
115.3080349104091
 20
-150.7150037600643
 10
115.3080349104091
 20
-150.7150037600643
 10
115.3080349104091
 20
-150.9454806480275
 10
115.3080349104091
 20
-150.9454806480275
 10
115.1240668114967
 20
-150.9220539987278
 10
114.8763644461073
 20
-150.9199869414367
 10
114.7516519895412
 20
-150.9199869414367
 97
        0
 97
        1
330
9A
 75
     2
 76
     1
 98
        1
 10
0.0
 20
0.0
450
        0
451
        0
460
0.0
461
0.0
452
        0
462
0.0
453
        0
470

  0
SPLINE
  5
9C
330
8A
100
AcDbEntity
  8
レイヤー 1
100
AcDbSpline
210
0.0
220
0.0
230
1.0
 70
     9
 71
     3
 72
    47
 73
    43
 74
     0
 42
0.0000000001
 43
0.0000000001
 40
0.0
 40
0.0
 40
0.0
 40
0.0
 40
1.0
 40
1.0
 40
1.0
 40
2.0
 40
2.0
 40
2.0
 40
3.0
 40
3.0
 40
3.0
 40
4.0
 40
4.0
 40
4.0
 40
5.0
 40
5.0
 40
5.0
 40
6.0
 40
6.0
 40
6.0
 40
7.0
 40
7.0
 40
7.0
 40
8.0
 40
8.0
 40
8.0
 40
9.0
 40
9.0
 40
9.0
 40
10.0
 40
10.0
 40
10.0
 40
11.0
 40
11.0
 40
11.0
 40
12.0
 40
12.0
 40
12.0
 40
13.0
 40
13.0
 40
13.0
 40
14.0
 40
14.0
 40
14.0
 40
14.0
 10
116.9716715202362
 20
-150.3257079702311
 30
0.0
 10
116.9017360818857
 20
-150.6047607045363
 30
0.0
 10
116.8255994716616
 20
-150.9096516549809
 30
0.0
 10
116.5127848016009
 20
-151.241758859759
 30
0.0
 10
116.2757622322158
 20
-151.4911837728911
 30
0.0
 10
116.030471433666
 20
-151.5907470324148
 30
0.0
 10
115.9247070022688
 20
-151.6331217068834
 30
0.0
 10
115.9247070022688
 20
-151.6331217068834
 30
0.0
 10
115.7300591073522
 20
-151.4512206652622
 30
0.0
 10
115.7300591073522
 20
-151.4512206652622
 30
0.0
 10
115.9160942635557
 20
-151.4043673666628
 30
0.0
 10
116.2778292895069
 20
-151.311349788561
 30
0.0
 10
116.5741075012384
 20
-150.8162895673306
 30
0.0
 10
116.734648950851
 20
-150.5499836863208
 30
0.0
 10
116.7473958041465
 20
-150.3763508738642
 30
0.0
 10
116.7560085428596
 20
-150.2854003530536
 30
0.0
 10
116.7560085428596
 20
-150.2854003530536
 30
0.0
 10
116.2502685256249
 20
-150.2854003530536
 30
0.0
 10
116.2502685256249
 20
-150.2854003530536
 30
0.0
 10
116.1317572409323
 20
-150.2854003530536
 30
0.0
 10
115.7107665726348
 20
-150.3043483782225
 30
0.0
 10
115.5584933521867
 20
-150.3150281742268
 30
0.0
 10
115.5584933521867
 20
-150.3150281742268
 30
0.0
 10
115.5584933521867
 20
-150.1055663687236
 30
0.0
 10
115.5584933521867
 20
-150.1055663687236
 30
0.0
 10
115.700431286179
 20
-150.118313222019
 30
0.0
 10
115.9774169631931
 20
-150.1224473366013
 30
0.0
 10
116.0938611905946
 20
-150.1224473366013
 30
0.0
 10
116.0938611905946
 20
-150.1224473366013
 30
0.0
 10
116.4490505351238
 20
-150.1224473366013
 30
0.0
 10
116.4490505351238
 20
-150.1224473366013
 30
0.0
 10
116.4766112990058
 20
-150.1224473366013
 30
0.0
 10
116.637497258167
 20
-150.1203802793102
 30
0.0
 10
116.7473958041465
 20
-150.1055663687236
 30
0.0
 10
116.8045843892016
 20
-150.0993651968501
 30
0.0
 10
116.8214653570793
 20
-150.0800726621328
 30
0.0
 10
116.844892006379
 20
-150.0569905223816
 30
0.0
 10
116.844892006379
 20
-150.0569905223816
 30
0.0
 10
117.0329942198737
 20
-150.2071966855385
 30
0.0
 10
117.0329942198737
 20
-150.2071966855385
 30
0.0
 10
117.0181803092871
 20
-150.2368245067116
 30
0.0
 10
117.0078450228313
 20
-150.2557725318805
 30
0.0
 10
116.9716715202362
 20
-150.3257079702311
 30
0.0
  0
HATCH
  5
9D
330
8A
100
AcDbEntity
  8
レイヤー 1
 62
    18
420
        0
440
 33554687
100
AcDbHatch
 10
0.0
 20
0.0
 30
0.0
210
0.0
220
0.0
230
1.0
  2
SOLID
 70
     1
 71
     1
 91
        1
 92
        1
 93
        1
 72
     4
 94
        3
 73
     0
 74
     0
 95
       47
 96
       43
 40
0.0
 40
0.0
 40
0.0
 40
0.0
 40
1.0
 40
1.0
 40
1.0
 40
2.0
 40
2.0
 40
2.0
 40
3.0
 40
3.0
 40
3.0
 40
4.0
 40
4.0
 40
4.0
 40
5.0
 40
5.0
 40
5.0
 40
6.0
 40
6.0
 40
6.0
 40
7.0
 40
7.0
 40
7.0
 40
8.0
 40
8.0
 40
8.0
 40
9.0
 40
9.0
 40
9.0
 40
10.0
 40
10.0
 40
10.0
 40
11.0
 40
11.0
 40
11.0
 40
12.0
 40
12.0
 40
12.0
 40
13.0
 40
13.0
 40
13.0
 40
14.0
 40
14.0
 40
14.0
 40
14.0
 10
116.9716715202362
 20
-150.3257079702311
 10
116.9017360818857
 20
-150.6047607045363
 10
116.8255994716616
 20
-150.9096516549809
 10
116.5127848016009
 20
-151.241758859759
 10
116.2757622322158
 20
-151.4911837728911
 10
116.030471433666
 20
-151.5907470324148
 10
115.9247070022688
 20
-151.6331217068834
 10
115.9247070022688
 20
-151.6331217068834
 10
115.7300591073522
 20
-151.4512206652622
 10
115.7300591073522
 20
-151.4512206652622
 10
115.9160942635557
 20
-151.4043673666628
 10
116.2778292895069
 20
-151.311349788561
 10
116.5741075012384
 20
-150.8162895673306
 10
116.734648950851
 20
-150.5499836863208
 10
116.7473958041465
 20
-150.3763508738642
 10
116.7560085428596
 20
-150.2854003530536
 10
116.7560085428596
 20
-150.2854003530536
 10
116.2502685256249
 20
-150.2854003530536
 10
116.2502685256249
 20
-150.2854003530536
 10
116.1317572409323
 20
-150.2854003530536
 10
115.7107665726348
 20
-150.3043483782225
 10
115.5584933521867
 20
-150.3150281742268
 10
115.5584933521867
 20
-150.3150281742268
 10
115.5584933521867
 20
-150.1055663687236
 10
115.5584933521867
 20
-150.1055663687236
 10
115.700431286179
 20
-150.118313222019
 10
115.9774169631931
 20
-150.1224473366013
 10
116.0938611905946
 20
-150.1224473366013
 10
116.0938611905946
 20
-150.1224473366013
 10
116.4490505351238
 20
-150.1224473366013
 10
116.4490505351238
 20
-150.1224473366013
 10
116.4766112990058
 20
-150.1224473366013
 10
116.637497258167
 20
-150.1203802793102
 10
116.7473958041465
 20
-150.1055663687236
 10
116.8045843892016
 20
-150.0993651968501
 10
116.8214653570793
 20
-150.0800726621328
 10
116.844892006379
 20
-150.0569905223816
 10
116.844892006379
 20
-150.0569905223816
 10
117.0329942198737
 20
-150.2071966855385
 10
117.0329942198737
 20
-150.2071966855385
 10
117.0181803092871
 20
-150.2368245067116
 10
117.0078450228313
 20
-150.2557725318805
 10
116.9716715202362
 20
-150.3257079702311
 97
        0
 97
        1
330
9C
 75
     2
 76
     1
 98
        1
 10
0.0
 20
0.0
450
        0
451
        0
460
0.0
461
0.0
452
        0
462
0.0
453
        0
470

  0
SPLINE
  5
9E
330
8A
100
AcDbEntity
  8
レイヤー 1
100
AcDbSpline
210
0.0
220
0.0
230
1.0
 70
    11
 71
     3
 72
    17
 73
    13
 74
     0
 42
0.0000000001
 43
0.0000000001
 40
0.0
 40
0.0
 40
0.0
 40
0.0
 40
1.0
 40
1.0
 40
1.0
 40
2.0
 40
2.0
 40
2.0
 40
3.0
 40
3.0
 40
3.0
 40
4.0
 40
4.0
 40
4.0
 40
4.0
 10
117.362000838715
 20
-150.1076334260147
 30
0.0
 10
117.362000838715
 20
-150.166889068361
 30
0.0
 10
117.4085096277659
 20
-150.2133978574119
 30
0.0
 10
117.4677652701122
 20
-150.2133978574119
 30
0.0
 10
117.5270209124585
 20
-150.2133978574119
 30
0.0
 10
117.5755967588005
 20
-150.166889068361
 30
0.0
 10
117.5755967588005
 20
-150.1076334260147
 30
0.0
 10
117.5755967588005
 20
-150.0483777836684
 30
0.0
 10
117.5270209124585
 20
-149.9998019373264
 30
0.0
 10
117.4677652701122
 20
-149.9998019373264
 30
0.0
 10
117.4085096277659
 20
-149.9998019373264
 30
0.0
 10
117.362000838715
 20
-150.0483777836684
 30
0.0
 10
117.362000838715
 20
-150.1076334260147
 30
0.0
  0
SPLINE
  5
9F
330
8A
100
AcDbEntity
  8
レイヤー 1
100
AcDbSpline
210
0.0
220
0.0
230
1.0
 70
     9
 71
     3
 72
    17
 73
    13
 74
     0
 42
0.0000000001
 43
0.0000000001
 40
0.0
 40
0.0
 40
0.0
 40
0.0
 40
1.0
 40
1.0
 40
1.0
 40
2.0
 40
2.0
 40
2.0
 40
3.0
 40
3.0
 40
3.0
 40
4.0
 40
4.0
 40
4.0
 40
4.0
 10
117.6772270756154
 20
-150.1076334260147
 30
0.0
 10
117.6772270756154
 20
-150.222010596125
 30
0.0
 10
117.5842094975136
 20
-150.3170952315179
 30
0.0
 10
117.4677652701122
 20
-150.3170952315179
 30
0.0
 10
117.3533881000019
 20
-150.3170952315179
 30
0.0
 10
117.258303464609
 20
-150.222010596125
 30
0.0
 10
117.258303464609
 20
-150.1076334260147
 30
0.0
 10
117.258303464609
 20
-149.9911891986133
 30
0.0
 10
117.3533881000019
 20
-149.8981716205115
 30
0.0
 10
117.4677652701122
 20
-149.8981716205115
 30
0.0
 10
117.5821424402225
 20
-149.8981716205115
 30
0.0
 10
117.6772270756154
 20
-149.9911891986133
 30
0.0
 10
117.6772270756154
 20
-150.1076334260147
 30
0.0
  0
HATCH
  5
A0
330
8A
100
AcDbEntity
  8
レイヤー 1
 62
    18
420
        0
440
 33554687
100
AcDbHatch
 10
0.0
 20
0.0
 30
0.0
210
0.0
220
0.0
230
1.0
  2
SOLID
 70
     1
 71
     1
 91
        2
 92
        1
 93
        1
 72
     4
 94
        3
 73
     0
 74
     0
 95
       17
 96
       13
 40
0.0
 40
0.0
 40
0.0
 40
0.0
 40
1.0
 40
1.0
 40
1.0
 40
2.0
 40
2.0
 40
2.0
 40
3.0
 40
3.0
 40
3.0
 40
4.0
 40
4.0
 40
4.0
 40
4.0
 10
117.362000838715
 20
-150.1076334260147
 10
117.362000838715
 20
-150.166889068361
 10
117.4085096277659
 20
-150.2133978574119
 10
117.4677652701122
 20
-150.2133978574119
 10
117.5270209124585
 20
-150.2133978574119
 10
117.5755967588005
 20
-150.166889068361
 10
117.5755967588005
 20
-150.1076334260147
 10
117.5755967588005
 20
-150.0483777836684
 10
117.5270209124585
 20
-149.9998019373264
 10
117.4677652701122
 20
-149.9998019373264
 10
117.4085096277659
 20
-149.9998019373264
 10
117.362000838715
 20
-150.0483777836684
 10
117.362000838715
 20
-150.1076334260147
 97
        0
 97
        1
330
9E
 92
        1
 93
        1
 72
     4
 94
        3
 73
     0
 74
     0
 95
       17
 96
       13
 40
0.0
 40
0.0
 40
0.0
 40
0.0
 40
1.0
 40
1.0
 40
1.0
 40
2.0
 40
2.0
 40
2.0
 40
3.0
 40
3.0
 40
3.0
 40
4.0
 40
4.0
 40
4.0
 40
4.0
 10
117.6772270756154
 20
-150.1076334260147
 10
117.6772270756154
 20
-150.222010596125
 10
117.5842094975136
 20
-150.3170952315179
 10
117.4677652701122
 20
-150.3170952315179
 10
117.3533881000019
 20
-150.3170952315179
 10
117.258303464609
 20
-150.222010596125
 10
117.258303464609
 20
-150.1076334260147
 10
117.258303464609
 20
-149.9911891986133
 10
117.3533881000019
 20
-149.8981716205115
 10
117.4677652701122
 20
-149.8981716205115
 10
117.5821424402225
 20
-149.8981716205115
 10
117.6772270756154
 20
-149.9911891986133
 10
117.6772270756154
 20
-150.1076334260147
 97
        0
 97
        1
330
9F
 75
     2
 76
     1
 98
        1
 10
0.0
 20
0.0
450
        0
451
        0
460
0.0
461
0.0
452
        0
462
0.0
453
        0
470

  0
ENDBLK
  5
8D
330
8A
100
AcDbEntity
  8
0
100
AcDbBlockEnd
  0
BLOCK
  5
A3
330
A1
100
AcDbEntity
  8
0
100
AcDbBlockBegin
  2
Block_4
 70
     0
 10
0.0
 20
0.0
 30
0.0
  3
Block_4
  1

  0
LINE
  5
A5
330
A1
100
AcDbEntity
  8
レイヤー 1
 62
    18
420
        0
370
    25
100
AcDbLine
 10
88.88599284090643
 20
-142.0882630061796
 30
0.0
 11
101.9862131154098
 21
-142.0882630061796
 31
0.0
  0
LINE
  5
A6
330
A1
100
AcDbEntity
  8
レイヤー 1
 62
    18
420
        0
370
    25
100
AcDbLine
 10
100.886216838057
 20
-143.1882946447821
 30
0.0
 11
100.886216838057
 21
-155.688128214774
 31
0.0
  0
LINE
  5
A7
330
A1
100
AcDbEntity
  8
レイヤー 1
 62
    18
420
        0
370
    25
100
AcDbLine
 10
88.88599284090643
 20
-142.0882630061796
 30
0.0
 11
88.88599284090643
 21
-143.1882946447821
 31
0.0
  0
LINE
  5
A8
330
A1
100
AcDbEntity
  8
レイヤー 1
 62
    18
420
        0
370
    25
100
AcDbLine
 10
101.9862132266715
 20
-142.0882630061796
 30
0.0
 11
101.9862132266715
 21
-154.5884445225586
 31
0.0
  0
LINE
  5
A9
330
A1
100
AcDbEntity
  8
レイヤー 1
 62
    18
420
        0
370
    25
100
AcDbLine
 10
117.8863651112477
 20
-154.5884445225586
 30
0.0
 11
117.8863651112477
 21
-154.9884287881803
 31
0.0
  0
LINE
  5
AA
330
A1
100
AcDbEntity
  8
レイヤー 1
 62
    18
420
        0
370
    25
100
AcDbLine
 10
101.9862132266715
 20
-154.5884445225586
 30
0.0
 11
117.8863651112477
 21
-154.5884445225586
 31
0.0
  0
LINE
  5
AB
330
A1
100
AcDbEntity
  8
レイヤー 1
 62
    18
420
        0
370
    25
100
AcDbLine
 10
117.8863651112477
 20
-154.9884287881803
 30
0.0
 11
100.886216838057
 21
-155.688128214774
 31
0.0
  0
LINE
  5
AC
330
A1
100
AcDbEntity
  8
レイヤー 1
 62
    18
420
        0
370
    25
100
AcDbLine
 10
88.88599284090643
 20
-143.1882946447821
 30
0.0
 11
100.8862167267954
 21
-143.1882946447821
 31
0.0
  0
ENDBLK
  5
A4
330
A1
100
AcDbEntity
  8
0
100
AcDbBlockEnd
  0
BLOCK
  5
B9
330
B7
100
AcDbEntity
  8
0
100
AcDbBlockBegin
  2
Block_5
 70
     0
 10
0.0
 20
0.0
 30
0.0
  3
Block_5
  1

  0
INSERT
  5
BC
330
B7
100
AcDbEntity
  8
レイヤー 1
100
AcDbBlockReference
  2
Block_6
 10
0.0
 20
0.0
 30
0.0
  0
ENDBLK
  5
BA
330
B7
100
AcDbEntity
  8
0
100
AcDbBlockEnd
  0
BLOCK
  5
BD
330
BB
100
AcDbEntity
  8
0
100
AcDbBlockBegin
  2
Block_6
 70
     0
 10
0.0
 20
0.0
 30
0.0
  3
Block_6
  1

  0
SPLINE
  5
BF
330
BB
100
AcDbEntity
  8
レイヤー 1
100
AcDbSpline
210
0.0
220
0.0
230
1.0
 70
    11
 71
     3
 72
    26
 73
    22
 74
     0
 42
0.0000000001
 43
0.0000000001
 40
0.0
 40
0.0
 40
0.0
 40
0.0
 40
1.0
 40
1.0
 40
1.0
 40
2.0
 40
2.0
 40
2.0
 40
3.0
 40
3.0
 40
3.0
 40
4.0
 40
4.0
 40
4.0
 40
5.0
 40
5.0
 40
5.0
 40
6.0
 40
6.0
 40
6.0
 40
7.0
 40
7.0
 40
7.0
 40
7.0
 10
108.7485731064934
 20
-159.0417995479131
 30
0.0
 10
108.7485731064934
 20
-159.0417995479131
 30
0.0
 10
108.7485731064934
 20
-157.9376464448906
 30
0.0
 10
108.7485731064934
 20
-157.9376464448906
 30
0.0
 10
108.7485731064934
 20
-157.9376464448906
 30
0.0
 10
108.4185329590065
 20
-157.9376464448906
 30
0.0
 10
108.4185329590065
 20
-157.9376464448906
 30
0.0
 10
108.4185329590065
 20
-157.9376464448906
 30
0.0
 10
108.4185329590065
 20
-157.7895073390248
 30
0.0
 10
108.4185329590065
 20
-157.7895073390248
 30
0.0
 10
108.7506401637845
 20
-157.7746934284382
 30
0.0
 10
108.7971489528354
 20
-157.6117404119859
 30
0.0
 10
108.8267767740086
 20
-157.4973632418756
 30
0.0
 10
108.8267767740086
 20
-157.4973632418756
 30
0.0
 10
108.9728488225832
 20
-157.4973632418756
 30
0.0
 10
108.9728488225832
 20
-157.4973632418756
 30
0.0
 10
108.9728488225832
 20
-157.4973632418756
 30
0.0
 10
108.9728488225832
 20
-159.0417995479131
 30
0.0
 10
108.9728488225832
 20
-159.0417995479131
 30
0.0
 10
108.9728488225832
 20
-159.0417995479131
 30
0.0
 10
108.7485731064934
 20
-159.0417995479131
 30
0.0
 10
108.7485731064934
 20
-159.0417995479131
 30
0.0
  0
HATCH
  5
C0
330
BB
100
AcDbEntity
  8
レイヤー 1
 62
    18
420
        0
440
 33554687
100
AcDbHatch
 10
0.0
 20
0.0
 30
0.0
210
0.0
220
0.0
230
1.0
  2
SOLID
 70
     1
 71
     1
 91
        1
 92
        1
 93
        1
 72
     4
 94
        3
 73
     0
 74
     0
 95
       26
 96
       22
 40
0.0
 40
0.0
 40
0.0
 40
0.0
 40
1.0
 40
1.0
 40
1.0
 40
2.0
 40
2.0
 40
2.0
 40
3.0
 40
3.0
 40
3.0
 40
4.0
 40
4.0
 40
4.0
 40
5.0
 40
5.0
 40
5.0
 40
6.0
 40
6.0
 40
6.0
 40
7.0
 40
7.0
 40
7.0
 40
7.0
 10
108.7485731064934
 20
-159.0417995479131
 10
108.7485731064934
 20
-159.0417995479131
 10
108.7485731064934
 20
-157.9376464448906
 10
108.7485731064934
 20
-157.9376464448906
 10
108.7485731064934
 20
-157.9376464448906
 10
108.4185329590065
 20
-157.9376464448906
 10
108.4185329590065
 20
-157.9376464448906
 10
108.4185329590065
 20
-157.9376464448906
 10
108.4185329590065
 20
-157.7895073390248
 10
108.4185329590065
 20
-157.7895073390248
 10
108.7506401637845
 20
-157.7746934284382
 10
108.7971489528354
 20
-157.6117404119859
 10
108.8267767740086
 20
-157.4973632418756
 10
108.8267767740086
 20
-157.4973632418756
 10
108.9728488225832
 20
-157.4973632418756
 10
108.9728488225832
 20
-157.4973632418756
 10
108.9728488225832
 20
-157.4973632418756
 10
108.9728488225832
 20
-159.0417995479131
 10
108.9728488225832
 20
-159.0417995479131
 10
108.9728488225832
 20
-159.0417995479131
 10
108.7485731064934
 20
-159.0417995479131
 10
108.7485731064934
 20
-159.0417995479131
 97
        0
 97
        1
330
BF
 75
     2
 76
     1
 98
        1
 10
0.0
 20
0.0
450
        0
451
        0
460
0.0
461
0.0
452
        0
462
0.0
453
        0
470

  0
SPLINE
  5
C1
330
BB
100
AcDbEntity
  8
レイヤー 1
100
AcDbSpline
210
0.0
220
0.0
230
1.0
 70
     9
 71
     3
 72
    26
 73
    22
 74
     0
 42
0.0000000001
 43
0.0000000001
 40
0.0
 40
0.0
 40
0.0
 40
0.0
 40
1.0
 40
1.0
 40
1.0
 40
2.0
 40
2.0
 40
2.0
 40
3.0
 40
3.0
 40
3.0
 40
4.0
 40
4.0
 40
4.0
 40
5.0
 40
5.0
 40
5.0
 40
6.0
 40
6.0
 40
6.0
 40
7.0
 40
7.0
 40
7.0
 40
7.0
 10
109.8851101070773
 20
-159.0417995479131
 30
0.0
 10
109.8851101070773
 20
-159.0417995479131
 30
0.0
 10
109.6480875376921
 20
-159.0417995479131
 30
0.0
 10
109.6480875376921
 20
-159.0417995479131
 30
0.0
 10
109.673581244283
 20
-158.7327744828862
 30
0.0
 10
109.8661620819084
 20
-158.2146321219047
 30
0.0
 10
110.2723388396194
 20
-157.70889210467
 30
0.0
 10
110.2723388396194
 20
-157.70889210467
 30
0.0
 10
109.4344916176066
 20
-157.70889210467
 30
0.0
 10
109.4344916176066
 20
-157.70889210467
 30
0.0
 10
109.4344916176066
 20
-157.70889210467
 30
0.0
 10
109.4344916176066
 20
-157.4973632418756
 30
0.0
 10
109.4344916176066
 20
-157.4973632418756
 30
0.0
 10
109.4344916176066
 20
-157.4973632418756
 30
0.0
 10
110.5093614090046
 20
-157.4973632418756
 30
0.0
 10
110.5093614090046
 20
-157.4973632418756
 30
0.0
 10
110.5093614090046
 20
-157.4973632418756
 30
0.0
 10
110.5093614090046
 20
-157.70889210467
 30
0.0
 10
110.5093614090046
 20
-157.70889210467
 30
0.0
 10
110.1855224333911
 20
-157.998969144528
 30
0.0
 10
109.9188720428328
 20
-158.5911810584425
 30
0.0
 10
109.8851101070773
 20
-159.0417995479131
 30
0.0
  0
HATCH
  5
C2
330
BB
100
AcDbEntity
  8
レイヤー 1
 62
    18
420
        0
440
 33554687
100
AcDbHatch
 10
0.0
 20
0.0
 30
0.0
210
0.0
220
0.0
230
1.0
  2
SOLID
 70
     1
 71
     1
 91
        1
 92
        1
 93
        1
 72
     4
 94
        3
 73
     0
 74
     0
 95
       26
 96
       22
 40
0.0
 40
0.0
 40
0.0
 40
0.0
 40
1.0
 40
1.0
 40
1.0
 40
2.0
 40
2.0
 40
2.0
 40
3.0
 40
3.0
 40
3.0
 40
4.0
 40
4.0
 40
4.0
 40
5.0
 40
5.0
 40
5.0
 40
6.0
 40
6.0
 40
6.0
 40
7.0
 40
7.0
 40
7.0
 40
7.0
 10
109.8851101070773
 20
-159.0417995479131
 10
109.8851101070773
 20
-159.0417995479131
 10
109.6480875376921
 20
-159.0417995479131
 10
109.6480875376921
 20
-159.0417995479131
 10
109.673581244283
 20
-158.7327744828862
 10
109.8661620819084
 20
-158.2146321219047
 10
110.2723388396194
 20
-157.70889210467
 10
110.2723388396194
 20
-157.70889210467
 10
109.4344916176066
 20
-157.70889210467
 10
109.4344916176066
 20
-157.70889210467
 10
109.4344916176066
 20
-157.70889210467
 10
109.4344916176066
 20
-157.4973632418756
 10
109.4344916176066
 20
-157.4973632418756
 10
109.4344916176066
 20
-157.4973632418756
 10
110.5093614090046
 20
-157.4973632418756
 10
110.5093614090046
 20
-157.4973632418756
 10
110.5093614090046
 20
-157.4973632418756
 10
110.5093614090046
 20
-157.70889210467
 10
110.5093614090046
 20
-157.70889210467
 10
110.1855224333911
 20
-157.998969144528
 10
109.9188720428328
 20
-158.5911810584425
 10
109.8851101070773
 20
-159.0417995479131
 97
        0
 97
        1
330
C1
 75
     2
 76
     1
 98
        1
 10
0.0
 20
0.0
450
        0
451
        0
460
0.0
461
0.0
452
        0
462
0.0
453
        0
470

  0
ENDBLK
  5
BE
330
BB
100
AcDbEntity
  8
0
100
AcDbBlockEnd
  0
BLOCK
  5
C9
330
C7
100
AcDbEntity
  8
0
100
AcDbBlockBegin
  2
Block_7
 70
     0
 10
0.0
 20
0.0
 30
0.0
  3
Block_7
  1

  0
INSERT
  5
CC
330
C7
100
AcDbEntity
  8
レイヤー 1
100
AcDbBlockReference
  2
Block_8
 10
0.0
 20
0.0
 30
0.0
  0
ENDBLK
  5
CA
330
C7
100
AcDbEntity
  8
0
100
AcDbBlockEnd
  0
BLOCK
  5
CD
330
CB
100
AcDbEntity
  8
0
100
AcDbBlockBegin
  2
Block_8
 70
     0
 10
0.0
 20
0.0
 30
0.0
  3
Block_8
  1

  0
SPLINE
  5
CF
330
CB
100
AcDbEntity
  8
レイヤー 1
100
AcDbSpline
210
0.0
220
0.0
230
1.0
 70
     9
 71
     3
 72
    17
 73
    13
 74
     0
 42
0.0000000001
 43
0.0000000001
 40
0.0
 40
0.0
 40
0.0
 40
0.0
 40
1.0
 40
1.0
 40
1.0
 40
2.0
 40
2.0
 40
2.0
 40
3.0
 40
3.0
 40
3.0
 40
4.0
 40
4.0
 40
4.0
 40
4.0
 10
123.5762640750087
 20
-155.8723117014833
 30
0.0
 10
123.5762640750087
 20
-156.1220811241639
 30
0.0
 10
123.8597954334448
 20
-156.1685899132148
 30
0.0
 10
124.2046494915183
 20
-156.1685899132148
 30
0.0
 10
124.5240098430009
 20
-156.1685899132148
 30
0.0
 10
124.8326903984793
 20
-156.1324164106197
 30
0.0
 10
124.8326903984793
 20
-155.8723117014833
 30
0.0
 10
124.8326903984793
 20
-155.6246093360939
 30
0.0
 10
124.5515706068829
 20
-155.5760334897518
 30
0.0
 10
124.2046494915183
 20
-155.5760334897518
 30
0.0
 10
123.8849446304871
 20
-155.5760334897518
 30
0.0
 10
123.5762640750087
 20
-155.6142740496381
 30
0.0
 10
123.5762640750087
 20
-155.8723117014833
 30
0.0
  0
SPLINE
  5
D0
330
CB
100
AcDbEntity
  8
レイヤー 1
100
AcDbSpline
210
0.0
220
0.0
230
1.0
 70
     9
 71
     3
 72
    29
 73
    25
 74
     0
 42
0.0000000001
 43
0.0000000001
 40
0.0
 40
0.0
 40
0.0
 40
0.0
 40
1.0
 40
1.0
 40
1.0
 40
2.0
 40
2.0
 40
2.0
 40
3.0
 40
3.0
 40
3.0
 40
4.0
 40
4.0
 40
4.0
 40
5.0
 40
5.0
 40
5.0
 40
6.0
 40
6.0
 40
6.0
 40
7.0
 40
7.0
 40
7.0
 40
8.0
 40
8.0
 40
8.0
 40
8.0
 10
124.7989284627239
 20
-155.4744031729369
 30
0.0
 10
125.008390268227
 20
-155.5825791711738
 30
0.0
 10
125.0273382933959
 20
-155.7558674740818
 30
0.0
 10
125.0273382933959
 20
-155.8723117014833
 30
0.0
 10
125.0273382933959
 20
-156.0331976606445
 30
0.0
 10
124.9808295043451
 20
-156.1747910850882
 30
0.0
 10
124.7989284627239
 20
-156.2698757204811
 30
0.0
 10
124.6042805678072
 20
-156.3735730945871
 30
0.0
 10
124.3676025079706
 20
-156.3928656293045
 30
0.0
 10
124.2046494915183
 20
-156.3928656293045
 30
0.0
 10
124.0606445002348
 20
-156.3928656293045
 30
0.0
 10
123.8088080202631
 20
-156.3756401518783
 30
0.0
 10
123.6100260107641
 20
-156.2698757204811
 30
0.0
 10
123.4071098866829
 20
-156.1620442317928
 30
0.0
 10
123.3836832373832
 20
-156.0011582726317
 30
0.0
 10
123.3836832373832
 20
-155.8723117014833
 30
0.0
 10
123.3836832373832
 20
-155.7134927996133
 30
0.0
 10
123.4281249691429
 20
-155.5698323178784
 30
0.0
 10
123.6100260107641
 20
-155.4744031729369
 30
0.0
 10
123.8026068483896
 20
-155.3751844229618
 30
0.0
 10
124.0310166790617
 20
-155.351757773662
 30
0.0
 10
124.2046494915183
 20
-155.351757773662
 30
0.0
 10
124.3758707371352
 20
-155.351757773662
 30
0.0
 10
124.6063476250984
 20
-155.3731173656706
 30
0.0
 10
124.7989284627239
 20
-155.4744031729369
 30
0.0
  0
HATCH
  5
D1
330
CB
100
AcDbEntity
  8
レイヤー 1
 62
    18
420
        0
440
 33554687
100
AcDbHatch
 10
0.0
 20
0.0
 30
0.0
210
0.0
220
0.0
230
1.0
  2
SOLID
 70
     1
 71
     1
 91
        2
 92
        1
 93
        1
 72
     4
 94
        3
 73
     0
 74
     0
 95
       17
 96
       13
 40
0.0
 40
0.0
 40
0.0
 40
0.0
 40
1.0
 40
1.0
 40
1.0
 40
2.0
 40
2.0
 40
2.0
 40
3.0
 40
3.0
 40
3.0
 40
4.0
 40
4.0
 40
4.0
 40
4.0
 10
123.5762640750087
 20
-155.8723117014833
 10
123.5762640750087
 20
-156.1220811241639
 10
123.8597954334448
 20
-156.1685899132148
 10
124.2046494915183
 20
-156.1685899132148
 10
124.5240098430009
 20
-156.1685899132148
 10
124.8326903984793
 20
-156.1324164106197
 10
124.8326903984793
 20
-155.8723117014833
 10
124.8326903984793
 20
-155.6246093360939
 10
124.5515706068829
 20
-155.5760334897518
 10
124.2046494915183
 20
-155.5760334897518
 10
123.8849446304871
 20
-155.5760334897518
 10
123.5762640750087
 20
-155.6142740496381
 10
123.5762640750087
 20
-155.8723117014833
 97
        0
 97
        1
330
CF
 92
        1
 93
        1
 72
     4
 94
        3
 73
     0
 74
     0
 95
       29
 96
       25
 40
0.0
 40
0.0
 40
0.0
 40
0.0
 40
1.0
 40
1.0
 40
1.0
 40
2.0
 40
2.0
 40
2.0
 40
3.0
 40
3.0
 40
3.0
 40
4.0
 40
4.0
 40
4.0
 40
5.0
 40
5.0
 40
5.0
 40
6.0
 40
6.0
 40
6.0
 40
7.0
 40
7.0
 40
7.0
 40
8.0
 40
8.0
 40
8.0
 40
8.0
 10
124.7989284627239
 20
-155.4744031729369
 10
125.008390268227
 20
-155.5825791711738
 10
125.0273382933959
 20
-155.7558674740818
 10
125.0273382933959
 20
-155.8723117014833
 10
125.0273382933959
 20
-156.0331976606445
 10
124.9808295043451
 20
-156.1747910850882
 10
124.7989284627239
 20
-156.2698757204811
 10
124.6042805678072
 20
-156.3735730945871
 10
124.3676025079706
 20
-156.3928656293045
 10
124.2046494915183
 20
-156.3928656293045
 10
124.0606445002348
 20
-156.3928656293045
 10
123.8088080202631
 20
-156.3756401518783
 10
123.6100260107641
 20
-156.2698757204811
 10
123.4071098866829
 20
-156.1620442317928
 10
123.3836832373832
 20
-156.0011582726317
 10
123.3836832373832
 20
-155.8723117014833
 10
123.3836832373832
 20
-155.7134927996133
 10
123.4281249691429
 20
-155.5698323178784
 10
123.6100260107641
 20
-155.4744031729369
 10
123.8026068483896
 20
-155.3751844229618
 10
124.0310166790617
 20
-155.351757773662
 10
124.2046494915183
 20
-155.351757773662
 10
124.3758707371352
 20
-155.351757773662
 10
124.6063476250984
 20
-155.3731173656706
 10
124.7989284627239
 20
-155.4744031729369
 97
        0
 97
        1
330
D0
 75
     2
 76
     1
 98
        1
 10
0.0
 20
0.0
450
        0
451
        0
460
0.0
461
0.0
452
        0
462
0.0
453
        0
470

  0
SPLINE
  5
D2
330
CB
100
AcDbEntity
  8
レイヤー 1
100
AcDbSpline
210
0.0
220
0.0
230
1.0
 70
    11
 71
     3
 72
    17
 73
    13
 74
     0
 42
0.0000000001
 43
0.0000000001
 40
0.0
 40
0.0
 40
0.0
 40
0.0
 40
1.0
 40
1.0
 40
1.0
 40
2.0
 40
2.0
 40
2.0
 40
3.0
 40
3.0
 40
3.0
 40
4.0
 40
4.0
 40
4.0
 40
4.0
 10
124.9766953897628
 20
-155.1354057771883
 30
0.0
 10
124.9766953897628
 20
-155.1354057771883
 30
0.0
 10
124.724858909791
 20
-155.1354057771883
 30
0.0
 10
124.724858909791
 20
-155.1354057771883
 30
0.0
 10
124.724858909791
 20
-155.1354057771883
 30
0.0
 10
124.724858909791
 20
-154.8835692972166
 30
0.0
 10
124.724858909791
 20
-154.8835692972166
 30
0.0
 10
124.724858909791
 20
-154.8835692972166
 30
0.0
 10
124.9766953897628
 20
-154.8835692972166
 30
0.0
 10
124.9766953897628
 20
-154.8835692972166
 30
0.0
 10
124.9766953897628
 20
-154.8835692972166
 30
0.0
 10
124.9766953897628
 20
-155.1354057771883
 30
0.0
 10
124.9766953897628
 20
-155.1354057771883
 30
0.0
  0
HATCH
  5
D3
330
CB
100
AcDbEntity
  8
レイヤー 1
 62
    18
420
        0
440
 33554687
100
AcDbHatch
 10
0.0
 20
0.0
 30
0.0
210
0.0
220
0.0
230
1.0
  2
SOLID
 70
     1
 71
     1
 91
        1
 92
        1
 93
        1
 72
     4
 94
        3
 73
     0
 74
     0
 95
       17
 96
       13
 40
0.0
 40
0.0
 40
0.0
 40
0.0
 40
1.0
 40
1.0
 40
1.0
 40
2.0
 40
2.0
 40
2.0
 40
3.0
 40
3.0
 40
3.0
 40
4.0
 40
4.0
 40
4.0
 40
4.0
 10
124.9766953897628
 20
-155.1354057771883
 10
124.9766953897628
 20
-155.1354057771883
 10
124.724858909791
 20
-155.1354057771883
 10
124.724858909791
 20
-155.1354057771883
 10
124.724858909791
 20
-155.1354057771883
 10
124.724858909791
 20
-154.8835692972166
 10
124.724858909791
 20
-154.8835692972166
 10
124.724858909791
 20
-154.8835692972166
 10
124.9766953897628
 20
-154.8835692972166
 10
124.9766953897628
 20
-154.8835692972166
 10
124.9766953897628
 20
-154.8835692972166
 10
124.9766953897628
 20
-155.1354057771883
 10
124.9766953897628
 20
-155.1354057771883
 97
        0
 97
        1
330
D2
 75
     2
 76
     1
 98
        1
 10
0.0
 20
0.0
450
        0
451
        0
460
0.0
461
0.0
452
        0
462
0.0
453
        0
470

  0
SPLINE
  5
D4
330
CB
100
AcDbEntity
  8
レイヤー 1
100
AcDbSpline
210
0.0
220
0.0
230
1.0
 70
    11
 71
     3
 72
    14
 73
    10
 74
     0
 42
0.0000000001
 43
0.0000000001
 40
0.0
 40
0.0
 40
0.0
 40
0.0
 40
1.0
 40
1.0
 40
1.0
 40
2.0
 40
2.0
 40
2.0
 40
3.0
 40
3.0
 40
3.0
 40
3.0
 10
123.7750460845076
 20
-154.0329752219084
 30
0.0
 10
123.7750460845076
 20
-154.0329752219084
 30
0.0
 10
124.4309922648992
 20
-154.4901393928011
 30
0.0
 10
124.4309922648992
 20
-154.4901393928011
 30
0.0
 10
124.4309922648992
 20
-154.4901393928011
 30
0.0
 10
124.4309922648992
 20
-154.0329752219084
 30
0.0
 10
124.4309922648992
 20
-154.0329752219084
 30
0.0
 10
124.4309922648992
 20
-154.0329752219084
 30
0.0
 10
123.7750460845076
 20
-154.0329752219084
 30
0.0
 10
123.7750460845076
 20
-154.0329752219084
 30
0.0
  0
SPLINE
  5
D5
330
CB
100
AcDbEntity
  8
レイヤー 1
100
AcDbSpline
210
0.0
220
0.0
230
1.0
 70
    11
 71
     3
 72
    38
 73
    34
 74
     0
 42
0.0000000001
 43
0.0000000001
 40
0.0
 40
0.0
 40
0.0
 40
0.0
 40
1.0
 40
1.0
 40
1.0
 40
2.0
 40
2.0
 40
2.0
 40
3.0
 40
3.0
 40
3.0
 40
4.0
 40
4.0
 40
4.0
 40
5.0
 40
5.0
 40
5.0
 40
6.0
 40
6.0
 40
6.0
 40
7.0
 40
7.0
 40
7.0
 40
8.0
 40
8.0
 40
8.0
 40
9.0
 40
9.0
 40
9.0
 40
10.0
 40
10.0
 40
10.0
 40
11.0
 40
11.0
 40
11.0
 40
11.0
 10
124.6297742743981
 20
-153.8152451872406
 30
0.0
 10
124.6297742743981
 20
-153.8152451872406
 30
0.0
 10
124.9766953897628
 20
-153.8152451872406
 30
0.0
 10
124.9766953897628
 20
-153.8152451872406
 30
0.0
 10
124.9766953897628
 20
-153.8152451872406
 30
0.0
 10
124.9766953897628
 20
-154.0329752219084
 30
0.0
 10
124.9766953897628
 20
-154.0329752219084
 30
0.0
 10
124.9766953897628
 20
-154.0329752219084
 30
0.0
 10
124.6297742743981
 20
-154.0329752219084
 30
0.0
 10
124.6297742743981
 20
-154.0329752219084
 30
0.0
 10
124.6297742743981
 20
-154.0329752219084
 30
0.0
 10
124.6297742743981
 20
-154.6889214023
 30
0.0
 10
124.6297742743981
 20
-154.6889214023
 30
0.0
 10
124.6297742743981
 20
-154.6889214023
 30
0.0
 10
124.4054985583083
 20
-154.6889214023
 30
0.0
 10
124.4054985583083
 20
-154.6889214023
 30
0.0
 10
124.4054985583083
 20
-154.6889214023
 30
0.0
 10
123.4322590837253
 20
-154.0098930821572
 30
0.0
 10
123.4322590837253
 20
-154.0098930821572
 30
0.0
 10
123.4322590837253
 20
-154.0098930821572
 30
0.0
 10
123.4322590837253
 20
-153.8152451872406
 30
0.0
 10
123.4322590837253
 20
-153.8152451872406
 30
0.0
 10
123.4322590837253
 20
-153.8152451872406
 30
0.0
 10
124.4309922648992
 20
-153.8152451872406
 30
0.0
 10
124.4309922648992
 20
-153.8152451872406
 30
0.0
 10
124.4309922648992
 20
-153.8152451872406
 30
0.0
 10
124.4309922648992
 20
-153.6078504390286
 30
0.0
 10
124.4309922648992
 20
-153.6078504390286
 30
0.0
 10
124.4309922648992
 20
-153.6078504390286
 30
0.0
 10
124.6297742743981
 20
-153.6078504390286
 30
0.0
 10
124.6297742743981
 20
-153.6078504390286
 30
0.0
 10
124.6297742743981
 20
-153.6078504390286
 30
0.0
 10
124.6297742743981
 20
-153.8152451872406
 30
0.0
 10
124.6297742743981
 20
-153.8152451872406
 30
0.0
  0
HATCH
  5
D6
330
CB
100
AcDbEntity
  8
レイヤー 1
 62
    18
420
        0
440
 33554687
100
AcDbHatch
 10
0.0
 20
0.0
 30
0.0
210
0.0
220
0.0
230
1.0
  2
SOLID
 70
     1
 71
     1
 91
        2
 92
        1
 93
        1
 72
     4
 94
        3
 73
     0
 74
     0
 95
       14
 96
       10
 40
0.0
 40
0.0
 40
0.0
 40
0.0
 40
1.0
 40
1.0
 40
1.0
 40
2.0
 40
2.0
 40
2.0
 40
3.0
 40
3.0
 40
3.0
 40
3.0
 10
123.7750460845076
 20
-154.0329752219084
 10
123.7750460845076
 20
-154.0329752219084
 10
124.4309922648992
 20
-154.4901393928011
 10
124.4309922648992
 20
-154.4901393928011
 10
124.4309922648992
 20
-154.4901393928011
 10
124.4309922648992
 20
-154.0329752219084
 10
124.4309922648992
 20
-154.0329752219084
 10
124.4309922648992
 20
-154.0329752219084
 10
123.7750460845076
 20
-154.0329752219084
 10
123.7750460845076
 20
-154.0329752219084
 97
        0
 97
        1
330
D4
 92
        1
 93
        1
 72
     4
 94
        3
 73
     0
 74
     0
 95
       38
 96
       34
 40
0.0
 40
0.0
 40
0.0
 40
0.0
 40
1.0
 40
1.0
 40
1.0
 40
2.0
 40
2.0
 40
2.0
 40
3.0
 40
3.0
 40
3.0
 40
4.0
 40
4.0
 40
4.0
 40
5.0
 40
5.0
 40
5.0
 40
6.0
 40
6.0
 40
6.0
 40
7.0
 40
7.0
 40
7.0
 40
8.0
 40
8.0
 40
8.0
 40
9.0
 40
9.0
 40
9.0
 40
10.0
 40
10.0
 40
10.0
 40
11.0
 40
11.0
 40
11.0
 40
11.0
 10
124.6297742743981
 20
-153.8152451872406
 10
124.6297742743981
 20
-153.8152451872406
 10
124.9766953897628
 20
-153.8152451872406
 10
124.9766953897628
 20
-153.8152451872406
 10
124.9766953897628
 20
-153.8152451872406
 10
124.9766953897628
 20
-154.0329752219084
 10
124.9766953897628
 20
-154.0329752219084
 10
124.9766953897628
 20
-154.0329752219084
 10
124.6297742743981
 20
-154.0329752219084
 10
124.6297742743981
 20
-154.0329752219084
 10
124.6297742743981
 20
-154.0329752219084
 10
124.6297742743981
 20
-154.6889214023
 10
124.6297742743981
 20
-154.6889214023
 10
124.6297742743981
 20
-154.6889214023
 10
124.4054985583083
 20
-154.6889214023
 10
124.4054985583083
 20
-154.6889214023
 10
124.4054985583083
 20
-154.6889214023
 10
123.4322590837253
 20
-154.0098930821572
 10
123.4322590837253
 20
-154.0098930821572
 10
123.4322590837253
 20
-154.0098930821572
 10
123.4322590837253
 20
-153.8152451872406
 10
123.4322590837253
 20
-153.8152451872406
 10
123.4322590837253
 20
-153.8152451872406
 10
124.4309922648992
 20
-153.8152451872406
 10
124.4309922648992
 20
-153.8152451872406
 10
124.4309922648992
 20
-153.8152451872406
 10
124.4309922648992
 20
-153.6078504390286
 10
124.4309922648992
 20
-153.6078504390286
 10
124.4309922648992
 20
-153.6078504390286
 10
124.6297742743981
 20
-153.6078504390286
 10
124.6297742743981
 20
-153.6078504390286
 10
124.6297742743981
 20
-153.6078504390286
 10
124.6297742743981
 20
-153.8152451872406
 10
124.6297742743981
 20
-153.8152451872406
 97
        0
 97
        1
330
D5
 75
     2
 76
     1
 98
        1
 10
0.0
 20
0.0
450
        0
451
        0
460
0.0
461
0.0
452
        0
462
0.0
453
        0
470

  0
ENDBLK
  5
CE
330
CB
100
AcDbEntity
  8
0
100
AcDbBlockEnd
  0
BLOCK
  5
DD
330
DB
100
AcDbEntity
  8
0
100
AcDbBlockBegin
  2
Block_9
 70
     0
 10
0.0
 20
0.0
 30
0.0
  3
Block_9
  1

  0
INSERT
  5
E0
330
DB
100
AcDbEntity
  8
レイヤー 1
100
AcDbBlockReference
  2
Block_10
 10
0.0
 20
0.0
 30
0.0
  0
ENDBLK
  5
DE
330
DB
100
AcDbEntity
  8
0
100
AcDbBlockEnd
  0
BLOCK
  5
E1
330
DF
100
AcDbEntity
  8
0
100
AcDbBlockBegin
  2
Block_10
 70
     0
 10
0.0
 20
0.0
 30
0.0
  3
Block_10
  1

  0
SPLINE
  5
E3
330
DF
100
AcDbEntity
  8
レイヤー 1
100
AcDbSpline
210
0.0
220
0.0
230
1.0
 70
    11
 71
     3
 72
    26
 73
    22
 74
     0
 42
0.0000000001
 43
0.0000000001
 40
0.0
 40
0.0
 40
0.0
 40
0.0
 40
1.0
 40
1.0
 40
1.0
 40
2.0
 40
2.0
 40
2.0
 40
3.0
 40
3.0
 40
3.0
 40
4.0
 40
4.0
 40
4.0
 40
5.0
 40
5.0
 40
5.0
 40
6.0
 40
6.0
 40
6.0
 40
7.0
 40
7.0
 40
7.0
 40
7.0
 10
86.35062931869013
 20
-140.9994899821112
 30
0.0
 10
86.35062931869013
 20
-140.9994899821112
 30
0.0
 10
85.24647621566755
 20
-140.9994899821112
 30
0.0
 10
85.24647621566755
 20
-140.9994899821112
 30
0.0
 10
85.24647621566755
 20
-140.9994899821112
 30
0.0
 10
85.24647621566755
 20
-141.3295301295981
 30
0.0
 10
85.24647621566755
 20
-141.3295301295981
 30
0.0
 10
85.24647621566755
 20
-141.3295301295981
 30
0.0
 10
85.0983371098018
 20
-141.3295301295981
 30
0.0
 10
85.0983371098018
 20
-141.3295301295981
 30
0.0
 10
85.08352319921524
 20
-140.9974229248201
 30
0.0
 10
84.92057018276291
 20
-140.9509141357692
 30
0.0
 10
84.80619301265262
 20
-140.9212863145961
 30
0.0
 10
84.80619301265262
 20
-140.9212863145961
 30
0.0
 10
84.80619301265262
 20
-140.7752142660215
 30
0.0
 10
84.80619301265262
 20
-140.7752142660215
 30
0.0
 10
84.80619301265262
 20
-140.7752142660215
 30
0.0
 10
86.35062931869013
 20
-140.7752142660215
 30
0.0
 10
86.35062931869013
 20
-140.7752142660215
 30
0.0
 10
86.35062931869013
 20
-140.7752142660215
 30
0.0
 10
86.35062931869013
 20
-140.9994899821112
 30
0.0
 10
86.35062931869013
 20
-140.9994899821112
 30
0.0
  0
HATCH
  5
E4
330
DF
100
AcDbEntity
  8
レイヤー 1
 62
    18
420
        0
440
 33554687
100
AcDbHatch
 10
0.0
 20
0.0
 30
0.0
210
0.0
220
0.0
230
1.0
  2
SOLID
 70
     1
 71
     1
 91
        1
 92
        1
 93
        1
 72
     4
 94
        3
 73
     0
 74
     0
 95
       26
 96
       22
 40
0.0
 40
0.0
 40
0.0
 40
0.0
 40
1.0
 40
1.0
 40
1.0
 40
2.0
 40
2.0
 40
2.0
 40
3.0
 40
3.0
 40
3.0
 40
4.0
 40
4.0
 40
4.0
 40
5.0
 40
5.0
 40
5.0
 40
6.0
 40
6.0
 40
6.0
 40
7.0
 40
7.0
 40
7.0
 40
7.0
 10
86.35062931869013
 20
-140.9994899821112
 10
86.35062931869013
 20
-140.9994899821112
 10
85.24647621566755
 20
-140.9994899821112
 10
85.24647621566755
 20
-140.9994899821112
 10
85.24647621566755
 20
-140.9994899821112
 10
85.24647621566755
 20
-141.3295301295981
 10
85.24647621566755
 20
-141.3295301295981
 10
85.24647621566755
 20
-141.3295301295981
 10
85.0983371098018
 20
-141.3295301295981
 10
85.0983371098018
 20
-141.3295301295981
 10
85.08352319921524
 20
-140.9974229248201
 10
84.92057018276291
 20
-140.9509141357692
 10
84.80619301265262
 20
-140.9212863145961
 10
84.80619301265262
 20
-140.9212863145961
 10
84.80619301265262
 20
-140.7752142660215
 10
84.80619301265262
 20
-140.7752142660215
 10
84.80619301265262
 20
-140.7752142660215
 10
86.35062931869013
 20
-140.7752142660215
 10
86.35062931869013
 20
-140.7752142660215
 10
86.35062931869013
 20
-140.7752142660215
 10
86.35062931869013
 20
-140.9994899821112
 10
86.35062931869013
 20
-140.9994899821112
 97
        0
 97
        1
330
E3
 75
     2
 76
     1
 98
        1
 10
0.0
 20
0.0
450
        0
451
        0
460
0.0
461
0.0
452
        0
462
0.0
453
        0
470

  0
SPLINE
  5
E5
330
DF
100
AcDbEntity
  8
レイヤー 1
100
AcDbSpline
210
0.0
220
0.0
230
1.0
 70
    11
 71
     3
 72
    17
 73
    13
 74
     0
 42
0.0000000001
 43
0.0000000001
 40
0.0
 40
0.0
 40
0.0
 40
0.0
 40
1.0
 40
1.0
 40
1.0
 40
2.0
 40
2.0
 40
2.0
 40
3.0
 40
3.0
 40
3.0
 40
4.0
 40
4.0
 40
4.0
 40
4.0
 10
86.35062931869013
 20
-140.2140082114743
 30
0.0
 10
86.35062931869013
 20
-140.2140082114743
 30
0.0
 10
86.09879283871837
 20
-140.2140082114743
 30
0.0
 10
86.09879283871837
 20
-140.2140082114743
 30
0.0
 10
86.09879283871837
 20
-140.2140082114743
 30
0.0
 10
86.09879283871837
 20
-139.9621717315025
 30
0.0
 10
86.09879283871837
 20
-139.9621717315025
 30
0.0
 10
86.09879283871837
 20
-139.9621717315025
 30
0.0
 10
86.35062931869013
 20
-139.9621717315025
 30
0.0
 10
86.35062931869013
 20
-139.9621717315025
 30
0.0
 10
86.35062931869013
 20
-139.9621717315025
 30
0.0
 10
86.35062931869013
 20
-140.2140082114743
 30
0.0
 10
86.35062931869013
 20
-140.2140082114743
 30
0.0
  0
HATCH
  5
E6
330
DF
100
AcDbEntity
  8
レイヤー 1
 62
    18
420
        0
440
 33554687
100
AcDbHatch
 10
0.0
 20
0.0
 30
0.0
210
0.0
220
0.0
230
1.0
  2
SOLID
 70
     1
 71
     1
 91
        1
 92
        1
 93
        1
 72
     4
 94
        3
 73
     0
 74
     0
 95
       17
 96
       13
 40
0.0
 40
0.0
 40
0.0
 40
0.0
 40
1.0
 40
1.0
 40
1.0
 40
2.0
 40
2.0
 40
2.0
 40
3.0
 40
3.0
 40
3.0
 40
4.0
 40
4.0
 40
4.0
 40
4.0
 10
86.35062931869013
 20
-140.2140082114743
 10
86.35062931869013
 20
-140.2140082114743
 10
86.09879283871837
 20
-140.2140082114743
 10
86.09879283871837
 20
-140.2140082114743
 10
86.09879283871837
 20
-140.2140082114743
 10
86.09879283871837
 20
-139.9621717315025
 10
86.09879283871837
 20
-139.9621717315025
 10
86.09879283871837
 20
-139.9621717315025
 10
86.35062931869013
 20
-139.9621717315025
 10
86.35062931869013
 20
-139.9621717315025
 10
86.35062931869013
 20
-139.9621717315025
 10
86.35062931869013
 20
-140.2140082114743
 10
86.35062931869013
 20
-140.2140082114743
 97
        0
 97
        1
330
E5
 75
     2
 76
     1
 98
        1
 10
0.0
 20
0.0
450
        0
451
        0
460
0.0
461
0.0
452
        0
462
0.0
453
        0
470

  0
SPLINE
  5
E7
330
DF
100
AcDbEntity
  8
レイヤー 1
100
AcDbSpline
210
0.0
220
0.0
230
1.0
 70
    11
 71
     3
 72
    26
 73
    22
 74
     0
 42
0.0000000001
 43
0.0000000001
 40
0.0
 40
0.0
 40
0.0
 40
0.0
 40
1.0
 40
1.0
 40
1.0
 40
2.0
 40
2.0
 40
2.0
 40
3.0
 40
3.0
 40
3.0
 40
4.0
 40
4.0
 40
4.0
 40
5.0
 40
5.0
 40
5.0
 40
6.0
 40
6.0
 40
6.0
 40
7.0
 40
7.0
 40
7.0
 40
7.0
 10
86.35062931869013
 20
-139.2745306726466
 30
0.0
 10
86.35062931869013
 20
-139.2745306726466
 30
0.0
 10
85.24647621566755
 20
-139.2745306726466
 30
0.0
 10
85.24647621566755
 20
-139.2745306726466
 30
0.0
 10
85.24647621566755
 20
-139.2745306726466
 30
0.0
 10
85.24647621566755
 20
-139.6045708201335
 30
0.0
 10
85.24647621566755
 20
-139.6045708201335
 30
0.0
 10
85.24647621566755
 20
-139.6045708201335
 30
0.0
 10
85.0983371098018
 20
-139.6045708201335
 30
0.0
 10
85.0983371098018
 20
-139.6045708201335
 30
0.0
 10
85.08352319921524
 20
-139.2724636153555
 30
0.0
 10
84.92057018276291
 20
-139.2259548263046
 30
0.0
 10
84.80619301265262
 20
-139.1963270051315
 30
0.0
 10
84.80619301265262
 20
-139.1963270051315
 30
0.0
 10
84.80619301265262
 20
-139.0502549565569
 30
0.0
 10
84.80619301265262
 20
-139.0502549565569
 30
0.0
 10
84.80619301265262
 20
-139.0502549565569
 30
0.0
 10
86.35062931869013
 20
-139.0502549565569
 30
0.0
 10
86.35062931869013
 20
-139.0502549565569
 30
0.0
 10
86.35062931869013
 20
-139.0502549565569
 30
0.0
 10
86.35062931869013
 20
-139.2745306726466
 30
0.0
 10
86.35062931869013
 20
-139.2745306726466
 30
0.0
  0
HATCH
  5
E8
330
DF
100
AcDbEntity
  8
レイヤー 1
 62
    18
420
        0
440
 33554687
100
AcDbHatch
 10
0.0
 20
0.0
 30
0.0
210
0.0
220
0.0
230
1.0
  2
SOLID
 70
     1
 71
     1
 91
        1
 92
        1
 93
        1
 72
     4
 94
        3
 73
     0
 74
     0
 95
       26
 96
       22
 40
0.0
 40
0.0
 40
0.0
 40
0.0
 40
1.0
 40
1.0
 40
1.0
 40
2.0
 40
2.0
 40
2.0
 40
3.0
 40
3.0
 40
3.0
 40
4.0
 40
4.0
 40
4.0
 40
5.0
 40
5.0
 40
5.0
 40
6.0
 40
6.0
 40
6.0
 40
7.0
 40
7.0
 40
7.0
 40
7.0
 10
86.35062931869013
 20
-139.2745306726466
 10
86.35062931869013
 20
-139.2745306726466
 10
85.24647621566755
 20
-139.2745306726466
 10
85.24647621566755
 20
-139.2745306726466
 10
85.24647621566755
 20
-139.2745306726466
 10
85.24647621566755
 20
-139.6045708201335
 10
85.24647621566755
 20
-139.6045708201335
 10
85.24647621566755
 20
-139.6045708201335
 10
85.0983371098018
 20
-139.6045708201335
 10
85.0983371098018
 20
-139.6045708201335
 10
85.08352319921524
 20
-139.2724636153555
 10
84.92057018276291
 20
-139.2259548263046
 10
84.80619301265262
 20
-139.1963270051315
 10
84.80619301265262
 20
-139.1963270051315
 10
84.80619301265262
 20
-139.0502549565569
 10
84.80619301265262
 20
-139.0502549565569
 10
84.80619301265262
 20
-139.0502549565569
 10
86.35062931869013
 20
-139.0502549565569
 10
86.35062931869013
 20
-139.0502549565569
 10
86.35062931869013
 20
-139.0502549565569
 10
86.35062931869013
 20
-139.2745306726466
 10
86.35062931869013
 20
-139.2745306726466
 97
        0
 97
        1
330
E7
 75
     2
 76
     1
 98
        1
 10
0.0
 20
0.0
450
        0
451
        0
460
0.0
461
0.0
452
        0
462
0.0
453
        0
470

  0
ENDBLK
  5
E2
330
DF
100
AcDbEntity
  8
0
100
AcDbBlockEnd
  0
BLOCK
  5
EE
330
EC
100
AcDbEntity
  8
0
100
AcDbBlockBegin
  2
Block_11
 70
     0
 10
0.0
 20
0.0
 30
0.0
  3
Block_11
  1

  0
INSERT
  5
F1
330
EC
100
AcDbEntity
  8
レイヤー 1
100
AcDbBlockReference
  2
Block_12
 10
0.0
 20
0.0
 30
0.0
  0
ENDBLK
  5
EF
330
EC
100
AcDbEntity
  8
0
100
AcDbBlockEnd
  0
BLOCK
  5
F2
330
F0
100
AcDbEntity
  8
0
100
AcDbBlockBegin
  2
Block_12
 70
     0
 10
0.0
 20
0.0
 30
0.0
  3
Block_12
  1

  0
SPLINE
  5
F4
330
F0
100
AcDbEntity
  8
レイヤー 1
100
AcDbSpline
210
0.0
220
0.0
230
1.0
 70
    11
 71
     3
 72
    26
 73
    22
 74
     0
 42
0.0000000001
 43
0.0000000001
 40
0.0
 40
0.0
 40
0.0
 40
0.0
 40
1.0
 40
1.0
 40
1.0
 40
2.0
 40
2.0
 40
2.0
 40
3.0
 40
3.0
 40
3.0
 40
4.0
 40
4.0
 40
4.0
 40
5.0
 40
5.0
 40
5.0
 40
6.0
 40
6.0
 40
6.0
 40
7.0
 40
7.0
 40
7.0
 40
7.0
 10
121.2408338455578
 20
-149.8385714686167
 30
0.0
 10
121.2408338455578
 20
-149.8385714686167
 30
0.0
 10
120.1366807425352
 20
-149.8385714686167
 30
0.0
 10
120.1366807425352
 20
-149.8385714686167
 30
0.0
 10
120.1366807425352
 20
-149.8385714686167
 30
0.0
 10
120.1366807425352
 20
-150.1686116161037
 30
0.0
 10
120.1366807425352
 20
-150.1686116161037
 30
0.0
 10
120.1366807425352
 20
-150.1686116161037
 30
0.0
 10
119.9885416366695
 20
-150.1686116161037
 30
0.0
 10
119.9885416366695
 20
-150.1686116161037
 30
0.0
 10
119.9737277260829
 20
-149.8365044113256
 30
0.0
 10
119.8107747096306
 20
-149.7899956222747
 30
0.0
 10
119.6963975395203
 20
-149.7603678011016
 30
0.0
 10
119.6963975395203
 20
-149.7603678011016
 30
0.0
 10
119.6963975395203
 20
-149.614295752527
 30
0.0
 10
119.6963975395203
 20
-149.614295752527
 30
0.0
 10
119.6963975395203
 20
-149.614295752527
 30
0.0
 10
121.2408338455578
 20
-149.614295752527
 30
0.0
 10
121.2408338455578
 20
-149.614295752527
 30
0.0
 10
121.2408338455578
 20
-149.614295752527
 30
0.0
 10
121.2408338455578
 20
-149.8385714686167
 30
0.0
 10
121.2408338455578
 20
-149.8385714686167
 30
0.0
  0
HATCH
  5
F5
330
F0
100
AcDbEntity
  8
レイヤー 1
 62
    18
420
        0
440
 33554687
100
AcDbHatch
 10
0.0
 20
0.0
 30
0.0
210
0.0
220
0.0
230
1.0
  2
SOLID
 70
     1
 71
     1
 91
        1
 92
        1
 93
        1
 72
     4
 94
        3
 73
     0
 74
     0
 95
       26
 96
       22
 40
0.0
 40
0.0
 40
0.0
 40
0.0
 40
1.0
 40
1.0
 40
1.0
 40
2.0
 40
2.0
 40
2.0
 40
3.0
 40
3.0
 40
3.0
 40
4.0
 40
4.0
 40
4.0
 40
5.0
 40
5.0
 40
5.0
 40
6.0
 40
6.0
 40
6.0
 40
7.0
 40
7.0
 40
7.0
 40
7.0
 10
121.2408338455578
 20
-149.8385714686167
 10
121.2408338455578
 20
-149.8385714686167
 10
120.1366807425352
 20
-149.8385714686167
 10
120.1366807425352
 20
-149.8385714686167
 10
120.1366807425352
 20
-149.8385714686167
 10
120.1366807425352
 20
-150.1686116161037
 10
120.1366807425352
 20
-150.1686116161037
 10
120.1366807425352
 20
-150.1686116161037
 10
119.9885416366695
 20
-150.1686116161037
 10
119.9885416366695
 20
-150.1686116161037
 10
119.9737277260829
 20
-149.8365044113256
 10
119.8107747096306
 20
-149.7899956222747
 10
119.6963975395203
 20
-149.7603678011016
 10
119.6963975395203
 20
-149.7603678011016
 10
119.6963975395203
 20
-149.614295752527
 10
119.6963975395203
 20
-149.614295752527
 10
119.6963975395203
 20
-149.614295752527
 10
121.2408338455578
 20
-149.614295752527
 10
121.2408338455578
 20
-149.614295752527
 10
121.2408338455578
 20
-149.614295752527
 10
121.2408338455578
 20
-149.8385714686167
 10
121.2408338455578
 20
-149.8385714686167
 97
        0
 97
        1
330
F4
 75
     2
 76
     1
 98
        1
 10
0.0
 20
0.0
450
        0
451
        0
460
0.0
461
0.0
452
        0
462
0.0
453
        0
470

  0
SPLINE
  5
F6
330
F0
100
AcDbEntity
  8
レイヤー 1
100
AcDbSpline
210
0.0
220
0.0
230
1.0
 70
     9
 71
     3
 72
    44
 73
    40
 74
     0
 42
0.0000000001
 43
0.0000000001
 40
0.0
 40
0.0
 40
0.0
 40
0.0
 40
1.0
 40
1.0
 40
1.0
 40
2.0
 40
2.0
 40
2.0
 40
3.0
 40
3.0
 40
3.0
 40
4.0
 40
4.0
 40
4.0
 40
5.0
 40
5.0
 40
5.0
 40
6.0
 40
6.0
 40
6.0
 40
7.0
 40
7.0
 40
7.0
 40
8.0
 40
8.0
 40
8.0
 40
9.0
 40
9.0
 40
9.0
 40
10.0
 40
10.0
 40
10.0
 40
11.0
 40
11.0
 40
11.0
 40
12.0
 40
12.0
 40
12.0
 40
13.0
 40
13.0
 40
13.0
 40
13.0
 10
120.6589572180991
 20
-148.5201334264116
 30
0.0
 10
120.8177761199692
 20
-148.7378634610794
 30
0.0
 10
120.891845672902
 20
-148.8308810391812
 30
0.0
 10
121.0355061546369
 20
-148.8798013950717
 30
0.0
 10
121.0355061546369
 20
-148.8798013950717
 30
0.0
 10
121.0355061546369
 20
-148.1012098154052
 30
0.0
 10
121.0355061546369
 20
-148.1012098154052
 30
0.0
 10
121.0355061546369
 20
-148.1012098154052
 30
0.0
 10
121.2408338455578
 20
-148.1012098154052
 30
0.0
 10
121.2408338455578
 20
-148.1012098154052
 30
0.0
 10
121.2408338455578
 20
-148.1012098154052
 30
0.0
 10
121.2408338455578
 20
-149.1292263082038
 30
0.0
 10
121.2408338455578
 20
-149.1292263082038
 30
0.0
 10
120.8832329341889
 20
-149.0975314297395
 30
0.0
 10
120.8050292666737
 20
-149.0320746155197
 30
0.0
 10
120.5066839976511
 20
-148.6469129402688
 30
0.0
 10
120.3079019881522
 20
-148.3909423457147
 30
0.0
 10
120.2400336070927
 20
-148.325485531495
 30
0.0
 10
120.1025742972313
 20
-148.325485531495
 30
0.0
 10
119.9840630125387
 20
-148.325485531495
 30
0.0
 10
119.8531493840992
 20
-148.3974880271367
 30
0.0
 10
119.8531493840992
 20
-148.5942029793445
 30
0.0
 10
119.8531493840992
 20
-148.8543076884808
 30
0.0
 10
120.0836262720624
 20
-148.8625759176454
 30
0.0
 10
120.2000704994639
 20
-148.8670545417763
 30
0.0
 10
120.2000704994639
 20
-148.8670545417763
 30
0.0
 10
120.2000704994639
 20
-149.091330257866
 30
0.0
 10
120.2000704994639
 20
-149.091330257866
 30
0.0
 10
120.0729464760581
 20
-149.0827175191529
 30
0.0
 10
119.9609808727875
 20
-149.0720377231486
 30
0.0
 10
119.8424695880949
 20
-148.9917669983423
 30
0.0
 10
119.6815836289337
 20
-148.8818684523629
 30
0.0
 10
119.6478216931783
 20
-148.6954887866108
 30
0.0
 10
119.6478216931783
 20
-148.5793890687579
 30
0.0
 10
119.6478216931783
 20
-148.3020588821953
 30
0.0
 10
119.8317897920907
 20
-148.0946641339833
 30
0.0
 10
120.1046413545224
 20
-148.0946641339833
 30
0.0
 10
120.333395694743
 20
-148.0946641339833
 30
0.0
 10
120.4326144447182
 20
-148.2111083613847
 30
0.0
 10
120.6589572180991
 20
-148.5201334264116
 30
0.0
  0
HATCH
  5
F7
330
F0
100
AcDbEntity
  8
レイヤー 1
 62
    18
420
        0
440
 33554687
100
AcDbHatch
 10
0.0
 20
0.0
 30
0.0
210
0.0
220
0.0
230
1.0
  2
SOLID
 70
     1
 71
     1
 91
        1
 92
        1
 93
        1
 72
     4
 94
        3
 73
     0
 74
     0
 95
       44
 96
       40
 40
0.0
 40
0.0
 40
0.0
 40
0.0
 40
1.0
 40
1.0
 40
1.0
 40
2.0
 40
2.0
 40
2.0
 40
3.0
 40
3.0
 40
3.0
 40
4.0
 40
4.0
 40
4.0
 40
5.0
 40
5.0
 40
5.0
 40
6.0
 40
6.0
 40
6.0
 40
7.0
 40
7.0
 40
7.0
 40
8.0
 40
8.0
 40
8.0
 40
9.0
 40
9.0
 40
9.0
 40
10.0
 40
10.0
 40
10.0
 40
11.0
 40
11.0
 40
11.0
 40
12.0
 40
12.0
 40
12.0
 40
13.0
 40
13.0
 40
13.0
 40
13.0
 10
120.6589572180991
 20
-148.5201334264116
 10
120.8177761199692
 20
-148.7378634610794
 10
120.891845672902
 20
-148.8308810391812
 10
121.0355061546369
 20
-148.8798013950717
 10
121.0355061546369
 20
-148.8798013950717
 10
121.0355061546369
 20
-148.1012098154052
 10
121.0355061546369
 20
-148.1012098154052
 10
121.0355061546369
 20
-148.1012098154052
 10
121.2408338455578
 20
-148.1012098154052
 10
121.2408338455578
 20
-148.1012098154052
 10
121.2408338455578
 20
-148.1012098154052
 10
121.2408338455578
 20
-149.1292263082038
 10
121.2408338455578
 20
-149.1292263082038
 10
120.8832329341889
 20
-149.0975314297395
 10
120.8050292666737
 20
-149.0320746155197
 10
120.5066839976511
 20
-148.6469129402688
 10
120.3079019881522
 20
-148.3909423457147
 10
120.2400336070927
 20
-148.325485531495
 10
120.1025742972313
 20
-148.325485531495
 10
119.9840630125387
 20
-148.325485531495
 10
119.8531493840992
 20
-148.3974880271367
 10
119.8531493840992
 20
-148.5942029793445
 10
119.8531493840992
 20
-148.8543076884808
 10
120.0836262720624
 20
-148.8625759176454
 10
120.2000704994639
 20
-148.8670545417763
 10
120.2000704994639
 20
-148.8670545417763
 10
120.2000704994639
 20
-149.091330257866
 10
120.2000704994639
 20
-149.091330257866
 10
120.0729464760581
 20
-149.0827175191529
 10
119.9609808727875
 20
-149.0720377231486
 10
119.8424695880949
 20
-148.9917669983423
 10
119.6815836289337
 20
-148.8818684523629
 10
119.6478216931783
 20
-148.6954887866108
 10
119.6478216931783
 20
-148.5793890687579
 10
119.6478216931783
 20
-148.3020588821953
 10
119.8317897920907
 20
-148.0946641339833
 10
120.1046413545224
 20
-148.0946641339833
 10
120.333395694743
 20
-148.0946641339833
 10
120.4326144447182
 20
-148.2111083613847
 10
120.6589572180991
 20
-148.5201334264116
 97
        0
 97
        1
330
F6
 75
     2
 76
     1
 98
        1
 10
0.0
 20
0.0
450
        0
451
        0
460
0.0
461
0.0
452
        0
462
0.0
453
        0
470

  0
SPLINE
  5
F8
330
F0
100
AcDbEntity
  8
レイヤー 1
100
AcDbSpline
210
0.0
220
0.0
230
1.0
 70
    11
 71
     3
 72
    17
 73
    13
 74
     0
 42
0.0000000001
 43
0.0000000001
 40
0.0
 40
0.0
 40
0.0
 40
0.0
 40
1.0
 40
1.0
 40
1.0
 40
2.0
 40
2.0
 40
2.0
 40
3.0
 40
3.0
 40
3.0
 40
4.0
 40
4.0
 40
4.0
 40
4.0
 10
121.2408338455578
 20
-147.8762450802184
 30
0.0
 10
121.2408338455578
 20
-147.8762450802184
 30
0.0
 10
120.9889973655861
 20
-147.8762450802184
 30
0.0
 10
120.9889973655861
 20
-147.8762450802184
 30
0.0
 10
120.9889973655861
 20
-147.8762450802184
 30
0.0
 10
120.9889973655861
 20
-147.6244086002466
 30
0.0
 10
120.9889973655861
 20
-147.6244086002466
 30
0.0
 10
120.9889973655861
 20
-147.6244086002466
 30
0.0
 10
121.2408338455578
 20
-147.6244086002466
 30
0.0
 10
121.2408338455578
 20
-147.6244086002466
 30
0.0
 10
121.2408338455578
 20
-147.6244086002466
 30
0.0
 10
121.2408338455578
 20
-147.8762450802184
 30
0.0
 10
121.2408338455578
 20
-147.8762450802184
 30
0.0
  0
HATCH
  5
F9
330
F0
100
AcDbEntity
  8
レイヤー 1
 62
    18
420
        0
440
 33554687
100
AcDbHatch
 10
0.0
 20
0.0
 30
0.0
210
0.0
220
0.0
230
1.0
  2
SOLID
 70
     1
 71
     1
 91
        1
 92
        1
 93
        1
 72
     4
 94
        3
 73
     0
 74
     0
 95
       17
 96
       13
 40
0.0
 40
0.0
 40
0.0
 40
0.0
 40
1.0
 40
1.0
 40
1.0
 40
2.0
 40
2.0
 40
2.0
 40
3.0
 40
3.0
 40
3.0
 40
4.0
 40
4.0
 40
4.0
 40
4.0
 10
121.2408338455578
 20
-147.8762450802184
 10
121.2408338455578
 20
-147.8762450802184
 10
120.9889973655861
 20
-147.8762450802184
 10
120.9889973655861
 20
-147.8762450802184
 10
120.9889973655861
 20
-147.8762450802184
 10
120.9889973655861
 20
-147.6244086002466
 10
120.9889973655861
 20
-147.6244086002466
 10
120.9889973655861
 20
-147.6244086002466
 10
121.2408338455578
 20
-147.6244086002466
 10
121.2408338455578
 20
-147.6244086002466
 10
121.2408338455578
 20
-147.6244086002466
 10
121.2408338455578
 20
-147.8762450802184
 10
121.2408338455578
 20
-147.8762450802184
 97
        0
 97
        1
330
F8
 75
     2
 76
     1
 98
        1
 10
0.0
 20
0.0
450
        0
451
        0
460
0.0
461
0.0
452
        0
462
0.0
453
        0
470

  0
SPLINE
  5
FA
330
F0
100
AcDbEntity
  8
レイヤー 1
100
AcDbSpline
210
0.0
220
0.0
230
1.0
 70
     9
 71
     3
 72
    53
 73
    49
 74
     0
 42
0.0000000001
 43
0.0000000001
 40
0.0
 40
0.0
 40
0.0
 40
0.0
 40
1.0
 40
1.0
 40
1.0
 40
2.0
 40
2.0
 40
2.0
 40
3.0
 40
3.0
 40
3.0
 40
4.0
 40
4.0
 40
4.0
 40
5.0
 40
5.0
 40
5.0
 40
6.0
 40
6.0
 40
6.0
 40
7.0
 40
7.0
 40
7.0
 40
8.0
 40
8.0
 40
8.0
 40
9.0
 40
9.0
 40
9.0
 40
10.0
 40
10.0
 40
10.0
 40
11.0
 40
11.0
 40
11.0
 40
12.0
 40
12.0
 40
12.0
 40
13.0
 40
13.0
 40
13.0
 40
14.0
 40
14.0
 40
14.0
 40
15.0
 40
15.0
 40
15.0
 40
16.0
 40
16.0
 40
16.0
 40
16.0
 10
121.291476749191
 20
-146.9071397202176
 30
0.0
 10
121.291476749191
 20
-146.9853433877328
 30
0.0
 10
121.2745957813133
 20
-147.0869737045477
 30
0.0
 10
121.2112060243847
 20
-147.1886040213625
 30
0.0
 10
121.1013074784052
 20
-147.3618923242706
 30
0.0
 10
120.9700493404172
 20
-147.3832519162792
 30
0.0
 10
120.8622178517289
 20
-147.402199941448
 30
0.0
 10
120.8622178517289
 20
-147.402199941448
 30
0.0
 10
120.8622178517289
 20
-147.1799912826494
 30
0.0
 10
120.8622178517289
 20
-147.1799912826494
 30
0.0
 10
121.0609998612278
 20
-147.125214264434
 30
0.0
 10
121.0906276824009
 20
-146.9980902410282
 30
0.0
 10
121.0906276824009
 20
-146.9050726629265
 30
0.0
 10
121.0906276824009
 20
-146.7655462957739
 30
0.0
 10
120.9910644228772
 20
-146.6132730753258
 30
0.0
 10
120.7585204776228
 20
-146.6132730753258
 30
0.0
 10
120.5025498830688
 20
-146.6132730753258
 30
0.0
 10
120.4326144447182
 20
-146.7931070596559
 30
0.0
 10
120.4326144447182
 20
-146.9136854016396
 30
0.0
 10
120.4326144447182
 20
-146.9453802801039
 30
0.0
 10
120.4326144447182
 20
-147.0869737045477
 30
0.0
 10
120.5618055254151
 20
-147.1758571680671
 30
0.0
 10
120.5618055254151
 20
-147.1758571680671
 30
0.0
 10
120.5428575002462
 20
-147.3515570378149
 30
0.0
 10
120.5428575002462
 20
-147.3515570378149
 30
0.0
 10
120.5428575002462
 20
-147.3515570378149
 30
0.0
 10
119.6963975395203
 20
-147.2309786958311
 30
0.0
 10
119.6963975395203
 20
-147.2309786958311
 30
0.0
 10
119.6963975395203
 20
-147.2309786958311
 30
0.0
 10
119.6963975395203
 20
-146.4523871161647
 30
0.0
 10
119.6963975395203
 20
-146.4523871161647
 30
0.0
 10
119.6963975395203
 20
-146.4523871161647
 30
0.0
 10
119.8910454344369
 20
-146.4523871161647
 30
0.0
 10
119.8910454344369
 20
-146.4523871161647
 30
0.0
 10
119.8910454344369
 20
-146.4523871161647
 30
0.0
 10
119.8910454344369
 20
-147.0680256793788
 30
0.0
 10
119.8910454344369
 20
-147.0680256793788
 30
0.0
 10
119.8910454344369
 20
-147.0680256793788
 30
0.0
 10
120.3141031600256
 20
-147.1334824935986
 30
0.0
 10
120.3141031600256
 20
-147.1334824935986
 30
0.0
 10
120.2803412242702
 20
-147.0721597939611
 30
0.0
 10
120.2400336070927
 20
-146.9898220118636
 30
0.0
 10
120.2400336070927
 20
-146.871310727171
 30
0.0
 10
120.2400336070927
 20
-146.6174071899081
 30
0.0
 10
120.4264132728448
 20
-146.3803846205229
 30
0.0
 10
120.739572452454
 20
-146.3803846205229
 30
0.0
 10
121.0568657466455
 20
-146.3803846205229
 30
0.0
 10
121.291476749191
 20
-146.6046603366127
 30
0.0
 10
121.291476749191
 20
-146.9071397202176
 30
0.0
  0
HATCH
  5
FB
330
F0
100
AcDbEntity
  8
レイヤー 1
 62
    18
420
        0
440
 33554687
100
AcDbHatch
 10
0.0
 20
0.0
 30
0.0
210
0.0
220
0.0
230
1.0
  2
SOLID
 70
     1
 71
     1
 91
        1
 92
        1
 93
        1
 72
     4
 94
        3
 73
     0
 74
     0
 95
       53
 96
       49
 40
0.0
 40
0.0
 40
0.0
 40
0.0
 40
1.0
 40
1.0
 40
1.0
 40
2.0
 40
2.0
 40
2.0
 40
3.0
 40
3.0
 40
3.0
 40
4.0
 40
4.0
 40
4.0
 40
5.0
 40
5.0
 40
5.0
 40
6.0
 40
6.0
 40
6.0
 40
7.0
 40
7.0
 40
7.0
 40
8.0
 40
8.0
 40
8.0
 40
9.0
 40
9.0
 40
9.0
 40
10.0
 40
10.0
 40
10.0
 40
11.0
 40
11.0
 40
11.0
 40
12.0
 40
12.0
 40
12.0
 40
13.0
 40
13.0
 40
13.0
 40
14.0
 40
14.0
 40
14.0
 40
15.0
 40
15.0
 40
15.0
 40
16.0
 40
16.0
 40
16.0
 40
16.0
 10
121.291476749191
 20
-146.9071397202176
 10
121.291476749191
 20
-146.9853433877328
 10
121.2745957813133
 20
-147.0869737045477
 10
121.2112060243847
 20
-147.1886040213625
 10
121.1013074784052
 20
-147.3618923242706
 10
120.9700493404172
 20
-147.3832519162792
 10
120.8622178517289
 20
-147.402199941448
 10
120.8622178517289
 20
-147.402199941448
 10
120.8622178517289
 20
-147.1799912826494
 10
120.8622178517289
 20
-147.1799912826494
 10
121.0609998612278
 20
-147.125214264434
 10
121.0906276824009
 20
-146.9980902410282
 10
121.0906276824009
 20
-146.9050726629265
 10
121.0906276824009
 20
-146.7655462957739
 10
120.9910644228772
 20
-146.6132730753258
 10
120.7585204776228
 20
-146.6132730753258
 10
120.5025498830688
 20
-146.6132730753258
 10
120.4326144447182
 20
-146.7931070596559
 10
120.4326144447182
 20
-146.9136854016396
 10
120.4326144447182
 20
-146.9453802801039
 10
120.4326144447182
 20
-147.0869737045477
 10
120.5618055254151
 20
-147.1758571680671
 10
120.5618055254151
 20
-147.1758571680671
 10
120.5428575002462
 20
-147.3515570378149
 10
120.5428575002462
 20
-147.3515570378149
 10
120.5428575002462
 20
-147.3515570378149
 10
119.6963975395203
 20
-147.2309786958311
 10
119.6963975395203
 20
-147.2309786958311
 10
119.6963975395203
 20
-147.2309786958311
 10
119.6963975395203
 20
-146.4523871161647
 10
119.6963975395203
 20
-146.4523871161647
 10
119.6963975395203
 20
-146.4523871161647
 10
119.8910454344369
 20
-146.4523871161647
 10
119.8910454344369
 20
-146.4523871161647
 10
119.8910454344369
 20
-146.4523871161647
 10
119.8910454344369
 20
-147.0680256793788
 10
119.8910454344369
 20
-147.0680256793788
 10
119.8910454344369
 20
-147.0680256793788
 10
120.3141031600256
 20
-147.1334824935986
 10
120.3141031600256
 20
-147.1334824935986
 10
120.2803412242702
 20
-147.0721597939611
 10
120.2400336070927
 20
-146.9898220118636
 10
120.2400336070927
 20
-146.871310727171
 10
120.2400336070927
 20
-146.6174071899081
 10
120.4264132728448
 20
-146.3803846205229
 10
120.739572452454
 20
-146.3803846205229
 10
121.0568657466455
 20
-146.3803846205229
 10
121.291476749191
 20
-146.6046603366127
 10
121.291476749191
 20
-146.9071397202176
 97
        0
 97
        1
330
FA
 75
     2
 76
     1
 98
        1
 10
0.0
 20
0.0
450
        0
451
        0
460
0.0
461
0.0
452
        0
462
0.0
453
        0
470

  0
ENDBLK
  5
F3
330
F0
100
AcDbEntity
  8
0
100
AcDbBlockEnd
  0
BLOCK
  5
101
330
FF
100
AcDbEntity
  8
0
100
AcDbBlockBegin
  2
Block_13
 70
     0
 10
0.0
 20
0.0
 30
0.0
  3
Block_13
  1

  0
INSERT
  5
104
330
FF
100
AcDbEntity
  8
レイヤー 1
100
AcDbBlockReference
  2
Block_14
 10
0.0
 20
0.0
 30
0.0
  0
ENDBLK
  5
102
330
FF
100
AcDbEntity
  8
0
100
AcDbBlockEnd
  0
BLOCK
  5
105
330
103
100
AcDbEntity
  8
0
100
AcDbBlockBegin
  2
Block_14
 70
     0
 10
0.0
 20
0.0
 30
0.0
  3
Block_14
  1

  0
SPLINE
  5
107
330
103
100
AcDbEntity
  8
レイヤー 1
100
AcDbSpline
210
0.0
220
0.0
230
1.0
 70
    11
 71
     3
 72
    26
 73
    22
 74
     0
 42
0.0000000001
 43
0.0000000001
 40
0.0
 40
0.0
 40
0.0
 40
0.0
 40
1.0
 40
1.0
 40
1.0
 40
2.0
 40
2.0
 40
2.0
 40
3.0
 40
3.0
 40
3.0
 40
4.0
 40
4.0
 40
4.0
 40
5.0
 40
5.0
 40
5.0
 40
6.0
 40
6.0
 40
6.0
 40
7.0
 40
7.0
 40
7.0
 40
7.0
 10
94.24902748294817
 20
-159.0421440574617
 30
0.0
 10
94.24902748294817
 20
-159.0421440574617
 30
0.0
 10
94.24902748294817
 20
-157.9379909544391
 30
0.0
 10
94.24902748294817
 20
-157.9379909544391
 30
0.0
 10
94.24902748294817
 20
-157.9379909544391
 30
0.0
 10
93.91898733546122
 20
-157.9379909544391
 30
0.0
 10
93.91898733546122
 20
-157.9379909544391
 30
0.0
 10
93.91898733546122
 20
-157.9379909544391
 30
0.0
 10
93.91898733546122
 20
-157.7898518485734
 30
0.0
 10
93.91898733546122
 20
-157.7898518485734
 30
0.0
 10
94.2510945402393
 20
-157.7750379379868
 30
0.0
 10
94.29760332929019
 20
-157.6120849215345
 30
0.0
 10
94.32723115046334
 20
-157.4977077514242
 30
0.0
 10
94.32723115046334
 20
-157.4977077514242
 30
0.0
 10
94.47330319903793
 20
-157.4977077514242
 30
0.0
 10
94.47330319903793
 20
-157.4977077514242
 30
0.0
 10
94.47330319903793
 20
-157.4977077514242
 30
0.0
 10
94.47330319903793
 20
-159.0421440574617
 30
0.0
 10
94.47330319903793
 20
-159.0421440574617
 30
0.0
 10
94.47330319903793
 20
-159.0421440574617
 30
0.0
 10
94.24902748294817
 20
-159.0421440574617
 30
0.0
 10
94.24902748294817
 20
-159.0421440574617
 30
0.0
  0
HATCH
  5
108
330
103
100
AcDbEntity
  8
レイヤー 1
 62
    18
420
        0
440
 33554687
100
AcDbHatch
 10
0.0
 20
0.0
 30
0.0
210
0.0
220
0.0
230
1.0
  2
SOLID
 70
     1
 71
     1
 91
        1
 92
        1
 93
        1
 72
     4
 94
        3
 73
     0
 74
     0
 95
       26
 96
       22
 40
0.0
 40
0.0
 40
0.0
 40
0.0
 40
1.0
 40
1.0
 40
1.0
 40
2.0
 40
2.0
 40
2.0
 40
3.0
 40
3.0
 40
3.0
 40
4.0
 40
4.0
 40
4.0
 40
5.0
 40
5.0
 40
5.0
 40
6.0
 40
6.0
 40
6.0
 40
7.0
 40
7.0
 40
7.0
 40
7.0
 10
94.24902748294817
 20
-159.0421440574617
 10
94.24902748294817
 20
-159.0421440574617
 10
94.24902748294817
 20
-157.9379909544391
 10
94.24902748294817
 20
-157.9379909544391
 10
94.24902748294817
 20
-157.9379909544391
 10
93.91898733546122
 20
-157.9379909544391
 10
93.91898733546122
 20
-157.9379909544391
 10
93.91898733546122
 20
-157.9379909544391
 10
93.91898733546122
 20
-157.7898518485734
 10
93.91898733546122
 20
-157.7898518485734
 10
94.2510945402393
 20
-157.7750379379868
 10
94.29760332929019
 20
-157.6120849215345
 10
94.32723115046334
 20
-157.4977077514242
 10
94.32723115046334
 20
-157.4977077514242
 10
94.47330319903793
 20
-157.4977077514242
 10
94.47330319903793
 20
-157.4977077514242
 10
94.47330319903793
 20
-157.4977077514242
 10
94.47330319903793
 20
-159.0421440574617
 10
94.47330319903793
 20
-159.0421440574617
 10
94.47330319903793
 20
-159.0421440574617
 10
94.24902748294817
 20
-159.0421440574617
 10
94.24902748294817
 20
-159.0421440574617
 97
        0
 97
        1
330
107
 75
     2
 76
     1
 98
        1
 10
0.0
 20
0.0
450
        0
451
        0
460
0.0
461
0.0
452
        0
462
0.0
453
        0
470

  0
SPLINE
  5
109
330
103
100
AcDbEntity
  8
レイヤー 1
100
AcDbSpline
210
0.0
220
0.0
230
1.0
 70
     9
 71
     3
 72
    44
 73
    40
 74
     0
 42
0.0000000001
 43
0.0000000001
 40
0.0
 40
0.0
 40
0.0
 40
0.0
 40
1.0
 40
1.0
 40
1.0
 40
2.0
 40
2.0
 40
2.0
 40
3.0
 40
3.0
 40
3.0
 40
4.0
 40
4.0
 40
4.0
 40
5.0
 40
5.0
 40
5.0
 40
6.0
 40
6.0
 40
6.0
 40
7.0
 40
7.0
 40
7.0
 40
8.0
 40
8.0
 40
8.0
 40
9.0
 40
9.0
 40
9.0
 40
10.0
 40
10.0
 40
10.0
 40
11.0
 40
11.0
 40
11.0
 40
12.0
 40
12.0
 40
12.0
 40
13.0
 40
13.0
 40
13.0
 40
13.0
 10
95.56763777992754
 20
-158.460267430003
 30
0.0
 10
95.34973549048549
 20
-158.619086331873
 30
0.0
 10
95.25654565760948
 20
-158.6931558848059
 30
0.0
 10
95.20796981126746
 20
-158.8368163665408
 30
0.0
 10
95.20796981126746
 20
-158.8368163665408
 30
0.0
 10
95.98638913615966
 20
-158.8368163665408
 30
0.0
 10
95.98638913615966
 20
-158.8368163665408
 30
0.0
 10
95.98638913615966
 20
-158.8368163665408
 30
0.0
 10
95.98638913615966
 20
-159.0421440574617
 30
0.0
 10
95.98638913615966
 20
-159.0421440574617
 30
0.0
 10
95.98638913615966
 20
-159.0421440574617
 30
0.0
 10
94.9583726433611
 20
-159.0421440574617
 30
0.0
 10
94.9583726433611
 20
-159.0421440574617
 30
0.0
 10
94.99006752182541
 20
-158.6845431460927
 30
0.0
 10
95.05552433604515
 20
-158.6063394785776
 30
0.0
 10
95.44068601129607
 20
-158.3079942095549
 30
0.0
 10
95.69665660585014
 20
-158.109212200056
 30
0.0
 10
95.7621134200699
 20
-158.0413438189966
 30
0.0
 10
95.7621134200699
 20
-157.9038845091351
 30
0.0
 10
95.7621134200699
 20
-157.7853732244425
 30
0.0
 10
95.69028317920244
 20
-157.654459596003
 30
0.0
 10
95.49356822699467
 20
-157.654459596003
 30
0.0
 10
95.23329126308404
 20
-157.654459596003
 30
0.0
 10
95.22485077914518
 20
-157.8849364839662
 30
0.0
 10
95.22054440978861
 20
-158.0013807113677
 30
0.0
 10
95.22054440978861
 20
-158.0013807113677
 30
0.0
 10
94.99644094847312
 20
-158.0013807113677
 30
0.0
 10
94.99644094847312
 20
-158.0013807113677
 30
0.0
 10
95.00488143241197
 20
-157.874256687962
 30
0.0
 10
95.01538897364198
 20
-157.7622910846914
 30
0.0
 10
95.09583195322257
 20
-157.6437797999988
 30
0.0
 10
95.20573049920205
 20
-157.4828938408376
 30
0.0
 10
95.39193791017979
 20
-157.4491319050821
 30
0.0
 10
95.50838213758124
 20
-157.4491319050821
 30
0.0
 10
95.78554006936959
 20
-157.4491319050821
 30
0.0
 10
95.99276256280736
 20
-157.6331000039945
 30
0.0
 10
95.99276256280736
 20
-157.9059515664263
 30
0.0
 10
95.99276256280736
 20
-158.1347059066469
 30
0.0
 10
95.87649059018017
 20
-158.2339246566221
 30
0.0
 10
95.56763777992754
 20
-158.460267430003
 30
0.0
  0
HATCH
  5
10A
330
103
100
AcDbEntity
  8
レイヤー 1
 62
    18
420
        0
440
 33554687
100
AcDbHatch
 10
0.0
 20
0.0
 30
0.0
210
0.0
220
0.0
230
1.0
  2
SOLID
 70
     1
 71
     1
 91
        1
 92
        1
 93
        1
 72
     4
 94
        3
 73
     0
 74
     0
 95
       44
 96
       40
 40
0.0
 40
0.0
 40
0.0
 40
0.0
 40
1.0
 40
1.0
 40
1.0
 40
2.0
 40
2.0
 40
2.0
 40
3.0
 40
3.0
 40
3.0
 40
4.0
 40
4.0
 40
4.0
 40
5.0
 40
5.0
 40
5.0
 40
6.0
 40
6.0
 40
6.0
 40
7.0
 40
7.0
 40
7.0
 40
8.0
 40
8.0
 40
8.0
 40
9.0
 40
9.0
 40
9.0
 40
10.0
 40
10.0
 40
10.0
 40
11.0
 40
11.0
 40
11.0
 40
12.0
 40
12.0
 40
12.0
 40
13.0
 40
13.0
 40
13.0
 40
13.0
 10
95.56763777992754
 20
-158.460267430003
 10
95.34973549048549
 20
-158.619086331873
 10
95.25654565760948
 20
-158.6931558848059
 10
95.20796981126746
 20
-158.8368163665408
 10
95.20796981126746
 20
-158.8368163665408
 10
95.98638913615966
 20
-158.8368163665408
 10
95.98638913615966
 20
-158.8368163665408
 10
95.98638913615966
 20
-158.8368163665408
 10
95.98638913615966
 20
-159.0421440574617
 10
95.98638913615966
 20
-159.0421440574617
 10
95.98638913615966
 20
-159.0421440574617
 10
94.9583726433611
 20
-159.0421440574617
 10
94.9583726433611
 20
-159.0421440574617
 10
94.99006752182541
 20
-158.6845431460927
 10
95.05552433604515
 20
-158.6063394785776
 10
95.44068601129607
 20
-158.3079942095549
 10
95.69665660585014
 20
-158.109212200056
 10
95.7621134200699
 20
-158.0413438189966
 10
95.7621134200699
 20
-157.9038845091351
 10
95.7621134200699
 20
-157.7853732244425
 10
95.69028317920244
 20
-157.654459596003
 10
95.49356822699467
 20
-157.654459596003
 10
95.23329126308404
 20
-157.654459596003
 10
95.22485077914518
 20
-157.8849364839662
 10
95.22054440978861
 20
-158.0013807113677
 10
95.22054440978861
 20
-158.0013807113677
 10
94.99644094847312
 20
-158.0013807113677
 10
94.99644094847312
 20
-158.0013807113677
 10
95.00488143241197
 20
-157.874256687962
 10
95.01538897364198
 20
-157.7622910846914
 10
95.09583195322257
 20
-157.6437797999988
 10
95.20573049920205
 20
-157.4828938408376
 10
95.39193791017979
 20
-157.4491319050821
 10
95.50838213758124
 20
-157.4491319050821
 10
95.78554006936959
 20
-157.4491319050821
 10
95.99276256280736
 20
-157.6331000039945
 10
95.99276256280736
 20
-157.9059515664263
 10
95.99276256280736
 20
-158.1347059066469
 10
95.87649059018017
 20
-158.2339246566221
 10
95.56763777992754
 20
-158.460267430003
 97
        0
 97
        1
330
109
 75
     2
 76
     1
 98
        1
 10
0.0
 20
0.0
450
        0
451
        0
460
0.0
461
0.0
452
        0
462
0.0
453
        0
470

  0
ENDBLK
  5
106
330
103
100
AcDbEntity
  8
0
100
AcDbBlockEnd
  0
ENDSEC
  0
SECTION
  2
ENTITIES
  0
INSERT
  5
7A
330
70
100
AcDbEntity
  8
レイヤー 1
100
AcDbBlockReference
  2
Block_0
 10
0.0
 20
0.0
 30
0.0
  0
INSERT
  5
A2
330
70
100
AcDbEntity
  8
レイヤー 1
100
AcDbBlockReference
  2
Block_4
 10
0.0
 20
0.0
 30
0.0
  0
SPLINE
  5
AD
330
70
100
AcDbEntity
  8
レイヤー 1
 62
    18
420
        0
370
     9
100
AcDbSpline
210
0.0
220
0.0
230
1.0
 70
     9
 71
     3
 72
    17
 73
    13
 74
     0
 42
0.0000000001
 43
0.0000000001
 40
0.0
 40
0.0
 40
0.0
 40
0.0
 40
1.0
 40
1.0
 40
1.0
 40
2.0
 40
2.0
 40
2.0
 40
3.0
 40
3.0
 40
3.0
 40
4.0
 40
4.0
 40
4.0
 40
4.0
 10
121.9863836177587
 20
-142.0882630061796
 30
0.0
 10
121.9863836177587
 20
-142.0328063409277
 30
0.0
 10
121.9415808411239
 20
-141.9883563420617
 30
0.0
 10
121.886124175872
 20
-141.9883563420617
 30
0.0
 10
121.831020288389
 20
-141.9883563420617
 30
0.0
 10
121.7862175117542
 20
-142.0328063409277
 30
0.0
 10
121.7862175117542
 20
-142.0882630061796
 30
0.0
 10
121.7862175117542
 20
-142.1437549492083
 30
0.0
 10
121.831020288389
 20
-142.1885224480662
 30
0.0
 10
121.886124175872
 20
-142.1885224480662
 30
0.0
 10
121.9415808411239
 20
-142.1885224480662
 30
0.0
 10
121.9863836177587
 20
-142.1437549492083
 30
0.0
 10
121.9863836177587
 20
-142.0882630061796
 30
0.0
  0
SPLINE
  5
AE
330
70
100
AcDbEntity
  8
レイヤー 1
 62
    18
420
        0
370
     9
100
AcDbSpline
210
0.0
220
0.0
230
1.0
 70
     9
 71
     3
 72
    17
 73
    13
 74
     0
 42
0.0000000001
 43
0.0000000001
 40
0.0
 40
0.0
 40
0.0
 40
0.0
 40
1.0
 40
1.0
 40
1.0
 40
2.0
 40
2.0
 40
2.0
 40
3.0
 40
3.0
 40
3.0
 40
4.0
 40
4.0
 40
4.0
 40
4.0
 10
121.9863836177587
 20
-154.5884445225586
 30
0.0
 10
121.9863836177587
 20
-154.5329926886884
 30
0.0
 10
121.9415808411239
 20
-154.4881899120536
 30
0.0
 10
121.886124175872
 20
-154.4881899120536
 30
0.0
 10
121.831020288389
 20
-154.4881899120536
 30
0.0
 10
121.7862175117542
 20
-154.5329926886884
 30
0.0
 10
121.7862175117542
 20
-154.5884445225586
 30
0.0
 10
121.7862175117542
 20
-154.6435885192002
 30
0.0
 10
121.831020288389
 20
-154.6883560180581
 30
0.0
 10
121.886124175872
 20
-154.6883560180581
 30
0.0
 10
121.9415808411239
 20
-154.6883560180581
 30
0.0
 10
121.9863836177587
 20
-154.6435885192002
 30
0.0
 10
121.9863836177587
 20
-154.5884445225586
 30
0.0
  0
SPLINE
  5
AF
330
70
100
AcDbEntity
  8
レイヤー 1
 62
    18
420
        0
370
     9
100
AcDbSpline
210
0.0
220
0.0
230
1.0
 70
     9
 71
     3
 72
    17
 73
    13
 74
     0
 42
0.0000000001
 43
0.0000000001
 40
0.0
 40
0.0
 40
0.0
 40
0.0
 40
1.0
 40
1.0
 40
1.0
 40
2.0
 40
2.0
 40
2.0
 40
3.0
 40
3.0
 40
3.0
 40
4.0
 40
4.0
 40
4.0
 40
4.0
 10
121.9863836177587
 20
-154.9884287881803
 30
0.0
 10
121.9863836177587
 20
-154.9329721229285
 30
0.0
 10
121.9415808411239
 20
-154.8881693462937
 30
0.0
 10
121.886124175872
 20
-154.8881693462937
 30
0.0
 10
121.831020288389
 20
-154.8881693462937
 30
0.0
 10
121.7862175117542
 20
-154.9329721229285
 30
0.0
 10
121.7862175117542
 20
-154.9884287881803
 30
0.0
 10
121.7862175117542
 20
-155.0435679534403
 30
0.0
 10
121.831020288389
 20
-155.0883306335452
 30
0.0
 10
121.886124175872
 20
-155.0883306335452
 30
0.0
 10
121.9415808411239
 20
-155.0883306335452
 30
0.0
 10
121.9863836177587
 20
-155.0435679534403
 30
0.0
 10
121.9863836177587
 20
-154.9884287881803
 30
0.0
  0
SPLINE
  5
B0
330
70
100
AcDbEntity
  8
レイヤー 1
 62
    18
420
        0
370
     9
100
AcDbSpline
210
0.0
220
0.0
230
1.0
 70
     9
 71
     3
 72
    17
 73
    13
 74
     0
 42
0.0000000001
 43
0.0000000001
 40
0.0
 40
0.0
 40
0.0
 40
0.0
 40
1.0
 40
1.0
 40
1.0
 40
2.0
 40
2.0
 40
2.0
 40
3.0
 40
3.0
 40
3.0
 40
4.0
 40
4.0
 40
4.0
 40
4.0
 10
117.9862717753656
 20
-159.688240057167
 30
0.0
 10
117.9862717753656
 20
-159.6331008919071
 30
0.0
 10
117.9415054449043
 20
-159.5883333930492
 30
0.0
 10
117.8863651112477
 20
-159.5883333930492
 30
0.0
 10
117.8309084459959
 20
-159.5883333930492
 30
0.0
 10
117.786140947138
 20
-159.6331008919071
 30
0.0
 10
117.786140947138
 20
-159.688240057167
 30
0.0
 10
117.786140947138
 20
-159.7433439446501
 30
0.0
 10
117.8309084459959
 20
-159.7881467212849
 30
0.0
 10
117.8863651112477
 20
-159.7881467212849
 30
0.0
 10
117.9415054449043
 20
-159.7881467212849
 30
0.0
 10
117.9862717753656
 20
-159.7433439446501
 30
0.0
 10
117.9862717753656
 20
-159.688240057167
 30
0.0
  0
CIRCLE
  5
B1
330
70
100
AcDbEntity
  8
レイヤー 1
 62
    18
420
        0
370
     9
100
AcDbCircle
 10
88.88599284090643
 20
-159.688240057167
 30
0.0
 40
0.0999066653797365
  0
SPLINE
  5
B2
330
70
100
AcDbEntity
  8
レイヤー 1
 62
    18
420
        0
370
     9
100
AcDbSpline
210
0.0
220
0.0
230
1.0
 70
     9
 71
     3
 72
    17
 73
    13
 74
     0
 42
0.0000000001
 43
0.0000000001
 40
0.0
 40
0.0
 40
0.0
 40
0.0
 40
1.0
 40
1.0
 40
1.0
 40
2.0
 40
2.0
 40
2.0
 40
3.0
 40
3.0
 40
3.0
 40
4.0
 40
4.0
 40
4.0
 40
4.0
 10
87.09663339690914
 20
-142.0882630061796
 30
0.0
 10
87.09663339690914
 20
-142.0328063409277
 30
0.0
 10
87.05183061914306
 20
-141.9883563420617
 30
0.0
 10
86.99672673026752
 20
-141.9883563420617
 30
0.0
 10
86.94158756361508
 20
-141.9883563420617
 30
0.0
 10
86.89682006362586
 20
-142.0328063409277
 30
0.0
 10
86.89682006362586
 20
-142.0882630061796
 30
0.0
 10
86.89682006362586
 20
-142.1437549492083
 30
0.0
 10
86.94158756361508
 20
-142.1885224480662
 30
0.0
 10
86.99672673026752
 20
-142.1885224480662
 30
0.0
 10
87.05183061914306
 20
-142.1885224480662
 30
0.0
 10
87.09663339690914
 20
-142.1437549492083
 30
0.0
 10
87.09663339690914
 20
-142.0882630061796
 30
0.0
  0
CIRCLE
  5
B3
330
70
100
AcDbEntity
  8
レイヤー 1
 62
    18
420
        0
370
     9
100
AcDbCircle
 10
86.99672673026752
 20
-143.1882946447822
 30
0.0
 40
0.0999066653797766
  0
SPLINE
  5
B4
330
70
100
AcDbEntity
  8
レイヤー 1
 62
    18
420
        0
370
     9
100
AcDbSpline
210
0.0
220
0.0
230
1.0
 70
     9
 71
     3
 72
    17
 73
    13
 74
     0
 42
0.0000000001
 43
0.0000000001
 40
0.0
 40
0.0
 40
0.0
 40
0.0
 40
1.0
 40
1.0
 40
1.0
 40
2.0
 40
2.0
 40
2.0
 40
3.0
 40
3.0
 40
3.0
 40
4.0
 40
4.0
 40
4.0
 40
4.0
 10
100.9864762824765
 20
-159.688240057167
 30
0.0
 10
100.9864762824765
 20
-159.6331008919071
 30
0.0
 10
100.9416735047097
 20
-159.5883333930492
 30
0.0
 10
100.886216838057
 20
-159.5883333930492
 30
0.0
 10
100.831077671404
 20
-159.5883333930492
 30
0.0
 10
100.7863101714154
 20
-159.6331008919071
 30
0.0
 10
100.7863101714154
 20
-159.688240057167
 30
0.0
 10
100.7863101714154
 20
-159.7433439446501
 30
0.0
 10
100.831077671404
 20
-159.7881467212849
 30
0.0
 10
100.886216838057
 20
-159.7881467212849
 30
0.0
 10
100.9416735047097
 20
-159.7881467212849
 30
0.0
 10
100.9864762824765
 20
-159.7433439446501
 30
0.0
 10
100.9864762824765
 20
-159.688240057167
 30
0.0
  0
LINE
  5
B5
330
70
100
AcDbEntity
  8
レイヤー 1
 62
    18
420
        0
370
     9
100
AcDbLine
 10
100.886216838057
 20
-159.688240057167
 30
0.0
 11
117.8863651112477
 21
-159.688240057167
 31
0.0
  0
LINE
  5
B6
330
70
100
AcDbEntity
  8
レイヤー 1
 62
    18
420
        0
370
     9
100
AcDbLine
 10
117.8863651112477
 20
-157.5281417440455
 30
0.0
 11
117.8863651112477
 21
-160.6883250765896
 31
0.0
  0
INSERT
  5
B8
330
70
100
AcDbEntity
  8
レイヤー 1
100
AcDbBlockReference
  2
Block_5
 10
0.0
 20
0.0
 30
0.0
  0
LINE
  5
C3
330
70
100
AcDbEntity
  8
レイヤー 1
 62
    18
420
        0
370
     9
100
AcDbLine
 10
121.886124175872
 20
-154.9884287881803
 30
0.0
 11
121.886124175872
 21
-155.9882009848962
 31
0.0
  0
LINE
  5
C4
330
70
100
AcDbEntity
  8
レイヤー 1
 62
    18
420
        0
370
     9
100
AcDbLine
 10
121.886124175872
 20
-154.5884445225586
 30
0.0
 11
121.886124175872
 21
-154.9884287881803
 31
0.0
  0
LINE
  5
C5
330
70
100
AcDbEntity
  8
レイヤー 1
 62
    18
420
        0
370
     9
100
AcDbLine
 10
120.4260828242319
 20
-154.5884445225586
 30
0.0
 11
122.8862491503567
 21
-154.5884445225586
 31
0.0
  0
LINE
  5
C6
330
70
100
AcDbEntity
  8
レイヤー 1
 62
    18
420
        0
370
     9
100
AcDbLine
 10
120.4260828242319
 20
-154.9884287881803
 30
0.0
 11
122.8862491503567
 21
-154.9884287881803
 31
0.0
  0
INSERT
  5
C8
330
70
100
AcDbEntity
  8
レイヤー 1
100
AcDbBlockReference
  2
Block_7
 10
0.0
 20
0.0
 30
0.0
  0
LINE
  5
D7
330
70
100
AcDbEntity
  8
レイヤー 1
 62
    18
420
        0
370
     9
100
AcDbLine
 10
86.99672673026752
 20
-142.0882630061796
 30
0.0
 11
86.99672673026752
 21
-141.0881733094717
 31
0.0
  0
LINE
  5
D8
330
70
100
AcDbEntity
  8
レイヤー 1
 62
    18
420
        0
370
     9
100
AcDbLine
 10
86.99672673026752
 20
-142.0882630061796
 30
0.0
 11
86.99672673026752
 21
-144.188066841498
 31
0.0
  0
LINE
  5
D9
330
70
100
AcDbEntity
  8
レイヤー 1
 62
    18
420
        0
370
     9
100
AcDbLine
 10
88.45673284101369
 20
-142.0882630061796
 30
0.0
 11
85.9969545082956
 21
-142.0882630061796
 31
0.0
  0
LINE
  5
DA
330
70
100
AcDbEntity
  8
レイヤー 1
 62
    18
420
        0
370
     9
100
AcDbLine
 10
88.45673284101369
 20
-143.1882946447821
 30
0.0
 11
85.9969545082956
 21
-143.1882946447821
 31
0.0
  0
INSERT
  5
DC
330
70
100
AcDbEntity
  8
レイヤー 1
100
AcDbBlockReference
  2
Block_9
 10
0.0
 20
0.0
 30
0.0
  0
LINE
  5
E9
330
70
100
AcDbEntity
  8
レイヤー 1
 62
    18
420
        0
370
     9
100
AcDbLine
 10
121.886124175872
 20
-142.0882630061796
 30
0.0
 11
121.886124175872
 21
-154.5884445225586
 31
0.0
  0
LINE
  5
EA
330
70
100
AcDbEntity
  8
レイヤー 1
 62
    18
420
        0
370
     9
100
AcDbLine
 10
104.5262837815918
 20
-142.0882630061796
 30
0.0
 11
122.8862491503567
 21
-142.0882630061796
 31
0.0
  0
LINE
  5
EB
330
70
100
AcDbEntity
  8
レイヤー 1
 62
    18
420
        0
370
     9
100
AcDbLine
 10
120.4260828242319
 20
-154.5884445225586
 30
0.0
 11
122.8862491503567
 21
-154.5884445225586
 31
0.0
  0
INSERT
  5
ED
330
70
100
AcDbEntity
  8
レイヤー 1
100
AcDbBlockReference
  2
Block_11
 10
0.0
 20
0.0
 30
0.0
  0
LINE
  5
FC
330
70
100
AcDbEntity
  8
レイヤー 1
 62
    18
420
        0
370
     9
100
AcDbLine
 10
88.88599284090643
 20
-159.688240057167
 30
0.0
 11
100.8862167267954
 21
-159.688240057167
 31
0.0
  0
LINE
  5
FD
330
70
100
AcDbEntity
  8
レイヤー 1
 62
    18
420
        0
370
     9
100
AcDbLine
 10
88.88599284090643
 20
-145.728365135535
 30
0.0
 11
88.88599284090643
 21
-160.6883250765896
 31
0.0
  0
LINE
  5
FE
330
70
100
AcDbEntity
  8
レイヤー 1
 62
    18
420
        0
370
     9
100
AcDbLine
 10
100.886216838057
 20
-158.2281987055269
 30
0.0
 11
100.886216838057
 21
-160.6883250765896
 31
0.0
  0
INSERT
  5
100
330
70
100
AcDbEntity
  8
レイヤー 1
100
AcDbBlockReference
  2
Block_13
 10
0.0
 20
0.0
 30
0.0
  0
ENDSEC
  0
SECTION
  2
OBJECTS
  0
DICTIONARY
  5
C
330
0
100
AcDbDictionary
281
     1
  3
ACAD_COLOR
350
63
  3
ACAD_DETAILVIEWSTYLE
350
6A
  3
ACAD_GROUP
350
D
  3
ACAD_LAYOUT
350
62
  3
ACAD_MATERIAL
350
10
  3
ACAD_MLEADERSTYLE
350
66
  3
ACAD_MLINESTYLE
350
5F
  3
ACAD_PLOTSETTINGS
350
61
  3
ACAD_PLOTSTYLENAME
350
E
  3
ACAD_SCALELIST
350
42
  3
ACAD_SECTIONVIEWSTYLE
350
68
  3
ACAD_TABLESTYLE
350
64
  3
ACAD_VISUALSTYLE
350
29
  3
ACDB_RECOMPOSE_DATA
350
113
  3
AcDbVariableDictionary
350
10B
  0
DICTIONARY
  5
63
102
{ACAD_REACTORS
330
C
102
}
330
C
100
AcDbDictionary
281
     1
  0
DICTIONARY
  5
6A
102
{ACAD_REACTORS
330
C
102
}
330
C
100
AcDbDictionary
281
     1
  3
Imperial24
350
6B
  0
DICTIONARY
  5
D
102
{ACAD_REACTORS
330
C
102
}
330
C
100
AcDbDictionary
281
     1
  0
DICTIONARY
  5
62
102
{ACAD_REACTORS
330
C
102
}
330
C
100
AcDbDictionary
281
     1
  3
Layout1
350
6F
  3
Layout2
350
77
  3
Model
350
73
  0
DICTIONARY
  5
10
102
{ACAD_REACTORS
330
C
102
}
330
C
100
AcDbDictionary
281
     1
  3
ByBlock
350
19
  3
ByLayer
350
11
  3
Global
350
21
  0
DICTIONARY
  5
66
102
{ACAD_REACTORS
330
C
102
}
330
C
100
AcDbDictionary
281
     1
  3
Standard
350
67
  0
DICTIONARY
  5
5F
102
{ACAD_REACTORS
330
C
102
}
330
C
100
AcDbDictionary
281
     1
  3
Standard
350
60
  0
DICTIONARY
  5
61
102
{ACAD_REACTORS
330
C
102
}
330
C
100
AcDbDictionary
281
     1
  0
ACDBDICTIONARYWDFLT
  5
E
102
{ACAD_REACTORS
330
C
102
}
330
C
100
AcDbDictionary
281
     1
  3
Normal
350
F
100
AcDbDictionaryWithDefault
340
F
  0
DICTIONARY
  5
42
102
{ACAD_REACTORS
330
C
102
}
330
C
100
AcDbDictionary
281
     1
  3
A0
350
43
  3
A1
350
44
  3
A2
350
45
  3
A3
350
46
  3
A4
350
47
  3
A5
350
48
  3
A6
350
49
  3
A7
350
4A
  3
A8
350
4B
  3
A9
350
4C
  3
B0
350
4D
  3
B1
350
4E
  3
B2
350
4F
  3
B3
350
50
  3
B4
350
51
  3
B5
350
52
  3
B6
350
53
  0
DICTIONARY
  5
68
102
{ACAD_REACTORS
330
C
102
}
330
C
100
AcDbDictionary
281
     1
  3
Imperial24
350
69
  0
DICTIONARY
  5
64
102
{ACAD_REACTORS
330
C
102
}
330
C
100
AcDbDictionary
281
     1
  3
Standard
350
65
  0
DICTIONARY
  5
29
102
{ACAD_REACTORS
330
C
102
}
330
C
100
AcDbDictionary
281
     1
  3
2dWireframe
350
2F
  3
Basic
350
2E
  3
Brighten
350
35
  3
ColorChange
350
39
  3
Conceptual
350
32
  3
Dim
350
34
  3
EdgeColorOff
350
41
  3
Facepattern
350
38
  3
Flat
350
2A
  3
FlatWithEdges
350
2B
  3
Gouraud
350
2C
  3
GouraudWithEdges
350
2D
  3
Hidden
350
31
  3
JitterOff
350
3F
  3
Linepattern
350
37
  3
OverhangOff
350
40
  3
Realistic
350
33
  3
Shaded
350
3E
  3
Shaded with edges
350
3D
  3
Shades of Gray
350
3A
  3
Sketchy
350
3B
  3
Thicken
350
36
  3
Wireframe
350
30
  3
X-Ray
350
3C
  0
XRECORD
  5
113
102
{ACAD_REACTORS
330
C
102
}
330
C
100
AcDbXrecord
280
     1
 90
        1
330
65
  0
DICTIONARY
  5
10B
102
{ACAD_REACTORS
330
C
102
}
330
C
100
AcDbDictionary
281
     1
  3
CANNOSCALE
350
110
  3
CMLEADERSTYLE
350
10D
  3
CTABLESTYLE
350
10C
  3
CVIEWDETAILSTYLE
350
10E
  3
CVIEWSECTIONSTYLE
350
10F
  0
ACDBDETAILVIEWSTYLE
  5
6B
102
{ACAD_XDICTIONARY
360
148
102
}
102
{ACAD_REACTORS
330
6A
102
}
330
6A
100
AcDbModelDocViewStyle
 70
     0
  3
Imperial24
290
     0
100
AcDbDetailViewStyle
 70
     0
 71
     0
 90
        3
 71
     1
340
55
 62
   256
 40
0.24
340
0
 62
   256
 40
0.24
300

 40
0.36
280
     3
 71
     2
340
5D
 90
       25
 62
   256
 71
     3
340
55
 62
   256
 40
0.24
 90
        1
 40
0.75
 90
        1
300
%<\AcVar ViewType \f "%tc1">% %<\AcVar ViewDetailId>%\PSCALE %<\AcVar ViewScale \f "%sn">%
 71
     4
340
5D
 90
       25
 62
   256
340
5D
 90
       25
 62
   256
280
     0
  0
LAYOUT
  5
6F
102
{ACAD_REACTORS
330
62
102
}
330
62
100
AcDbPlotSettings
  1

  2

  4

  6

 40
0.0
 41
0.0
 42
0.0
 43
0.0
 44
0.0
 45
0.0
 46
0.0
 47
0.0
 48
0.0
 49
0.0
140
0.0
141
0.0
142
1.0
143
1.0
 70
   688
 72
     0
 73
     0
 74
     5
  7

 75
    16
147
1.0
 76
     0
 77
     2
 78
   300
148
0.0
149
0.0
100
AcDbLayout
  1
Layout1
 70
     1
 71
     1
 10
0.0
 20
0.0
 11
12.0
 21
9.0
 12
0.0
 22
0.0
 32
0.0
 14
0.0
 24
0.0
 34
0.0
 15
0.0
 25
0.0
 35
0.0
146
0.0
 13
0.0
 23
0.0
 33
0.0
 16
1.0
 26
0.0
 36
0.0
 17
0.0
 27
1.0
 37
0.0
 76
     0
330
6C
  0
LAYOUT
  5
77
102
{ACAD_REACTORS
330
62
102
}
330
62
100
AcDbPlotSettings
  1

  2

  4

  6

 40
0.0
 41
0.0
 42
0.0
 43
0.0
 44
0.0
 45
0.0
 46
0.0
 47
0.0
 48
0.0
 49
0.0
140
0.0
141
0.0
142
1.0
143
1.0
 70
   688
 72
     0
 73
     0
 74
     5
  7

 75
    16
147
1.0
 76
     0
 77
     2
 78
   300
148
0.0
149
0.0
100
AcDbLayout
  1
Layout2
 70
     1
 71
     2
 10
0.0
 20
0.0
 11
12.0
 21
9.0
 12
0.0
 22
0.0
 32
0.0
 14
0.0
 24
0.0
 34
0.0
 15
0.0
 25
0.0
 35
0.0
146
0.0
 13
0.0
 23
0.0
 33
0.0
 16
1.0
 26
0.0
 36
0.0
 17
0.0
 27
1.0
 37
0.0
 76
     0
330
74
  0
LAYOUT
  5
73
102
{ACAD_REACTORS
330
62
102
}
330
62
100
AcDbPlotSettings
  1

  2

  4

  6

 40
0.0
 41
0.0
 42
0.0
 43
0.0
 44
0.0
 45
0.0
 46
0.0
 47
0.0
 48
0.0
 49
0.0
140
0.0
141
0.0
142
1.0
143
1.0
 70
  1712
 72
     0
 73
     0
 74
     0
  7

 75
     0
147
1.0
 76
     0
 77
     2
 78
   300
148
0.0
149
0.0
100
AcDbLayout
  1
Model
 70
     1
 71
     0
 10
0.0
 20
0.0
 11
12.0
 21
9.0
 12
0.0
 22
0.0
 32
0.0
 14
0.0
 24
0.0
 34
0.0
 15
0.0
 25
0.0
 35
0.0
146
0.0
 13
0.0
 23
0.0
 33
0.0
 16
1.0
 26
0.0
 36
0.0
 17
0.0
 27
1.0
 37
0.0
 76
     0
330
70
  0
MATERIAL
  5
19
102
{ACAD_XDICTIONARY
360
1A
102
}
102
{ACAD_REACTORS
330
10
102
}
330
10
100
AcDbMaterial
  1
ByBlock
 72
     0
 43
0.0208333333333333
 43
0.0
 43
0.0
 43
0.0
 43
0.0
 43
0.0208333333333333
 43
0.0
 43
0.0
 43
0.0
 43
0.0
 43
1.0
 43
0.0
 43
0.0
 43
0.0
 43
0.0
 43
1.0
 77
     0
 47
0.0208333333333333
 47
0.0
 47
0.0
 47
0.0
 47
0.0
 47
0.0208333333333333
 47
0.0
 47
0.0
 47
0.0
 47
0.0
 47
1.0
 47
0.0
 47
0.0
 47
0.0
 47
0.0
 47
1.0
171
     0
 49
0.0208333333333333
 49
0.0
 49
0.0
 49
0.0
 49
0.0
 49
0.0208333333333333
 49
0.0
 49
0.0
 49
0.0
 49
0.0
 49
1.0
 49
0.0
 49
0.0
 49
0.0
 49
0.0
 49
1.0
175
     0
142
0.0208333333333333
142
0.0
142
0.0
142
0.0
142
0.0
142
0.0208333333333333
142
0.0
142
0.0
142
0.0
142
0.0
142
1.0
142
0.0
142
0.0
142
0.0
142
0.0
142
1.0
179
     0
144
0.0208333333333333
144
0.0
144
0.0
144
0.0
144
0.0
144
0.0208333333333333
144
0.0
144
0.0
144
0.0
144
0.0
144
1.0
144
0.0
144
0.0
144
0.0
144
0.0
144
1.0
147
0.0208333333333333
147
0.0
147
0.0
147
0.0
147
0.0
147
0.0208333333333333
147
0.0
147
0.0
147
0.0
147
0.0
147
1.0
147
0.0
147
0.0
147
0.0
147
0.0
147
1.0
  0
MATERIAL
  5
11
102
{ACAD_XDICTIONARY
360
12
102
}
102
{ACAD_REACTORS
330
10
102
}
330
10
100
AcDbMaterial
  1
ByLayer
 72
     0
 43
0.0208333333333333
 43
0.0
 43
0.0
 43
0.0
 43
0.0
 43
0.0208333333333333
 43
0.0
 43
0.0
 43
0.0
 43
0.0
 43
1.0
 43
0.0
 43
0.0
 43
0.0
 43
0.0
 43
1.0
 77
     0
 47
0.0208333333333333
 47
0.0
 47
0.0
 47
0.0
 47
0.0
 47
0.0208333333333333
 47
0.0
 47
0.0
 47
0.0
 47
0.0
 47
1.0
 47
0.0
 47
0.0
 47
0.0
 47
0.0
 47
1.0
171
     0
 49
0.0208333333333333
 49
0.0
 49
0.0
 49
0.0
 49
0.0
 49
0.0208333333333333
 49
0.0
 49
0.0
 49
0.0
 49
0.0
 49
1.0
 49
0.0
 49
0.0
 49
0.0
 49
0.0
 49
1.0
175
     0
142
0.0208333333333333
142
0.0
142
0.0
142
0.0
142
0.0
142
0.0208333333333333
142
0.0
142
0.0
142
0.0
142
0.0
142
1.0
142
0.0
142
0.0
142
0.0
142
0.0
142
1.0
179
     0
144
0.0208333333333333
144
0.0
144
0.0
144
0.0
144
0.0
144
0.0208333333333333
144
0.0
144
0.0
144
0.0
144
0.0
144
1.0
144
0.0
144
0.0
144
0.0
144
0.0
144
1.0
147
0.0208333333333333
147
0.0
147
0.0
147
0.0
147
0.0
147
0.0208333333333333
147
0.0
147
0.0
147
0.0
147
0.0
147
1.0
147
0.0
147
0.0
147
0.0
147
0.0
147
1.0
  0
MATERIAL
  5
21
102
{ACAD_XDICTIONARY
360
22
102
}
102
{ACAD_REACTORS
330
10
102
}
330
10
100
AcDbMaterial
  1
Global
 72
     0
 43
0.0208333333333333
 43
0.0
 43
0.0
 43
0.0
 43
0.0
 43
0.0208333333333333
 43
0.0
 43
0.0
 43
0.0
 43
0.0
 43
1.0
 43
0.0
 43
0.0
 43
0.0
 43
0.0
 43
1.0
 77
     0
 47
0.0208333333333333
 47
0.0
 47
0.0
 47
0.0
 47
0.0
 47
0.0208333333333333
 47
0.0
 47
0.0
 47
0.0
 47
0.0
 47
1.0
 47
0.0
 47
0.0
 47
0.0
 47
0.0
 47
1.0
171
     0
 49
0.0208333333333333
 49
0.0
 49
0.0
 49
0.0
 49
0.0
 49
0.0208333333333333
 49
0.0
 49
0.0
 49
0.0
 49
0.0
 49
1.0
 49
0.0
 49
0.0
 49
0.0
 49
0.0
 49
1.0
175
     0
142
0.0208333333333333
142
0.0
142
0.0
142
0.0
142
0.0
142
0.0208333333333333
142
0.0
142
0.0
142
0.0
142
0.0
142
1.0
142
0.0
142
0.0
142
0.0
142
0.0
142
1.0
179
     0
144
0.0208333333333333
144
0.0
144
0.0
144
0.0
144
0.0
144
0.0208333333333333
144
0.0
144
0.0
144
0.0
144
0.0
144
1.0
144
0.0
144
0.0
144
0.0
144
0.0
144
1.0
147
0.0208333333333333
147
0.0
147
0.0
147
0.0
147
0.0
147
0.0208333333333333
147
0.0
147
0.0
147
0.0
147
0.0
147
1.0
147
0.0
147
0.0
147
0.0
147
0.0
147
1.0
  0
MLEADERSTYLE
  5
67
102
{ACAD_XDICTIONARY
360
144
102
}
102
{ACAD_REACTORS
330
66
102
}
330
66
100
AcDbMLeaderStyle
179
     2
170
     2
171
     1
172
     0
 90
        2
 40
0.0
 41
0.0
173
     1
 91
-1056964608
340
5B
 92
       -2
290
     1
 42
0.09
291
     1
 43
0.36
  3
Standard
 44
0.18
300

342
55
174
     1
178
     6
175
     1
176
     0
 93
-1056964608
 45
0.18
292
     0
297
     0
 46
0.18
 94
-1056964608
 47
1.0
 49
1.0
140
1.0
293
     1
141
0.0
294
     1
177
     0
142
1.0
295
     0
296
     0
143
0.125
271
     0
272
     9
273
     9
  0
MLINESTYLE
  5
60
102
{ACAD_REACTORS
330
5F
102
}
330
5F
100
AcDbMlineStyle
  2
STANDARD
 70
     0
  3

 62
   256
 51
90.0
 52
90.0
 71
     2
 49
0.5
 62
   256
  6
BYLAYER
 49
-0.5
 62
   256
  6
BYLAYER
  0
ACDBPLACEHOLDER
  5
F
102
{ACAD_REACTORS
330
E
102
}
330
E
  0
SCALE
  5
43
102
{ACAD_REACTORS
330
42
102
}
330
42
100
AcDbScale
 70
     0
300
1:1
140
1.0
141
1.0
290
     1
  0
SCALE
  5
44
102
{ACAD_REACTORS
330
42
102
}
330
42
100
AcDbScale
 70
     0
300
1/128" = 1'-0"
140
0.0078125
141
12.0
290
     0
  0
SCALE
  5
45
102
{ACAD_REACTORS
330
42
102
}
330
42
100
AcDbScale
 70
     0
300
1/64" = 1'-0"
140
0.015625
141
12.0
290
     0
  0
SCALE
  5
46
102
{ACAD_REACTORS
330
42
102
}
330
42
100
AcDbScale
 70
     0
300
1/32" = 1'-0"
140
0.03125
141
12.0
290
     0
  0
SCALE
  5
47
102
{ACAD_REACTORS
330
42
102
}
330
42
100
AcDbScale
 70
     0
300
1/16" = 1'-0"
140
0.0625
141
12.0
290
     0
  0
SCALE
  5
48
102
{ACAD_REACTORS
330
42
102
}
330
42
100
AcDbScale
 70
     0
300
3/32" = 1'-0"
140
0.09375
141
12.0
290
     0
  0
SCALE
  5
49
102
{ACAD_REACTORS
330
42
102
}
330
42
100
AcDbScale
 70
     0
300
1/8" = 1'-0"
140
0.125
141
12.0
290
     0
  0
SCALE
  5
4A
102
{ACAD_REACTORS
330
42
102
}
330
42
100
AcDbScale
 70
     0
300
3/16" = 1'-0"
140
0.1875
141
12.0
290
     0
  0
SCALE
  5
4B
102
{ACAD_REACTORS
330
42
102
}
330
42
100
AcDbScale
 70
     0
300
1/4" = 1'-0"
140
0.25
141
12.0
290
     0
  0
SCALE
  5
4C
102
{ACAD_REACTORS
330
42
102
}
330
42
100
AcDbScale
 70
     0
300
3/8" = 1'-0"
140
0.375
141
12.0
290
     0
  0
SCALE
  5
4D
102
{ACAD_REACTORS
330
42
102
}
330
42
100
AcDbScale
 70
     0
300
1/2" = 1'-0"
140
0.5
141
12.0
290
     0
  0
SCALE
  5
4E
102
{ACAD_REACTORS
330
42
102
}
330
42
100
AcDbScale
 70
     0
300
3/4" = 1'-0"
140
0.75
141
12.0
290
     0
  0
SCALE
  5
4F
102
{ACAD_REACTORS
330
42
102
}
330
42
100
AcDbScale
 70
     0
300
1" = 1'-0"
140
1.0
141
12.0
290
     0
  0
SCALE
  5
50
102
{ACAD_REACTORS
330
42
102
}
330
42
100
AcDbScale
 70
     0
300
1-1/2" = 1'-0"
140
1.5
141
12.0
290
     0
  0
SCALE
  5
51
102
{ACAD_REACTORS
330
42
102
}
330
42
100
AcDbScale
 70
     0
300
3" = 1'-0"
140
3.0
141
12.0
290
     0
  0
SCALE
  5
52
102
{ACAD_REACTORS
330
42
102
}
330
42
100
AcDbScale
 70
     0
300
6" = 1'-0"
140
6.0
141
12.0
290
     0
  0
SCALE
  5
53
102
{ACAD_REACTORS
330
42
102
}
330
42
100
AcDbScale
 70
     0
300
1'-0" = 1'-0"
140
12.0
141
12.0
290
     0
  0
ACDBSECTIONVIEWSTYLE
  5
69
102
{ACAD_XDICTIONARY
360
146
102
}
102
{ACAD_REACTORS
330
68
102
}
330
68
100
AcDbModelDocViewStyle
 70
     0
  3
Imperial24
290
     0
100
AcDbSectionViewStyle
 70
     0
 71
     0
 90
       78
 71
     1
340
55
 62
   256
 40
0.24
340
0
340
0
 62
   256
 40
0.24
300
I, O, Q, S, X, Z
 40
0.48
 90
        3
 40
0.18
 90
        1
 71
     2
340
5D
 90
       25
 62
   256
340
5D
 90
       50
 62
   256
 40
0.24
 40
0.0
 40
0.24
 71
     3
340
55
 62
   256
 40
0.24
 90
        1
 40
0.75
 90
        1
300
%<\AcVar ViewType \f "%tc1">% %<\AcVar ViewSectionStartId>%-%<\AcVar ViewSectionEndId>%\PSCALE %<\AcVar ViewScale \f "%sn">%
 71
     4
 62
   256
 62
   257
300
ANSI31
 40
1.0
 90
        0
290
     0
290
     0
 90
        6
 40
0.0
 40
1.570796326794896
 40
0.2617993877991494
 40
1.308996938995747
 40
-0.2617993877991494
 40
1.832595714594046
  0
TABLESTYLE
  5
65
102
{ACAD_XDICTIONARY
360
111
102
}
102
{ACAD_REACTORS
330
64
102
}
330
64
100
AcDbTableStyle
280
     0
  3
Standard
 70
     0
 71
     0
 40
0.06
 41
0.06
280
     0
281
     0
  7
Standard
140
0.18
170
     2
 62
     0
 63
     7
283
     0
 90
      512
 91
        0
  1

274
    -2
284
     1
 64
     0
275
    -2
285
     1
 65
     0
276
    -2
286
     1
 66
     0
277
    -2
287
     1
 67
     0
278
    -2
288
     1
 68
     0
279
    -2
289
     1
 69
     0
  7
Standard
140
0.25
170
     5
 62
     0
 63
     7
283
     0
 90
      512
 91
        0
  1

274
    -2
284
     1
 64
     0
275
    -2
285
     1
 65
     0
276
    -2
286
     1
 66
     0
277
    -2
287
     1
 67
     0
278
    -2
288
     1
 68
     0
279
    -2
289
     1
 69
     0
  7
Standard
140
0.18
170
     5
 62
     0
 63
     7
283
     0
 90
      512
 91
        0
  1

274
    -2
284
     1
 64
     0
275
    -2
285
     1
 65
     0
276
    -2
286
     1
 66
     0
277
    -2
287
     1
 67
     0
278
    -2
288
     1
 68
     0
279
    -2
289
     1
 69
     0
  0
VISUALSTYLE
  5
2F
102
{ACAD_XDICTIONARY
360
11E
102
}
102
{ACAD_REACTORS
330
29
102
}
330
29
100
AcDbVisualStyle
  2
2dWireframe
 70
     4
177
     2
291
     0
 71
     0
176
     1
 72
     2
176
     1
 73
     0
176
     1
 90
        0
176
     1
 40
0.6
176
     1
 41
30.0
176
     1
 63
     7
421
 16777215
176
     1
 74
     1
176
     1
 91
        4
176
     1
 64
     7
176
     1
 65
   257
176
     1
 75
     1
176
     1
175
     1
176
     1
 42
1.0
176
     1
 92
        0
176
     1
 66
   257
176
     1
 43
1.0
176
     1
 76
     1
176
     1
 77
     6
176
     1
 78
     2
176
     1
 67
     7
176
     1
 79
     5
176
     1
170
     0
176
     1
171
     0
176
     1
290
     0
176
     1
 93
        1
176
     1
 44
0.0
176
     1
173
     0
176
     1
1001
ACAD
1000
AcDbSavedByObjectVersion
1070
     0
  0
VISUALSTYLE
  5
2E
102
{ACAD_XDICTIONARY
360
11C
102
}
102
{ACAD_REACTORS
330
29
102
}
330
29
100
AcDbVisualStyle
  2
Basic
 70
     7
177
     2
291
     1
 71
     1
176
     1
 72
     0
176
     1
 73
     1
176
     1
 90
        0
176
     1
 40
0.6
176
     1
 41
30.0
176
     1
 63
     7
421
 16777215
176
     1
 74
     0
176
     1
 91
        4
176
     1
 64
     7
176
     1
 65
   257
176
     1
 75
     1
176
     1
175
     1
176
     1
 42
1.0
176
     1
 92
        8
176
     1
 66
     7
176
     1
 43
1.0
176
     1
 76
     1
176
     1
 77
     6
176
     1
 78
     2
176
     1
 67
     7
176
     1
 79
     5
176
     1
170
     0
176
     1
171
     0
176
     1
290
     0
176
     1
 93
        1
176
     1
 44
0.0
176
     1
173
     0
176
     1
1001
ACAD
1000
AcDbSavedByObjectVersion
1070
     0
  0
VISUALSTYLE
  5
35
102
{ACAD_XDICTIONARY
360
12A
102
}
102
{ACAD_REACTORS
330
29
102
}
330
29
100
AcDbVisualStyle
  2
Brighten
 70
    12
177
     2
291
     1
 71
     2
176
     1
 72
     2
176
     1
 73
     0
176
     1
 90
        0
176
     1
 40
0.6
176
     1
 41
30.0
176
     1
 63
     7
421
 16777215
176
     1
 74
     1
176
     1
 91
        4
176
     1
 64
     7
176
     1
 65
   257
176
     1
 75
     1
176
     1
175
     1
176
     1
 42
1.0
176
     1
 92
        8
176
     1
 66
     7
176
     1
 43
1.0
176
     1
 76
     1
176
     1
 77
     6
176
     1
 78
     2
176
     1
 67
     7
176
     1
 79
     5
176
     1
170
     0
176
     1
171
     0
176
     1
290
     0
176
     1
 93
        1
176
     1
 44
50.0
176
     1
173
     0
176
     1
1001
ACAD
1000
AcDbSavedByObjectVersion
1070
     0
  0
VISUALSTYLE
  5
39
102
{ACAD_XDICTIONARY
360
132
102
}
102
{ACAD_REACTORS
330
29
102
}
330
29
100
AcDbVisualStyle
  2
ColorChange
 70
    16
177
     2
291
     1
 71
     2
176
     1
 72
     2
176
     1
 73
     3
176
     1
 90
        0
176
     1
 40
0.6
176
     1
 41
30.0
176
     1
 63
     8
421
  8421504
176
     1
 74
     1
176
     1
 91
        4
176
     1
 64
     7
176
     1
 65
   257
176
     1
 75
     1
176
     1
175
     1
176
     1
 42
1.0
176
     1
 92
        8
176
     1
 66
     8
424
  8421504
176
     1
 43
1.0
176
     1
 76
     1
176
     1
 77
     6
176
     1
 78
     2
176
     1
 67
     7
176
     1
 79
     5
176
     1
170
     0
176
     1
171
     0
176
     1
290
     0
176
     1
 93
        1
176
     1
 44
0.0
176
     1
173
     0
176
     1
1001
ACAD
1000
AcDbSavedByObjectVersion
1070
     0
  0
VISUALSTYLE
  5
32
102
{ACAD_XDICTIONARY
360
124
102
}
102
{ACAD_REACTORS
330
29
102
}
330
29
100
AcDbVisualStyle
  2
Conceptual
 70
     9
177
     2
291
     0
 71
     3
176
     1
 72
     2
176
     1
 73
     0
176
     1
 90
        0
176
     1
 40
0.6
176
     1
 41
30.0
176
     1
 63
     7
421
 16777215
176
     1
 74
     2
176
     1
 91
        2
176
     1
 64
     7
176
     1
 65
   257
176
     1
 75
     1
176
     1
175
     1
176
     1
 42
179.0
176
     1
 92
        8
176
     1
 66
     7
176
     1
 43
1.0
176
     1
 76
     1
176
     1
 77
     6
176
     1
 78
     2
176
     1
 67
     7
176
     1
 79
     3
176
     1
170
     0
176
     1
171
     0
176
     1
290
     0
176
     1
 93
        1
176
     1
 44
0.0
176
     1
173
     0
176
     1
1001
ACAD
1000
AcDbSavedByObjectVersion
1070
     0
  0
VISUALSTYLE
  5
34
102
{ACAD_XDICTIONARY
360
128
102
}
102
{ACAD_REACTORS
330
29
102
}
330
29
100
AcDbVisualStyle
  2
Dim
 70
    11
177
     2
291
     1
 71
     2
176
     1
 72
     2
176
     1
 73
     0
176
     1
 90
        0
176
     1
 40
0.6
176
     1
 41
30.0
176
     1
 63
     7
421
 16777215
176
     1
 74
     1
176
     1
 91
        4
176
     1
 64
     7
176
     1
 65
   257
176
     1
 75
     1
176
     1
175
     1
176
     1
 42
1.0
176
     1
 92
        8
176
     1
 66
     7
176
     1
 43
1.0
176
     1
 76
     1
176
     1
 77
     6
176
     1
 78
     2
176
     1
 67
     7
176
     1
 79
     5
176
     1
170
     0
176
     1
171
     0
176
     1
290
     0
176
     1
 93
        1
176
     1
 44
-50.0
176
     1
173
     0
176
     1
1001
ACAD
1000
AcDbSavedByObjectVersion
1070
     0
  0
VISUALSTYLE
  5
41
102
{ACAD_XDICTIONARY
360
142
102
}
102
{ACAD_REACTORS
330
29
102
}
330
29
100
AcDbVisualStyle
  2
EdgeColorOff
 70
    22
177
     2
291
     1
 71
     2
176
     0
 72
     2
176
     0
 73
     0
176
     0
 90
        0
176
     0
 40
0.6
176
     0
 41
30.0
176
     0
 63
     7
421
 16777215
176
     0
 74
     1
176
     0
 91
        4
176
     0
 64
     7
176
     0
 65
   257
176
     0
 75
     1
176
     0
175
     1
176
     0
 42
1.0
176
     0
 92
        8
176
     2
 66
     7
176
     0
 43
1.0
176
     0
 76
     1
176
     0
 77
     6
176
     0
 78
     2
176
     0
 67
     7
176
     0
 79
     5
176
     0
170
     0
176
     0
171
     0
176
     0
290
     0
176
     0
 93
        1
176
     0
 44
0.0
176
     0
173
     0
176
     0
1001
ACAD
1000
AcDbSavedByObjectVersion
1070
     0
  0
VISUALSTYLE
  5
38
102
{ACAD_XDICTIONARY
360
130
102
}
102
{ACAD_REACTORS
330
29
102
}
330
29
100
AcDbVisualStyle
  2
Facepattern
 70
    15
177
     2
291
     1
 71
     2
176
     1
 72
     2
176
     1
 73
     0
176
     1
 90
        0
176
     1
 40
0.6
176
     1
 41
30.0
176
     1
 63
     7
421
 16777215
176
     1
 74
     1
176
     1
 91
        4
176
     1
 64
     7
176
     1
 65
   257
176
     1
 75
     1
176
     1
175
     1
176
     1
 42
1.0
176
     1
 92
        8
176
     1
 66
     7
176
     1
 43
1.0
176
     1
 76
     1
176
     1
 77
     6
176
     1
 78
     2
176
     1
 67
     7
176
     1
 79
     5
176
     1
170
     0
176
     1
171
     0
176
     1
290
     0
176
     1
 93
        1
176
     1
 44
0.0
176
     1
173
     0
176
     1
1001
ACAD
1000
AcDbSavedByObjectVersion
1070
     0
  0
VISUALSTYLE
  5
2A
102
{ACAD_XDICTIONARY
360
114
102
}
102
{ACAD_REACTORS
330
29
102
}
330
29
100
AcDbVisualStyle
  2
Flat
 70
     0
177
     2
291
     1
 71
     2
176
     1
 72
     1
176
     1
 73
     1
176
     1
 90
        2
176
     1
 40
0.6
176
     1
 41
30.0
176
     1
 63
     7
421
 16777215
176
     1
 74
     0
176
     1
 91
        0
176
     1
 64
     7
176
     1
 65
   257
176
     1
 75
     1
176
     1
175
     1
176
     1
 42
1.0
176
     1
 92
        8
176
     1
 66
     7
176
     1
 43
1.0
176
     1
 76
     1
176
     1
 77
     6
176
     1
 78
     2
176
     1
 67
     7
176
     1
 79
     5
176
     1
170
     0
176
     1
171
     0
176
     1
290
     0
176
     1
 93
       13
176
     1
 44
0.0
176
     1
173
     0
176
     1
1001
ACAD
1000
AcDbSavedByObjectVersion
1070
     0
  0
VISUALSTYLE
  5
2B
102
{ACAD_XDICTIONARY
360
116
102
}
102
{ACAD_REACTORS
330
29
102
}
330
29
100
AcDbVisualStyle
  2
FlatWithEdges
 70
     1
177
     2
291
     1
 71
     2
176
     1
 72
     1
176
     1
 73
     1
176
     1
 90
        2
176
     1
 40
0.6
176
     1
 41
30.0
176
     1
 63
     7
421
 16777215
176
     1
 74
     1
176
     1
 91
        0
176
     1
 64
     7
176
     1
 65
   257
176
     1
 75
     1
176
     1
175
     1
176
     1
 42
1.0
176
     1
 92
        0
176
     1
 66
   257
176
     1
 43
1.0
176
     1
 76
     1
176
     1
 77
     6
176
     1
 78
     2
176
     1
 67
     7
176
     1
 79
     5
176
     1
170
     0
176
     1
171
     0
176
     1
290
     0
176
     1
 93
       13
176
     1
 44
0.0
176
     1
173
     0
176
     1
1001
ACAD
1000
AcDbSavedByObjectVersion
1070
     0
  0
VISUALSTYLE
  5
2C
102
{ACAD_XDICTIONARY
360
118
102
}
102
{ACAD_REACTORS
330
29
102
}
330
29
100
AcDbVisualStyle
  2
Gouraud
 70
     2
177
     2
291
     1
 71
     2
176
     1
 72
     2
176
     1
 73
     1
176
     1
 90
        2
176
     1
 40
0.6
176
     1
 41
30.0
176
     1
 63
     7
421
 16777215
176
     1
 74
     0
176
     1
 91
        0
176
     1
 64
     7
176
     1
 65
   257
176
     1
 75
     1
176
     1
175
     1
176
     1
 42
1.0
176
     1
 92
        0
176
     1
 66
     7
176
     1
 43
1.0
176
     1
 76
     1
176
     1
 77
     6
176
     1
 78
     2
176
     1
 67
     7
176
     1
 79
     5
176
     1
170
     0
176
     1
171
     0
176
     1
290
     0
176
     1
 93
       13
176
     1
 44
0.0
176
     1
173
     0
176
     1
1001
ACAD
1000
AcDbSavedByObjectVersion
1070
     0
  0
VISUALSTYLE
  5
2D
102
{ACAD_XDICTIONARY
360
11A
102
}
102
{ACAD_REACTORS
330
29
102
}
330
29
100
AcDbVisualStyle
  2
GouraudWithEdges
 70
     3
177
     2
291
     1
 71
     2
176
     1
 72
     2
176
     1
 73
     1
176
     1
 90
        2
176
     1
 40
0.6
176
     1
 41
30.0
176
     1
 63
     7
421
 16777215
176
     1
 74
     1
176
     1
 91
        0
176
     1
 64
     7
176
     1
 65
   257
176
     1
 75
     1
176
     1
175
     1
176
     1
 42
1.0
176
     1
 92
        0
176
     1
 66
   257
176
     1
 43
1.0
176
     1
 76
     1
176
     1
 77
     6
176
     1
 78
     2
176
     1
 67
     7
176
     1
 79
     5
176
     1
170
     0
176
     1
171
     0
176
     1
290
     0
176
     1
 93
       13
176
     1
 44
0.0
176
     1
173
     0
176
     1
1001
ACAD
1000
AcDbSavedByObjectVersion
1070
     0
  0
VISUALSTYLE
  5
31
102
{ACAD_XDICTIONARY
360
122
102
}
102
{ACAD_REACTORS
330
29
102
}
330
29
100
AcDbVisualStyle
  2
Hidden
 70
     6
177
     2
291
     0
 71
     1
176
     1
 72
     2
176
     1
 73
     2
176
     1
 90
        0
176
     1
 40
0.6
176
     1
 41
30.0
176
     1
 63
     7
421
 16777215
176
     1
 74
     2
176
     1
 91
        2
176
     1
 64
     7
176
     1
 65
   257
176
     1
 75
     2
176
     1
175
     1
176
     1
 42
40.0
176
     1
 92
        0
176
     1
 66
   257
176
     1
 43
1.0
176
     1
 76
     1
176
     1
 77
     6
176
     1
 78
     2
176
     1
 67
     7
176
     1
 79
     3
176
     1
170
     0
176
     1
171
     0
176
     1
290
     0
176
     1
 93
        1
176
     1
 44
0.0
176
     1
173
     0
176
     1
1001
ACAD
1000
AcDbSavedByObjectVersion
1070
     0
  0
VISUALSTYLE
  5
3F
102
{ACAD_XDICTIONARY
360
13E
102
}
102
{ACAD_REACTORS
330
29
102
}
330
29
100
AcDbVisualStyle
  2
JitterOff
 70
    20
177
     2
291
     1
 71
     2
176
     0
 72
     2
176
     0
 73
     0
176
     0
 90
        0
176
     0
 40
0.6
176
     0
 41
30.0
176
     0
 63
     7
421
 16777215
176
     0
 74
     1
176
     0
 91
        4
176
     0
 64
     7
176
     0
 65
   257
176
     0
 75
     1
176
     0
175
     1
176
     0
 42
1.0
176
     0
 92
       10
176
     2
 66
     7
176
     0
 43
1.0
176
     0
 76
     1
176
     0
 77
     6
176
     0
 78
     2
176
     0
 67
     7
176
     0
 79
     5
176
     0
170
     0
176
     0
171
     0
176
     0
290
     0
176
     0
 93
        1
176
     0
 44
0.0
176
     0
173
     0
176
     0
1001
ACAD
1000
AcDbSavedByObjectVersion
1070
     0
  0
VISUALSTYLE
  5
37
102
{ACAD_XDICTIONARY
360
12E
102
}
102
{ACAD_REACTORS
330
29
102
}
330
29
100
AcDbVisualStyle
  2
Linepattern
 70
    14
177
     2
291
     1
 71
     2
176
     1
 72
     2
176
     1
 73
     0
176
     1
 90
        0
176
     1
 40
0.6
176
     1
 41
30.0
176
     1
 63
     7
421
 16777215
176
     1
 74
     1
176
     1
 91
        4
176
     1
 64
     7
176
     1
 65
   257
176
     1
 75
     7
176
     1
175
     7
176
     1
 42
1.0
176
     1
 92
        8
176
     1
 66
     7
176
     1
 43
1.0
176
     1
 76
     1
176
     1
 77
     6
176
     1
 78
     2
176
     1
 67
     7
176
     1
 79
     5
176
     1
170
     0
176
     1
171
     0
176
     1
290
     0
176
     1
 93
        1
176
     1
 44
0.0
176
     1
173
     0
176
     1
1001
ACAD
1000
AcDbSavedByObjectVersion
1070
     0
  0
VISUALSTYLE
  5
40
102
{ACAD_XDICTIONARY
360
140
102
}
102
{ACAD_REACTORS
330
29
102
}
330
29
100
AcDbVisualStyle
  2
OverhangOff
 70
    21
177
     2
291
     1
 71
     2
176
     0
 72
     2
176
     0
 73
     0
176
     0
 90
        0
176
     0
 40
0.6
176
     0
 41
30.0
176
     0
 63
     7
421
 16777215
176
     0
 74
     1
176
     0
 91
        4
176
     0
 64
     7
176
     0
 65
   257
176
     0
 75
     1
176
     0
175
     1
176
     0
 42
1.0
176
     0
 92
        9
176
     2
 66
     7
176
     0
 43
1.0
176
     0
 76
     1
176
     0
 77
     6
176
     0
 78
     2
176
     0
 67
     7
176
     0
 79
     5
176
     0
170
     0
176
     0
171
     0
176
     0
290
     0
176
     0
 93
        1
176
     0
 44
0.0
176
     0
173
     0
176
     0
1001
ACAD
1000
AcDbSavedByObjectVersion
1070
     0
  0
VISUALSTYLE
  5
33
102
{ACAD_XDICTIONARY
360
126
102
}
102
{ACAD_REACTORS
330
29
102
}
330
29
100
AcDbVisualStyle
  2
Realistic
 70
     8
177
     2
291
     0
 71
     2
176
     1
 72
     3
176
     1
 73
     0
176
     1
 90
        2
176
     1
 40
0.6
176
     1
 41
30.0
176
     1
 63
     7
421
 16777215
176
     1
 74
     0
176
     1
 91
        0
176
     1
 64
     7
176
     1
 65
   257
176
     1
 75
     1
176
     1
175
     1
176
     1
 42
1.0
176
     1
 92
        8
176
     1
 66
   257
176
     1
 43
1.0
176
     1
 76
     1
176
     1
 77
     6
176
     1
 78
     2
176
     1
 67
     7
176
     1
 79
     3
176
     1
170
     0
176
     1
171
     0
176
     1
290
     0
176
     1
 93
       13
176
     1
 44
0.0
176
     1
173
     0
176
     1
1001
ACAD
1000
AcDbSavedByObjectVersion
1070
     0
  0
VISUALSTYLE
  5
3E
102
{ACAD_XDICTIONARY
360
13C
102
}
102
{ACAD_REACTORS
330
29
102
}
330
29
100
AcDbVisualStyle
  2
Shaded
 70
    27
177
     2
291
     0
 71
     2
176
     1
 72
     2
176
     1
 73
     1
176
     1
 90
        2
176
     1
 40
0.6
176
     1
 41
30.0
176
     1
 63
     7
421
 16777215
176
     1
 74
     0
176
     1
 91
        4
176
     1
 64
     7
176
     1
 65
   257
176
     1
 75
     1
176
     1
175
     1
176
     1
 42
1.0
176
     1
 92
        8
176
     1
 66
   257
176
     1
 43
1.0
176
     1
 76
     1
176
     1
 77
     6
176
     1
 78
     2
176
     1
 67
     8
425
  7895160
176
     1
 79
     3
176
     1
170
     0
176
     1
171
     0
176
     1
290
     0
176
     1
 93
        5
176
     1
 44
0.0
176
     1
173
     0
176
     1
1001
ACAD
1000
AcDbSavedByObjectVersion
1070
     0
  0
VISUALSTYLE
  5
3D
102
{ACAD_XDICTIONARY
360
13A
102
}
102
{ACAD_REACTORS
330
29
102
}
330
29
100
AcDbVisualStyle
  2
Shaded with edges
 70
    26
177
     2
291
     0
 71
     2
176
     1
 72
     2
176
     1
 73
     1
176
     1
 90
        2
176
     1
 40
0.6
176
     1
 41
30.0
176
     1
 63
     7
421
 16777215
176
     1
 74
     1
176
     1
 91
        2
176
     1
 64
     7
176
     1
 65
   257
176
     1
 75
     2
176
     1
175
     1
176
     1
 42
1.0
176
     1
 92
        8
176
     1
 66
   257
176
     1
 43
1.0
176
     1
 76
     1
176
     1
 77
     6
176
     1
 78
     2
176
     1
 67
     7
176
     1
 79
     3
176
     1
170
     0
176
     1
171
     0
176
     1
290
     0
176
     1
 93
        5
176
     1
 44
0.0
176
     1
173
     0
176
     1
1001
ACAD
1000
AcDbSavedByObjectVersion
1070
     0
  0
VISUALSTYLE
  5
3A
102
{ACAD_XDICTIONARY
360
134
102
}
102
{ACAD_REACTORS
330
29
102
}
330
29
100
AcDbVisualStyle
  2
Shades of Gray
 70
    23
177
     2
291
     0
 71
     2
176
     1
 72
     2
176
     1
 73
     3
176
     1
 90
        0
176
     1
 40
0.6
176
     1
 41
30.0
176
     1
 63
     7
421
 16777215
176
     1
 74
     2
176
     1
 91
        2
176
     1
 64
     7
176
     1
 65
     7
176
     1
 75
     1
176
     1
175
     1
176
     1
 42
40.0
176
     1
 92
        8
176
     1
 66
     7
176
     1
 43
1.0
176
     1
 76
     1
176
     1
 77
     6
176
     1
 78
     2
176
     1
 67
     7
176
     1
 79
     3
176
     1
170
     0
176
     1
171
     0
176
     1
290
     0
176
     1
 93
        1
176
     1
 44
0.0
176
     1
173
     0
176
     1
1001
ACAD
1000
AcDbSavedByObjectVersion
1070
     0
  0
VISUALSTYLE
  5
3B
102
{ACAD_XDICTIONARY
360
136
102
}
102
{ACAD_REACTORS
330
29
102
}
330
29
100
AcDbVisualStyle
  2
Sketchy
 70
    24
177
     2
291
     0
 71
     1
176
     1
 72
     2
176
     1
 73
     2
176
     1
 90
        0
176
     1
 40
0.6
176
     1
 41
30.0
176
     1
 63
     7
421
 16777215
176
     1
 74
     2
176
     1
 91
        2
176
     1
 64
     7
176
     1
 65
     7
176
     1
 75
     1
176
     1
175
     1
176
     1
 42
40.0
176
     1
 92
       11
176
     1
 66
     7
176
     1
 43
1.0
176
     1
 76
     1
176
     1
 77
     6
176
     1
 78
     2
176
     1
 67
     7
176
     1
 79
     6
176
     1
170
     0
176
     1
171
     0
176
     1
290
     0
176
     1
 93
        1
176
     1
 44
0.0
176
     1
173
     0
176
     1
1001
ACAD
1000
AcDbSavedByObjectVersion
1070
     0
  0
VISUALSTYLE
  5
36
102
{ACAD_XDICTIONARY
360
12C
102
}
102
{ACAD_REACTORS
330
29
102
}
330
29
100
AcDbVisualStyle
  2
Thicken
 70
    13
177
     2
291
     1
 71
     2
176
     1
 72
     2
176
     1
 73
     0
176
     1
 90
        0
176
     1
 40
0.6
176
     1
 41
30.0
176
     1
 63
     7
421
 16777215
176
     1
 74
     1
176
     1
 91
        4
176
     1
 64
     7
176
     1
 65
   257
176
     1
 75
     1
176
     1
175
     1
176
     1
 42
1.0
176
     1
 92
       12
176
     1
 66
     7
176
     1
 43
1.0
176
     1
 76
     1
176
     1
 77
     6
176
     1
 78
     2
176
     1
 67
     7
176
     1
 79
     5
176
     1
170
     0
176
     1
171
     0
176
     1
290
     0
176
     1
 93
        1
176
     1
 44
0.0
176
     1
173
     0
176
     1
1001
ACAD
1000
AcDbSavedByObjectVersion
1070
     0
  0
VISUALSTYLE
  5
30
102
{ACAD_XDICTIONARY
360
120
102
}
102
{ACAD_REACTORS
330
29
102
}
330
29
100
AcDbVisualStyle
  2
Wireframe
 70
     5
177
     2
291
     0
 71
     0
176
     1
 72
     2
176
     1
 73
     0
176
     1
 90
        0
176
     1
 40
0.6
176
     1
 41
30.0
176
     1
 63
     7
421
 16777215
176
     1
 74
     1
176
     1
 91
        4
176
     1
 64
     7
176
     1
 65
   257
176
     1
 75
     1
176
     1
175
     1
176
     1
 42
1.0
176
     1
 92
        0
176
     1
 66
   257
176
     1
 43
1.0
176
     1
 76
     1
176
     1
 77
     6
176
     1
 78
     2
176
     1
 67
     7
176
     1
 79
     3
176
     1
170
     0
176
     1
171
     0
176
     1
290
     0
176
     1
 93
        1
176
     1
 44
0.0
176
     1
173
     0
176
     1
1001
ACAD
1000
AcDbSavedByObjectVersion
1070
     0
  0
VISUALSTYLE
  5
3C
102
{ACAD_XDICTIONARY
360
138
102
}
102
{ACAD_REACTORS
330
29
102
}
330
29
100
AcDbVisualStyle
  2
X-Ray
 70
    25
177
     2
291
     0
 71
     2
176
     1
 72
     2
176
     1
 73
     1
176
     1
 90
        1
176
     1
 40
0.5
176
     1
 41
30.0
176
     1
 63
     7
421
 16777215
176
     1
 74
     1
176
     1
 91
        0
176
     1
 64
     7
176
     1
 65
   257
176
     1
 75
     1
176
     1
175
     1
176
     1
 42
1.0
176
     1
 92
        8
176
     1
 66
     7
176
     1
 43
1.0
176
     1
 76
     1
176
     1
 77
     6
176
     1
 78
     2
176
     1
 67
     7
176
     1
 79
     3
176
     1
170
     0
176
     1
171
     0
176
     1
290
     0
176
     1
 93
       13
176
     1
 44
0.0
176
     1
173
     0
176
     1
1001
ACAD
1000
AcDbSavedByObjectVersion
1070
     0
  0
DICTIONARYVAR
  5
110
102
{ACAD_REACTORS
330
10B
102
}
330
10B
100
DictionaryVariables
280
     0
  1
1:1
  0
DICTIONARYVAR
  5
10D
102
{ACAD_REACTORS
330
10B
102
}
330
10B
100
DictionaryVariables
280
     0
  1
STANDARD
  0
DICTIONARYVAR
  5
10C
102
{ACAD_REACTORS
330
10B
102
}
330
10B
100
DictionaryVariables
280
     0
  1
STANDARD
  0
DICTIONARYVAR
  5
10E
102
{ACAD_REACTORS
330
10B
102
}
330
10B
100
DictionaryVariables
280
     0
  1
Imperial24
  0
DICTIONARYVAR
  5
10F
102
{ACAD_REACTORS
330
10B
102
}
330
10B
100
DictionaryVariables
280
     0
  1
Imperial24
  0
DICTIONARY
  5
148
330
6B
100
AcDbDictionary
280
     1
281
     1
  3
ACAD_XREC_ROUNDTRIP
360
149
  0
DICTIONARY
  5
1A
330
19
100
AcDbDictionary
280
     1
281
     1
  3
BUMPTILE
360
1C
  3
DIFFUSETILE
360
1B
  3
OPACITYTILE
360
1F
  3
REFLECTIONTILE
360
1E
  3
REFRACTIONTILE
360
20
  3
SPECULARTILE
360
1D
  0
DICTIONARY
  5
12
330
11
100
AcDbDictionary
280
     1
281
     1
  3
BUMPTILE
360
14
  3
DIFFUSETILE
360
13
  3
OPACITYTILE
360
17
  3
REFLECTIONTILE
360
16
  3
REFRACTIONTILE
360
18
  3
SPECULARTILE
360
15
  0
DICTIONARY
  5
22
330
21
100
AcDbDictionary
280
     1
281
     1
  3
BUMPTILE
360
24
  3
DIFFUSETILE
360
23
  3
OPACITYTILE
360
27
  3
REFLECTIONTILE
360
26
  3
REFRACTIONTILE
360
28
  3
SPECULARTILE
360
25
  0
DICTIONARY
  5
144
330
67
100
AcDbDictionary
280
     1
281
     1
  3
ACAD_XREC_ROUNDTRIP
360
145
  0
DICTIONARY
  5
146
330
69
100
AcDbDictionary
280
     1
281
     1
  3
ACAD_XREC_ROUNDTRIP
360
147
  0
DICTIONARY
  5
111
330
65
100
AcDbDictionary
280
     1
281
     1
  3
ACAD_ROUNDTRIP_2008_TABLESTYLE_CELLSTYLEMAP
360
112
  0
DICTIONARY
  5
11E
330
2F
100
AcDbDictionary
280
     1
281
     1
  3
ACAD_XREC_ROUNDTRIP
360
11F
  0
DICTIONARY
  5
11C
330
2E
100
AcDbDictionary
280
     1
281
     1
  3
ACAD_XREC_ROUNDTRIP
360
11D
  0
DICTIONARY
  5
12A
330
35
100
AcDbDictionary
280
     1
281
     1
  3
ACAD_XREC_ROUNDTRIP
360
12B
  0
DICTIONARY
  5
132
330
39
100
AcDbDictionary
280
     1
281
     1
  3
ACAD_XREC_ROUNDTRIP
360
133
  0
DICTIONARY
  5
124
330
32
100
AcDbDictionary
280
     1
281
     1
  3
ACAD_XREC_ROUNDTRIP
360
125
  0
DICTIONARY
  5
128
330
34
100
AcDbDictionary
280
     1
281
     1
  3
ACAD_XREC_ROUNDTRIP
360
129
  0
DICTIONARY
  5
142
330
41
100
AcDbDictionary
280
     1
281
     1
  3
ACAD_XREC_ROUNDTRIP
360
143
  0
DICTIONARY
  5
130
330
38
100
AcDbDictionary
280
     1
281
     1
  3
ACAD_XREC_ROUNDTRIP
360
131
  0
DICTIONARY
  5
114
330
2A
100
AcDbDictionary
280
     1
281
     1
  3
ACAD_XREC_ROUNDTRIP
360
115
  0
DICTIONARY
  5
116
330
2B
100
AcDbDictionary
280
     1
281
     1
  3
ACAD_XREC_ROUNDTRIP
360
117
  0
DICTIONARY
  5
118
330
2C
100
AcDbDictionary
280
     1
281
     1
  3
ACAD_XREC_ROUNDTRIP
360
119
  0
DICTIONARY
  5
11A
330
2D
100
AcDbDictionary
280
     1
281
     1
  3
ACAD_XREC_ROUNDTRIP
360
11B
  0
DICTIONARY
  5
122
330
31
100
AcDbDictionary
280
     1
281
     1
  3
ACAD_XREC_ROUNDTRIP
360
123
  0
DICTIONARY
  5
13E
330
3F
100
AcDbDictionary
280
     1
281
     1
  3
ACAD_XREC_ROUNDTRIP
360
13F
  0
DICTIONARY
  5
12E
330
37
100
AcDbDictionary
280
     1
281
     1
  3
ACAD_XREC_ROUNDTRIP
360
12F
  0
DICTIONARY
  5
140
330
40
100
AcDbDictionary
280
     1
281
     1
  3
ACAD_XREC_ROUNDTRIP
360
141
  0
DICTIONARY
  5
126
330
33
100
AcDbDictionary
280
     1
281
     1
  3
ACAD_XREC_ROUNDTRIP
360
127
  0
DICTIONARY
  5
13C
330
3E
100
AcDbDictionary
280
     1
281
     1
  3
ACAD_XREC_ROUNDTRIP
360
13D
  0
DICTIONARY
  5
13A
330
3D
100
AcDbDictionary
280
     1
281
     1
  3
ACAD_XREC_ROUNDTRIP
360
13B
  0
DICTIONARY
  5
134
330
3A
100
AcDbDictionary
280
     1
281
     1
  3
ACAD_XREC_ROUNDTRIP
360
135
  0
DICTIONARY
  5
136
330
3B
100
AcDbDictionary
280
     1
281
     1
  3
ACAD_XREC_ROUNDTRIP
360
137
  0
DICTIONARY
  5
12C
330
36
100
AcDbDictionary
280
     1
281
     1
  3
ACAD_XREC_ROUNDTRIP
360
12D
  0
DICTIONARY
  5
120
330
30
100
AcDbDictionary
280
     1
281
     1
  3
ACAD_XREC_ROUNDTRIP
360
121
  0
DICTIONARY
  5
138
330
3C
100
AcDbDictionary
280
     1
281
     1
  3
ACAD_XREC_ROUNDTRIP
360
139
  0
XRECORD
  5
149
102
{ACAD_REACTORS
330
148
102
}
330
148
100
AcDbXrecord
280
     1
102
DISPLAYNAME
  1
Imperial24
102
FLAGS
 90
        0
  0
XRECORD
  5
1C
102
{ACAD_REACTORS
330
1A
102
}
330
1A
100
AcDbXrecord
280
     1
270
     1
271
     1
  0
XRECORD
  5
1B
102
{ACAD_REACTORS
330
1A
102
}
330
1A
100
AcDbXrecord
280
     1
270
     1
271
     1
  0
XRECORD
  5
1F
102
{ACAD_REACTORS
330
1A
102
}
330
1A
100
AcDbXrecord
280
     1
270
     1
271
     1
  0
XRECORD
  5
1E
102
{ACAD_REACTORS
330
1A
102
}
330
1A
100
AcDbXrecord
280
     1
270
     1
271
     1
  0
XRECORD
  5
20
102
{ACAD_REACTORS
330
1A
102
}
330
1A
100
AcDbXrecord
280
     1
270
     1
271
     1
  0
XRECORD
  5
1D
102
{ACAD_REACTORS
330
1A
102
}
330
1A
100
AcDbXrecord
280
     1
270
     1
271
     1
  0
XRECORD
  5
14
102
{ACAD_REACTORS
330
12
102
}
330
12
100
AcDbXrecord
280
     1
270
     1
271
     1
  0
XRECORD
  5
13
102
{ACAD_REACTORS
330
12
102
}
330
12
100
AcDbXrecord
280
     1
270
     1
271
     1
  0
XRECORD
  5
17
102
{ACAD_REACTORS
330
12
102
}
330
12
100
AcDbXrecord
280
     1
270
     1
271
     1
  0
XRECORD
  5
16
102
{ACAD_REACTORS
330
12
102
}
330
12
100
AcDbXrecord
280
     1
270
     1
271
     1
  0
XRECORD
  5
18
102
{ACAD_REACTORS
330
12
102
}
330
12
100
AcDbXrecord
280
     1
270
     1
271
     1
  0
XRECORD
  5
15
102
{ACAD_REACTORS
330
12
102
}
330
12
100
AcDbXrecord
280
     1
270
     1
271
     1
  0
XRECORD
  5
24
102
{ACAD_REACTORS
330
22
102
}
330
22
100
AcDbXrecord
280
     1
270
     1
271
     1
  0
XRECORD
  5
23
102
{ACAD_REACTORS
330
22
102
}
330
22
100
AcDbXrecord
280
     1
270
     1
271
     1
  0
XRECORD
  5
27
102
{ACAD_REACTORS
330
22
102
}
330
22
100
AcDbXrecord
280
     1
270
     1
271
     1
  0
XRECORD
  5
26
102
{ACAD_REACTORS
330
22
102
}
330
22
100
AcDbXrecord
280
     1
270
     1
271
     1
  0
XRECORD
  5
28
102
{ACAD_REACTORS
330
22
102
}
330
22
100
AcDbXrecord
280
     1
270
     1
271
     1
  0
XRECORD
  5
25
102
{ACAD_REACTORS
330
22
102
}
330
22
100
AcDbXrecord
280
     1
270
     1
271
     1
  0
XRECORD
  5
145
102
{ACAD_REACTORS
330
144
102
}
330
144
100
AcDbXrecord
280
     1
102
ACAD_ROUNDTRIP_2012_MLEADER_STYLE
298
     1
  0
XRECORD
  5
147
102
{ACAD_REACTORS
330
146
102
}
330
146
100
AcDbXrecord
280
     1
102
DISPLAYNAME
  1
Imperial24
102
FLAGS
 90
        0
  0
CELLSTYLEMAP
  5
112
102
{ACAD_REACTORS
330
111
102
}
330
111
100
AcDbCellStyleMap
 90
        3
300
CELLSTYLE
  1
TABLEFORMAT_BEGIN
 90
        5
170
     1
 91
        0
 92
    32768
 62
   257
 93
        1
300
CONTENTFORMAT
  1
CONTENTFORMAT_BEGIN
 90
        0
 91
        0
 92
      512
 93
        0
300

 40
0.0
140
1.0
 94
        5
 62
     0
340
55
144
0.25
309
CONTENTFORMAT_END
171
     0
 94
        0
309
TABLEFORMAT_END
  1
CELLSTYLE_BEGIN
 90
        1
 91
        1
300
_TITLE
309
CELLSTYLE_END
300
CELLSTYLE
  1
TABLEFORMAT_BEGIN
 90
        5
170
     1
 91
        0
 92
        0
 62
   257
 93
        1
300
CONTENTFORMAT
  1
CONTENTFORMAT_BEGIN
 90
        0
 91
        0
 92
      512
 93
        0
300

 40
0.0
140
1.0
 94
        5
 62
     0
340
55
144
0.18
309
CONTENTFORMAT_END
171
     0
 94
        0
309
TABLEFORMAT_END
  1
CELLSTYLE_BEGIN
 90
        2
 91
        1
300
_HEADER
309
CELLSTYLE_END
300
CELLSTYLE
  1
TABLEFORMAT_BEGIN
 90
        5
170
     1
 91
        0
 92
        0
 62
   257
 93
        1
300
CONTENTFORMAT
  1
CONTENTFORMAT_BEGIN
 90
        0
 91
        0
 92
      512
 93
        0
300

 40
0.0
140
1.0
 94
        2
 62
     0
340
55
144
0.18
309
CONTENTFORMAT_END
171
     0
 94
        0
309
TABLEFORMAT_END
  1
CELLSTYLE_BEGIN
 90
        3
 91
        2
300
_DATA
309
CELLSTYLE_END
  0
XRECORD
  5
11F
102
{ACAD_REACTORS
330
11E
102
}
330
11E
100
AcDbXrecord
280
     1
102
RTVSPost2010Prop28
280
     1
102
RTVSPost2010PropOp28
 70
     1
102
RTVSPost2010Prop29
280
     1
102
RTVSPost2010PropOp29
 70
     1
102
RTVSPost2010Prop30
280
     0
102
RTVSPost2010PropOp30
 70
     1
102
RTVSPost2010Prop31
280
     0
102
RTVSPost2010PropOp31
 70
     1
102
RTVSPost2010Prop32
280
     0
102
RTVSPost2010PropOp32
 70
     1
102
RTVSPost2010Prop33
280
     0
102
RTVSPost2010PropOp33
 70
     1
102
RTVSPost2010Prop34
280
     0
102
RTVSPost2010PropOp34
 70
     1
102
RTVSPost2010Prop35
280
     0
102
RTVSPost2010PropOp35
 70
     1
102
RTVSPost2010Prop36
280
     0
102
RTVSPost2010PropOp36
 70
     1
102
RTVSPost2010Prop37
 90
       50
102
RTVSPost2010PropOp37
 70
     1
102
RTVSPost2010Prop38
140
0.0
102
RTVSPost2010PropOp38
 70
     1
102
RTVSPost2010Prop39
140
1.0
102
RTVSPost2010PropOp39
 70
     1
102
RTVSPost2010Prop40
 90
        0
102
RTVSPost2010PropOp40
 70
     1
102
RTVSPost2010Prop41ColorIndex
 90
       18
102
RTVSPost2010Prop41ColorRGB
 90
        0
102
RTVSPost2010PropOp41
 70
     1
102
RTVSPost2010Prop42
 90
       50
102
RTVSPost2010PropOp42
 70
     1
102
RTVSPost2010Prop43
 90
        3
102
RTVSPost2010PropOp43
 70
     1
102
RTVSPost2010Prop44ColorIndex
 90
        5
102
RTVSPost2010Prop44ColorRGB
 90
      255
102
RTVSPost2010PropOp44
 70
     1
102
RTVSPost2010Prop45
280
     0
102
RTVSPost2010PropOp45
 70
     1
102
RTVSPost2010Prop46
 90
       50
102
RTVSPost2010PropOp46
 70
     1
102
RTVSPost2010Prop47
 90
       50
102
RTVSPost2010PropOp47
 70
     1
102
RTVSPost2010Prop48
 90
       50
102
RTVSPost2010PropOp48
 70
     1
102
RTVSPost2010Prop49
280
     0
102
RTVSPost2010PropOp49
 70
     1
102
RTVSPost2010Prop50
 90
       50
102
RTVSPost2010PropOp50
 70
     1
102
RTVSPost2010Prop51ColorIndex
 90
      256
102
RTVSPost2010Prop51ColorRGB
 90
-16777216
102
RTVSPost2010PropOp51
 70
     0
102
RTVSPost2010Prop52
140
1.0
102
RTVSPost2010PropOp52
 70
     0
102
RTVSPost2010Prop53
 90
        2
102
RTVSPost2010PropOp53
 70
     1
102
RTVSPost2010Prop54
  1
strokes_ogs.tif
102
RTVSPost2010PropOp54
 70
     1
102
RTVSPost2010Prop55
280
     0
102
RTVSPost2010PropOp55
 70
     1
102
RTVSPost2010Prop56
140
1.0
102
RTVSPost2010PropOp56
 70
     1
102
RTVSPost2010Prop57
140
1.0
102
RTVSPost2010PropOp57
 70
     1
  0
XRECORD
  5
11D
102
{ACAD_REACTORS
330
11C
102
}
330
11C
100
AcDbXrecord
280
     1
102
RTVSPost2010Prop28
280
     0
102
RTVSPost2010PropOp28
 70
     1
102
RTVSPost2010Prop29
280
     1
102
RTVSPost2010PropOp29
 70
     1
102
RTVSPost2010Prop30
280
     1
102
RTVSPost2010PropOp30
 70
     1
102
RTVSPost2010Prop31
280
     0
102
RTVSPost2010PropOp31
 70
     1
102
RTVSPost2010Prop32
280
     0
102
RTVSPost2010PropOp32
 70
     1
102
RTVSPost2010Prop33
280
     0
102
RTVSPost2010PropOp33
 70
     1
102
RTVSPost2010Prop34
280
     0
102
RTVSPost2010PropOp34
 70
     1
102
RTVSPost2010Prop35
280
     0
102
RTVSPost2010PropOp35
 70
     1
102
RTVSPost2010Prop36
280
     0
102
RTVSPost2010PropOp36
 70
     1
102
RTVSPost2010Prop37
 90
       50
102
RTVSPost2010PropOp37
 70
     1
102
RTVSPost2010Prop38
140
0.0
102
RTVSPost2010PropOp38
 70
     1
102
RTVSPost2010Prop39
140
1.0
102
RTVSPost2010PropOp39
 70
     1
102
RTVSPost2010Prop40
 90
        0
102
RTVSPost2010PropOp40
 70
     1
102
RTVSPost2010Prop41ColorIndex
 90
       18
102
RTVSPost2010Prop41ColorRGB
 90
        0
102
RTVSPost2010PropOp41
 70
     1
102
RTVSPost2010Prop42
 90
       50
102
RTVSPost2010PropOp42
 70
     1
102
RTVSPost2010Prop43
 90
        3
102
RTVSPost2010PropOp43
 70
     1
102
RTVSPost2010Prop44ColorIndex
 90
        5
102
RTVSPost2010Prop44ColorRGB
 90
      255
102
RTVSPost2010PropOp44
 70
     1
102
RTVSPost2010Prop45
280
     0
102
RTVSPost2010PropOp45
 70
     1
102
RTVSPost2010Prop46
 90
       50
102
RTVSPost2010PropOp46
 70
     1
102
RTVSPost2010Prop47
 90
       50
102
RTVSPost2010PropOp47
 70
     1
102
RTVSPost2010Prop48
 90
       50
102
RTVSPost2010PropOp48
 70
     1
102
RTVSPost2010Prop49
280
     0
102
RTVSPost2010PropOp49
 70
     1
102
RTVSPost2010Prop50
 90
       50
102
RTVSPost2010PropOp50
 70
     1
102
RTVSPost2010Prop51ColorIndex
 90
      256
102
RTVSPost2010Prop51ColorRGB
 90
-16777216
102
RTVSPost2010PropOp51
 70
     0
102
RTVSPost2010Prop52
140
1.0
102
RTVSPost2010PropOp52
 70
     0
102
RTVSPost2010Prop53
 90
        2
102
RTVSPost2010PropOp53
 70
     1
102
RTVSPost2010Prop54
  1
strokes_ogs.tif
102
RTVSPost2010PropOp54
 70
     1
102
RTVSPost2010Prop55
280
     0
102
RTVSPost2010PropOp55
 70
     1
102
RTVSPost2010Prop56
140
1.0
102
RTVSPost2010PropOp56
 70
     1
102
RTVSPost2010Prop57
140
1.0
102
RTVSPost2010PropOp57
 70
     1
  0
XRECORD
  5
12B
102
{ACAD_REACTORS
330
12A
102
}
330
12A
100
AcDbXrecord
280
     1
102
RTVSPost2010Prop28
280
     0
102
RTVSPost2010PropOp28
 70
     1
102
RTVSPost2010Prop29
280
     1
102
RTVSPost2010PropOp29
 70
     1
102
RTVSPost2010Prop30
280
     1
102
RTVSPost2010PropOp30
 70
     1
102
RTVSPost2010Prop31
280
     0
102
RTVSPost2010PropOp31
 70
     1
102
RTVSPost2010Prop32
280
     0
102
RTVSPost2010PropOp32
 70
     1
102
RTVSPost2010Prop33
280
     0
102
RTVSPost2010PropOp33
 70
     1
102
RTVSPost2010Prop34
280
     0
102
RTVSPost2010PropOp34
 70
     1
102
RTVSPost2010Prop35
280
     0
102
RTVSPost2010PropOp35
 70
     1
102
RTVSPost2010Prop36
280
     0
102
RTVSPost2010PropOp36
 70
     1
102
RTVSPost2010Prop37
 90
       50
102
RTVSPost2010PropOp37
 70
     1
102
RTVSPost2010Prop38
140
0.0
102
RTVSPost2010PropOp38
 70
     1
102
RTVSPost2010Prop39
140
1.0
102
RTVSPost2010PropOp39
 70
     1
102
RTVSPost2010Prop40
 90
        0
102
RTVSPost2010PropOp40
 70
     1
102
RTVSPost2010Prop41ColorIndex
 90
       18
102
RTVSPost2010Prop41ColorRGB
 90
        0
102
RTVSPost2010PropOp41
 70
     1
102
RTVSPost2010Prop42
 90
       50
102
RTVSPost2010PropOp42
 70
     1
102
RTVSPost2010Prop43
 90
        3
102
RTVSPost2010PropOp43
 70
     1
102
RTVSPost2010Prop44ColorIndex
 90
        5
102
RTVSPost2010Prop44ColorRGB
 90
      255
102
RTVSPost2010PropOp44
 70
     1
102
RTVSPost2010Prop45
280
     0
102
RTVSPost2010PropOp45
 70
     1
102
RTVSPost2010Prop46
 90
       50
102
RTVSPost2010PropOp46
 70
     1
102
RTVSPost2010Prop47
 90
       50
102
RTVSPost2010PropOp47
 70
     1
102
RTVSPost2010Prop48
 90
       50
102
RTVSPost2010PropOp48
 70
     1
102
RTVSPost2010Prop49
280
     0
102
RTVSPost2010PropOp49
 70
     1
102
RTVSPost2010Prop50
 90
       50
102
RTVSPost2010PropOp50
 70
     1
102
RTVSPost2010Prop51ColorIndex
 90
      256
102
RTVSPost2010Prop51ColorRGB
 90
-16777216
102
RTVSPost2010PropOp51
 70
     0
102
RTVSPost2010Prop52
140
1.0
102
RTVSPost2010PropOp52
 70
     0
102
RTVSPost2010Prop53
 90
        2
102
RTVSPost2010PropOp53
 70
     1
102
RTVSPost2010Prop54
  1
strokes_ogs.tif
102
RTVSPost2010PropOp54
 70
     1
102
RTVSPost2010Prop55
280
     0
102
RTVSPost2010PropOp55
 70
     1
102
RTVSPost2010Prop56
140
1.0
102
RTVSPost2010PropOp56
 70
     1
102
RTVSPost2010Prop57
140
1.0
102
RTVSPost2010PropOp57
 70
     1
  0
XRECORD
  5
133
102
{ACAD_REACTORS
330
132
102
}
330
132
100
AcDbXrecord
280
     1
102
RTVSPost2010Prop28
280
     0
102
RTVSPost2010PropOp28
 70
     1
102
RTVSPost2010Prop29
280
     1
102
RTVSPost2010PropOp29
 70
     1
102
RTVSPost2010Prop30
280
     1
102
RTVSPost2010PropOp30
 70
     1
102
RTVSPost2010Prop31
280
     0
102
RTVSPost2010PropOp31
 70
     1
102
RTVSPost2010Prop32
280
     0
102
RTVSPost2010PropOp32
 70
     1
102
RTVSPost2010Prop33
280
     0
102
RTVSPost2010PropOp33
 70
     1
102
RTVSPost2010Prop34
280
     0
102
RTVSPost2010PropOp34
 70
     1
102
RTVSPost2010Prop35
280
     0
102
RTVSPost2010PropOp35
 70
     1
102
RTVSPost2010Prop36
280
     0
102
RTVSPost2010PropOp36
 70
     1
102
RTVSPost2010Prop37
 90
       50
102
RTVSPost2010PropOp37
 70
     1
102
RTVSPost2010Prop38
140
0.0
102
RTVSPost2010PropOp38
 70
     1
102
RTVSPost2010Prop39
140
1.0
102
RTVSPost2010PropOp39
 70
     1
102
RTVSPost2010Prop40
 90
        0
102
RTVSPost2010PropOp40
 70
     1
102
RTVSPost2010Prop41ColorIndex
 90
       18
102
RTVSPost2010Prop41ColorRGB
 90
        0
102
RTVSPost2010PropOp41
 70
     1
102
RTVSPost2010Prop42
 90
       50
102
RTVSPost2010PropOp42
 70
     1
102
RTVSPost2010Prop43
 90
        3
102
RTVSPost2010PropOp43
 70
     1
102
RTVSPost2010Prop44ColorIndex
 90
        5
102
RTVSPost2010Prop44ColorRGB
 90
      255
102
RTVSPost2010PropOp44
 70
     1
102
RTVSPost2010Prop45
280
     0
102
RTVSPost2010PropOp45
 70
     1
102
RTVSPost2010Prop46
 90
       50
102
RTVSPost2010PropOp46
 70
     1
102
RTVSPost2010Prop47
 90
       50
102
RTVSPost2010PropOp47
 70
     1
102
RTVSPost2010Prop48
 90
       50
102
RTVSPost2010PropOp48
 70
     1
102
RTVSPost2010Prop49
280
     0
102
RTVSPost2010PropOp49
 70
     1
102
RTVSPost2010Prop50
 90
       50
102
RTVSPost2010PropOp50
 70
     1
102
RTVSPost2010Prop51ColorIndex
 90
      256
102
RTVSPost2010Prop51ColorRGB
 90
-16777216
102
RTVSPost2010PropOp51
 70
     0
102
RTVSPost2010Prop52
140
1.0
102
RTVSPost2010PropOp52
 70
     0
102
RTVSPost2010Prop53
 90
        2
102
RTVSPost2010PropOp53
 70
     1
102
RTVSPost2010Prop54
  1
strokes_ogs.tif
102
RTVSPost2010PropOp54
 70
     1
102
RTVSPost2010Prop55
280
     0
102
RTVSPost2010PropOp55
 70
     1
102
RTVSPost2010Prop56
140
1.0
102
RTVSPost2010PropOp56
 70
     1
102
RTVSPost2010Prop57
140
1.0
102
RTVSPost2010PropOp57
 70
     1
  0
XRECORD
  5
125
102
{ACAD_REACTORS
330
124
102
}
330
124
100
AcDbXrecord
280
     1
102
RTVSPost2010Prop28
280
     0
102
RTVSPost2010PropOp28
 70
     1
102
RTVSPost2010Prop29
280
     1
102
RTVSPost2010PropOp29
 70
     1
102
RTVSPost2010Prop30
280
     1
102
RTVSPost2010PropOp30
 70
     1
102
RTVSPost2010Prop31
280
     0
102
RTVSPost2010PropOp31
 70
     1
102
RTVSPost2010Prop32
280
     0
102
RTVSPost2010PropOp32
 70
     1
102
RTVSPost2010Prop33
280
     0
102
RTVSPost2010PropOp33
 70
     1
102
RTVSPost2010Prop34
280
     0
102
RTVSPost2010PropOp34
 70
     1
102
RTVSPost2010Prop35
280
     0
102
RTVSPost2010PropOp35
 70
     1
102
RTVSPost2010Prop36
280
     0
102
RTVSPost2010PropOp36
 70
     1
102
RTVSPost2010Prop37
 90
       50
102
RTVSPost2010PropOp37
 70
     1
102
RTVSPost2010Prop38
140
0.0
102
RTVSPost2010PropOp38
 70
     1
102
RTVSPost2010Prop39
140
1.0
102
RTVSPost2010PropOp39
 70
     1
102
RTVSPost2010Prop40
 90
        0
102
RTVSPost2010PropOp40
 70
     1
102
RTVSPost2010Prop41ColorIndex
 90
       18
102
RTVSPost2010Prop41ColorRGB
 90
        0
102
RTVSPost2010PropOp41
 70
     1
102
RTVSPost2010Prop42
 90
       50
102
RTVSPost2010PropOp42
 70
     1
102
RTVSPost2010Prop43
 90
        3
102
RTVSPost2010PropOp43
 70
     1
102
RTVSPost2010Prop44ColorIndex
 90
        5
102
RTVSPost2010Prop44ColorRGB
 90
      255
102
RTVSPost2010PropOp44
 70
     1
102
RTVSPost2010Prop45
280
     0
102
RTVSPost2010PropOp45
 70
     1
102
RTVSPost2010Prop46
 90
       50
102
RTVSPost2010PropOp46
 70
     1
102
RTVSPost2010Prop47
 90
       50
102
RTVSPost2010PropOp47
 70
     1
102
RTVSPost2010Prop48
 90
       50
102
RTVSPost2010PropOp48
 70
     1
102
RTVSPost2010Prop49
280
     0
102
RTVSPost2010PropOp49
 70
     1
102
RTVSPost2010Prop50
 90
       50
102
RTVSPost2010PropOp50
 70
     1
102
RTVSPost2010Prop51ColorIndex
 90
      256
102
RTVSPost2010Prop51ColorRGB
 90
-16777216
102
RTVSPost2010PropOp51
 70
     0
102
RTVSPost2010Prop52
140
1.0
102
RTVSPost2010PropOp52
 70
     0
102
RTVSPost2010Prop53
 90
        2
102
RTVSPost2010PropOp53
 70
     1
102
RTVSPost2010Prop54
  1
strokes_ogs.tif
102
RTVSPost2010PropOp54
 70
     1
102
RTVSPost2010Prop55
280
     0
102
RTVSPost2010PropOp55
 70
     1
102
RTVSPost2010Prop56
140
1.0
102
RTVSPost2010PropOp56
 70
     1
102
RTVSPost2010Prop57
140
1.0
102
RTVSPost2010PropOp57
 70
     1
  0
XRECORD
  5
129
102
{ACAD_REACTORS
330
128
102
}
330
128
100
AcDbXrecord
280
     1
102
RTVSPost2010Prop28
280
     0
102
RTVSPost2010PropOp28
 70
     1
102
RTVSPost2010Prop29
280
     1
102
RTVSPost2010PropOp29
 70
     1
102
RTVSPost2010Prop30
280
     1
102
RTVSPost2010PropOp30
 70
     1
102
RTVSPost2010Prop31
280
     0
102
RTVSPost2010PropOp31
 70
     1
102
RTVSPost2010Prop32
280
     0
102
RTVSPost2010PropOp32
 70
     1
102
RTVSPost2010Prop33
280
     0
102
RTVSPost2010PropOp33
 70
     1
102
RTVSPost2010Prop34
280
     0
102
RTVSPost2010PropOp34
 70
     1
102
RTVSPost2010Prop35
280
     0
102
RTVSPost2010PropOp35
 70
     1
102
RTVSPost2010Prop36
280
     0
102
RTVSPost2010PropOp36
 70
     1
102
RTVSPost2010Prop37
 90
       50
102
RTVSPost2010PropOp37
 70
     1
102
RTVSPost2010Prop38
140
0.0
102
RTVSPost2010PropOp38
 70
     1
102
RTVSPost2010Prop39
140
1.0
102
RTVSPost2010PropOp39
 70
     1
102
RTVSPost2010Prop40
 90
        0
102
RTVSPost2010PropOp40
 70
     1
102
RTVSPost2010Prop41ColorIndex
 90
       18
102
RTVSPost2010Prop41ColorRGB
 90
        0
102
RTVSPost2010PropOp41
 70
     1
102
RTVSPost2010Prop42
 90
       50
102
RTVSPost2010PropOp42
 70
     1
102
RTVSPost2010Prop43
 90
        3
102
RTVSPost2010PropOp43
 70
     1
102
RTVSPost2010Prop44ColorIndex
 90
        5
102
RTVSPost2010Prop44ColorRGB
 90
      255
102
RTVSPost2010PropOp44
 70
     1
102
RTVSPost2010Prop45
280
     0
102
RTVSPost2010PropOp45
 70
     1
102
RTVSPost2010Prop46
 90
       50
102
RTVSPost2010PropOp46
 70
     1
102
RTVSPost2010Prop47
 90
       50
102
RTVSPost2010PropOp47
 70
     1
102
RTVSPost2010Prop48
 90
       50
102
RTVSPost2010PropOp48
 70
     1
102
RTVSPost2010Prop49
280
     0
102
RTVSPost2010PropOp49
 70
     1
102
RTVSPost2010Prop50
 90
       50
102
RTVSPost2010PropOp50
 70
     1
102
RTVSPost2010Prop51ColorIndex
 90
      256
102
RTVSPost2010Prop51ColorRGB
 90
-16777216
102
RTVSPost2010PropOp51
 70
     0
102
RTVSPost2010Prop52
140
1.0
102
RTVSPost2010PropOp52
 70
     0
102
RTVSPost2010Prop53
 90
        2
102
RTVSPost2010PropOp53
 70
     1
102
RTVSPost2010Prop54
  1
strokes_ogs.tif
102
RTVSPost2010PropOp54
 70
     1
102
RTVSPost2010Prop55
280
     0
102
RTVSPost2010PropOp55
 70
     1
102
RTVSPost2010Prop56
140
1.0
102
RTVSPost2010PropOp56
 70
     1
102
RTVSPost2010Prop57
140
1.0
102
RTVSPost2010PropOp57
 70
     1
  0
XRECORD
  5
143
102
{ACAD_REACTORS
330
142
102
}
330
142
100
AcDbXrecord
280
     1
102
RTVSPost2010Prop28
280
     0
102
RTVSPost2010PropOp28
 70
     0
102
RTVSPost2010Prop29
280
     1
102
RTVSPost2010PropOp29
 70
     0
102
RTVSPost2010Prop30
280
     1
102
RTVSPost2010PropOp30
 70
     0
102
RTVSPost2010Prop31
280
     0
102
RTVSPost2010PropOp31
 70
     0
102
RTVSPost2010Prop32
280
     0
102
RTVSPost2010PropOp32
 70
     0
102
RTVSPost2010Prop33
280
     0
102
RTVSPost2010PropOp33
 70
     0
102
RTVSPost2010Prop34
280
     0
102
RTVSPost2010PropOp34
 70
     0
102
RTVSPost2010Prop35
280
     0
102
RTVSPost2010PropOp35
 70
     0
102
RTVSPost2010Prop36
280
     0
102
RTVSPost2010PropOp36
 70
     0
102
RTVSPost2010Prop37
 90
       50
102
RTVSPost2010PropOp37
 70
     0
102
RTVSPost2010Prop38
140
0.0
102
RTVSPost2010PropOp38
 70
     0
102
RTVSPost2010Prop39
140
1.0
102
RTVSPost2010PropOp39
 70
     0
102
RTVSPost2010Prop40
 90
        0
102
RTVSPost2010PropOp40
 70
     0
102
RTVSPost2010Prop41ColorIndex
 90
       18
102
RTVSPost2010Prop41ColorRGB
 90
        0
102
RTVSPost2010PropOp41
 70
     0
102
RTVSPost2010Prop42
 90
       50
102
RTVSPost2010PropOp42
 70
     0
102
RTVSPost2010Prop43
 90
        3
102
RTVSPost2010PropOp43
 70
     0
102
RTVSPost2010Prop44ColorIndex
 90
        5
102
RTVSPost2010Prop44ColorRGB
 90
      255
102
RTVSPost2010PropOp44
 70
     0
102
RTVSPost2010Prop45
280
     0
102
RTVSPost2010PropOp45
 70
     0
102
RTVSPost2010Prop46
 90
       50
102
RTVSPost2010PropOp46
 70
     0
102
RTVSPost2010Prop47
 90
       50
102
RTVSPost2010PropOp47
 70
     0
102
RTVSPost2010Prop48
 90
       50
102
RTVSPost2010PropOp48
 70
     0
102
RTVSPost2010Prop49
280
     0
102
RTVSPost2010PropOp49
 70
     0
102
RTVSPost2010Prop50
 90
       50
102
RTVSPost2010PropOp50
 70
     0
102
RTVSPost2010Prop51ColorIndex
 90
      256
102
RTVSPost2010Prop51ColorRGB
 90
-16777216
102
RTVSPost2010PropOp51
 70
     0
102
RTVSPost2010Prop52
140
1.0
102
RTVSPost2010PropOp52
 70
     0
102
RTVSPost2010Prop53
 90
        2
102
RTVSPost2010PropOp53
 70
     0
102
RTVSPost2010Prop54
  1
strokes_ogs.tif
102
RTVSPost2010PropOp54
 70
     0
102
RTVSPost2010Prop55
280
     0
102
RTVSPost2010PropOp55
 70
     0
102
RTVSPost2010Prop56
140
1.0
102
RTVSPost2010PropOp56
 70
     0
102
RTVSPost2010Prop57
140
1.0
102
RTVSPost2010PropOp57
 70
     0
  0
XRECORD
  5
131
102
{ACAD_REACTORS
330
130
102
}
330
130
100
AcDbXrecord
280
     1
102
RTVSPost2010Prop28
280
     0
102
RTVSPost2010PropOp28
 70
     1
102
RTVSPost2010Prop29
280
     1
102
RTVSPost2010PropOp29
 70
     1
102
RTVSPost2010Prop30
280
     1
102
RTVSPost2010PropOp30
 70
     1
102
RTVSPost2010Prop31
280
     0
102
RTVSPost2010PropOp31
 70
     1
102
RTVSPost2010Prop32
280
     0
102
RTVSPost2010PropOp32
 70
     1
102
RTVSPost2010Prop33
280
     0
102
RTVSPost2010PropOp33
 70
     1
102
RTVSPost2010Prop34
280
     0
102
RTVSPost2010PropOp34
 70
     1
102
RTVSPost2010Prop35
280
     0
102
RTVSPost2010PropOp35
 70
     1
102
RTVSPost2010Prop36
280
     0
102
RTVSPost2010PropOp36
 70
     1
102
RTVSPost2010Prop37
 90
       50
102
RTVSPost2010PropOp37
 70
     1
102
RTVSPost2010Prop38
140
0.0
102
RTVSPost2010PropOp38
 70
     1
102
RTVSPost2010Prop39
140
1.0
102
RTVSPost2010PropOp39
 70
     1
102
RTVSPost2010Prop40
 90
        0
102
RTVSPost2010PropOp40
 70
     1
102
RTVSPost2010Prop41ColorIndex
 90
       18
102
RTVSPost2010Prop41ColorRGB
 90
        0
102
RTVSPost2010PropOp41
 70
     1
102
RTVSPost2010Prop42
 90
       50
102
RTVSPost2010PropOp42
 70
     1
102
RTVSPost2010Prop43
 90
        3
102
RTVSPost2010PropOp43
 70
     1
102
RTVSPost2010Prop44ColorIndex
 90
        5
102
RTVSPost2010Prop44ColorRGB
 90
      255
102
RTVSPost2010PropOp44
 70
     1
102
RTVSPost2010Prop45
280
     0
102
RTVSPost2010PropOp45
 70
     1
102
RTVSPost2010Prop46
 90
       50
102
RTVSPost2010PropOp46
 70
     1
102
RTVSPost2010Prop47
 90
       50
102
RTVSPost2010PropOp47
 70
     1
102
RTVSPost2010Prop48
 90
       50
102
RTVSPost2010PropOp48
 70
     1
102
RTVSPost2010Prop49
280
     0
102
RTVSPost2010PropOp49
 70
     1
102
RTVSPost2010Prop50
 90
       50
102
RTVSPost2010PropOp50
 70
     1
102
RTVSPost2010Prop51ColorIndex
 90
      256
102
RTVSPost2010Prop51ColorRGB
 90
-16777216
102
RTVSPost2010PropOp51
 70
     0
102
RTVSPost2010Prop52
140
1.0
102
RTVSPost2010PropOp52
 70
     0
102
RTVSPost2010Prop53
 90
        2
102
RTVSPost2010PropOp53
 70
     1
102
RTVSPost2010Prop54
  1
strokes_ogs.tif
102
RTVSPost2010PropOp54
 70
     1
102
RTVSPost2010Prop55
280
     0
102
RTVSPost2010PropOp55
 70
     1
102
RTVSPost2010Prop56
140
1.0
102
RTVSPost2010PropOp56
 70
     1
102
RTVSPost2010Prop57
140
1.0
102
RTVSPost2010PropOp57
 70
     1
  0
XRECORD
  5
115
102
{ACAD_REACTORS
330
114
102
}
330
114
100
AcDbXrecord
280
     1
102
RTVSPost2010Prop28
280
     0
102
RTVSPost2010PropOp28
 70
     1
102
RTVSPost2010Prop29
280
     1
102
RTVSPost2010PropOp29
 70
     1
102
RTVSPost2010Prop30
280
     1
102
RTVSPost2010PropOp30
 70
     1
102
RTVSPost2010Prop31
280
     0
102
RTVSPost2010PropOp31
 70
     1
102
RTVSPost2010Prop32
280
     0
102
RTVSPost2010PropOp32
 70
     1
102
RTVSPost2010Prop33
280
     0
102
RTVSPost2010PropOp33
 70
     1
102
RTVSPost2010Prop34
280
     0
102
RTVSPost2010PropOp34
 70
     1
102
RTVSPost2010Prop35
280
     0
102
RTVSPost2010PropOp35
 70
     1
102
RTVSPost2010Prop36
280
     0
102
RTVSPost2010PropOp36
 70
     1
102
RTVSPost2010Prop37
 90
       50
102
RTVSPost2010PropOp37
 70
     1
102
RTVSPost2010Prop38
140
0.0
102
RTVSPost2010PropOp38
 70
     1
102
RTVSPost2010Prop39
140
1.0
102
RTVSPost2010PropOp39
 70
     1
102
RTVSPost2010Prop40
 90
        0
102
RTVSPost2010PropOp40
 70
     1
102
RTVSPost2010Prop41ColorIndex
 90
       18
102
RTVSPost2010Prop41ColorRGB
 90
        0
102
RTVSPost2010PropOp41
 70
     1
102
RTVSPost2010Prop42
 90
       50
102
RTVSPost2010PropOp42
 70
     1
102
RTVSPost2010Prop43
 90
        3
102
RTVSPost2010PropOp43
 70
     1
102
RTVSPost2010Prop44ColorIndex
 90
        5
102
RTVSPost2010Prop44ColorRGB
 90
      255
102
RTVSPost2010PropOp44
 70
     1
102
RTVSPost2010Prop45
280
     0
102
RTVSPost2010PropOp45
 70
     1
102
RTVSPost2010Prop46
 90
       50
102
RTVSPost2010PropOp46
 70
     1
102
RTVSPost2010Prop47
 90
       50
102
RTVSPost2010PropOp47
 70
     1
102
RTVSPost2010Prop48
 90
       50
102
RTVSPost2010PropOp48
 70
     1
102
RTVSPost2010Prop49
280
     0
102
RTVSPost2010PropOp49
 70
     1
102
RTVSPost2010Prop50
 90
       50
102
RTVSPost2010PropOp50
 70
     1
102
RTVSPost2010Prop51ColorIndex
 90
      256
102
RTVSPost2010Prop51ColorRGB
 90
-16777216
102
RTVSPost2010PropOp51
 70
     0
102
RTVSPost2010Prop52
140
1.0
102
RTVSPost2010PropOp52
 70
     0
102
RTVSPost2010Prop53
 90
        2
102
RTVSPost2010PropOp53
 70
     1
102
RTVSPost2010Prop54
  1
strokes_ogs.tif
102
RTVSPost2010PropOp54
 70
     1
102
RTVSPost2010Prop55
280
     0
102
RTVSPost2010PropOp55
 70
     1
102
RTVSPost2010Prop56
140
1.0
102
RTVSPost2010PropOp56
 70
     1
102
RTVSPost2010Prop57
140
1.0
102
RTVSPost2010PropOp57
 70
     1
  0
XRECORD
  5
117
102
{ACAD_REACTORS
330
116
102
}
330
116
100
AcDbXrecord
280
     1
102
RTVSPost2010Prop28
280
     0
102
RTVSPost2010PropOp28
 70
     1
102
RTVSPost2010Prop29
280
     1
102
RTVSPost2010PropOp29
 70
     1
102
RTVSPost2010Prop30
280
     1
102
RTVSPost2010PropOp30
 70
     1
102
RTVSPost2010Prop31
280
     0
102
RTVSPost2010PropOp31
 70
     1
102
RTVSPost2010Prop32
280
     0
102
RTVSPost2010PropOp32
 70
     1
102
RTVSPost2010Prop33
280
     0
102
RTVSPost2010PropOp33
 70
     1
102
RTVSPost2010Prop34
280
     0
102
RTVSPost2010PropOp34
 70
     1
102
RTVSPost2010Prop35
280
     0
102
RTVSPost2010PropOp35
 70
     1
102
RTVSPost2010Prop36
280
     0
102
RTVSPost2010PropOp36
 70
     1
102
RTVSPost2010Prop37
 90
       50
102
RTVSPost2010PropOp37
 70
     1
102
RTVSPost2010Prop38
140
0.0
102
RTVSPost2010PropOp38
 70
     1
102
RTVSPost2010Prop39
140
1.0
102
RTVSPost2010PropOp39
 70
     1
102
RTVSPost2010Prop40
 90
        0
102
RTVSPost2010PropOp40
 70
     1
102
RTVSPost2010Prop41ColorIndex
 90
       18
102
RTVSPost2010Prop41ColorRGB
 90
        0
102
RTVSPost2010PropOp41
 70
     1
102
RTVSPost2010Prop42
 90
       50
102
RTVSPost2010PropOp42
 70
     1
102
RTVSPost2010Prop43
 90
        3
102
RTVSPost2010PropOp43
 70
     1
102
RTVSPost2010Prop44ColorIndex
 90
        5
102
RTVSPost2010Prop44ColorRGB
 90
      255
102
RTVSPost2010PropOp44
 70
     1
102
RTVSPost2010Prop45
280
     0
102
RTVSPost2010PropOp45
 70
     1
102
RTVSPost2010Prop46
 90
       50
102
RTVSPost2010PropOp46
 70
     1
102
RTVSPost2010Prop47
 90
       50
102
RTVSPost2010PropOp47
 70
     1
102
RTVSPost2010Prop48
 90
       50
102
RTVSPost2010PropOp48
 70
     1
102
RTVSPost2010Prop49
280
     0
102
RTVSPost2010PropOp49
 70
     1
102
RTVSPost2010Prop50
 90
       50
102
RTVSPost2010PropOp50
 70
     1
102
RTVSPost2010Prop51ColorIndex
 90
      256
102
RTVSPost2010Prop51ColorRGB
 90
-16777216
102
RTVSPost2010PropOp51
 70
     0
102
RTVSPost2010Prop52
140
1.0
102
RTVSPost2010PropOp52
 70
     0
102
RTVSPost2010Prop53
 90
        2
102
RTVSPost2010PropOp53
 70
     1
102
RTVSPost2010Prop54
  1
strokes_ogs.tif
102
RTVSPost2010PropOp54
 70
     1
102
RTVSPost2010Prop55
280
     0
102
RTVSPost2010PropOp55
 70
     1
102
RTVSPost2010Prop56
140
1.0
102
RTVSPost2010PropOp56
 70
     1
102
RTVSPost2010Prop57
140
1.0
102
RTVSPost2010PropOp57
 70
     1
  0
XRECORD
  5
119
102
{ACAD_REACTORS
330
118
102
}
330
118
100
AcDbXrecord
280
     1
102
RTVSPost2010Prop28
280
     0
102
RTVSPost2010PropOp28
 70
     1
102
RTVSPost2010Prop29
280
     1
102
RTVSPost2010PropOp29
 70
     1
102
RTVSPost2010Prop30
280
     1
102
RTVSPost2010PropOp30
 70
     1
102
RTVSPost2010Prop31
280
     0
102
RTVSPost2010PropOp31
 70
     1
102
RTVSPost2010Prop32
280
     0
102
RTVSPost2010PropOp32
 70
     1
102
RTVSPost2010Prop33
280
     0
102
RTVSPost2010PropOp33
 70
     1
102
RTVSPost2010Prop34
280
     0
102
RTVSPost2010PropOp34
 70
     1
102
RTVSPost2010Prop35
280
     0
102
RTVSPost2010PropOp35
 70
     1
102
RTVSPost2010Prop36
280
     0
102
RTVSPost2010PropOp36
 70
     1
102
RTVSPost2010Prop37
 90
       50
102
RTVSPost2010PropOp37
 70
     1
102
RTVSPost2010Prop38
140
0.0
102
RTVSPost2010PropOp38
 70
     1
102
RTVSPost2010Prop39
140
1.0
102
RTVSPost2010PropOp39
 70
     1
102
RTVSPost2010Prop40
 90
        0
102
RTVSPost2010PropOp40
 70
     1
102
RTVSPost2010Prop41ColorIndex
 90
       18
102
RTVSPost2010Prop41ColorRGB
 90
        0
102
RTVSPost2010PropOp41
 70
     1
102
RTVSPost2010Prop42
 90
       50
102
RTVSPost2010PropOp42
 70
     1
102
RTVSPost2010Prop43
 90
        3
102
RTVSPost2010PropOp43
 70
     1
102
RTVSPost2010Prop44ColorIndex
 90
        5
102
RTVSPost2010Prop44ColorRGB
 90
      255
102
RTVSPost2010PropOp44
 70
     1
102
RTVSPost2010Prop45
280
     0
102
RTVSPost2010PropOp45
 70
     1
102
RTVSPost2010Prop46
 90
       50
102
RTVSPost2010PropOp46
 70
     1
102
RTVSPost2010Prop47
 90
       50
102
RTVSPost2010PropOp47
 70
     1
102
RTVSPost2010Prop48
 90
       50
102
RTVSPost2010PropOp48
 70
     1
102
RTVSPost2010Prop49
280
     0
102
RTVSPost2010PropOp49
 70
     1
102
RTVSPost2010Prop50
 90
       50
102
RTVSPost2010PropOp50
 70
     1
102
RTVSPost2010Prop51ColorIndex
 90
      256
102
RTVSPost2010Prop51ColorRGB
 90
-16777216
102
RTVSPost2010PropOp51
 70
     0
102
RTVSPost2010Prop52
140
1.0
102
RTVSPost2010PropOp52
 70
     0
102
RTVSPost2010Prop53
 90
        2
102
RTVSPost2010PropOp53
 70
     1
102
RTVSPost2010Prop54
  1
strokes_ogs.tif
102
RTVSPost2010PropOp54
 70
     1
102
RTVSPost2010Prop55
280
     0
102
RTVSPost2010PropOp55
 70
     1
102
RTVSPost2010Prop56
140
1.0
102
RTVSPost2010PropOp56
 70
     1
102
RTVSPost2010Prop57
140
1.0
102
RTVSPost2010PropOp57
 70
     1
  0
XRECORD
  5
11B
102
{ACAD_REACTORS
330
11A
102
}
330
11A
100
AcDbXrecord
280
     1
102
RTVSPost2010Prop28
280
     0
102
RTVSPost2010PropOp28
 70
     1
102
RTVSPost2010Prop29
280
     1
102
RTVSPost2010PropOp29
 70
     1
102
RTVSPost2010Prop30
280
     1
102
RTVSPost2010PropOp30
 70
     1
102
RTVSPost2010Prop31
280
     0
102
RTVSPost2010PropOp31
 70
     1
102
RTVSPost2010Prop32
280
     0
102
RTVSPost2010PropOp32
 70
     1
102
RTVSPost2010Prop33
280
     0
102
RTVSPost2010PropOp33
 70
     1
102
RTVSPost2010Prop34
280
     0
102
RTVSPost2010PropOp34
 70
     1
102
RTVSPost2010Prop35
280
     0
102
RTVSPost2010PropOp35
 70
     1
102
RTVSPost2010Prop36
280
     0
102
RTVSPost2010PropOp36
 70
     1
102
RTVSPost2010Prop37
 90
       50
102
RTVSPost2010PropOp37
 70
     1
102
RTVSPost2010Prop38
140
0.0
102
RTVSPost2010PropOp38
 70
     1
102
RTVSPost2010Prop39
140
1.0
102
RTVSPost2010PropOp39
 70
     1
102
RTVSPost2010Prop40
 90
        0
102
RTVSPost2010PropOp40
 70
     1
102
RTVSPost2010Prop41ColorIndex
 90
       18
102
RTVSPost2010Prop41ColorRGB
 90
        0
102
RTVSPost2010PropOp41
 70
     1
102
RTVSPost2010Prop42
 90
       50
102
RTVSPost2010PropOp42
 70
     1
102
RTVSPost2010Prop43
 90
        3
102
RTVSPost2010PropOp43
 70
     1
102
RTVSPost2010Prop44ColorIndex
 90
        5
102
RTVSPost2010Prop44ColorRGB
 90
      255
102
RTVSPost2010PropOp44
 70
     1
102
RTVSPost2010Prop45
280
     0
102
RTVSPost2010PropOp45
 70
     1
102
RTVSPost2010Prop46
 90
       50
102
RTVSPost2010PropOp46
 70
     1
102
RTVSPost2010Prop47
 90
       50
102
RTVSPost2010PropOp47
 70
     1
102
RTVSPost2010Prop48
 90
       50
102
RTVSPost2010PropOp48
 70
     1
102
RTVSPost2010Prop49
280
     0
102
RTVSPost2010PropOp49
 70
     1
102
RTVSPost2010Prop50
 90
       50
102
RTVSPost2010PropOp50
 70
     1
102
RTVSPost2010Prop51ColorIndex
 90
      256
102
RTVSPost2010Prop51ColorRGB
 90
-16777216
102
RTVSPost2010PropOp51
 70
     0
102
RTVSPost2010Prop52
140
1.0
102
RTVSPost2010PropOp52
 70
     0
102
RTVSPost2010Prop53
 90
        2
102
RTVSPost2010PropOp53
 70
     1
102
RTVSPost2010Prop54
  1
strokes_ogs.tif
102
RTVSPost2010PropOp54
 70
     1
102
RTVSPost2010Prop55
280
     0
102
RTVSPost2010PropOp55
 70
     1
102
RTVSPost2010Prop56
140
1.0
102
RTVSPost2010PropOp56
 70
     1
102
RTVSPost2010Prop57
140
1.0
102
RTVSPost2010PropOp57
 70
     1
  0
XRECORD
  5
123
102
{ACAD_REACTORS
330
122
102
}
330
122
100
AcDbXrecord
280
     1
102
RTVSPost2010Prop28
280
     0
102
RTVSPost2010PropOp28
 70
     1
102
RTVSPost2010Prop29
280
     1
102
RTVSPost2010PropOp29
 70
     1
102
RTVSPost2010Prop30
280
     1
102
RTVSPost2010PropOp30
 70
     1
102
RTVSPost2010Prop31
280
     0
102
RTVSPost2010PropOp31
 70
     1
102
RTVSPost2010Prop32
280
     0
102
RTVSPost2010PropOp32
 70
     1
102
RTVSPost2010Prop33
280
     0
102
RTVSPost2010PropOp33
 70
     1
102
RTVSPost2010Prop34
280
     0
102
RTVSPost2010PropOp34
 70
     1
102
RTVSPost2010Prop35
280
     0
102
RTVSPost2010PropOp35
 70
     1
102
RTVSPost2010Prop36
280
     0
102
RTVSPost2010PropOp36
 70
     1
102
RTVSPost2010Prop37
 90
       50
102
RTVSPost2010PropOp37
 70
     1
102
RTVSPost2010Prop38
140
0.0
102
RTVSPost2010PropOp38
 70
     1
102
RTVSPost2010Prop39
140
1.0
102
RTVSPost2010PropOp39
 70
     1
102
RTVSPost2010Prop40
 90
        0
102
RTVSPost2010PropOp40
 70
     1
102
RTVSPost2010Prop41ColorIndex
 90
       18
102
RTVSPost2010Prop41ColorRGB
 90
        0
102
RTVSPost2010PropOp41
 70
     1
102
RTVSPost2010Prop42
 90
       50
102
RTVSPost2010PropOp42
 70
     1
102
RTVSPost2010Prop43
 90
        3
102
RTVSPost2010PropOp43
 70
     1
102
RTVSPost2010Prop44ColorIndex
 90
        5
102
RTVSPost2010Prop44ColorRGB
 90
      255
102
RTVSPost2010PropOp44
 70
     1
102
RTVSPost2010Prop45
280
     0
102
RTVSPost2010PropOp45
 70
     1
102
RTVSPost2010Prop46
 90
       50
102
RTVSPost2010PropOp46
 70
     1
102
RTVSPost2010Prop47
 90
       50
102
RTVSPost2010PropOp47
 70
     1
102
RTVSPost2010Prop48
 90
       50
102
RTVSPost2010PropOp48
 70
     1
102
RTVSPost2010Prop49
280
     0
102
RTVSPost2010PropOp49
 70
     1
102
RTVSPost2010Prop50
 90
       50
102
RTVSPost2010PropOp50
 70
     1
102
RTVSPost2010Prop51ColorIndex
 90
      256
102
RTVSPost2010Prop51ColorRGB
 90
-16777216
102
RTVSPost2010PropOp51
 70
     0
102
RTVSPost2010Prop52
140
1.0
102
RTVSPost2010PropOp52
 70
     0
102
RTVSPost2010Prop53
 90
        2
102
RTVSPost2010PropOp53
 70
     1
102
RTVSPost2010Prop54
  1
strokes_ogs.tif
102
RTVSPost2010PropOp54
 70
     1
102
RTVSPost2010Prop55
280
     0
102
RTVSPost2010PropOp55
 70
     1
102
RTVSPost2010Prop56
140
1.0
102
RTVSPost2010PropOp56
 70
     1
102
RTVSPost2010Prop57
140
1.0
102
RTVSPost2010PropOp57
 70
     1
  0
XRECORD
  5
13F
102
{ACAD_REACTORS
330
13E
102
}
330
13E
100
AcDbXrecord
280
     1
102
RTVSPost2010Prop28
280
     0
102
RTVSPost2010PropOp28
 70
     0
102
RTVSPost2010Prop29
280
     1
102
RTVSPost2010PropOp29
 70
     0
102
RTVSPost2010Prop30
280
     1
102
RTVSPost2010PropOp30
 70
     0
102
RTVSPost2010Prop31
280
     0
102
RTVSPost2010PropOp31
 70
     0
102
RTVSPost2010Prop32
280
     0
102
RTVSPost2010PropOp32
 70
     0
102
RTVSPost2010Prop33
280
     0
102
RTVSPost2010PropOp33
 70
     0
102
RTVSPost2010Prop34
280
     0
102
RTVSPost2010PropOp34
 70
     0
102
RTVSPost2010Prop35
280
     0
102
RTVSPost2010PropOp35
 70
     0
102
RTVSPost2010Prop36
280
     0
102
RTVSPost2010PropOp36
 70
     0
102
RTVSPost2010Prop37
 90
       50
102
RTVSPost2010PropOp37
 70
     0
102
RTVSPost2010Prop38
140
0.0
102
RTVSPost2010PropOp38
 70
     0
102
RTVSPost2010Prop39
140
1.0
102
RTVSPost2010PropOp39
 70
     0
102
RTVSPost2010Prop40
 90
        0
102
RTVSPost2010PropOp40
 70
     0
102
RTVSPost2010Prop41ColorIndex
 90
       18
102
RTVSPost2010Prop41ColorRGB
 90
        0
102
RTVSPost2010PropOp41
 70
     0
102
RTVSPost2010Prop42
 90
       50
102
RTVSPost2010PropOp42
 70
     0
102
RTVSPost2010Prop43
 90
        3
102
RTVSPost2010PropOp43
 70
     0
102
RTVSPost2010Prop44ColorIndex
 90
        5
102
RTVSPost2010Prop44ColorRGB
 90
      255
102
RTVSPost2010PropOp44
 70
     0
102
RTVSPost2010Prop45
280
     0
102
RTVSPost2010PropOp45
 70
     0
102
RTVSPost2010Prop46
 90
       50
102
RTVSPost2010PropOp46
 70
     0
102
RTVSPost2010Prop47
 90
       50
102
RTVSPost2010PropOp47
 70
     0
102
RTVSPost2010Prop48
 90
       50
102
RTVSPost2010PropOp48
 70
     0
102
RTVSPost2010Prop49
280
     0
102
RTVSPost2010PropOp49
 70
     0
102
RTVSPost2010Prop50
 90
       50
102
RTVSPost2010PropOp50
 70
     0
102
RTVSPost2010Prop51ColorIndex
 90
      256
102
RTVSPost2010Prop51ColorRGB
 90
-16777216
102
RTVSPost2010PropOp51
 70
     0
102
RTVSPost2010Prop52
140
1.0
102
RTVSPost2010PropOp52
 70
     0
102
RTVSPost2010Prop53
 90
        2
102
RTVSPost2010PropOp53
 70
     0
102
RTVSPost2010Prop54
  1
strokes_ogs.tif
102
RTVSPost2010PropOp54
 70
     0
102
RTVSPost2010Prop55
280
     0
102
RTVSPost2010PropOp55
 70
     0
102
RTVSPost2010Prop56
140
1.0
102
RTVSPost2010PropOp56
 70
     0
102
RTVSPost2010Prop57
140
1.0
102
RTVSPost2010PropOp57
 70
     0
  0
XRECORD
  5
12F
102
{ACAD_REACTORS
330
12E
102
}
330
12E
100
AcDbXrecord
280
     1
102
RTVSPost2010Prop28
280
     0
102
RTVSPost2010PropOp28
 70
     1
102
RTVSPost2010Prop29
280
     1
102
RTVSPost2010PropOp29
 70
     1
102
RTVSPost2010Prop30
280
     1
102
RTVSPost2010PropOp30
 70
     1
102
RTVSPost2010Prop31
280
     0
102
RTVSPost2010PropOp31
 70
     1
102
RTVSPost2010Prop32
280
     0
102
RTVSPost2010PropOp32
 70
     1
102
RTVSPost2010Prop33
280
     0
102
RTVSPost2010PropOp33
 70
     1
102
RTVSPost2010Prop34
280
     0
102
RTVSPost2010PropOp34
 70
     1
102
RTVSPost2010Prop35
280
     0
102
RTVSPost2010PropOp35
 70
     1
102
RTVSPost2010Prop36
280
     0
102
RTVSPost2010PropOp36
 70
     1
102
RTVSPost2010Prop37
 90
       50
102
RTVSPost2010PropOp37
 70
     1
102
RTVSPost2010Prop38
140
0.0
102
RTVSPost2010PropOp38
 70
     1
102
RTVSPost2010Prop39
140
1.0
102
RTVSPost2010PropOp39
 70
     1
102
RTVSPost2010Prop40
 90
        0
102
RTVSPost2010PropOp40
 70
     1
102
RTVSPost2010Prop41ColorIndex
 90
       18
102
RTVSPost2010Prop41ColorRGB
 90
        0
102
RTVSPost2010PropOp41
 70
     1
102
RTVSPost2010Prop42
 90
       50
102
RTVSPost2010PropOp42
 70
     1
102
RTVSPost2010Prop43
 90
        3
102
RTVSPost2010PropOp43
 70
     1
102
RTVSPost2010Prop44ColorIndex
 90
        5
102
RTVSPost2010Prop44ColorRGB
 90
      255
102
RTVSPost2010PropOp44
 70
     1
102
RTVSPost2010Prop45
280
     0
102
RTVSPost2010PropOp45
 70
     1
102
RTVSPost2010Prop46
 90
       50
102
RTVSPost2010PropOp46
 70
     1
102
RTVSPost2010Prop47
 90
       50
102
RTVSPost2010PropOp47
 70
     1
102
RTVSPost2010Prop48
 90
       50
102
RTVSPost2010PropOp48
 70
     1
102
RTVSPost2010Prop49
280
     0
102
RTVSPost2010PropOp49
 70
     1
102
RTVSPost2010Prop50
 90
       50
102
RTVSPost2010PropOp50
 70
     1
102
RTVSPost2010Prop51ColorIndex
 90
      256
102
RTVSPost2010Prop51ColorRGB
 90
-16777216
102
RTVSPost2010PropOp51
 70
     0
102
RTVSPost2010Prop52
140
1.0
102
RTVSPost2010PropOp52
 70
     0
102
RTVSPost2010Prop53
 90
        2
102
RTVSPost2010PropOp53
 70
     1
102
RTVSPost2010Prop54
  1
strokes_ogs.tif
102
RTVSPost2010PropOp54
 70
     1
102
RTVSPost2010Prop55
280
     0
102
RTVSPost2010PropOp55
 70
     1
102
RTVSPost2010Prop56
140
1.0
102
RTVSPost2010PropOp56
 70
     1
102
RTVSPost2010Prop57
140
1.0
102
RTVSPost2010PropOp57
 70
     1
  0
XRECORD
  5
141
102
{ACAD_REACTORS
330
140
102
}
330
140
100
AcDbXrecord
280
     1
102
RTVSPost2010Prop28
280
     0
102
RTVSPost2010PropOp28
 70
     0
102
RTVSPost2010Prop29
280
     1
102
RTVSPost2010PropOp29
 70
     0
102
RTVSPost2010Prop30
280
     1
102
RTVSPost2010PropOp30
 70
     0
102
RTVSPost2010Prop31
280
     0
102
RTVSPost2010PropOp31
 70
     0
102
RTVSPost2010Prop32
280
     0
102
RTVSPost2010PropOp32
 70
     0
102
RTVSPost2010Prop33
280
     0
102
RTVSPost2010PropOp33
 70
     0
102
RTVSPost2010Prop34
280
     0
102
RTVSPost2010PropOp34
 70
     0
102
RTVSPost2010Prop35
280
     0
102
RTVSPost2010PropOp35
 70
     0
102
RTVSPost2010Prop36
280
     0
102
RTVSPost2010PropOp36
 70
     0
102
RTVSPost2010Prop37
 90
       50
102
RTVSPost2010PropOp37
 70
     0
102
RTVSPost2010Prop38
140
0.0
102
RTVSPost2010PropOp38
 70
     0
102
RTVSPost2010Prop39
140
1.0
102
RTVSPost2010PropOp39
 70
     0
102
RTVSPost2010Prop40
 90
        0
102
RTVSPost2010PropOp40
 70
     0
102
RTVSPost2010Prop41ColorIndex
 90
       18
102
RTVSPost2010Prop41ColorRGB
 90
        0
102
RTVSPost2010PropOp41
 70
     0
102
RTVSPost2010Prop42
 90
       50
102
RTVSPost2010PropOp42
 70
     0
102
RTVSPost2010Prop43
 90
        3
102
RTVSPost2010PropOp43
 70
     0
102
RTVSPost2010Prop44ColorIndex
 90
        5
102
RTVSPost2010Prop44ColorRGB
 90
      255
102
RTVSPost2010PropOp44
 70
     0
102
RTVSPost2010Prop45
280
     0
102
RTVSPost2010PropOp45
 70
     0
102
RTVSPost2010Prop46
 90
       50
102
RTVSPost2010PropOp46
 70
     0
102
RTVSPost2010Prop47
 90
       50
102
RTVSPost2010PropOp47
 70
     0
102
RTVSPost2010Prop48
 90
       50
102
RTVSPost2010PropOp48
 70
     0
102
RTVSPost2010Prop49
280
     0
102
RTVSPost2010PropOp49
 70
     0
102
RTVSPost2010Prop50
 90
       50
102
RTVSPost2010PropOp50
 70
     0
102
RTVSPost2010Prop51ColorIndex
 90
      256
102
RTVSPost2010Prop51ColorRGB
 90
-16777216
102
RTVSPost2010PropOp51
 70
     0
102
RTVSPost2010Prop52
140
1.0
102
RTVSPost2010PropOp52
 70
     0
102
RTVSPost2010Prop53
 90
        2
102
RTVSPost2010PropOp53
 70
     0
102
RTVSPost2010Prop54
  1
strokes_ogs.tif
102
RTVSPost2010PropOp54
 70
     0
102
RTVSPost2010Prop55
280
     0
102
RTVSPost2010PropOp55
 70
     0
102
RTVSPost2010Prop56
140
1.0
102
RTVSPost2010PropOp56
 70
     0
102
RTVSPost2010Prop57
140
1.0
102
RTVSPost2010PropOp57
 70
     0
  0
XRECORD
  5
127
102
{ACAD_REACTORS
330
126
102
}
330
126
100
AcDbXrecord
280
     1
102
RTVSPost2010Prop28
280
     0
102
RTVSPost2010PropOp28
 70
     1
102
RTVSPost2010Prop29
280
     1
102
RTVSPost2010PropOp29
 70
     1
102
RTVSPost2010Prop30
280
     1
102
RTVSPost2010PropOp30
 70
     1
102
RTVSPost2010Prop31
280
     0
102
RTVSPost2010PropOp31
 70
     1
102
RTVSPost2010Prop32
280
     0
102
RTVSPost2010PropOp32
 70
     1
102
RTVSPost2010Prop33
280
     0
102
RTVSPost2010PropOp33
 70
     1
102
RTVSPost2010Prop34
280
     0
102
RTVSPost2010PropOp34
 70
     1
102
RTVSPost2010Prop35
280
     0
102
RTVSPost2010PropOp35
 70
     1
102
RTVSPost2010Prop36
280
     0
102
RTVSPost2010PropOp36
 70
     1
102
RTVSPost2010Prop37
 90
       50
102
RTVSPost2010PropOp37
 70
     1
102
RTVSPost2010Prop38
140
0.0
102
RTVSPost2010PropOp38
 70
     1
102
RTVSPost2010Prop39
140
1.0
102
RTVSPost2010PropOp39
 70
     1
102
RTVSPost2010Prop40
 90
        0
102
RTVSPost2010PropOp40
 70
     1
102
RTVSPost2010Prop41ColorIndex
 90
       18
102
RTVSPost2010Prop41ColorRGB
 90
        0
102
RTVSPost2010PropOp41
 70
     1
102
RTVSPost2010Prop42
 90
       50
102
RTVSPost2010PropOp42
 70
     1
102
RTVSPost2010Prop43
 90
        3
102
RTVSPost2010PropOp43
 70
     1
102
RTVSPost2010Prop44ColorIndex
 90
        5
102
RTVSPost2010Prop44ColorRGB
 90
      255
102
RTVSPost2010PropOp44
 70
     1
102
RTVSPost2010Prop45
280
     0
102
RTVSPost2010PropOp45
 70
     1
102
RTVSPost2010Prop46
 90
       50
102
RTVSPost2010PropOp46
 70
     1
102
RTVSPost2010Prop47
 90
       50
102
RTVSPost2010PropOp47
 70
     1
102
RTVSPost2010Prop48
 90
       50
102
RTVSPost2010PropOp48
 70
     1
102
RTVSPost2010Prop49
280
     0
102
RTVSPost2010PropOp49
 70
     1
102
RTVSPost2010Prop50
 90
       50
102
RTVSPost2010PropOp50
 70
     1
102
RTVSPost2010Prop51ColorIndex
 90
      256
102
RTVSPost2010Prop51ColorRGB
 90
-16777216
102
RTVSPost2010PropOp51
 70
     0
102
RTVSPost2010Prop52
140
1.0
102
RTVSPost2010PropOp52
 70
     0
102
RTVSPost2010Prop53
 90
        2
102
RTVSPost2010PropOp53
 70
     1
102
RTVSPost2010Prop54
  1
strokes_ogs.tif
102
RTVSPost2010PropOp54
 70
     1
102
RTVSPost2010Prop55
280
     0
102
RTVSPost2010PropOp55
 70
     1
102
RTVSPost2010Prop56
140
1.0
102
RTVSPost2010PropOp56
 70
     1
102
RTVSPost2010Prop57
140
1.0
102
RTVSPost2010PropOp57
 70
     1
  0
XRECORD
  5
13D
102
{ACAD_REACTORS
330
13C
102
}
330
13C
100
AcDbXrecord
280
     1
102
RTVSPost2010Prop28
280
     0
102
RTVSPost2010PropOp28
 70
     1
102
RTVSPost2010Prop29
280
     1
102
RTVSPost2010PropOp29
 70
     1
102
RTVSPost2010Prop30
280
     1
102
RTVSPost2010PropOp30
 70
     1
102
RTVSPost2010Prop31
280
     0
102
RTVSPost2010PropOp31
 70
     1
102
RTVSPost2010Prop32
280
     0
102
RTVSPost2010PropOp32
 70
     1
102
RTVSPost2010Prop33
280
     0
102
RTVSPost2010PropOp33
 70
     1
102
RTVSPost2010Prop34
280
     0
102
RTVSPost2010PropOp34
 70
     1
102
RTVSPost2010Prop35
280
     0
102
RTVSPost2010PropOp35
 70
     1
102
RTVSPost2010Prop36
280
     0
102
RTVSPost2010PropOp36
 70
     1
102
RTVSPost2010Prop37
 90
       50
102
RTVSPost2010PropOp37
 70
     1
102
RTVSPost2010Prop38
140
0.0
102
RTVSPost2010PropOp38
 70
     1
102
RTVSPost2010Prop39
140
1.0
102
RTVSPost2010PropOp39
 70
     1
102
RTVSPost2010Prop40
 90
        0
102
RTVSPost2010PropOp40
 70
     1
102
RTVSPost2010Prop41ColorIndex
 90
       18
102
RTVSPost2010Prop41ColorRGB
 90
        0
102
RTVSPost2010PropOp41
 70
     1
102
RTVSPost2010Prop42
 90
       50
102
RTVSPost2010PropOp42
 70
     1
102
RTVSPost2010Prop43
 90
        3
102
RTVSPost2010PropOp43
 70
     1
102
RTVSPost2010Prop44ColorIndex
 90
        5
102
RTVSPost2010Prop44ColorRGB
 90
      255
102
RTVSPost2010PropOp44
 70
     1
102
RTVSPost2010Prop45
280
     0
102
RTVSPost2010PropOp45
 70
     1
102
RTVSPost2010Prop46
 90
       50
102
RTVSPost2010PropOp46
 70
     1
102
RTVSPost2010Prop47
 90
       50
102
RTVSPost2010PropOp47
 70
     1
102
RTVSPost2010Prop48
 90
       50
102
RTVSPost2010PropOp48
 70
     1
102
RTVSPost2010Prop49
280
     0
102
RTVSPost2010PropOp49
 70
     1
102
RTVSPost2010Prop50
 90
       50
102
RTVSPost2010PropOp50
 70
     1
102
RTVSPost2010Prop51ColorIndex
 90
      256
102
RTVSPost2010Prop51ColorRGB
 90
-16777216
102
RTVSPost2010PropOp51
 70
     0
102
RTVSPost2010Prop52
140
1.0
102
RTVSPost2010PropOp52
 70
     0
102
RTVSPost2010Prop53
 90
        2
102
RTVSPost2010PropOp53
 70
     1
102
RTVSPost2010Prop54
  1
strokes_ogs.tif
102
RTVSPost2010PropOp54
 70
     1
102
RTVSPost2010Prop55
280
     0
102
RTVSPost2010PropOp55
 70
     1
102
RTVSPost2010Prop56
140
1.0
102
RTVSPost2010PropOp56
 70
     1
102
RTVSPost2010Prop57
140
1.0
102
RTVSPost2010PropOp57
 70
     1
  0
XRECORD
  5
13B
102
{ACAD_REACTORS
330
13A
102
}
330
13A
100
AcDbXrecord
280
     1
102
RTVSPost2010Prop28
280
     0
102
RTVSPost2010PropOp28
 70
     1
102
RTVSPost2010Prop29
280
     1
102
RTVSPost2010PropOp29
 70
     1
102
RTVSPost2010Prop30
280
     1
102
RTVSPost2010PropOp30
 70
     1
102
RTVSPost2010Prop31
280
     0
102
RTVSPost2010PropOp31
 70
     1
102
RTVSPost2010Prop32
280
     0
102
RTVSPost2010PropOp32
 70
     1
102
RTVSPost2010Prop33
280
     0
102
RTVSPost2010PropOp33
 70
     1
102
RTVSPost2010Prop34
280
     0
102
RTVSPost2010PropOp34
 70
     1
102
RTVSPost2010Prop35
280
     0
102
RTVSPost2010PropOp35
 70
     1
102
RTVSPost2010Prop36
280
     0
102
RTVSPost2010PropOp36
 70
     1
102
RTVSPost2010Prop37
 90
       50
102
RTVSPost2010PropOp37
 70
     1
102
RTVSPost2010Prop38
140
0.0
102
RTVSPost2010PropOp38
 70
     1
102
RTVSPost2010Prop39
140
1.0
102
RTVSPost2010PropOp39
 70
     1
102
RTVSPost2010Prop40
 90
        0
102
RTVSPost2010PropOp40
 70
     1
102
RTVSPost2010Prop41ColorIndex
 90
       18
102
RTVSPost2010Prop41ColorRGB
 90
        0
102
RTVSPost2010PropOp41
 70
     1
102
RTVSPost2010Prop42
 90
       50
102
RTVSPost2010PropOp42
 70
     1
102
RTVSPost2010Prop43
 90
        3
102
RTVSPost2010PropOp43
 70
     1
102
RTVSPost2010Prop44ColorIndex
 90
        5
102
RTVSPost2010Prop44ColorRGB
 90
      255
102
RTVSPost2010PropOp44
 70
     1
102
RTVSPost2010Prop45
280
     0
102
RTVSPost2010PropOp45
 70
     1
102
RTVSPost2010Prop46
 90
       50
102
RTVSPost2010PropOp46
 70
     1
102
RTVSPost2010Prop47
 90
       50
102
RTVSPost2010PropOp47
 70
     1
102
RTVSPost2010Prop48
 90
       50
102
RTVSPost2010PropOp48
 70
     1
102
RTVSPost2010Prop49
280
     0
102
RTVSPost2010PropOp49
 70
     1
102
RTVSPost2010Prop50
 90
       50
102
RTVSPost2010PropOp50
 70
     1
102
RTVSPost2010Prop51ColorIndex
 90
      256
102
RTVSPost2010Prop51ColorRGB
 90
-16777216
102
RTVSPost2010PropOp51
 70
     0
102
RTVSPost2010Prop52
140
1.0
102
RTVSPost2010PropOp52
 70
     0
102
RTVSPost2010Prop53
 90
        2
102
RTVSPost2010PropOp53
 70
     1
102
RTVSPost2010Prop54
  1
strokes_ogs.tif
102
RTVSPost2010PropOp54
 70
     1
102
RTVSPost2010Prop55
280
     0
102
RTVSPost2010PropOp55
 70
     1
102
RTVSPost2010Prop56
140
1.0
102
RTVSPost2010PropOp56
 70
     1
102
RTVSPost2010Prop57
140
1.0
102
RTVSPost2010PropOp57
 70
     1
  0
XRECORD
  5
135
102
{ACAD_REACTORS
330
134
102
}
330
134
100
AcDbXrecord
280
     1
102
RTVSPost2010Prop28
280
     0
102
RTVSPost2010PropOp28
 70
     1
102
RTVSPost2010Prop29
280
     1
102
RTVSPost2010PropOp29
 70
     1
102
RTVSPost2010Prop30
280
     1
102
RTVSPost2010PropOp30
 70
     1
102
RTVSPost2010Prop31
280
     0
102
RTVSPost2010PropOp31
 70
     1
102
RTVSPost2010Prop32
280
     0
102
RTVSPost2010PropOp32
 70
     1
102
RTVSPost2010Prop33
280
     0
102
RTVSPost2010PropOp33
 70
     1
102
RTVSPost2010Prop34
280
     0
102
RTVSPost2010PropOp34
 70
     1
102
RTVSPost2010Prop35
280
     0
102
RTVSPost2010PropOp35
 70
     1
102
RTVSPost2010Prop36
280
     0
102
RTVSPost2010PropOp36
 70
     1
102
RTVSPost2010Prop37
 90
       50
102
RTVSPost2010PropOp37
 70
     1
102
RTVSPost2010Prop38
140
0.0
102
RTVSPost2010PropOp38
 70
     1
102
RTVSPost2010Prop39
140
1.0
102
RTVSPost2010PropOp39
 70
     1
102
RTVSPost2010Prop40
 90
        0
102
RTVSPost2010PropOp40
 70
     1
102
RTVSPost2010Prop41ColorIndex
 90
       18
102
RTVSPost2010Prop41ColorRGB
 90
        0
102
RTVSPost2010PropOp41
 70
     1
102
RTVSPost2010Prop42
 90
       50
102
RTVSPost2010PropOp42
 70
     1
102
RTVSPost2010Prop43
 90
        3
102
RTVSPost2010PropOp43
 70
     1
102
RTVSPost2010Prop44ColorIndex
 90
        5
102
RTVSPost2010Prop44ColorRGB
 90
      255
102
RTVSPost2010PropOp44
 70
     1
102
RTVSPost2010Prop45
280
     0
102
RTVSPost2010PropOp45
 70
     1
102
RTVSPost2010Prop46
 90
       50
102
RTVSPost2010PropOp46
 70
     1
102
RTVSPost2010Prop47
 90
       50
102
RTVSPost2010PropOp47
 70
     1
102
RTVSPost2010Prop48
 90
       50
102
RTVSPost2010PropOp48
 70
     1
102
RTVSPost2010Prop49
280
     0
102
RTVSPost2010PropOp49
 70
     1
102
RTVSPost2010Prop50
 90
       50
102
RTVSPost2010PropOp50
 70
     1
102
RTVSPost2010Prop51ColorIndex
 90
      256
102
RTVSPost2010Prop51ColorRGB
 90
-16777216
102
RTVSPost2010PropOp51
 70
     0
102
RTVSPost2010Prop52
140
1.0
102
RTVSPost2010PropOp52
 70
     0
102
RTVSPost2010Prop53
 90
        2
102
RTVSPost2010PropOp53
 70
     1
102
RTVSPost2010Prop54
  1
strokes_ogs.tif
102
RTVSPost2010PropOp54
 70
     1
102
RTVSPost2010Prop55
280
     0
102
RTVSPost2010PropOp55
 70
     1
102
RTVSPost2010Prop56
140
1.0
102
RTVSPost2010PropOp56
 70
     1
102
RTVSPost2010Prop57
140
1.0
102
RTVSPost2010PropOp57
 70
     1
  0
XRECORD
  5
137
102
{ACAD_REACTORS
330
136
102
}
330
136
100
AcDbXrecord
280
     1
102
RTVSPost2010Prop28
280
     0
102
RTVSPost2010PropOp28
 70
     1
102
RTVSPost2010Prop29
280
     1
102
RTVSPost2010PropOp29
 70
     1
102
RTVSPost2010Prop30
280
     1
102
RTVSPost2010PropOp30
 70
     1
102
RTVSPost2010Prop31
280
     0
102
RTVSPost2010PropOp31
 70
     1
102
RTVSPost2010Prop32
280
     0
102
RTVSPost2010PropOp32
 70
     1
102
RTVSPost2010Prop33
280
     0
102
RTVSPost2010PropOp33
 70
     1
102
RTVSPost2010Prop34
280
     0
102
RTVSPost2010PropOp34
 70
     1
102
RTVSPost2010Prop35
280
     0
102
RTVSPost2010PropOp35
 70
     1
102
RTVSPost2010Prop36
280
     0
102
RTVSPost2010PropOp36
 70
     1
102
RTVSPost2010Prop37
 90
       50
102
RTVSPost2010PropOp37
 70
     1
102
RTVSPost2010Prop38
140
0.0
102
RTVSPost2010PropOp38
 70
     1
102
RTVSPost2010Prop39
140
1.0
102
RTVSPost2010PropOp39
 70
     1
102
RTVSPost2010Prop40
 90
        0
102
RTVSPost2010PropOp40
 70
     1
102
RTVSPost2010Prop41ColorIndex
 90
       18
102
RTVSPost2010Prop41ColorRGB
 90
        0
102
RTVSPost2010PropOp41
 70
     1
102
RTVSPost2010Prop42
 90
       50
102
RTVSPost2010PropOp42
 70
     1
102
RTVSPost2010Prop43
 90
        3
102
RTVSPost2010PropOp43
 70
     1
102
RTVSPost2010Prop44ColorIndex
 90
        5
102
RTVSPost2010Prop44ColorRGB
 90
      255
102
RTVSPost2010PropOp44
 70
     1
102
RTVSPost2010Prop45
280
     0
102
RTVSPost2010PropOp45
 70
     1
102
RTVSPost2010Prop46
 90
       50
102
RTVSPost2010PropOp46
 70
     1
102
RTVSPost2010Prop47
 90
       50
102
RTVSPost2010PropOp47
 70
     1
102
RTVSPost2010Prop48
 90
       50
102
RTVSPost2010PropOp48
 70
     1
102
RTVSPost2010Prop49
280
     0
102
RTVSPost2010PropOp49
 70
     1
102
RTVSPost2010Prop50
 90
       50
102
RTVSPost2010PropOp50
 70
     1
102
RTVSPost2010Prop51ColorIndex
 90
      256
102
RTVSPost2010Prop51ColorRGB
 90
-16777216
102
RTVSPost2010PropOp51
 70
     0
102
RTVSPost2010Prop52
140
1.0
102
RTVSPost2010PropOp52
 70
     0
102
RTVSPost2010Prop53
 90
        2
102
RTVSPost2010PropOp53
 70
     1
102
RTVSPost2010Prop54
  1
strokes_ogs.tif
102
RTVSPost2010PropOp54
 70
     1
102
RTVSPost2010Prop55
280
     0
102
RTVSPost2010PropOp55
 70
     1
102
RTVSPost2010Prop56
140
1.0
102
RTVSPost2010PropOp56
 70
     1
102
RTVSPost2010Prop57
140
1.0
102
RTVSPost2010PropOp57
 70
     1
  0
XRECORD
  5
12D
102
{ACAD_REACTORS
330
12C
102
}
330
12C
100
AcDbXrecord
280
     1
102
RTVSPost2010Prop28
280
     0
102
RTVSPost2010PropOp28
 70
     1
102
RTVSPost2010Prop29
280
     1
102
RTVSPost2010PropOp29
 70
     1
102
RTVSPost2010Prop30
280
     1
102
RTVSPost2010PropOp30
 70
     1
102
RTVSPost2010Prop31
280
     0
102
RTVSPost2010PropOp31
 70
     1
102
RTVSPost2010Prop32
280
     0
102
RTVSPost2010PropOp32
 70
     1
102
RTVSPost2010Prop33
280
     0
102
RTVSPost2010PropOp33
 70
     1
102
RTVSPost2010Prop34
280
     0
102
RTVSPost2010PropOp34
 70
     1
102
RTVSPost2010Prop35
280
     0
102
RTVSPost2010PropOp35
 70
     1
102
RTVSPost2010Prop36
280
     0
102
RTVSPost2010PropOp36
 70
     1
102
RTVSPost2010Prop37
 90
       50
102
RTVSPost2010PropOp37
 70
     1
102
RTVSPost2010Prop38
140
0.0
102
RTVSPost2010PropOp38
 70
     1
102
RTVSPost2010Prop39
140
1.0
102
RTVSPost2010PropOp39
 70
     1
102
RTVSPost2010Prop40
 90
        0
102
RTVSPost2010PropOp40
 70
     1
102
RTVSPost2010Prop41ColorIndex
 90
       18
102
RTVSPost2010Prop41ColorRGB
 90
        0
102
RTVSPost2010PropOp41
 70
     1
102
RTVSPost2010Prop42
 90
       50
102
RTVSPost2010PropOp42
 70
     1
102
RTVSPost2010Prop43
 90
        3
102
RTVSPost2010PropOp43
 70
     1
102
RTVSPost2010Prop44ColorIndex
 90
        5
102
RTVSPost2010Prop44ColorRGB
 90
      255
102
RTVSPost2010PropOp44
 70
     1
102
RTVSPost2010Prop45
280
     0
102
RTVSPost2010PropOp45
 70
     1
102
RTVSPost2010Prop46
 90
       50
102
RTVSPost2010PropOp46
 70
     1
102
RTVSPost2010Prop47
 90
       50
102
RTVSPost2010PropOp47
 70
     1
102
RTVSPost2010Prop48
 90
       50
102
RTVSPost2010PropOp48
 70
     1
102
RTVSPost2010Prop49
280
     0
102
RTVSPost2010PropOp49
 70
     1
102
RTVSPost2010Prop50
 90
       50
102
RTVSPost2010PropOp50
 70
     1
102
RTVSPost2010Prop51ColorIndex
 90
      256
102
RTVSPost2010Prop51ColorRGB
 90
-16777216
102
RTVSPost2010PropOp51
 70
     0
102
RTVSPost2010Prop52
140
1.0
102
RTVSPost2010PropOp52
 70
     0
102
RTVSPost2010Prop53
 90
        2
102
RTVSPost2010PropOp53
 70
     1
102
RTVSPost2010Prop54
  1
strokes_ogs.tif
102
RTVSPost2010PropOp54
 70
     1
102
RTVSPost2010Prop55
280
     0
102
RTVSPost2010PropOp55
 70
     1
102
RTVSPost2010Prop56
140
1.0
102
RTVSPost2010PropOp56
 70
     1
102
RTVSPost2010Prop57
140
1.0
102
RTVSPost2010PropOp57
 70
     1
  0
XRECORD
  5
121
102
{ACAD_REACTORS
330
120
102
}
330
120
100
AcDbXrecord
280
     1
102
RTVSPost2010Prop28
280
     0
102
RTVSPost2010PropOp28
 70
     1
102
RTVSPost2010Prop29
280
     1
102
RTVSPost2010PropOp29
 70
     1
102
RTVSPost2010Prop30
280
     1
102
RTVSPost2010PropOp30
 70
     1
102
RTVSPost2010Prop31
280
     0
102
RTVSPost2010PropOp31
 70
     1
102
RTVSPost2010Prop32
280
     0
102
RTVSPost2010PropOp32
 70
     1
102
RTVSPost2010Prop33
280
     0
102
RTVSPost2010PropOp33
 70
     1
102
RTVSPost2010Prop34
280
     0
102
RTVSPost2010PropOp34
 70
     1
102
RTVSPost2010Prop35
280
     0
102
RTVSPost2010PropOp35
 70
     1
102
RTVSPost2010Prop36
280
     0
102
RTVSPost2010PropOp36
 70
     1
102
RTVSPost2010Prop37
 90
       50
102
RTVSPost2010PropOp37
 70
     1
102
RTVSPost2010Prop38
140
0.0
102
RTVSPost2010PropOp38
 70
     1
102
RTVSPost2010Prop39
140
1.0
102
RTVSPost2010PropOp39
 70
     1
102
RTVSPost2010Prop40
 90
        0
102
RTVSPost2010PropOp40
 70
     1
102
RTVSPost2010Prop41ColorIndex
 90
       18
102
RTVSPost2010Prop41ColorRGB
 90
        0
102
RTVSPost2010PropOp41
 70
     1
102
RTVSPost2010Prop42
 90
       50
102
RTVSPost2010PropOp42
 70
     1
102
RTVSPost2010Prop43
 90
        3
102
RTVSPost2010PropOp43
 70
     1
102
RTVSPost2010Prop44ColorIndex
 90
        5
102
RTVSPost2010Prop44ColorRGB
 90
      255
102
RTVSPost2010PropOp44
 70
     1
102
RTVSPost2010Prop45
280
     0
102
RTVSPost2010PropOp45
 70
     1
102
RTVSPost2010Prop46
 90
       50
102
RTVSPost2010PropOp46
 70
     1
102
RTVSPost2010Prop47
 90
       50
102
RTVSPost2010PropOp47
 70
     1
102
RTVSPost2010Prop48
 90
       50
102
RTVSPost2010PropOp48
 70
     1
102
RTVSPost2010Prop49
280
     0
102
RTVSPost2010PropOp49
 70
     1
102
RTVSPost2010Prop50
 90
       50
102
RTVSPost2010PropOp50
 70
     1
102
RTVSPost2010Prop51ColorIndex
 90
      256
102
RTVSPost2010Prop51ColorRGB
 90
-16777216
102
RTVSPost2010PropOp51
 70
     0
102
RTVSPost2010Prop52
140
1.0
102
RTVSPost2010PropOp52
 70
     0
102
RTVSPost2010Prop53
 90
        2
102
RTVSPost2010PropOp53
 70
     1
102
RTVSPost2010Prop54
  1
strokes_ogs.tif
102
RTVSPost2010PropOp54
 70
     1
102
RTVSPost2010Prop55
280
     0
102
RTVSPost2010PropOp55
 70
     1
102
RTVSPost2010Prop56
140
1.0
102
RTVSPost2010PropOp56
 70
     1
102
RTVSPost2010Prop57
140
1.0
102
RTVSPost2010PropOp57
 70
     1
  0
XRECORD
  5
139
102
{ACAD_REACTORS
330
138
102
}
330
138
100
AcDbXrecord
280
     1
102
RTVSPost2010Prop28
280
     0
102
RTVSPost2010PropOp28
 70
     1
102
RTVSPost2010Prop29
280
     1
102
RTVSPost2010PropOp29
 70
     1
102
RTVSPost2010Prop30
280
     1
102
RTVSPost2010PropOp30
 70
     1
102
RTVSPost2010Prop31
280
     0
102
RTVSPost2010PropOp31
 70
     1
102
RTVSPost2010Prop32
280
     0
102
RTVSPost2010PropOp32
 70
     1
102
RTVSPost2010Prop33
280
     0
102
RTVSPost2010PropOp33
 70
     1
102
RTVSPost2010Prop34
280
     0
102
RTVSPost2010PropOp34
 70
     1
102
RTVSPost2010Prop35
280
     0
102
RTVSPost2010PropOp35
 70
     1
102
RTVSPost2010Prop36
280
     0
102
RTVSPost2010PropOp36
 70
     1
102
RTVSPost2010Prop37
 90
       50
102
RTVSPost2010PropOp37
 70
     1
102
RTVSPost2010Prop38
140
0.0
102
RTVSPost2010PropOp38
 70
     1
102
RTVSPost2010Prop39
140
1.0
102
RTVSPost2010PropOp39
 70
     1
102
RTVSPost2010Prop40
 90
        0
102
RTVSPost2010PropOp40
 70
     1
102
RTVSPost2010Prop41ColorIndex
 90
       18
102
RTVSPost2010Prop41ColorRGB
 90
        0
102
RTVSPost2010PropOp41
 70
     1
102
RTVSPost2010Prop42
 90
       50
102
RTVSPost2010PropOp42
 70
     1
102
RTVSPost2010Prop43
 90
        3
102
RTVSPost2010PropOp43
 70
     1
102
RTVSPost2010Prop44ColorIndex
 90
        5
102
RTVSPost2010Prop44ColorRGB
 90
      255
102
RTVSPost2010PropOp44
 70
     1
102
RTVSPost2010Prop45
280
     0
102
RTVSPost2010PropOp45
 70
     1
102
RTVSPost2010Prop46
 90
       50
102
RTVSPost2010PropOp46
 70
     1
102
RTVSPost2010Prop47
 90
       50
102
RTVSPost2010PropOp47
 70
     1
102
RTVSPost2010Prop48
 90
       50
102
RTVSPost2010PropOp48
 70
     1
102
RTVSPost2010Prop49
280
     0
102
RTVSPost2010PropOp49
 70
     1
102
RTVSPost2010Prop50
 90
       50
102
RTVSPost2010PropOp50
 70
     1
102
RTVSPost2010Prop51ColorIndex
 90
      256
102
RTVSPost2010Prop51ColorRGB
 90
-16777216
102
RTVSPost2010PropOp51
 70
     0
102
RTVSPost2010Prop52
140
1.0
102
RTVSPost2010PropOp52
 70
     0
102
RTVSPost2010Prop53
 90
        2
102
RTVSPost2010PropOp53
 70
     1
102
RTVSPost2010Prop54
  1
strokes_ogs.tif
102
RTVSPost2010PropOp54
 70
     1
102
RTVSPost2010Prop55
280
     0
102
RTVSPost2010PropOp55
 70
     1
102
RTVSPost2010Prop56
140
1.0
102
RTVSPost2010PropOp56
 70
     1
102
RTVSPost2010Prop57
140
1.0
102
RTVSPost2010PropOp57
 70
     1
  0
ENDSEC
  0
EOF
