  0
SECTION
  2
HEADER
  9
$ACADVER
  1
AC1024
  9
$ACADMAINTVER
 70
     6
  9
$DWGCODEPAGE
  3
UNDEFINED
  9
$INSBASE
 10
0.0
 20
0.0
 30
0.0
  9
$EXTMIN
 10
1.000000000000000E+20
 20
1.000000000000000E+20
 30
1.000000000000000E+20
  9
$EXTMAX
 10
-1.000000000000000E+20
 20
-1.000000000000000E+20
 30
-1.000000000000000E+20
  9
$LIMMIN
 10
0.0
 20
0.0
  9
$LIMMAX
 10
12.0
 20
9.0
  9
$ORTHOMODE
 70
     0
  9
$REGENMODE
 70
     1
  9
$FILLMODE
 70
     1
  9
$QTEXTMODE
 70
     0
  9
$MIRRTEXT
 70
     1
  9
$LTSCALE
 40
1.0
  9
$ATTMODE
 70
     1
  9
$TEXTSIZE
 40
0.2
  9
$TRACEWID
 40
0.05
  9
$TEXTSTYLE
  7
Standard
  9
$CLAYER
  8
0
  9
$CELTYPE
  6
ByLayer
  9
$CECOLOR
 62
   256
  9
$CELTSCALE
 40
1.0
  9
$DISPSILH
 70
     0
  9
$DIMSCALE
 40
1.0
  9
$DIMASZ
 40
0.18
  9
$DIMEXO
 40
0.0625
  9
$DIMDLI
 40
0.38
  9
$DIMRND
 40
0.0
  9
$DIMDLE
 40
0.0
  9
$DIMEXE
 40
0.18
  9
$DIMTP
 40
0.0
  9
$DIMTM
 40
0.0
  9
$DIMTXT
 40
0.18
  9
$DIMCEN
 40
0.09
  9
$DIMTSZ
 40
0.0
  9
$DIMTOL
 70
     0
  9
$DIMLIM
 70
     0
  9
$DIMTIH
 70
     1
  9
$DIMTOH
 70
     1
  9
$DIMSE1
 70
     0
  9
$DIMSE2
 70
     0
  9
$DIMTAD
 70
     0
  9
$DIMZIN
 70
     0
  9
$DIMBLK
  1

  9
$DIMASO
 70
     1
  9
$DIMSHO
 70
     1
  9
$DIMPOST
  1

  9
$DIMAPOST
  1

  9
$DIMALT
 70
     0
  9
$DIMALTD
 70
     2
  9
$DIMALTF
 40
25.4
  9
$DIMLFAC
 40
1.0
  9
$DIMTOFL
 70
     0
  9
$DIMTVP
 40
0.0
  9
$DIMTIX
 70
     0
  9
$DIMSOXD
 70
     0
  9
$DIMSAH
 70
     0
  9
$DIMBLK1
  1

  9
$DIMBLK2
  1

  9
$DIMSTYLE
  2
Standard
  9
$DIMCLRD
 70
     0
  9
$DIMCLRE
 70
     0
  9
$DIMCLRT
 70
     0
  9
$DIMTFAC
 40
1.0
  9
$DIMGAP
 40
0.09
  9
$DIMJUST
 70
     0
  9
$DIMSD1
 70
     0
  9
$DIMSD2
 70
     0
  9
$DIMTOLJ
 70
     1
  9
$DIMTZIN
 70
     0
  9
$DIMALTZ
 70
     0
  9
$DIMALTTZ
 70
     0
  9
$DIMUPT
 70
     0
  9
$DIMDEC
 70
     4
  9
$DIMTDEC
 70
     4
  9
$DIMALTU
 70
     2
  9
$DIMALTTD
 70
     2
  9
$DIMTXSTY
  7
Standard
  9
$DIMAUNIT
 70
     0
  9
$DIMADEC
 70
     0
  9
$DIMALTRND
 40
0.0
  9
$DIMAZIN
 70
     0
  9
$DIMDSEP
 70
    46
  9
$DIMATFIT
 70
     3
  9
$DIMFRAC
 70
     0
  9
$DIMLDRBLK
  1

  9
$DIMLUNIT
 70
     2
  9
$DIMLWD
 70
    -2
  9
$DIMLWE
 70
    -2
  9
$DIMTMOVE
 70
     0
  9
$DIMFXL
 40
1.0
  9
$DIMFXLON
 70
     0
  9
$DIMJOGANG
 40
0.7853981633974483
  9
$DIMTFILL
 70
     0
  9
$DIMTFILLCLR
 70
     0
  9
$DIMARCSYM
 70
     0
  9
$DIMLTYPE
  6

  9
$DIMLTEX1
  6

  9
$DIMLTEX2
  6

  9
$DIMTXTDIRECTION
 70
     0
  9
$LUNITS
 70
     2
  9
$LUPREC
 70
     4
  9
$SKETCHINC
 40
0.1
  9
$FILLETRAD
 40
0.5
  9
$AUNITS
 70
     0
  9
$AUPREC
 70
     0
  9
$MENU
  1
.
  9
$ELEVATION
 40
0.0
  9
$PELEVATION
 40
0.0
  9
$THICKNESS
 40
0.0
  9
$LIMCHECK
 70
     0
  9
$CHAMFERA
 40
0.5
  9
$CHAMFERB
 40
0.5
  9
$CHAMFERC
 40
1.0
  9
$CHAMFERD
 40
0.0
  9
$SKPOLY
 70
     0
  9
$TDCREATE
 40
2457917.586840278
  9
$TDUCREATE
 40
2457917.211840278
  9
$TDUPDATE
 40
2457917.586840278
  9
$TDUUPDATE
 40
2457917.211840278
  9
$TDINDWG
 40
0.0000000116
  9
$TDUSRTIMER
 40
0.0000000116
  9
$USRTIMER
 70
     1
  9
$ANGBASE
 50
0.0
  9
$ANGDIR
 70
     0
  9
$PDMODE
 70
     0
  9
$PDSIZE
 40
0.0
  9
$PLINEWID
 40
0.0
  9
$SPLFRAME
 70
     0
  9
$SPLINETYPE
 70
     6
  9
$SPLINESEGS
 70
     8
  9
$HANDSEED
  5
FD
  9
$SURFTAB1
 70
     6
  9
$SURFTAB2
 70
     6
  9
$SURFTYPE
 70
     6
  9
$SURFU
 70
     6
  9
$SURFV
 70
     6
  9
$UCSBASE
  2

  9
$UCSNAME
  2

  9
$UCSORG
 10
0.0
 20
0.0
 30
0.0
  9
$UCSXDIR
 10
1.0
 20
0.0
 30
0.0
  9
$UCSYDIR
 10
0.0
 20
1.0
 30
0.0
  9
$UCSORTHOREF
  2

  9
$UCSORTHOVIEW
 70
     0
  9
$UCSORGTOP
 10
0.0
 20
0.0
 30
0.0
  9
$UCSORGBOTTOM
 10
0.0
 20
0.0
 30
0.0
  9
$UCSORGLEFT
 10
0.0
 20
0.0
 30
0.0
  9
$UCSORGRIGHT
 10
0.0
 20
0.0
 30
0.0
  9
$UCSORGFRONT
 10
0.0
 20
0.0
 30
0.0
  9
$UCSORGBACK
 10
0.0
 20
0.0
 30
0.0
  9
$PUCSBASE
  2

  9
$PUCSNAME
  2

  9
$PUCSORG
 10
0.0
 20
0.0
 30
0.0
  9
$PUCSXDIR
 10
1.0
 20
0.0
 30
0.0
  9
$PUCSYDIR
 10
0.0
 20
1.0
 30
0.0
  9
$PUCSORTHOREF
  2

  9
$PUCSORTHOVIEW
 70
     0
  9
$PUCSORGTOP
 10
0.0
 20
0.0
 30
0.0
  9
$PUCSORGBOTTOM
 10
0.0
 20
0.0
 30
0.0
  9
$PUCSORGLEFT
 10
0.0
 20
0.0
 30
0.0
  9
$PUCSORGRIGHT
 10
0.0
 20
0.0
 30
0.0
  9
$PUCSORGFRONT
 10
0.0
 20
0.0
 30
0.0
  9
$PUCSORGBACK
 10
0.0
 20
0.0
 30
0.0
  9
$USERI1
 70
     0
  9
$USERI2
 70
     0
  9
$USERI3
 70
     0
  9
$USERI4
 70
     0
  9
$USERI5
 70
     0
  9
$USERR1
 40
0.0
  9
$USERR2
 40
0.0
  9
$USERR3
 40
0.0
  9
$USERR4
 40
0.0
  9
$USERR5
 40
0.0
  9
$WORLDVIEW
 70
     1
  9
$SHADEDGE
 70
     3
  9
$SHADEDIF
 70
    70
  9
$TILEMODE
 70
     1
  9
$MAXACTVP
 70
    64
  9
$PINSBASE
 10
0.0
 20
0.0
 30
0.0
  9
$PLIMCHECK
 70
     0
  9
$PEXTMIN
 10
1.000000000000000E+20
 20
1.000000000000000E+20
 30
1.000000000000000E+20
  9
$PEXTMAX
 10
-1.000000000000000E+20
 20
-1.000000000000000E+20
 30
-1.000000000000000E+20
  9
$PLIMMIN
 10
0.0
 20
0.0
  9
$PLIMMAX
 10
12.0
 20
9.0
  9
$UNITMODE
 70
     0
  9
$VISRETAIN
 70
     1
  9
$PLINEGEN
 70
     0
  9
$PSLTSCALE
 70
     1
  9
$TREEDEPTH
 70
  3020
  9
$CMLSTYLE
  2
Standard
  9
$CMLJUST
 70
     0
  9
$CMLSCALE
 40
1.0
  9
$PROXYGRAPHICS
 70
     1
  9
$MEASUREMENT
 70
     0
  9
$CELWEIGHT
370
    -1
  9
$ENDCAPS
280
     0
  9
$JOINSTYLE
280
     0
  9
$LWDISPLAY
290
     1
  9
$INSUNITS
 70
     1
  9
$HYPERLINKBASE
  1

  9
$STYLESHEET
  1

  9
$XEDIT
290
     1
  9
$CEPSNTYPE
380
     0
  9
$PSTYLEMODE
290
     1
  9
$FINGERPRINTGUID
  2
{01BBA9A6-6BC2-0F3C-27D8-A5CCB9AE0939}
  9
$VERSIONGUID
  2
{FAEB1C32-E019-11D5-929B-00C0DF256EC4}
  9
$EXTNAMES
290
     1
  9
$PSVPSCALE
 40
0.0
  9
$OLESTARTUP
290
     0
  9
$SORTENTS
280
   127
  9
$INDEXCTL
280
     0
  9
$HIDETEXT
280
     1
  9
$XCLIPFRAME
280
     2
  9
$HALOGAP
280
     0
  9
$OBSCOLOR
 70
   257
  9
$OBSLTYPE
280
     0
  9
$INTERSECTIONDISPLAY
280
     0
  9
$INTERSECTIONCOLOR
 70
   257
  9
$DIMASSOC
280
     2
  9
$PROJECTNAME
  1

  9
$CAMERADISPLAY
290
     0
  9
$LENSLENGTH
 40
50.0
  9
$CAMERAHEIGHT
 40
0.0
  9
$STEPSPERSEC
 40
2.0
  9
$STEPSIZE
 40
6.0
  9
$3DDWFPREC
 40
2.0
  9
$PSOLWIDTH
 40
0.25
  9
$PSOLHEIGHT
 40
4.0
  9
$LOFTANG1
 40
1.570796326794897
  9
$LOFTANG2
 40
1.570796326794897
  9
$LOFTMAG1
 40
0.0
  9
$LOFTMAG2
 40
0.0
  9
$LOFTPARAM
 70
     7
  9
$LOFTNORMALS
280
     1
  9
$LATITUDE
 40
37.795
  9
$LONGITUDE
 40
-122.394
  9
$NORTHDIRECTION
 40
0.0
  9
$TIMEZONE
 70
 -8000
  9
$LIGHTGLYPHDISPLAY
280
     1
  9
$TILEMODELIGHTSYNCH
280
     1
  9
$CMATERIAL
347
3C
  9
$SOLIDHIST
280
     1
  9
$SHOWHIST
280
     1
  9
$DWFFRAME
280
     2
  9
$DGNFRAME
280
     2
  9
$REALWORLDSCALE
290
     1
  9
$INTERFERECOLOR
 62
   256
  9
$CSHADOW
280
     0
  9
$SHADOWPLANELOCATION
 40
0.0
  0
ENDSEC
  0
SECTION
  2
CLASSES
  0
CLASS
  1
ACDBDICTIONARYWDFLT
  2
AcDbDictionaryWithDefault
  3
ObjectDBX Classes
 90
        0
 91
        4
280
     0
281
     0
  0
CLASS
  1
VISUALSTYLE
  2
AcDbVisualStyle
  3
ObjectDBX Classes
 90
     4095
 91
        4
280
     0
281
     0
  0
CLASS
  1
MATERIAL
  2
AcDbMaterial
  3
ObjectDBX Classes
 90
     1153
 91
        4
280
     0
281
     0
  0
CLASS
  1
SUN
  2
AcDbSun
  3
SCENEOE
 90
     1024
 91
        4
280
     0
281
     0
  0
ENDSEC
  0
SECTION
  2
TABLES
  0
TABLE
  2
VPORT
  5
8
330
0
100
AcDbSymbolTable
 70
     1
  0
VPORT
  5
29
330
8
100
AcDbSymbolTableRecord
100
AcDbViewportTableRecord
  2
*Active
 70
     0
 10
0.0
 20
0.0
 11
1.0
 21
1.0
 12
0.0
 22
0.0
 13
0.0
 23
0.0
 14
0.5
 24
0.5
 15
0.5
 25
0.5
 16
0.0
 26
0.0
 36
1.0
 17
105.0008280156501
 27
-148.4999710739862
 37
0.0
 40
296.9999421479724
 41
0.7070764206636528
 42
50.0
 43
0.0
 44
0.0
 50
0.0
 51
0.0
 71
     0
 72
   100
 73
     1
 74
     3
 75
     0
 76
     0
 77
     0
 78
     0
281
     0
 65
     1
110
0.0
120
0.0
130
0.0
111
1.0
121
0.0
131
0.0
112
0.0
122
1.0
132
0.0
 79
     0
146
0.0
 60
     3
 61
     5
292
     1
282
     1
141
0.0
142
0.0
 63
   250
361
3F
  0
ENDTAB
  0
TABLE
  2
LTYPE
  5
5
330
0
100
AcDbSymbolTable
 70
     1
  0
LTYPE
  5
14
330
5
100
AcDbSymbolTableRecord
100
AcDbLinetypeTableRecord
  2
ByBlock
 70
     0
  3

 72
    65
 73
     0
 40
0.0
  0
LTYPE
  5
15
330
5
100
AcDbSymbolTableRecord
100
AcDbLinetypeTableRecord
  2
ByLayer
 70
     0
  3

 72
    65
 73
     0
 40
0.0
  0
LTYPE
  5
16
330
5
100
AcDbSymbolTableRecord
100
AcDbLinetypeTableRecord
  2
Continuous
 70
     0
  3
Solid line
 72
    65
 73
     0
 40
0.0
  0
ENDTAB
  0
TABLE
  2
LAYER
  5
2
330
0
100
AcDbSymbolTable
 70
     2
  0
LAYER
  5
10
330
2
100
AcDbSymbolTableRecord
100
AcDbLayerTableRecord
  2
0
 70
     0
 62
     7
  6
Continuous
370
    -3
390
F
347
3E
  0
LAYER
  5
40
330
2
100
AcDbSymbolTableRecord
100
AcDbLayerTableRecord
  2
_U+30EC_U+30A4_U+30E4_U+30FC 1
 70
     0
 62
     7
  6
Continuous
370
    -3
390
F
347
3E
  0
ENDTAB
  0
TABLE
  2
STYLE
  5
3
330
0
100
AcDbSymbolTable
 70
     1
  0
STYLE
  5
11
330
3
100
AcDbSymbolTableRecord
100
AcDbTextStyleTableRecord
  2
Standard
 70
     0
 40
0.0
 41
1.0
 50
0.0
 71
     0
 42
0.2
  3
txt
  4

  0
ENDTAB
  0
TABLE
  2
VIEW
  5
6
330
0
100
AcDbSymbolTable
 70
     0
  0
ENDTAB
  0
TABLE
  2
UCS
  5
7
330
0
100
AcDbSymbolTable
 70
     0
  0
ENDTAB
  0
TABLE
  2
APPID
  5
9
330
0
100
AcDbSymbolTable
 70
     1
  0
APPID
  5
12
330
9
100
AcDbSymbolTableRecord
100
AcDbRegAppTableRecord
  2
ACAD
 70
     0
  0
ENDTAB
  0
TABLE
  2
DIMSTYLE
  5
A
330
0
100
AcDbSymbolTable
 70
     1
100
AcDbDimStyleTable
  0
DIMSTYLE
105
27
330
A
100
AcDbSymbolTableRecord
100
AcDbDimStyleTableRecord
  2
Standard
 70
     0
178
     0
340
11
  0
ENDTAB
  0
TABLE
  2
BLOCK_RECORD
  5
1
330
0
100
AcDbSymbolTable
 70
     6
  0
BLOCK_RECORD
  5
1F
330
1
100
AcDbSymbolTableRecord
100
AcDbBlockTableRecord
  2
*Model_Space
340
22
 70
     0
280
     1
281
     0
  0
BLOCK_RECORD
  5
1B
330
1
100
AcDbSymbolTableRecord
100
AcDbBlockTableRecord
  2
*Paper_Space
340
1E
 70
     0
280
     1
281
     0
  0
BLOCK_RECORD
  5
23
330
1
100
AcDbSymbolTableRecord
100
AcDbBlockTableRecord
  2
*Paper_Space0
340
26
 70
     0
280
     1
281
     0
  0
BLOCK_RECORD
  5
71
330
1
100
AcDbSymbolTableRecord
100
AcDbBlockTableRecord
  2
block 2
340
0
102
{BLKREFS
331
72
102
}
 70
     0
280
     1
281
     0
  0
BLOCK_RECORD
  5
89
330
1
100
AcDbSymbolTableRecord
100
AcDbBlockTableRecord
  2
block 3
340
0
102
{BLKREFS
331
8A
102
}
 70
     0
280
     1
281
     0
  0
BLOCK_RECORD
  5
A9
330
1
100
AcDbSymbolTableRecord
100
AcDbBlockTableRecord
  2
block 4
340
0
102
{BLKREFS
331
AA
102
}
 70
     0
280
     1
281
     0
  0
BLOCK_RECORD
  5
D9
330
1
100
AcDbSymbolTableRecord
100
AcDbBlockTableRecord
  2
block 5
340
0
102
{BLKREFS
331
DA
102
}
 70
     0
280
     1
281
     0
  0
BLOCK_RECORD
  5
E9
330
1
100
AcDbSymbolTableRecord
100
AcDbBlockTableRecord
  2
block 6
340
0
102
{BLKREFS
331
EA
102
}
 70
     0
280
     1
281
     0
  0
ENDTAB
  0
ENDSEC
  0
SECTION
  2
BLOCKS
  0
BLOCK
  5
20
330
1F
100
AcDbEntity
  8
0
100
AcDbBlockBegin
  2
*Model_Space
 70
     0
 10
0.0
 20
0.0
 30
0.0
  3
*Model_Space
  1

  0
ENDBLK
  5
21
330
1F
100
AcDbEntity
  8
0
100
AcDbBlockEnd
  0
BLOCK
  5
1C
330
1B
100
AcDbEntity
 67
     1
  8
0
100
AcDbBlockBegin
  2
*Paper_Space
 70
     0
 10
0.0
 20
0.0
 30
0.0
  3
*Paper_Space
  1

  0
ENDBLK
  5
1D
330
1B
100
AcDbEntity
 67
     1
  8
0
100
AcDbBlockEnd
  0
BLOCK
  5
24
330
23
100
AcDbEntity
  8
0
100
AcDbBlockBegin
  2
*Paper_Space0
 70
     0
 10
0.0
 20
0.0
 30
0.0
  3
*Paper_Space0
  1

  0
ENDBLK
  5
25
330
23
100
AcDbEntity
  8
0
100
AcDbBlockEnd
  0
BLOCK
  5
73
330
71
100
AcDbEntity
  8
0
100
AcDbBlockBegin
  2
block 2
 70
     0
 10
0.0
 20
0.0
 30
0.0
  3
block 2
  1

  0
SPLINE
  5
75
330
71
100
AcDbEntity
  8
_U+30EC_U+30A4_U+30E4_U+30FC 1
370
     0
100
AcDbSpline
210
0.0
220
0.0
230
1.0
 70
    11
 71
     3
 72
    26
 73
    22
 74
     0
 42
0.0000000001
 43
0.0000000001
 12
1.0
 22
0.0
 32
0.0
 13
1.0
 23
0.0
 33
0.0
 40
0.0
 40
0.0
 40
0.0
 40
0.0
 40
1.0
 40
1.0
 40
1.0
 40
2.0
 40
2.0
 40
2.0
 40
3.0
 40
3.0
 40
3.0
 40
4.0
 40
4.0
 40
4.0
 40
5.0
 40
5.0
 40
5.0
 40
6.0
 40
6.0
 40
6.0
 40
7.0
 40
7.0
 40
7.0
 40
7.0
 10
109.039683674997
 20
-158.6914333370633
 30
0.0
 10
109.039683674997
 20
-158.6914333370633
 30
0.0
 10
109.039683674997
 20
-157.5872802340407
 30
0.0
 10
109.039683674997
 20
-157.5872802340407
 30
0.0
 10
109.039683674997
 20
-157.5872802340407
 30
0.0
 10
108.7582193738521
 20
-157.5872802340407
 30
0.0
 10
108.7582193738521
 20
-157.5872802340407
 30
0.0
 10
108.7582193738521
 20
-157.5872802340407
 30
0.0
 10
108.7582193738521
 20
-157.439141128175
 30
0.0
 10
108.7582193738521
 20
-157.439141128175
 30
0.0
 10
109.0414062227397
 20
-157.4243272175884
 30
0.0
 10
109.08102482082
 20
-157.2613742011361
 30
0.0
 10
109.1061740178623
 20
-157.1469970310258
 30
0.0
 10
109.1061740178623
 20
-157.1469970310258
 30
0.0
 10
109.2308864744284
 20
-157.1469970310258
 30
0.0
 10
109.2308864744284
 20
-157.1469970310258
 30
0.0
 10
109.2308864744284
 20
-157.1469970310258
 30
0.0
 10
109.2308864744284
 20
-158.6914333370633
 30
0.0
 10
109.2308864744284
 20
-158.6914333370633
 30
0.0
 10
109.2308864744284
 20
-158.6914333370633
 30
0.0
 10
109.039683674997
 20
-158.6914333370633
 30
0.0
 10
109.039683674997
 20
-158.6914333370633
 30
0.0
  0
HATCH
  5
76
330
71
100
AcDbEntity
  8
_U+30EC_U+30A4_U+30E4_U+30FC 1
 62
   179
420
  2234388
100
AcDbHatch
 10
0.0
 20
0.0
 30
0.0
210
0.0
220
0.0
230
1.0
  2
SOLID
 70
     1
 71
     0
 91
        1
 92
        1
 93
        1
 72
     4
 94
        3
 73
     0
 74
     1
 95
       26
 96
       22
 40
0.0
 40
0.0
 40
0.0
 40
0.0
 40
1.0
 40
1.0
 40
1.0
 40
2.0
 40
2.0
 40
2.0
 40
3.0
 40
3.0
 40
3.0
 40
4.0
 40
4.0
 40
4.0
 40
5.0
 40
5.0
 40
5.0
 40
6.0
 40
6.0
 40
6.0
 40
7.0
 40
7.0
 40
7.0
 40
7.0
 10
109.039683674997
 20
-158.6914333370633
 10
109.039683674997
 20
-158.6914333370633
 10
109.039683674997
 20
-157.5872802340407
 10
109.039683674997
 20
-157.5872802340407
 10
109.039683674997
 20
-157.5872802340407
 10
108.7582193738521
 20
-157.5872802340407
 10
108.7582193738521
 20
-157.5872802340407
 10
108.7582193738521
 20
-157.5872802340407
 10
108.7582193738521
 20
-157.439141128175
 10
108.7582193738521
 20
-157.439141128175
 10
109.0414062227397
 20
-157.4243272175884
 10
109.08102482082
 20
-157.2613742011361
 10
109.1061740178623
 20
-157.1469970310258
 10
109.1061740178623
 20
-157.1469970310258
 10
109.2308864744284
 20
-157.1469970310258
 10
109.2308864744284
 20
-157.1469970310258
 10
109.2308864744284
 20
-157.1469970310258
 10
109.2308864744284
 20
-158.6914333370633
 10
109.2308864744284
 20
-158.6914333370633
 10
109.2308864744284
 20
-158.6914333370633
 10
109.039683674997
 20
-158.6914333370633
 10
109.039683674997
 20
-158.6914333370633
 97
        0
 97
        0
 75
     2
 76
     1
 98
        0
  0
SPLINE
  5
77
330
71
100
AcDbEntity
  8
_U+30EC_U+30A4_U+30E4_U+30FC 1
370
     0
100
AcDbSpline
210
0.0
220
0.0
230
1.0
 70
    11
 71
     3
 72
    26
 73
    22
 74
     0
 42
0.0000000001
 43
0.0000000001
 12
1.0
 22
0.0
 32
0.0
 13
1.0
 23
0.0
 33
0.0
 40
0.0
 40
0.0
 40
0.0
 40
0.0
 40
1.0
 40
1.0
 40
1.0
 40
2.0
 40
2.0
 40
2.0
 40
3.0
 40
3.0
 40
3.0
 40
4.0
 40
4.0
 40
4.0
 40
5.0
 40
5.0
 40
5.0
 40
6.0
 40
6.0
 40
6.0
 40
7.0
 40
7.0
 40
7.0
 40
7.0
 10
110.0070664872552
 20
-158.6914333370633
 30
0.0
 10
110.0070664872552
 20
-158.6914333370633
 30
0.0
 10
109.8051838918195
 20
-158.6914333370633
 30
0.0
 10
109.8051838918195
 20
-158.6914333370633
 30
0.0
 10
109.8268879933766
 20
-158.3824082720363
 30
0.0
 10
109.9908745384745
 20
-157.8642659110548
 30
0.0
 10
110.3371066347421
 20
-157.3585258938201
 30
0.0
 10
110.3371066347421
 20
-157.3585258938201
 30
0.0
 10
109.6229383406498
 20
-157.3585258938201
 30
0.0
 10
109.6229383406498
 20
-157.3585258938201
 30
0.0
 10
109.6229383406498
 20
-157.3585258938201
 30
0.0
 10
109.6229383406498
 20
-157.1469970310258
 30
0.0
 10
109.6229383406498
 20
-157.1469970310258
 30
0.0
 10
109.6229383406498
 20
-157.1469970310258
 30
0.0
 10
110.5389892301778
 20
-157.1469970310258
 30
0.0
 10
110.5389892301778
 20
-157.1469970310258
 30
0.0
 10
110.5389892301778
 20
-157.1469970310258
 30
0.0
 10
110.5389892301778
 20
-157.3585258938201
 30
0.0
 10
110.5389892301778
 20
-157.3585258938201
 30
0.0
 10
110.2633815913578
 20
-157.6486029336781
 30
0.0
 10
110.0360052893313
 20
-158.2408148475926
 30
0.0
 10
110.0070664872552
 20
-158.6914333370633
 30
0.0
  0
HATCH
  5
78
330
71
100
AcDbEntity
  8
_U+30EC_U+30A4_U+30E4_U+30FC 1
 62
   179
420
  2234388
100
AcDbHatch
 10
0.0
 20
0.0
 30
0.0
210
0.0
220
0.0
230
1.0
  2
SOLID
 70
     1
 71
     0
 91
        1
 92
        1
 93
        1
 72
     4
 94
        3
 73
     0
 74
     1
 95
       26
 96
       22
 40
0.0
 40
0.0
 40
0.0
 40
0.0
 40
1.0
 40
1.0
 40
1.0
 40
2.0
 40
2.0
 40
2.0
 40
3.0
 40
3.0
 40
3.0
 40
4.0
 40
4.0
 40
4.0
 40
5.0
 40
5.0
 40
5.0
 40
6.0
 40
6.0
 40
6.0
 40
7.0
 40
7.0
 40
7.0
 40
7.0
 10
110.0070664872552
 20
-158.6914333370633
 10
110.0070664872552
 20
-158.6914333370633
 10
109.8051838918195
 20
-158.6914333370633
 10
109.8051838918195
 20
-158.6914333370633
 10
109.8268879933766
 20
-158.3824082720363
 10
109.9908745384745
 20
-157.8642659110548
 10
110.3371066347421
 20
-157.3585258938201
 10
110.3371066347421
 20
-157.3585258938201
 10
109.6229383406498
 20
-157.3585258938201
 10
109.6229383406498
 20
-157.3585258938201
 10
109.6229383406498
 20
-157.3585258938201
 10
109.6229383406498
 20
-157.1469970310258
 10
109.6229383406498
 20
-157.1469970310258
 10
109.6229383406498
 20
-157.1469970310258
 10
110.5389892301778
 20
-157.1469970310258
 10
110.5389892301778
 20
-157.1469970310258
 10
110.5389892301778
 20
-157.1469970310258
 10
110.5389892301778
 20
-157.3585258938201
 10
110.5389892301778
 20
-157.3585258938201
 10
110.2633815913578
 20
-157.6486029336781
 10
110.0360052893313
 20
-158.2408148475926
 10
110.0070664872552
 20
-158.6914333370633
 97
        0
 97
        0
 75
     2
 76
     1
 98
        0
  0
ENDBLK
  5
74
330
71
100
AcDbEntity
  8
0
100
AcDbBlockEnd
  0
BLOCK
  5
8B
330
89
100
AcDbEntity
  8
0
100
AcDbBlockBegin
  2
block 3
 70
     0
 10
0.0
 20
0.0
 30
0.0
  3
block 3
  1

  0
SPLINE
  5
8D
330
89
100
AcDbEntity
  8
_U+30EC_U+30A4_U+30E4_U+30FC 1
370
     0
100
AcDbSpline
210
0.0
220
0.0
230
1.0
 70
    11
 71
     3
 72
    26
 73
    22
 74
     0
 42
0.0000000001
 43
0.0000000001
 12
1.0
 22
0.0
 32
0.0
 13
1.0
 23
0.0
 33
0.0
 40
0.0
 40
0.0
 40
0.0
 40
0.0
 40
1.0
 40
1.0
 40
1.0
 40
2.0
 40
2.0
 40
2.0
 40
3.0
 40
3.0
 40
3.0
 40
4.0
 40
4.0
 40
4.0
 40
5.0
 40
5.0
 40
5.0
 40
6.0
 40
6.0
 40
6.0
 40
7.0
 40
7.0
 40
7.0
 40
7.0
 10
86.16046004790434
 20
-139.6307535458215
 30
0.0
 10
86.16046004790434
 20
-139.6307535458215
 30
0.0
 10
85.0561346901075
 20
-139.6307535458215
 30
0.0
 10
85.0561346901075
 20
-139.6307535458215
 30
0.0
 10
85.0561346901075
 20
-139.6307535458215
 30
0.0
 10
85.0561346901075
 20
-139.9122178469664
 30
0.0
 10
85.0561346901075
 20
-139.9122178469664
 30
0.0
 10
85.0561346901075
 20
-139.9122178469664
 30
0.0
 10
84.90799558424176
 20
-139.9122178469664
 30
0.0
 10
84.90799558424176
 20
-139.9122178469664
 30
0.0
 10
84.89335392842945
 20
-139.6290309980789
 30
0.0
 10
84.73040091197713
 20
-139.5894123999985
 30
0.0
 10
84.6161959966411
 20
-139.5642632029562
 30
0.0
 10
84.6161959966411
 20
-139.5642632029562
 30
0.0
 10
84.6161959966411
 20
-139.4395507463901
 30
0.0
 10
84.6161959966411
 20
-139.4395507463901
 30
0.0
 10
84.6161959966411
 20
-139.4395507463901
 30
0.0
 10
86.16046004790434
 20
-139.4395507463901
 30
0.0
 10
86.16046004790434
 20
-139.4395507463901
 30
0.0
 10
86.16046004790434
 20
-139.4395507463901
 30
0.0
 10
86.16046004790434
 20
-139.6307535458215
 30
0.0
 10
86.16046004790434
 20
-139.6307535458215
 30
0.0
  0
HATCH
  5
8E
330
89
100
AcDbEntity
  8
_U+30EC_U+30A4_U+30E4_U+30FC 1
 62
   179
420
  2234388
100
AcDbHatch
 10
0.0
 20
0.0
 30
0.0
210
0.0
220
0.0
230
1.0
  2
SOLID
 70
     1
 71
     0
 91
        1
 92
        1
 93
        1
 72
     4
 94
        3
 73
     0
 74
     1
 95
       26
 96
       22
 40
0.0
 40
0.0
 40
0.0
 40
0.0
 40
1.0
 40
1.0
 40
1.0
 40
2.0
 40
2.0
 40
2.0
 40
3.0
 40
3.0
 40
3.0
 40
4.0
 40
4.0
 40
4.0
 40
5.0
 40
5.0
 40
5.0
 40
6.0
 40
6.0
 40
6.0
 40
7.0
 40
7.0
 40
7.0
 40
7.0
 10
86.16046004790434
 20
-139.6307535458215
 10
86.16046004790434
 20
-139.6307535458215
 10
85.0561346901075
 20
-139.6307535458215
 10
85.0561346901075
 20
-139.6307535458215
 10
85.0561346901075
 20
-139.6307535458215
 10
85.0561346901075
 20
-139.9122178469664
 10
85.0561346901075
 20
-139.9122178469664
 10
85.0561346901075
 20
-139.9122178469664
 10
84.90799558424176
 20
-139.9122178469664
 10
84.90799558424176
 20
-139.9122178469664
 10
84.89335392842945
 20
-139.6290309980789
 10
84.73040091197713
 20
-139.5894123999985
 10
84.6161959966411
 20
-139.5642632029562
 10
84.6161959966411
 20
-139.5642632029562
 10
84.6161959966411
 20
-139.4395507463901
 10
84.6161959966411
 20
-139.4395507463901
 10
84.6161959966411
 20
-139.4395507463901
 10
86.16046004790434
 20
-139.4395507463901
 10
86.16046004790434
 20
-139.4395507463901
 10
86.16046004790434
 20
-139.4395507463901
 10
86.16046004790434
 20
-139.6307535458215
 10
86.16046004790434
 20
-139.6307535458215
 97
        0
 97
        0
 75
     2
 76
     1
 98
        0
  0
POLYLINE
  5
8F
330
89
100
AcDbEntity
  8
_U+30EC_U+30A4_U+30E4_U+30FC 1
370
     0
100
AcDb2dPolyline
 66
     1
 10
0.0
 20
0.0
 30
0.0
  0
VERTEX
  5
90
330
8F
100
AcDbEntity
  8
_U+30EC_U+30A4_U+30E4_U+30FC 1
370
     0
100
AcDbVertex
100
AcDb2dVertex
 10
86.16046004790434
 20
-138.9627495312315
 30
0.0
  0
VERTEX
  5
91
330
8F
100
AcDbEntity
  8
_U+30EC_U+30A4_U+30E4_U+30FC 1
370
     0
100
AcDbVertex
100
AcDb2dVertex
 10
85.90879582270684
 20
-138.9627495312315
 30
0.0
  0
VERTEX
  5
92
330
8F
100
AcDbEntity
  8
_U+30EC_U+30A4_U+30E4_U+30FC 1
370
     0
100
AcDbVertex
100
AcDb2dVertex
 10
85.90879582270684
 20
-138.7481200825005
 30
0.0
  0
VERTEX
  5
93
330
8F
100
AcDbEntity
  8
_U+30EC_U+30A4_U+30E4_U+30FC 1
370
     0
100
AcDbVertex
100
AcDb2dVertex
 10
86.16046004790434
 20
-138.7481200825005
 30
0.0
  0
VERTEX
  5
94
330
8F
100
AcDbEntity
  8
_U+30EC_U+30A4_U+30E4_U+30FC 1
370
     0
100
AcDbVertex
100
AcDb2dVertex
 10
86.16046004790434
 20
-138.9627495312315
 30
0.0
  0
SEQEND
  5
95
330
8F
100
AcDbEntity
  8
_U+30EC_U+30A4_U+30E4_U+30FC 1
370
     0
  0
HATCH
  5
96
330
89
100
AcDbEntity
  8
_U+30EC_U+30A4_U+30E4_U+30FC 1
 62
   179
420
  2234388
100
AcDbHatch
 10
0.0
 20
0.0
 30
0.0
210
0.0
220
0.0
230
1.0
  2
SOLID
 70
     1
 71
     0
 91
        1
 92
        1
 93
        4
 72
     1
 10
86.16046004790434
 20
-138.9627495312315
 11
85.90879582270684
 21
-138.9627495312315
 72
     1
 10
85.90879582270684
 20
-138.9627495312315
 11
85.90879582270684
 21
-138.7481200825005
 72
     1
 10
85.90879582270684
 20
-138.7481200825005
 11
86.16046004790434
 21
-138.7481200825005
 72
     1
 10
86.16046004790434
 20
-138.7481200825005
 11
86.16046004790434
 21
-138.9627495312315
 97
        0
 75
     2
 76
     1
 98
        0
  0
SPLINE
  5
97
330
89
100
AcDbEntity
  8
_U+30EC_U+30A4_U+30E4_U+30FC 1
370
     0
100
AcDbSpline
210
0.0
220
0.0
230
1.0
 70
    11
 71
     3
 72
    26
 73
    22
 74
     0
 42
0.0000000001
 43
0.0000000001
 12
1.0
 22
0.0
 32
0.0
 13
1.0
 23
0.0
 33
0.0
 40
0.0
 40
0.0
 40
0.0
 40
0.0
 40
1.0
 40
1.0
 40
1.0
 40
2.0
 40
2.0
 40
2.0
 40
3.0
 40
3.0
 40
3.0
 40
4.0
 40
4.0
 40
4.0
 40
5.0
 40
5.0
 40
5.0
 40
6.0
 40
6.0
 40
6.0
 40
7.0
 40
7.0
 40
7.0
 40
7.0
 10
86.16046004790434
 20
-138.1621093404595
 30
0.0
 10
86.16046004790434
 20
-138.1621093404595
 30
0.0
 10
85.0561346901075
 20
-138.1621093404595
 30
0.0
 10
85.0561346901075
 20
-138.1621093404595
 30
0.0
 10
85.0561346901075
 20
-138.1621093404595
 30
0.0
 10
85.0561346901075
 20
-138.4435736416044
 30
0.0
 10
85.0561346901075
 20
-138.4435736416044
 30
0.0
 10
85.0561346901075
 20
-138.4435736416044
 30
0.0
 10
84.90799558424176
 20
-138.4435736416044
 30
0.0
 10
84.90799558424176
 20
-138.4435736416044
 30
0.0
 10
84.89335392842945
 20
-138.1603867927168
 30
0.0
 10
84.73040091197713
 20
-138.1207681946365
 30
0.0
 10
84.6161959966411
 20
-138.0956189975942
 30
0.0
 10
84.6161959966411
 20
-138.0956189975942
 30
0.0
 10
84.6161959966411
 20
-137.9709065410281
 30
0.0
 10
84.6161959966411
 20
-137.9709065410281
 30
0.0
 10
84.6161959966411
 20
-137.9709065410281
 30
0.0
 10
86.16046004790434
 20
-137.9709065410281
 30
0.0
 10
86.16046004790434
 20
-137.9709065410281
 30
0.0
 10
86.16046004790434
 20
-137.9709065410281
 30
0.0
 10
86.16046004790434
 20
-138.1621093404595
 30
0.0
 10
86.16046004790434
 20
-138.1621093404595
 30
0.0
  0
HATCH
  5
98
330
89
100
AcDbEntity
  8
_U+30EC_U+30A4_U+30E4_U+30FC 1
 62
   179
420
  2234388
100
AcDbHatch
 10
0.0
 20
0.0
 30
0.0
210
0.0
220
0.0
230
1.0
  2
SOLID
 70
     1
 71
     0
 91
        1
 92
        1
 93
        1
 72
     4
 94
        3
 73
     0
 74
     1
 95
       26
 96
       22
 40
0.0
 40
0.0
 40
0.0
 40
0.0
 40
1.0
 40
1.0
 40
1.0
 40
2.0
 40
2.0
 40
2.0
 40
3.0
 40
3.0
 40
3.0
 40
4.0
 40
4.0
 40
4.0
 40
5.0
 40
5.0
 40
5.0
 40
6.0
 40
6.0
 40
6.0
 40
7.0
 40
7.0
 40
7.0
 40
7.0
 10
86.16046004790434
 20
-138.1621093404595
 10
86.16046004790434
 20
-138.1621093404595
 10
85.0561346901075
 20
-138.1621093404595
 10
85.0561346901075
 20
-138.1621093404595
 10
85.0561346901075
 20
-138.1621093404595
 10
85.0561346901075
 20
-138.4435736416044
 10
85.0561346901075
 20
-138.4435736416044
 10
85.0561346901075
 20
-138.4435736416044
 10
84.90799558424176
 20
-138.4435736416044
 10
84.90799558424176
 20
-138.4435736416044
 10
84.89335392842945
 20
-138.1603867927168
 10
84.73040091197713
 20
-138.1207681946365
 10
84.6161959966411
 20
-138.0956189975942
 10
84.6161959966411
 20
-138.0956189975942
 10
84.6161959966411
 20
-137.9709065410281
 10
84.6161959966411
 20
-137.9709065410281
 10
84.6161959966411
 20
-137.9709065410281
 10
86.16046004790434
 20
-137.9709065410281
 10
86.16046004790434
 20
-137.9709065410281
 10
86.16046004790434
 20
-137.9709065410281
 10
86.16046004790434
 20
-138.1621093404595
 10
86.16046004790434
 20
-138.1621093404595
 97
        0
 97
        0
 75
     2
 76
     1
 98
        0
  0
ENDBLK
  5
8C
330
89
100
AcDbEntity
  8
0
100
AcDbBlockEnd
  0
BLOCK
  5
AB
330
A9
100
AcDbEntity
  8
0
100
AcDbBlockBegin
  2
block 4
 70
     0
 10
0.0
 20
0.0
 30
0.0
  3
block 4
  1

  0
SPLINE
  5
AD
330
A9
100
AcDbEntity
  8
_U+30EC_U+30A4_U+30E4_U+30FC 1
370
     0
100
AcDbSpline
210
0.0
220
0.0
230
1.0
 70
    11
 71
     3
 72
    29
 73
    25
 74
     0
 42
0.0000000001
 43
0.0000000001
 12
1.0
 22
0.0
 32
0.0
 13
1.0
 23
0.0
 33
0.0
 40
0.0
 40
0.0
 40
0.0
 40
0.0
 40
1.0
 40
1.0
 40
1.0
 40
2.0
 40
2.0
 40
2.0
 40
3.0
 40
3.0
 40
3.0
 40
4.0
 40
4.0
 40
4.0
 40
5.0
 40
5.0
 40
5.0
 40
6.0
 40
6.0
 40
6.0
 40
7.0
 40
7.0
 40
7.0
 40
8.0
 40
8.0
 40
8.0
 40
8.0
 10
124.9980549817713
 20
-154.695467083722
 30
0.0
 10
125.2075167872745
 20
-154.7874511331781
 30
0.0
 10
125.2264648124434
 20
-154.9352457294954
 30
0.0
 10
125.2264648124434
 20
-155.0344644794706
 30
0.0
 10
125.2264648124434
 20
-155.1715792797835
 30
0.0
 10
125.1799560233925
 20
-155.2921576217672
 30
0.0
 10
124.9980549817713
 20
-155.3734618752191
 30
0.0
 10
124.8034070868547
 20
-155.4616563196415
 30
0.0
 10
124.5663845174695
 20
-155.4778482684222
 30
0.0
 10
124.4037760105657
 20
-155.4778482684222
 30
0.0
 10
124.2597710192823
 20
-155.4778482684222
 30
0.0
 10
124.0079345393105
 20
-155.4637233769327
 30
0.0
 10
123.8091525298116
 20
-155.3734618752191
 30
0.0
 10
123.6062364057304
 20
-155.281477825763
 30
0.0
 10
123.5828097564307
 20
-155.14436302545
 30
0.0
 10
123.5828097564307
 20
-155.0344644794706
 30
0.0
 10
123.5828097564307
 20
-154.8990722269002
 30
0.0
 10
123.6272514881904
 20
-154.7764268276254
 30
0.0
 10
123.8091525298116
 20
-154.695467083722
 30
0.0
 10
124.0017333674371
 20
-154.6107177347848
 30
0.0
 10
124.2301431981091
 20
-154.5907361809704
 30
0.0
 10
124.4037760105657
 20
-154.5907361809704
 30
0.0
 10
124.5749972561826
 20
-154.5907361809704
 30
0.0
 10
124.8054741441459
 20
-154.6089951870422
 30
0.0
 10
124.9980549817713
 20
-154.695467083722
 30
0.0
  0
SPLINE
  5
AE
330
A9
100
AcDbEntity
  8
_U+30EC_U+30A4_U+30E4_U+30FC 1
370
     0
100
AcDbSpline
210
0.0
220
0.0
230
1.0
 70
    11
 71
     3
 72
    17
 73
    13
 74
     0
 42
0.0000000001
 43
0.0000000001
 12
1.0
 22
0.0
 32
0.0
 13
1.0
 23
0.0
 33
0.0
 40
0.0
 40
0.0
 40
0.0
 40
0.0
 40
1.0
 40
1.0
 40
1.0
 40
2.0
 40
2.0
 40
2.0
 40
3.0
 40
3.0
 40
3.0
 40
4.0
 40
4.0
 40
4.0
 40
4.0
 10
123.7753905940562
 20
-155.0344644794706
 30
0.0
 10
123.7753905940562
 20
-155.2470268709105
 30
0.0
 10
124.0589219524922
 20
-155.2869899785394
 30
0.0
 10
124.4037760105657
 20
-155.2869899785394
 30
0.0
 10
124.7231363620484
 20
-155.2869899785394
 30
0.0
 10
125.0318169175268
 20
-155.2563286287206
 30
0.0
 10
125.0318169175268
 20
-155.0344644794706
 30
0.0
 10
125.0318169175268
 20
-154.8232801262247
 30
0.0
 10
124.7506971259304
 20
-154.7819389804017
 30
0.0
 10
124.4037760105657
 20
-154.7819389804017
 30
0.0
 10
124.0840711495345
 20
-154.7819389804017
 30
0.0
 10
123.7753905940562
 20
-154.8143228779631
 30
0.0
 10
123.7753905940562
 20
-155.0344644794706
 30
0.0
  0
HATCH
  5
AF
330
A9
100
AcDbEntity
  8
_U+30EC_U+30A4_U+30E4_U+30FC 1
 62
   179
420
  2234388
100
AcDbHatch
 10
0.0
 20
0.0
 30
0.0
210
0.0
220
0.0
230
1.0
  2
SOLID
 70
     1
 71
     0
 91
        2
 92
        1
 93
        1
 72
     4
 94
        3
 73
     0
 74
     1
 95
       29
 96
       25
 40
0.0
 40
0.0
 40
0.0
 40
0.0
 40
1.0
 40
1.0
 40
1.0
 40
2.0
 40
2.0
 40
2.0
 40
3.0
 40
3.0
 40
3.0
 40
4.0
 40
4.0
 40
4.0
 40
5.0
 40
5.0
 40
5.0
 40
6.0
 40
6.0
 40
6.0
 40
7.0
 40
7.0
 40
7.0
 40
8.0
 40
8.0
 40
8.0
 40
8.0
 10
124.9980549817713
 20
-154.695467083722
 10
125.2075167872745
 20
-154.7874511331781
 10
125.2264648124434
 20
-154.9352457294954
 10
125.2264648124434
 20
-155.0344644794706
 10
125.2264648124434
 20
-155.1715792797835
 10
125.1799560233925
 20
-155.2921576217672
 10
124.9980549817713
 20
-155.3734618752191
 10
124.8034070868547
 20
-155.4616563196415
 10
124.5663845174695
 20
-155.4778482684222
 10
124.4037760105657
 20
-155.4778482684222
 10
124.2597710192823
 20
-155.4778482684222
 10
124.0079345393105
 20
-155.4637233769327
 10
123.8091525298116
 20
-155.3734618752191
 10
123.6062364057304
 20
-155.281477825763
 10
123.5828097564307
 20
-155.14436302545
 10
123.5828097564307
 20
-155.0344644794706
 10
123.5828097564307
 20
-154.8990722269002
 10
123.6272514881904
 20
-154.7764268276254
 10
123.8091525298116
 20
-154.695467083722
 10
124.0017333674371
 20
-154.6107177347848
 10
124.2301431981091
 20
-154.5907361809704
 10
124.4037760105657
 20
-154.5907361809704
 10
124.5749972561826
 20
-154.5907361809704
 10
124.8054741441459
 20
-154.6089951870422
 10
124.9980549817713
 20
-154.695467083722
 97
        0
 97
        0
 92
        1
 93
        1
 72
     4
 94
        3
 73
     0
 74
     1
 95
       17
 96
       13
 40
0.0
 40
0.0
 40
0.0
 40
0.0
 40
1.0
 40
1.0
 40
1.0
 40
2.0
 40
2.0
 40
2.0
 40
3.0
 40
3.0
 40
3.0
 40
4.0
 40
4.0
 40
4.0
 40
4.0
 10
123.7753905940562
 20
-155.0344644794706
 10
123.7753905940562
 20
-155.2470268709105
 10
124.0589219524922
 20
-155.2869899785394
 10
124.4037760105657
 20
-155.2869899785394
 10
124.7231363620484
 20
-155.2869899785394
 10
125.0318169175268
 20
-155.2563286287206
 10
125.0318169175268
 20
-155.0344644794706
 10
125.0318169175268
 20
-154.8232801262247
 10
124.7506971259304
 20
-154.7819389804017
 10
124.4037760105657
 20
-154.7819389804017
 10
124.0840711495345
 20
-154.7819389804017
 10
123.7753905940562
 20
-154.8143228779631
 10
123.7753905940562
 20
-155.0344644794706
 97
        0
 97
        0
 75
     2
 76
     1
 98
        0
  0
POLYLINE
  5
B0
330
A9
100
AcDbEntity
  8
_U+30EC_U+30A4_U+30E4_U+30FC 1
370
     0
100
AcDb2dPolyline
 66
     1
 10
0.0
 20
0.0
 30
0.0
  0
VERTEX
  5
B1
330
B0
100
AcDbEntity
  8
_U+30EC_U+30A4_U+30E4_U+30FC 1
370
     0
100
AcDbVertex
100
AcDb2dVertex
 10
125.1758219088102
 20
-154.4078016107036
 30
0.0
  0
VERTEX
  5
B2
330
B0
100
AcDbEntity
  8
_U+30EC_U+30A4_U+30E4_U+30FC 1
370
     0
100
AcDbVertex
100
AcDb2dVertex
 10
124.9239854288384
 20
-154.4078016107036
 30
0.0
  0
VERTEX
  5
B3
330
B0
100
AcDbEntity
  8
_U+30EC_U+30A4_U+30E4_U+30FC 1
370
     0
100
AcDbVertex
100
AcDb2dVertex
 10
124.9239854288384
 20
-154.1931721619725
 30
0.0
  0
VERTEX
  5
B4
330
B0
100
AcDbEntity
  8
_U+30EC_U+30A4_U+30E4_U+30FC 1
370
     0
100
AcDbVertex
100
AcDb2dVertex
 10
125.1758219088102
 20
-154.1931721619725
 30
0.0
  0
VERTEX
  5
B5
330
B0
100
AcDbEntity
  8
_U+30EC_U+30A4_U+30E4_U+30FC 1
370
     0
100
AcDbVertex
100
AcDb2dVertex
 10
125.1758219088102
 20
-154.4078016107036
 30
0.0
  0
SEQEND
  5
B6
330
B0
100
AcDbEntity
  8
_U+30EC_U+30A4_U+30E4_U+30FC 1
370
     0
  0
HATCH
  5
B7
330
A9
100
AcDbEntity
  8
_U+30EC_U+30A4_U+30E4_U+30FC 1
 62
   179
420
  2234388
100
AcDbHatch
 10
0.0
 20
0.0
 30
0.0
210
0.0
220
0.0
230
1.0
  2
SOLID
 70
     1
 71
     0
 91
        1
 92
        1
 93
        4
 72
     1
 10
125.1758219088102
 20
-154.4078016107036
 11
124.9239854288384
 21
-154.4078016107036
 72
     1
 10
124.9239854288384
 20
-154.4078016107036
 11
124.9239854288384
 21
-154.1931721619725
 72
     1
 10
124.9239854288384
 20
-154.1931721619725
 11
125.1758219088102
 21
-154.1931721619725
 72
     1
 10
125.1758219088102
 20
-154.1931721619725
 11
125.1758219088102
 21
-154.4078016107036
 97
        0
 75
     2
 76
     1
 98
        0
  0
POLYLINE
  5
B8
330
A9
100
AcDbEntity
  8
_U+30EC_U+30A4_U+30E4_U+30FC 1
370
     0
100
AcDb2dPolyline
 66
     1
 10
0.0
 20
0.0
 30
0.0
  0
VERTEX
  5
B9
330
B8
100
AcDbEntity
  8
_U+30EC_U+30A4_U+30E4_U+30FC 1
370
     0
100
AcDbVertex
100
AcDb2dVertex
 10
124.8289007934456
 20
-153.282633425221
 30
0.0
  0
VERTEX
  5
BA
330
B8
100
AcDbEntity
  8
_U+30EC_U+30A4_U+30E4_U+30FC 1
370
     0
100
AcDbVertex
100
AcDb2dVertex
 10
125.1758219088102
 20
-153.282633425221
 30
0.0
  0
VERTEX
  5
BB
330
B8
100
AcDbEntity
  8
_U+30EC_U+30A4_U+30E4_U+30FC 1
370
     0
100
AcDbVertex
100
AcDb2dVertex
 10
125.1758219088102
 20
-153.468324071876
 30
0.0
  0
VERTEX
  5
BC
330
B8
100
AcDbEntity
  8
_U+30EC_U+30A4_U+30E4_U+30FC 1
370
     0
100
AcDbVertex
100
AcDb2dVertex
 10
124.8289007934456
 20
-153.468324071876
 30
0.0
  0
VERTEX
  5
BD
330
B8
100
AcDbEntity
  8
_U+30EC_U+30A4_U+30E4_U+30FC 1
370
     0
100
AcDbVertex
100
AcDb2dVertex
 10
124.8289007934456
 20
-154.027463069132
 30
0.0
  0
VERTEX
  5
BE
330
B8
100
AcDbEntity
  8
_U+30EC_U+30A4_U+30E4_U+30FC 1
370
     0
100
AcDbVertex
100
AcDb2dVertex
 10
124.6046250773558
 20
-154.027463069132
 30
0.0
  0
VERTEX
  5
BF
330
B8
100
AcDbEntity
  8
_U+30EC_U+30A4_U+30E4_U+30FC 1
370
     0
100
AcDbVertex
100
AcDb2dVertex
 10
123.6313856027727
 20
-153.44868702761
 30
0.0
  0
VERTEX
  5
C0
330
B8
100
AcDbEntity
  8
_U+30EC_U+30A4_U+30E4_U+30FC 1
370
     0
100
AcDbVertex
100
AcDb2dVertex
 10
123.6313856027727
 20
-153.282633425221
 30
0.0
  0
VERTEX
  5
C1
330
B8
100
AcDbEntity
  8
_U+30EC_U+30A4_U+30E4_U+30FC 1
370
     0
100
AcDbVertex
100
AcDb2dVertex
 10
124.6301187839466
 20
-153.282633425221
 30
0.0
  0
VERTEX
  5
C2
330
B8
100
AcDbEntity
  8
_U+30EC_U+30A4_U+30E4_U+30FC 1
370
     0
100
AcDbVertex
100
AcDb2dVertex
 10
124.6301187839466
 20
-153.1059000268277
 30
0.0
  0
VERTEX
  5
C3
330
B8
100
AcDbEntity
  8
_U+30EC_U+30A4_U+30E4_U+30FC 1
370
     0
100
AcDbVertex
100
AcDb2dVertex
 10
124.8289007934456
 20
-153.1059000268277
 30
0.0
  0
VERTEX
  5
C4
330
B8
100
AcDbEntity
  8
_U+30EC_U+30A4_U+30E4_U+30FC 1
370
     0
100
AcDbVertex
100
AcDb2dVertex
 10
124.8289007934456
 20
-153.282633425221
 30
0.0
  0
SEQEND
  5
C5
330
B8
100
AcDbEntity
  8
_U+30EC_U+30A4_U+30E4_U+30FC 1
370
     0
  0
POLYLINE
  5
C6
330
A9
100
AcDbEntity
  8
_U+30EC_U+30A4_U+30E4_U+30FC 1
370
     0
100
AcDb2dPolyline
 66
     1
 10
0.0
 20
0.0
 30
0.0
  0
VERTEX
  5
C7
330
C6
100
AcDbEntity
  8
_U+30EC_U+30A4_U+30E4_U+30FC 1
370
     0
100
AcDbVertex
100
AcDb2dVertex
 10
123.9741726035551
 20
-153.468324071876
 30
0.0
  0
VERTEX
  5
C8
330
C6
100
AcDbEntity
  8
_U+30EC_U+30A4_U+30E4_U+30FC 1
370
     0
100
AcDbVertex
100
AcDb2dVertex
 10
124.6301187839466
 20
-153.8579643712577
 30
0.0
  0
VERTEX
  5
C9
330
C6
100
AcDbEntity
  8
_U+30EC_U+30A4_U+30E4_U+30FC 1
370
     0
100
AcDbVertex
100
AcDb2dVertex
 10
124.6301187839466
 20
-153.468324071876
 30
0.0
  0
VERTEX
  5
CA
330
C6
100
AcDbEntity
  8
_U+30EC_U+30A4_U+30E4_U+30FC 1
370
     0
100
AcDbVertex
100
AcDb2dVertex
 10
123.9741726035551
 20
-153.468324071876
 30
0.0
  0
SEQEND
  5
CB
330
C6
100
AcDbEntity
  8
_U+30EC_U+30A4_U+30E4_U+30FC 1
370
     0
  0
HATCH
  5
CC
330
A9
100
AcDbEntity
  8
_U+30EC_U+30A4_U+30E4_U+30FC 1
 62
   179
420
  2234388
100
AcDbHatch
 10
0.0
 20
0.0
 30
0.0
210
0.0
220
0.0
230
1.0
  2
SOLID
 70
     1
 71
     0
 91
        2
 92
        1
 93
       11
 72
     1
 10
124.8289007934456
 20
-153.282633425221
 11
125.1758219088102
 21
-153.282633425221
 72
     1
 10
125.1758219088102
 20
-153.282633425221
 11
125.1758219088102
 21
-153.468324071876
 72
     1
 10
125.1758219088102
 20
-153.468324071876
 11
124.8289007934456
 21
-153.468324071876
 72
     1
 10
124.8289007934456
 20
-153.468324071876
 11
124.8289007934456
 21
-154.027463069132
 72
     1
 10
124.8289007934456
 20
-154.027463069132
 11
124.6046250773558
 21
-154.027463069132
 72
     1
 10
124.6046250773558
 20
-154.027463069132
 11
123.6313856027727
 21
-153.44868702761
 72
     1
 10
123.6313856027727
 20
-153.44868702761
 11
123.6313856027727
 21
-153.282633425221
 72
     1
 10
123.6313856027727
 20
-153.282633425221
 11
124.6301187839466
 21
-153.282633425221
 72
     1
 10
124.6301187839466
 20
-153.282633425221
 11
124.6301187839466
 21
-153.1059000268277
 72
     1
 10
124.6301187839466
 20
-153.1059000268277
 11
124.8289007934456
 21
-153.1059000268277
 72
     1
 10
124.8289007934456
 20
-153.1059000268277
 11
124.8289007934456
 21
-153.282633425221
 97
        0
 92
        1
 93
        3
 72
     1
 10
123.9741726035551
 20
-153.468324071876
 11
124.6301187839466
 21
-153.8579643712577
 72
     1
 10
124.6301187839466
 20
-153.8579643712577
 11
124.6301187839466
 21
-153.468324071876
 72
     1
 10
124.6301187839466
 20
-153.468324071876
 11
123.9741726035551
 21
-153.468324071876
 97
        0
 75
     2
 76
     1
 98
        0
  0
ENDBLK
  5
AC
330
A9
100
AcDbEntity
  8
0
100
AcDbBlockEnd
  0
BLOCK
  5
DB
330
D9
100
AcDbEntity
  8
0
100
AcDbBlockBegin
  2
block 5
 70
     0
 10
0.0
 20
0.0
 30
0.0
  3
block 5
  1

  0
SPLINE
  5
DD
330
D9
100
AcDbEntity
  8
_U+30EC_U+30A4_U+30E4_U+30FC 1
370
     0
100
AcDbSpline
210
0.0
220
0.0
230
1.0
 70
    11
 71
     3
 72
    26
 73
    22
 74
     0
 42
0.0000000001
 43
0.0000000001
 12
1.0
 22
0.0
 32
0.0
 13
1.0
 23
0.0
 33
0.0
 40
0.0
 40
0.0
 40
0.0
 40
0.0
 40
1.0
 40
1.0
 40
1.0
 40
2.0
 40
2.0
 40
2.0
 40
3.0
 40
3.0
 40
3.0
 40
4.0
 40
4.0
 40
4.0
 40
5.0
 40
5.0
 40
5.0
 40
6.0
 40
6.0
 40
6.0
 40
7.0
 40
7.0
 40
7.0
 40
7.0
 10
94.62764347677712
 20
-158.6914333370633
 30
0.0
 10
94.62764347677712
 20
-158.6914333370633
 30
0.0
 10
94.62764347677712
 20
-157.5872802340407
 30
0.0
 10
94.62764347677712
 20
-157.5872802340407
 30
0.0
 10
94.62764347677712
 20
-157.5872802340407
 30
0.0
 10
94.34617917563222
 20
-157.5872802340407
 30
0.0
 10
94.34617917563222
 20
-157.5872802340407
 30
0.0
 10
94.34617917563222
 20
-157.5872802340407
 30
0.0
 10
94.34617917563222
 20
-157.439141128175
 30
0.0
 10
94.34617917563222
 20
-157.439141128175
 30
0.0
 10
94.62936602451974
 20
-157.4243272175884
 30
0.0
 10
94.66898462260012
 20
-157.2613742011361
 30
0.0
 10
94.69413381964245
 20
-157.1469970310258
 30
0.0
 10
94.69413381964245
 20
-157.1469970310258
 30
0.0
 10
94.81884627620849
 20
-157.1469970310258
 30
0.0
 10
94.81884627620849
 20
-157.1469970310258
 30
0.0
 10
94.81884627620849
 20
-157.1469970310258
 30
0.0
 10
94.81884627620849
 20
-158.6914333370633
 30
0.0
 10
94.81884627620849
 20
-158.6914333370633
 30
0.0
 10
94.81884627620849
 20
-158.6914333370633
 30
0.0
 10
94.62764347677712
 20
-158.6914333370633
 30
0.0
 10
94.62764347677712
 20
-158.6914333370633
 30
0.0
  0
HATCH
  5
DE
330
D9
100
AcDbEntity
  8
_U+30EC_U+30A4_U+30E4_U+30FC 1
 62
   179
420
  2234388
100
AcDbHatch
 10
0.0
 20
0.0
 30
0.0
210
0.0
220
0.0
230
1.0
  2
SOLID
 70
     1
 71
     0
 91
        1
 92
        1
 93
        1
 72
     4
 94
        3
 73
     0
 74
     1
 95
       26
 96
       22
 40
0.0
 40
0.0
 40
0.0
 40
0.0
 40
1.0
 40
1.0
 40
1.0
 40
2.0
 40
2.0
 40
2.0
 40
3.0
 40
3.0
 40
3.0
 40
4.0
 40
4.0
 40
4.0
 40
5.0
 40
5.0
 40
5.0
 40
6.0
 40
6.0
 40
6.0
 40
7.0
 40
7.0
 40
7.0
 40
7.0
 10
94.62764347677712
 20
-158.6914333370633
 10
94.62764347677712
 20
-158.6914333370633
 10
94.62764347677712
 20
-157.5872802340407
 10
94.62764347677712
 20
-157.5872802340407
 10
94.62764347677712
 20
-157.5872802340407
 10
94.34617917563222
 20
-157.5872802340407
 10
94.34617917563222
 20
-157.5872802340407
 10
94.34617917563222
 20
-157.5872802340407
 10
94.34617917563222
 20
-157.439141128175
 10
94.34617917563222
 20
-157.439141128175
 10
94.62936602451974
 20
-157.4243272175884
 10
94.66898462260012
 20
-157.2613742011361
 10
94.69413381964245
 20
-157.1469970310258
 10
94.69413381964245
 20
-157.1469970310258
 10
94.81884627620849
 20
-157.1469970310258
 10
94.81884627620849
 20
-157.1469970310258
 10
94.81884627620849
 20
-157.1469970310258
 10
94.81884627620849
 20
-158.6914333370633
 10
94.81884627620849
 20
-158.6914333370633
 10
94.81884627620849
 20
-158.6914333370633
 10
94.62764347677712
 20
-158.6914333370633
 10
94.62764347677712
 20
-158.6914333370633
 97
        0
 97
        0
 75
     2
 76
     1
 98
        0
  0
SPLINE
  5
DF
330
D9
100
AcDbEntity
  8
_U+30EC_U+30A4_U+30E4_U+30FC 1
370
     0
100
AcDbSpline
210
0.0
220
0.0
230
1.0
 70
    11
 71
     3
 72
    44
 73
    40
 74
     0
 42
0.0000000001
 43
0.0000000001
 12
1.0
 22
0.0
 32
0.0
 13
1.0
 23
0.0
 33
0.0
 40
0.0
 40
0.0
 40
0.0
 40
0.0
 40
1.0
 40
1.0
 40
1.0
 40
2.0
 40
2.0
 40
2.0
 40
3.0
 40
3.0
 40
3.0
 40
4.0
 40
4.0
 40
4.0
 40
5.0
 40
5.0
 40
5.0
 40
6.0
 40
6.0
 40
6.0
 40
7.0
 40
7.0
 40
7.0
 40
8.0
 40
8.0
 40
8.0
 40
9.0
 40
9.0
 40
9.0
 40
10.0
 40
10.0
 40
10.0
 40
11.0
 40
11.0
 40
11.0
 40
12.0
 40
12.0
 40
12.0
 40
13.0
 40
13.0
 40
13.0
 40
13.0
 10
95.75005558587152
 20
-158.1095567096046
 30
0.0
 10
95.56436493921655
 20
-158.2683756114746
 30
0.0
 10
95.48512774305581
 20
-158.3424451644075
 30
0.0
 10
95.4437865972328
 20
-158.4861056461424
 30
0.0
 10
95.4437865972328
 20
-158.4861056461424
 30
0.0
 10
96.10731198769193
 20
-158.4861056461424
 30
0.0
 10
96.10731198769193
 20
-158.4861056461424
 30
0.0
 10
96.10731198769193
 20
-158.4861056461424
 30
0.0
 10
96.10731198769193
 20
-158.6914333370633
 30
0.0
 10
96.10731198769193
 20
-158.6914333370633
 30
0.0
 10
96.10731198769193
 20
-158.6914333370633
 30
0.0
 10
95.23087969624437
 20
-158.6914333370633
 30
0.0
 10
95.23087969624437
 20
-158.6914333370633
 30
0.0
 10
95.25775144102931
 20
-158.3338324256943
 30
0.0
 10
95.3139064974389
 20
-158.2556287581791
 30
0.0
 10
95.64187958763468
 20
-157.9572834891565
 30
0.0
 10
95.86029864139951
 20
-157.7585014796576
 30
0.0
 10
95.91610918826056
 20
-157.6906330985982
 30
0.0
 10
95.91610918826056
 20
-157.5531737887367
 30
0.0
 10
95.91610918826056
 20
-157.4346625040441
 30
0.0
 10
95.85478648862312
 20
-157.3037488756046
 30
0.0
 10
95.68701033849145
 20
-157.3037488756046
 30
0.0
 10
95.46514618924135
 20
-157.3037488756046
 30
0.0
 10
95.45791148872233
 20
-157.5342257635678
 30
0.0
 10
95.45446639323708
 20
-157.6506699909693
 30
0.0
 10
95.45446639323708
 20
-157.6506699909693
 30
0.0
 10
95.26326359380572
 20
-157.6506699909693
 30
0.0
 10
95.26326359380572
 20
-157.6506699909693
 30
0.0
 10
95.27049829432474
 20
-157.5235459675636
 30
0.0
 10
95.27945554258639
 20
-157.4115803642929
 30
0.0
 10
95.34801294274287
 20
-157.2930690796003
 30
0.0
 10
95.44171953994166
 20
-157.1321831204392
 30
0.0
 10
95.60053844181168
 20
-157.0984211846837
 30
0.0
 10
95.69975719178687
 20
-157.0984211846837
 30
0.0
 10
95.93609074207501
 20
-157.0984211846837
 30
0.0
 10
96.11282414046832
 20
-157.2823892835961
 30
0.0
 10
96.11282414046832
 20
-157.5552408460279
 30
0.0
 10
96.11282414046832
 20
-157.7839951862485
 30
0.0
 10
96.01360539049313
 20
-157.8832139362237
 30
0.0
 10
95.75005558587152
 20
-158.1095567096046
 30
0.0
  0
HATCH
  5
E0
330
D9
100
AcDbEntity
  8
_U+30EC_U+30A4_U+30E4_U+30FC 1
 62
   179
420
  2234388
100
AcDbHatch
 10
0.0
 20
0.0
 30
0.0
210
0.0
220
0.0
230
1.0
  2
SOLID
 70
     1
 71
     0
 91
        1
 92
        1
 93
        1
 72
     4
 94
        3
 73
     0
 74
     1
 95
       44
 96
       40
 40
0.0
 40
0.0
 40
0.0
 40
0.0
 40
1.0
 40
1.0
 40
1.0
 40
2.0
 40
2.0
 40
2.0
 40
3.0
 40
3.0
 40
3.0
 40
4.0
 40
4.0
 40
4.0
 40
5.0
 40
5.0
 40
5.0
 40
6.0
 40
6.0
 40
6.0
 40
7.0
 40
7.0
 40
7.0
 40
8.0
 40
8.0
 40
8.0
 40
9.0
 40
9.0
 40
9.0
 40
10.0
 40
10.0
 40
10.0
 40
11.0
 40
11.0
 40
11.0
 40
12.0
 40
12.0
 40
12.0
 40
13.0
 40
13.0
 40
13.0
 40
13.0
 10
95.75005558587152
 20
-158.1095567096046
 10
95.56436493921655
 20
-158.2683756114746
 10
95.48512774305581
 20
-158.3424451644075
 10
95.4437865972328
 20
-158.4861056461424
 10
95.4437865972328
 20
-158.4861056461424
 10
96.10731198769193
 20
-158.4861056461424
 10
96.10731198769193
 20
-158.4861056461424
 10
96.10731198769193
 20
-158.4861056461424
 10
96.10731198769193
 20
-158.6914333370633
 10
96.10731198769193
 20
-158.6914333370633
 10
96.10731198769193
 20
-158.6914333370633
 10
95.23087969624437
 20
-158.6914333370633
 10
95.23087969624437
 20
-158.6914333370633
 10
95.25775144102931
 20
-158.3338324256943
 10
95.3139064974389
 20
-158.2556287581791
 10
95.64187958763468
 20
-157.9572834891565
 10
95.86029864139951
 20
-157.7585014796576
 10
95.91610918826056
 20
-157.6906330985982
 10
95.91610918826056
 20
-157.5531737887367
 10
95.91610918826056
 20
-157.4346625040441
 10
95.85478648862312
 20
-157.3037488756046
 10
95.68701033849145
 20
-157.3037488756046
 10
95.46514618924135
 20
-157.3037488756046
 10
95.45791148872233
 20
-157.5342257635678
 10
95.45446639323708
 20
-157.6506699909693
 10
95.45446639323708
 20
-157.6506699909693
 10
95.26326359380572
 20
-157.6506699909693
 10
95.26326359380572
 20
-157.6506699909693
 10
95.27049829432474
 20
-157.5235459675636
 10
95.27945554258639
 20
-157.4115803642929
 10
95.34801294274287
 20
-157.2930690796003
 10
95.44171953994166
 20
-157.1321831204392
 10
95.60053844181168
 20
-157.0984211846837
 10
95.69975719178687
 20
-157.0984211846837
 10
95.93609074207501
 20
-157.0984211846837
 10
96.11282414046832
 20
-157.2823892835961
 10
96.11282414046832
 20
-157.5552408460279
 10
96.11282414046832
 20
-157.7839951862485
 10
96.01360539049313
 20
-157.8832139362237
 10
95.75005558587152
 20
-158.1095567096046
 97
        0
 97
        0
 75
     2
 76
     1
 98
        0
  0
ENDBLK
  5
DC
330
D9
100
AcDbEntity
  8
0
100
AcDbBlockEnd
  0
BLOCK
  5
EB
330
E9
100
AcDbEntity
  8
0
100
AcDbBlockBegin
  2
block 6
 70
     0
 10
0.0
 20
0.0
 30
0.0
  3
block 6
  1

  0
SPLINE
  5
ED
330
E9
100
AcDbEntity
  8
_U+30EC_U+30A4_U+30E4_U+30FC 1
370
     0
100
AcDbSpline
210
0.0
220
0.0
230
1.0
 70
    11
 71
     3
 72
    26
 73
    22
 74
     0
 42
0.0000000001
 43
0.0000000001
 12
1.0
 22
0.0
 32
0.0
 13
1.0
 23
0.0
 33
0.0
 40
0.0
 40
0.0
 40
0.0
 40
0.0
 40
1.0
 40
1.0
 40
1.0
 40
2.0
 40
2.0
 40
2.0
 40
3.0
 40
3.0
 40
3.0
 40
4.0
 40
4.0
 40
4.0
 40
5.0
 40
5.0
 40
5.0
 40
6.0
 40
6.0
 40
6.0
 40
7.0
 40
7.0
 40
7.0
 40
7.0
 10
121.8244330207592
 20
-149.3982882656018
 30
0.0
 10
121.8244330207592
 20
-149.3982882656018
 30
0.0
 10
120.7202799177366
 20
-149.3982882656018
 30
0.0
 10
120.7202799177366
 20
-149.3982882656018
 30
0.0
 10
120.7202799177366
 20
-149.3982882656018
 30
0.0
 10
120.7202799177366
 20
-149.6797525667467
 30
0.0
 10
120.7202799177366
 20
-149.6797525667467
 30
0.0
 10
120.7202799177366
 20
-149.6797525667467
 30
0.0
 10
120.5721408118709
 20
-149.6797525667467
 30
0.0
 10
120.5721408118709
 20
-149.6797525667467
 30
0.0
 10
120.5573269012843
 20
-149.3965657178592
 30
0.0
 10
120.394373884832
 20
-149.3569471197788
 30
0.0
 10
120.2799967147217
 20
-149.3317979227365
 30
0.0
 10
120.2799967147217
 20
-149.3317979227365
 30
0.0
 10
120.2799967147217
 20
-149.2070854661705
 30
0.0
 10
120.2799967147217
 20
-149.2070854661705
 30
0.0
 10
120.2799967147217
 20
-149.2070854661705
 30
0.0
 10
121.8244330207592
 20
-149.2070854661705
 30
0.0
 10
121.8244330207592
 20
-149.2070854661705
 30
0.0
 10
121.8244330207592
 20
-149.2070854661705
 30
0.0
 10
121.8244330207592
 20
-149.3982882656018
 30
0.0
 10
121.8244330207592
 20
-149.3982882656018
 30
0.0
  0
HATCH
  5
EE
330
E9
100
AcDbEntity
  8
_U+30EC_U+30A4_U+30E4_U+30FC 1
 62
   179
420
  2234388
100
AcDbHatch
 10
0.0
 20
0.0
 30
0.0
210
0.0
220
0.0
230
1.0
  2
SOLID
 70
     1
 71
     0
 91
        1
 92
        1
 93
        1
 72
     4
 94
        3
 73
     0
 74
     1
 95
       26
 96
       22
 40
0.0
 40
0.0
 40
0.0
 40
0.0
 40
1.0
 40
1.0
 40
1.0
 40
2.0
 40
2.0
 40
2.0
 40
3.0
 40
3.0
 40
3.0
 40
4.0
 40
4.0
 40
4.0
 40
5.0
 40
5.0
 40
5.0
 40
6.0
 40
6.0
 40
6.0
 40
7.0
 40
7.0
 40
7.0
 40
7.0
 10
121.8244330207592
 20
-149.3982882656018
 10
121.8244330207592
 20
-149.3982882656018
 10
120.7202799177366
 20
-149.3982882656018
 10
120.7202799177366
 20
-149.3982882656018
 10
120.7202799177366
 20
-149.3982882656018
 10
120.7202799177366
 20
-149.6797525667467
 10
120.7202799177366
 20
-149.6797525667467
 10
120.7202799177366
 20
-149.6797525667467
 10
120.5721408118709
 20
-149.6797525667467
 10
120.5721408118709
 20
-149.6797525667467
 10
120.5573269012843
 20
-149.3965657178592
 10
120.394373884832
 20
-149.3569471197788
 10
120.2799967147217
 20
-149.3317979227365
 10
120.2799967147217
 20
-149.3317979227365
 10
120.2799967147217
 20
-149.2070854661705
 10
120.2799967147217
 20
-149.2070854661705
 10
120.2799967147217
 20
-149.2070854661705
 10
121.8244330207592
 20
-149.2070854661705
 10
121.8244330207592
 20
-149.2070854661705
 10
121.8244330207592
 20
-149.2070854661705
 10
121.8244330207592
 20
-149.3982882656018
 10
121.8244330207592
 20
-149.3982882656018
 97
        0
 97
        0
 75
     2
 76
     1
 98
        0
  0
SPLINE
  5
EF
330
E9
100
AcDbEntity
  8
_U+30EC_U+30A4_U+30E4_U+30FC 1
370
     0
100
AcDbSpline
210
0.0
220
0.0
230
1.0
 70
    11
 71
     3
 72
    44
 73
    40
 74
     0
 42
0.0000000001
 43
0.0000000001
 12
1.0
 22
0.0
 32
0.0
 13
1.0
 23
0.0
 33
0.0
 40
0.0
 40
0.0
 40
0.0
 40
0.0
 40
1.0
 40
1.0
 40
1.0
 40
2.0
 40
2.0
 40
2.0
 40
3.0
 40
3.0
 40
3.0
 40
4.0
 40
4.0
 40
4.0
 40
5.0
 40
5.0
 40
5.0
 40
6.0
 40
6.0
 40
6.0
 40
7.0
 40
7.0
 40
7.0
 40
8.0
 40
8.0
 40
8.0
 40
9.0
 40
9.0
 40
9.0
 40
10.0
 40
10.0
 40
10.0
 40
11.0
 40
11.0
 40
11.0
 40
12.0
 40
12.0
 40
12.0
 40
13.0
 40
13.0
 40
13.0
 40
13.0
 10
121.2425563933005
 20
-148.2758761565074
 30
0.0
 10
121.4013752951705
 20
-148.4615668031624
 30
0.0
 10
121.4754448481034
 20
-148.5408039993231
 30
0.0
 10
121.6191053298383
 20
-148.5821451451461
 30
0.0
 10
121.6191053298383
 20
-148.5821451451461
 30
0.0
 10
121.6191053298383
 20
-147.918619754687
 30
0.0
 10
121.6191053298383
 20
-147.918619754687
 30
0.0
 10
121.6191053298383
 20
-147.918619754687
 30
0.0
 10
121.8244330207592
 20
-147.918619754687
 30
0.0
 10
121.8244330207592
 20
-147.918619754687
 30
0.0
 10
121.8244330207592
 20
-147.918619754687
 30
0.0
 10
121.8244330207592
 20
-148.7950520461346
 30
0.0
 10
121.8244330207592
 20
-148.7950520461346
 30
0.0
 10
121.4668321093902
 20
-148.7681803013496
 30
0.0
 10
121.3886284418751
 20
-148.7120252449401
 30
0.0
 10
121.0902831728524
 20
-148.3840521547443
 30
0.0
 10
120.8915011633535
 20
-148.1656331009794
 30
0.0
 10
120.8236327822941
 20
-148.1098225541184
 30
0.0
 10
120.6861734724326
 20
-148.1098225541184
 30
0.0
 10
120.56766218774
 20
-148.1098225541184
 30
0.0
 10
120.4367485593005
 20
-148.1711452537558
 30
0.0
 10
120.4367485593005
 20
-148.3389214038875
 30
0.0
 10
120.4367485593005
 20
-148.5607855531376
 30
0.0
 10
120.6672254472638
 20
-148.5676757441081
 30
0.0
 10
120.7836696746652
 20
-148.5714653491419
 30
0.0
 10
120.7836696746652
 20
-148.5714653491419
 30
0.0
 10
120.7836696746652
 20
-148.7626681485732
 30
0.0
 10
120.7836696746652
 20
-148.7626681485732
 30
0.0
 10
120.6565456512595
 20
-148.7554334480542
 30
0.0
 10
120.5445800479889
 20
-148.7464761997926
 30
0.0
 10
120.4260687632963
 20
-148.6779187996361
 30
0.0
 10
120.2651828041351
 20
-148.5842122024373
 30
0.0
 10
120.2314208683796
 20
-148.4253933005673
 30
0.0
 10
120.2314208683796
 20
-148.3261745505921
 30
0.0
 10
120.2314208683796
 20
-148.0898410003039
 30
0.0
 10
120.415388967292
 20
-147.9131076019106
 30
0.0
 10
120.6882405297238
 20
-147.9131076019106
 30
0.0
 10
120.9169948699444
 20
-147.9131076019106
 30
0.0
 10
121.0162136199196
 20
-148.0123263518858
 30
0.0
 10
121.2425563933005
 20
-148.2758761565074
 30
0.0
  0
HATCH
  5
F0
330
E9
100
AcDbEntity
  8
_U+30EC_U+30A4_U+30E4_U+30FC 1
 62
   179
420
  2234388
100
AcDbHatch
 10
0.0
 20
0.0
 30
0.0
210
0.0
220
0.0
230
1.0
  2
SOLID
 70
     1
 71
     0
 91
        1
 92
        1
 93
        1
 72
     4
 94
        3
 73
     0
 74
     1
 95
       44
 96
       40
 40
0.0
 40
0.0
 40
0.0
 40
0.0
 40
1.0
 40
1.0
 40
1.0
 40
2.0
 40
2.0
 40
2.0
 40
3.0
 40
3.0
 40
3.0
 40
4.0
 40
4.0
 40
4.0
 40
5.0
 40
5.0
 40
5.0
 40
6.0
 40
6.0
 40
6.0
 40
7.0
 40
7.0
 40
7.0
 40
8.0
 40
8.0
 40
8.0
 40
9.0
 40
9.0
 40
9.0
 40
10.0
 40
10.0
 40
10.0
 40
11.0
 40
11.0
 40
11.0
 40
12.0
 40
12.0
 40
12.0
 40
13.0
 40
13.0
 40
13.0
 40
13.0
 10
121.2425563933005
 20
-148.2758761565074
 10
121.4013752951705
 20
-148.4615668031624
 10
121.4754448481034
 20
-148.5408039993231
 10
121.6191053298383
 20
-148.5821451451461
 10
121.6191053298383
 20
-148.5821451451461
 10
121.6191053298383
 20
-147.918619754687
 10
121.6191053298383
 20
-147.918619754687
 10
121.6191053298383
 20
-147.918619754687
 10
121.8244330207592
 20
-147.918619754687
 10
121.8244330207592
 20
-147.918619754687
 10
121.8244330207592
 20
-147.918619754687
 10
121.8244330207592
 20
-148.7950520461346
 10
121.8244330207592
 20
-148.7950520461346
 10
121.4668321093902
 20
-148.7681803013496
 10
121.3886284418751
 20
-148.7120252449401
 10
121.0902831728524
 20
-148.3840521547443
 10
120.8915011633535
 20
-148.1656331009794
 10
120.8236327822941
 20
-148.1098225541184
 10
120.6861734724326
 20
-148.1098225541184
 10
120.56766218774
 20
-148.1098225541184
 10
120.4367485593005
 20
-148.1711452537558
 10
120.4367485593005
 20
-148.3389214038875
 10
120.4367485593005
 20
-148.5607855531376
 10
120.6672254472638
 20
-148.5676757441081
 10
120.7836696746652
 20
-148.5714653491419
 10
120.7836696746652
 20
-148.5714653491419
 10
120.7836696746652
 20
-148.7626681485732
 10
120.7836696746652
 20
-148.7626681485732
 10
120.6565456512595
 20
-148.7554334480542
 10
120.5445800479889
 20
-148.7464761997926
 10
120.4260687632963
 20
-148.6779187996361
 10
120.2651828041351
 20
-148.5842122024373
 10
120.2314208683796
 20
-148.4253933005673
 10
120.2314208683796
 20
-148.3261745505921
 10
120.2314208683796
 20
-148.0898410003039
 10
120.415388967292
 20
-147.9131076019106
 10
120.6882405297238
 20
-147.9131076019106
 10
120.9169948699444
 20
-147.9131076019106
 10
121.0162136199196
 20
-148.0123263518858
 10
121.2425563933005
 20
-148.2758761565074
 97
        0
 97
        0
 75
     2
 76
     1
 98
        0
  0
POLYLINE
  5
F1
330
E9
100
AcDbEntity
  8
_U+30EC_U+30A4_U+30E4_U+30FC 1
370
     0
100
AcDb2dPolyline
 66
     1
 10
0.0
 20
0.0
 30
0.0
  0
VERTEX
  5
F2
330
F1
100
AcDbEntity
  8
_U+30EC_U+30A4_U+30E4_U+30FC 1
370
     0
100
AcDbVertex
100
AcDb2dVertex
 10
121.8244330207592
 20
-147.7284504839012
 30
0.0
  0
VERTEX
  5
F3
330
F1
100
AcDbEntity
  8
_U+30EC_U+30A4_U+30E4_U+30FC 1
370
     0
100
AcDbVertex
100
AcDb2dVertex
 10
121.5725965407874
 20
-147.7284504839012
 30
0.0
  0
VERTEX
  5
F4
330
F1
100
AcDbEntity
  8
_U+30EC_U+30A4_U+30E4_U+30FC 1
370
     0
100
AcDbVertex
100
AcDb2dVertex
 10
121.5725965407874
 20
-147.5138210351702
 30
0.0
  0
VERTEX
  5
F5
330
F1
100
AcDbEntity
  8
_U+30EC_U+30A4_U+30E4_U+30FC 1
370
     0
100
AcDbVertex
100
AcDb2dVertex
 10
121.8244330207592
 20
-147.5138210351702
 30
0.0
  0
VERTEX
  5
F6
330
F1
100
AcDbEntity
  8
_U+30EC_U+30A4_U+30E4_U+30FC 1
370
     0
100
AcDbVertex
100
AcDb2dVertex
 10
121.8244330207592
 20
-147.7284504839012
 30
0.0
  0
SEQEND
  5
F7
330
F1
100
AcDbEntity
  8
_U+30EC_U+30A4_U+30E4_U+30FC 1
370
     0
  0
HATCH
  5
F8
330
E9
100
AcDbEntity
  8
_U+30EC_U+30A4_U+30E4_U+30FC 1
 62
   179
420
  2234388
100
AcDbHatch
 10
0.0
 20
0.0
 30
0.0
210
0.0
220
0.0
230
1.0
  2
SOLID
 70
     1
 71
     0
 91
        1
 92
        1
 93
        4
 72
     1
 10
121.8244330207592
 20
-147.7284504839012
 11
121.5725965407874
 21
-147.7284504839012
 72
     1
 10
121.5725965407874
 20
-147.7284504839012
 11
121.5725965407874
 21
-147.5138210351702
 72
     1
 10
121.5725965407874
 20
-147.5138210351702
 11
121.8244330207592
 21
-147.5138210351702
 72
     1
 10
121.8244330207592
 20
-147.5138210351702
 11
121.8244330207592
 21
-147.7284504839012
 97
        0
 75
     2
 76
     1
 98
        0
  0
SPLINE
  5
F9
330
E9
100
AcDbEntity
  8
_U+30EC_U+30A4_U+30E4_U+30FC 1
370
     0
100
AcDbSpline
210
0.0
220
0.0
230
1.0
 70
    11
 71
     3
 72
    53
 73
    49
 74
     0
 42
0.0000000001
 43
0.0000000001
 12
1.0
 22
0.0
 32
0.0
 13
1.0
 23
0.0
 33
0.0
 40
0.0
 40
0.0
 40
0.0
 40
0.0
 40
1.0
 40
1.0
 40
1.0
 40
2.0
 40
2.0
 40
2.0
 40
3.0
 40
3.0
 40
3.0
 40
4.0
 40
4.0
 40
4.0
 40
5.0
 40
5.0
 40
5.0
 40
6.0
 40
6.0
 40
6.0
 40
7.0
 40
7.0
 40
7.0
 40
8.0
 40
8.0
 40
8.0
 40
9.0
 40
9.0
 40
9.0
 40
10.0
 40
10.0
 40
10.0
 40
11.0
 40
11.0
 40
11.0
 40
12.0
 40
12.0
 40
12.0
 40
13.0
 40
13.0
 40
13.0
 40
14.0
 40
14.0
 40
14.0
 40
15.0
 40
15.0
 40
15.0
 40
16.0
 40
16.0
 40
16.0
 40
16.0
 10
121.8750759243923
 20
-146.9026610960868
 30
0.0
 10
121.8750759243923
 20
-146.9694959485007
 30
0.0
 10
121.8581949565146
 20
-147.0559678451804
 30
0.0
 10
121.794805199586
 20
-147.1424397418602
 30
0.0
 10
121.6849066536066
 20
-147.2902343381774
 30
0.0
 10
121.5536485156185
 20
-147.3084933442493
 30
0.0
 10
121.4458170269302
 20
-147.3246852930299
 30
0.0
 10
121.4458170269302
 20
-147.3246852930299
 30
0.0
 10
121.4458170269302
 20
-147.1352050413412
 30
0.0
 10
121.4458170269302
 20
-147.1352050413412
 30
0.0
 10
121.6445990364291
 20
-147.0883517427418
 30
0.0
 10
121.6742268576023
 20
-146.980175744505
 30
0.0
 10
121.6742268576023
 20
-146.9009385483442
 30
0.0
 10
121.6742268576023
 20
-146.7817382445546
 30
0.0
 10
121.5746635980786
 20
-146.6518581447607
 30
0.0
 10
121.3421196528242
 20
-146.6518581447607
 30
0.0
 10
121.0861490582701
 20
-146.6518581447607
 30
0.0
 10
121.0162136199196
 20
-146.8051648938543
 30
0.0
 10
121.0162136199196
 20
-146.9081732488632
 30
0.0
 10
121.0162136199196
 20
-146.9350449936482
 30
0.0
 10
121.0162136199196
 20
-147.0559678451804
 30
0.0
 10
121.1454047006164
 20
-147.1317599458559
 30
0.0
 10
121.1454047006164
 20
-147.1317599458559
 30
0.0
 10
121.1264566754476
 20
-147.2812770899158
 30
0.0
 10
121.1264566754476
 20
-147.2812770899158
 30
0.0
 10
121.1264566754476
 20
-147.2812770899158
 30
0.0
 10
120.2799967147217
 20
-147.1786132444554
 30
0.0
 10
120.2799967147217
 20
-147.1786132444554
 30
0.0
 10
120.2799967147217
 20
-147.1786132444554
 30
0.0
 10
120.2799967147217
 20
-146.5150878539962
 30
0.0
 10
120.2799967147217
 20
-146.5150878539962
 30
0.0
 10
120.2799967147217
 20
-146.5150878539962
 30
0.0
 10
120.4746446096383
 20
-146.5150878539962
 30
0.0
 10
120.4746446096383
 20
-146.5150878539962
 30
0.0
 10
120.4746446096383
 20
-146.5150878539962
 30
0.0
 10
120.4746446096383
 20
-147.0397758963998
 30
0.0
 10
120.4746446096383
 20
-147.0397758963998
 30
0.0
 10
120.4746446096383
 20
-147.0397758963998
 30
0.0
 10
120.897702335227
 20
-147.0955864432608
 30
0.0
 10
120.897702335227
 20
-147.0955864432608
 30
0.0
 10
120.8639403994715
 20
-147.043220991885
 30
0.0
 10
120.8236327822941
 20
-146.9729410439859
 30
0.0
 10
120.8236327822941
 20
-146.8719997462681
 30
0.0
 10
120.8236327822941
 20
-146.6556477497944
 30
0.0
 10
121.0100124480461
 20
-146.4537651543588
 30
0.0
 10
121.3231716276553
 20
-146.4537651543588
 30
0.0
 10
121.6404649218468
 20
-146.4537651543588
 30
0.0
 10
121.8750759243923
 20
-146.6446234442416
 30
0.0
 10
121.8750759243923
 20
-146.9026610960868
 30
0.0
  0
HATCH
  5
FA
330
E9
100
AcDbEntity
  8
_U+30EC_U+30A4_U+30E4_U+30FC 1
 62
   179
420
  2234388
100
AcDbHatch
 10
0.0
 20
0.0
 30
0.0
210
0.0
220
0.0
230
1.0
  2
SOLID
 70
     1
 71
     0
 91
        1
 92
        1
 93
        1
 72
     4
 94
        3
 73
     0
 74
     1
 95
       53
 96
       49
 40
0.0
 40
0.0
 40
0.0
 40
0.0
 40
1.0
 40
1.0
 40
1.0
 40
2.0
 40
2.0
 40
2.0
 40
3.0
 40
3.0
 40
3.0
 40
4.0
 40
4.0
 40
4.0
 40
5.0
 40
5.0
 40
5.0
 40
6.0
 40
6.0
 40
6.0
 40
7.0
 40
7.0
 40
7.0
 40
8.0
 40
8.0
 40
8.0
 40
9.0
 40
9.0
 40
9.0
 40
10.0
 40
10.0
 40
10.0
 40
11.0
 40
11.0
 40
11.0
 40
12.0
 40
12.0
 40
12.0
 40
13.0
 40
13.0
 40
13.0
 40
14.0
 40
14.0
 40
14.0
 40
15.0
 40
15.0
 40
15.0
 40
16.0
 40
16.0
 40
16.0
 40
16.0
 10
121.8750759243923
 20
-146.9026610960868
 10
121.8750759243923
 20
-146.9694959485007
 10
121.8581949565146
 20
-147.0559678451804
 10
121.794805199586
 20
-147.1424397418602
 10
121.6849066536066
 20
-147.2902343381774
 10
121.5536485156185
 20
-147.3084933442493
 10
121.4458170269302
 20
-147.3246852930299
 10
121.4458170269302
 20
-147.3246852930299
 10
121.4458170269302
 20
-147.1352050413412
 10
121.4458170269302
 20
-147.1352050413412
 10
121.6445990364291
 20
-147.0883517427418
 10
121.6742268576023
 20
-146.980175744505
 10
121.6742268576023
 20
-146.9009385483442
 10
121.6742268576023
 20
-146.7817382445546
 10
121.5746635980786
 20
-146.6518581447607
 10
121.3421196528242
 20
-146.6518581447607
 10
121.0861490582701
 20
-146.6518581447607
 10
121.0162136199196
 20
-146.8051648938543
 10
121.0162136199196
 20
-146.9081732488632
 10
121.0162136199196
 20
-146.9350449936482
 10
121.0162136199196
 20
-147.0559678451804
 10
121.1454047006164
 20
-147.1317599458559
 10
121.1454047006164
 20
-147.1317599458559
 10
121.1264566754476
 20
-147.2812770899158
 10
121.1264566754476
 20
-147.2812770899158
 10
121.1264566754476
 20
-147.2812770899158
 10
120.2799967147217
 20
-147.1786132444554
 10
120.2799967147217
 20
-147.1786132444554
 10
120.2799967147217
 20
-147.1786132444554
 10
120.2799967147217
 20
-146.5150878539962
 10
120.2799967147217
 20
-146.5150878539962
 10
120.2799967147217
 20
-146.5150878539962
 10
120.4746446096383
 20
-146.5150878539962
 10
120.4746446096383
 20
-146.5150878539962
 10
120.4746446096383
 20
-146.5150878539962
 10
120.4746446096383
 20
-147.0397758963998
 10
120.4746446096383
 20
-147.0397758963998
 10
120.4746446096383
 20
-147.0397758963998
 10
120.897702335227
 20
-147.0955864432608
 10
120.897702335227
 20
-147.0955864432608
 10
120.8639403994715
 20
-147.043220991885
 10
120.8236327822941
 20
-146.9729410439859
 10
120.8236327822941
 20
-146.8719997462681
 10
120.8236327822941
 20
-146.6556477497944
 10
121.0100124480461
 20
-146.4537651543588
 10
121.3231716276553
 20
-146.4537651543588
 10
121.6404649218468
 20
-146.4537651543588
 10
121.8750759243923
 20
-146.6446234442416
 10
121.8750759243923
 20
-146.9026610960868
 97
        0
 97
        0
 75
     2
 76
     1
 98
        0
  0
ENDBLK
  5
EC
330
E9
100
AcDbEntity
  8
0
100
AcDbBlockEnd
  0
ENDSEC
  0
SECTION
  2
ENTITIES
  0
POLYLINE
  5
41
330
1F
100
AcDbEntity
  8
_U+30EC_U+30A4_U+30E4_U+30FC 1
 62
   179
420
  2234388
370
    25
100
AcDb2dPolyline
 66
     1
 10
0.0
 20
0.0
 30
0.0
  0
VERTEX
  5
42
330
41
100
AcDbEntity
  8
_U+30EC_U+30A4_U+30E4_U+30FC 1
 62
   179
420
  2234388
370
    25
100
AcDbVertex
100
AcDb2dVertex
 10
89.42020382981165
 20
-141.6874794090224
 30
0.0
  0
VERTEX
  5
43
330
41
100
AcDbEntity
  8
_U+30EC_U+30A4_U+30E4_U+30FC 1
 62
   179
420
  2234388
370
    25
100
AcDbVertex
100
AcDb2dVertex
 10
102.5205357178166
 20
-141.6874794090224
 30
0.0
  0
SEQEND
  5
44
330
41
100
AcDbEntity
  8
_U+30EC_U+30A4_U+30E4_U+30FC 1
 62
   179
420
  2234388
370
    25
  0
POLYLINE
  5
45
330
1F
100
AcDbEntity
  8
_U+30EC_U+30A4_U+30E4_U+30FC 1
 62
   179
420
  2234388
370
    25
100
AcDb2dPolyline
 66
     1
 10
0.0
 20
0.0
 30
0.0
  0
VERTEX
  5
46
330
45
100
AcDbEntity
  8
_U+30EC_U+30A4_U+30E4_U+30FC 1
 62
   179
420
  2234388
370
    25
100
AcDbVertex
100
AcDb2dVertex
 10
101.4201513014453
 20
-142.7878285754143
 30
0.0
  0
VERTEX
  5
47
330
45
100
AcDbEntity
  8
_U+30EC_U+30A4_U+30E4_U+30FC 1
 62
   179
420
  2234388
370
    25
100
AcDbVertex
100
AcDb2dVertex
 10
101.4201513014453
 20
-155.2880152389557
 30
0.0
  0
SEQEND
  5
48
330
45
100
AcDbEntity
  8
_U+30EC_U+30A4_U+30E4_U+30FC 1
 62
   179
420
  2234388
370
    25
  0
POLYLINE
  5
49
330
1F
100
AcDbEntity
  8
_U+30EC_U+30A4_U+30E4_U+30FC 1
 62
   179
420
  2234388
370
    25
100
AcDb2dPolyline
 66
     1
 10
0.0
 20
0.0
 30
0.0
  0
VERTEX
  5
4A
330
49
100
AcDbEntity
  8
_U+30EC_U+30A4_U+30E4_U+30FC 1
 62
   179
420
  2234388
370
    25
100
AcDbVertex
100
AcDb2dVertex
 10
89.42020382981165
 20
-142.7878285754143
 30
0.0
  0
VERTEX
  5
4B
330
49
100
AcDbEntity
  8
_U+30EC_U+30A4_U+30E4_U+30FC 1
 62
   179
420
  2234388
370
    25
100
AcDbVertex
100
AcDb2dVertex
 10
101.4201513014453
 20
-142.7878285754143
 30
0.0
  0
SEQEND
  5
4C
330
49
100
AcDbEntity
  8
_U+30EC_U+30A4_U+30E4_U+30FC 1
 62
   179
420
  2234388
370
    25
  0
POLYLINE
  5
4D
330
1F
100
AcDbEntity
  8
_U+30EC_U+30A4_U+30E4_U+30FC 1
 62
   179
420
  2234388
370
    25
100
AcDb2dPolyline
 66
     1
 10
0.0
 20
0.0
 30
0.0
  0
VERTEX
  5
4E
330
4D
100
AcDbEntity
  8
_U+30EC_U+30A4_U+30E4_U+30FC 1
 62
   179
420
  2234388
370
    25
100
AcDbVertex
100
AcDb2dVertex
 10
89.42020382981165
 20
-141.6874794090224
 30
0.0
  0
VERTEX
  5
4F
330
4D
100
AcDbEntity
  8
_U+30EC_U+30A4_U+30E4_U+30FC 1
 62
   179
420
  2234388
370
    25
100
AcDbVertex
100
AcDb2dVertex
 10
89.42020382981165
 20
-142.7878285754143
 30
0.0
  0
SEQEND
  5
50
330
4D
100
AcDbEntity
  8
_U+30EC_U+30A4_U+30E4_U+30FC 1
 62
   179
420
  2234388
370
    25
  0
POLYLINE
  5
51
330
1F
100
AcDbEntity
  8
_U+30EC_U+30A4_U+30E4_U+30FC 1
 62
   179
420
  2234388
370
    25
100
AcDb2dPolyline
 66
     1
 10
0.0
 20
0.0
 30
0.0
  0
VERTEX
  5
52
330
51
100
AcDbEntity
  8
_U+30EC_U+30A4_U+30E4_U+30FC 1
 62
   179
420
  2234388
370
    25
100
AcDbVertex
100
AcDb2dVertex
 10
102.5205357178166
 20
-141.6874794090224
 30
0.0
  0
VERTEX
  5
53
330
51
100
AcDbEntity
  8
_U+30EC_U+30A4_U+30E4_U+30FC 1
 62
   179
420
  2234388
370
    25
100
AcDbVertex
100
AcDb2dVertex
 10
102.5205357178166
 20
-154.1883363503415
 30
0.0
  0
SEQEND
  5
54
330
51
100
AcDbEntity
  8
_U+30EC_U+30A4_U+30E4_U+30FC 1
 62
   179
420
  2234388
370
    25
  0
POLYLINE
  5
55
330
1F
100
AcDbEntity
  8
_U+30EC_U+30A4_U+30E4_U+30FC 1
 62
   179
420
  2234388
370
    25
100
AcDb2dPolyline
 66
     1
 10
0.0
 20
0.0
 30
0.0
  0
VERTEX
  5
56
330
55
100
AcDbEntity
  8
_U+30EC_U+30A4_U+30E4_U+30FC 1
 62
   179
420
  2234388
370
    25
100
AcDbVertex
100
AcDb2dVertex
 10
118.4203355899567
 20
-154.1883363503415
 30
0.0
  0
VERTEX
  5
57
330
55
100
AcDbEntity
  8
_U+30EC_U+30A4_U+30E4_U+30FC 1
 62
   179
420
  2234388
370
    25
100
AcDbVertex
100
AcDb2dVertex
 10
118.4203355899567
 20
-154.5879630169087
 30
0.0
  0
SEQEND
  5
58
330
55
100
AcDbEntity
  8
_U+30EC_U+30A4_U+30E4_U+30FC 1
 62
   179
420
  2234388
370
    25
  0
POLYLINE
  5
59
330
1F
100
AcDbEntity
  8
_U+30EC_U+30A4_U+30E4_U+30FC 1
 62
   179
420
  2234388
370
    25
100
AcDb2dPolyline
 66
     1
 10
0.0
 20
0.0
 30
0.0
  0
VERTEX
  5
5A
330
59
100
AcDbEntity
  8
_U+30EC_U+30A4_U+30E4_U+30FC 1
 62
   179
420
  2234388
370
    25
100
AcDbVertex
100
AcDb2dVertex
 10
102.5205357178166
 20
-154.1883363503415
 30
0.0
  0
VERTEX
  5
5B
330
59
100
AcDbEntity
  8
_U+30EC_U+30A4_U+30E4_U+30FC 1
 62
   179
420
  2234388
370
    25
100
AcDbVertex
100
AcDb2dVertex
 10
118.4203355899567
 20
-154.1883363503415
 30
0.0
  0
SEQEND
  5
5C
330
59
100
AcDbEntity
  8
_U+30EC_U+30A4_U+30E4_U+30FC 1
 62
   179
420
  2234388
370
    25
  0
POLYLINE
  5
5D
330
1F
100
AcDbEntity
  8
_U+30EC_U+30A4_U+30E4_U+30FC 1
 62
   179
420
  2234388
370
    25
100
AcDb2dPolyline
 66
     1
 10
0.0
 20
0.0
 30
0.0
  0
VERTEX
  5
5E
330
5D
100
AcDbEntity
  8
_U+30EC_U+30A4_U+30E4_U+30FC 1
 62
   179
420
  2234388
370
    25
100
AcDbVertex
100
AcDb2dVertex
 10
118.4203355899567
 20
-154.5879630169087
 30
0.0
  0
VERTEX
  5
5F
330
5D
100
AcDbEntity
  8
_U+30EC_U+30A4_U+30E4_U+30FC 1
 62
   179
420
  2234388
370
    25
100
AcDbVertex
100
AcDb2dVertex
 10
101.4201513014453
 20
-155.2880152389557
 30
0.0
  0
SEQEND
  5
60
330
5D
100
AcDbEntity
  8
_U+30EC_U+30A4_U+30E4_U+30FC 1
 62
   179
420
  2234388
370
    25
  0
SPLINE
  5
61
330
1F
100
AcDbEntity
  8
_U+30EC_U+30A4_U+30E4_U+30FC 1
 62
   179
420
  2234388
370
     9
100
AcDbSpline
210
0.0
220
0.0
230
1.0
 70
    11
 71
     3
 72
    17
 73
    13
 74
     0
 42
0.0000000001
 43
0.0000000001
 12
1.0
 22
0.0
 32
0.0
 13
1.0
 23
0.0
 33
0.0
 40
0.0
 40
0.0
 40
0.0
 40
0.0
 40
1.0
 40
1.0
 40
1.0
 40
2.0
 40
2.0
 40
2.0
 40
3.0
 40
3.0
 40
3.0
 40
4.0
 40
4.0
 40
4.0
 40
4.0
 10
122.5206715964595
 20
-141.6874794090224
 30
0.0
 10
122.5206715964595
 20
-141.6323402423697
 30
0.0
 10
122.4759040976016
 20
-141.5875727423808
 30
0.0
 10
122.420094654581
 20
-141.5875727423808
 30
0.0
 10
122.364955489321
 20
-141.5875727423808
 30
0.0
 10
122.3201879904631
 20
-141.6323402423697
 30
0.0
 10
122.3201879904631
 20
-141.6874794090224
 30
0.0
 10
122.3201879904631
 20
-141.7425832978977
 30
0.0
 10
122.364955489321
 20
-141.7873860756644
 30
0.0
 10
122.420094654581
 20
-141.7873860756644
 30
0.0
 10
122.4759040976016
 20
-141.7873860756644
 30
0.0
 10
122.5206715964595
 20
-141.7425832978977
 30
0.0
 10
122.5206715964595
 20
-141.6874794090224
 30
0.0
  0
SPLINE
  5
62
330
1F
100
AcDbEntity
  8
_U+30EC_U+30A4_U+30E4_U+30FC 1
 62
   179
420
  2234388
370
     9
100
AcDbSpline
210
0.0
220
0.0
230
1.0
 70
    11
 71
     3
 72
    17
 73
    13
 74
     0
 42
0.0000000001
 43
0.0000000001
 12
1.0
 22
0.0
 32
0.0
 13
1.0
 23
0.0
 33
0.0
 40
0.0
 40
0.0
 40
0.0
 40
0.0
 40
1.0
 40
1.0
 40
1.0
 40
2.0
 40
2.0
 40
2.0
 40
3.0
 40
3.0
 40
3.0
 40
4.0
 40
4.0
 40
4.0
 40
4.0
 10
122.5206715964595
 20
-154.1883363503415
 30
0.0
 10
122.5206715964595
 20
-154.1325269059111
 30
0.0
 10
122.4759040976016
 20
-154.0877594059225
 30
0.0
 10
122.420094654581
 20
-154.0877594059225
 30
0.0
 10
122.364955489321
 20
-154.0877594059225
 30
0.0
 10
122.3201879904631
 20
-154.1325269059111
 30
0.0
 10
122.3201879904631
 20
-154.1883363503415
 30
0.0
 10
122.3201879904631
 20
-154.2434755169946
 30
0.0
 10
122.364955489321
 20
-154.2882430169838
 30
0.0
 10
122.420094654581
 20
-154.2882430169838
 30
0.0
 10
122.4759040976016
 20
-154.2882430169838
 30
0.0
 10
122.5206715964595
 20
-154.2434755169946
 30
0.0
 10
122.5206715964595
 20
-154.1883363503415
 30
0.0
  0
SPLINE
  5
63
330
1F
100
AcDbEntity
  8
_U+30EC_U+30A4_U+30E4_U+30FC 1
 62
   179
420
  2234388
370
     9
100
AcDbSpline
210
0.0
220
0.0
230
1.0
 70
    11
 71
     3
 72
    17
 73
    13
 74
     0
 42
0.0000000001
 43
0.0000000001
 12
1.0
 22
0.0
 32
0.0
 13
1.0
 23
0.0
 33
0.0
 40
0.0
 40
0.0
 40
0.0
 40
0.0
 40
1.0
 40
1.0
 40
1.0
 40
2.0
 40
2.0
 40
2.0
 40
3.0
 40
3.0
 40
3.0
 40
4.0
 40
4.0
 40
4.0
 40
4.0
 10
122.5206715964595
 20
-154.5879630169087
 30
0.0
 10
122.5206715964595
 20
-154.5328591280332
 30
0.0
 10
122.4759040976016
 20
-154.4880563502671
 30
0.0
 10
122.420094654581
 20
-154.4880563502671
 30
0.0
 10
122.364955489321
 20
-154.4880563502671
 30
0.0
 10
122.3201879904631
 20
-154.5328591280332
 30
0.0
 10
122.3201879904631
 20
-154.5879630169087
 30
0.0
 10
122.3201879904631
 20
-154.6431021835612
 30
0.0
 10
122.364955489321
 20
-154.6879049613279
 30
0.0
 10
122.420094654581
 20
-154.6879049613279
 30
0.0
 10
122.4759040976016
 20
-154.6879049613279
 30
0.0
 10
122.5206715964595
 20
-154.6431021835612
 30
0.0
 10
122.5206715964595
 20
-154.5879630169087
 30
0.0
  0
SPLINE
  5
64
330
1F
100
AcDbEntity
  8
_U+30EC_U+30A4_U+30E4_U+30FC 1
 62
   179
420
  2234388
370
     9
100
AcDbSpline
210
0.0
220
0.0
230
1.0
 70
    11
 71
     3
 72
    17
 73
    13
 74
     0
 42
0.0000000001
 43
0.0000000001
 12
1.0
 22
0.0
 32
0.0
 13
1.0
 23
0.0
 33
0.0
 40
0.0
 40
0.0
 40
0.0
 40
0.0
 40
1.0
 40
1.0
 40
1.0
 40
2.0
 40
2.0
 40
2.0
 40
3.0
 40
3.0
 40
3.0
 40
4.0
 40
4.0
 40
4.0
 40
4.0
 10
118.5202422540745
 20
-159.2874216268448
 30
0.0
 10
118.5202422540745
 20
-159.2323177379699
 30
0.0
 10
118.4754394774397
 20
-159.1875149602032
 30
0.0
 10
118.4203355899567
 20
-159.1875149602032
 30
0.0
 10
118.3651964246967
 20
-159.1875149602032
 30
0.0
 10
118.3204289258388
 20
-159.2323177379699
 30
0.0
 10
118.3204289258388
 20
-159.2874216268448
 30
0.0
 10
118.3204289258388
 20
-159.3425607934979
 30
0.0
 10
118.3651964246967
 20
-159.3873282934865
 30
0.0
 10
118.4203355899567
 20
-159.3873282934865
 30
0.0
 10
118.4754394774397
 20
-159.3873282934865
 30
0.0
 10
118.5202422540745
 20
-159.3425607934979
 30
0.0
 10
118.5202422540745
 20
-159.2874216268448
 30
0.0
  0
SPLINE
  5
65
330
1F
100
AcDbEntity
  8
_U+30EC_U+30A4_U+30E4_U+30FC 1
 62
   179
420
  2234388
370
     9
100
AcDbSpline
210
0.0
220
0.0
230
1.0
 70
    11
 71
     3
 72
    17
 73
    13
 74
     0
 42
0.0000000001
 43
0.0000000001
 12
1.0
 22
0.0
 32
0.0
 13
1.0
 23
0.0
 33
0.0
 40
0.0
 40
0.0
 40
0.0
 40
0.0
 40
1.0
 40
1.0
 40
1.0
 40
2.0
 40
2.0
 40
2.0
 40
3.0
 40
3.0
 40
3.0
 40
4.0
 40
4.0
 40
4.0
 40
4.0
 10
89.5201104939295
 20
-159.2874216268448
 30
0.0
 10
89.5201104939295
 20
-159.2323177379699
 30
0.0
 10
89.47566049506351
 20
-159.1875149602032
 30
0.0
 10
89.42020382981165
 20
-159.1875149602032
 30
0.0
 10
89.36509994232858
 20
-159.1875149602032
 30
0.0
 10
89.32029716569382
 20
-159.2323177379699
 30
0.0
 10
89.32029716569382
 20
-159.2874216268448
 30
0.0
 10
89.32029716569382
 20
-159.3425607934979
 30
0.0
 10
89.36509994232858
 20
-159.3873282934865
 30
0.0
 10
89.42020382981165
 20
-159.3873282934865
 30
0.0
 10
89.47566049506351
 20
-159.3873282934865
 30
0.0
 10
89.5201104939295
 20
-159.3425607934979
 30
0.0
 10
89.5201104939295
 20
-159.2874216268448
 30
0.0
  0
SPLINE
  5
66
330
1F
100
AcDbEntity
  8
_U+30EC_U+30A4_U+30E4_U+30FC 1
 62
   179
420
  2234388
370
     9
100
AcDbSpline
210
0.0
220
0.0
230
1.0
 70
    11
 71
     3
 72
    17
 73
    13
 74
     0
 42
0.0000000001
 43
0.0000000001
 12
1.0
 22
0.0
 32
0.0
 13
1.0
 23
0.0
 33
0.0
 40
0.0
 40
0.0
 40
0.0
 40
0.0
 40
1.0
 40
1.0
 40
1.0
 40
2.0
 40
2.0
 40
2.0
 40
3.0
 40
3.0
 40
3.0
 40
4.0
 40
4.0
 40
4.0
 40
4.0
 10
86.85741664495232
 20
-141.6874794090224
 30
0.0
 10
86.85741664495232
 20
-141.6323402423697
 30
0.0
 10
86.8126138671856
 20
-141.5875727423808
 30
0.0
 10
86.75750778663158
 20
-141.5875727423808
 30
0.0
 10
86.70236862137163
 20
-141.5875727423808
 30
0.0
 10
86.65760112251374
 20
-141.6323402423697
 30
0.0
 10
86.65760112251374
 20
-141.6874794090224
 30
0.0
 10
86.65760112251374
 20
-141.7425832978977
 30
0.0
 10
86.70236862137163
 20
-141.7873860756644
 30
0.0
 10
86.75750778663158
 20
-141.7873860756644
 30
0.0
 10
86.8126138671856
 20
-141.7873860756644
 30
0.0
 10
86.85741664495232
 20
-141.7425832978977
 30
0.0
 10
86.85741664495232
 20
-141.6874794090224
 30
0.0
  0
SPLINE
  5
67
330
1F
100
AcDbEntity
  8
_U+30EC_U+30A4_U+30E4_U+30FC 1
 62
   179
420
  2234388
370
     9
100
AcDbSpline
210
0.0
220
0.0
230
1.0
 70
    11
 71
     3
 72
    17
 73
    13
 74
     0
 42
0.0000000001
 43
0.0000000001
 12
1.0
 22
0.0
 32
0.0
 13
1.0
 23
0.0
 33
0.0
 40
0.0
 40
0.0
 40
0.0
 40
0.0
 40
1.0
 40
1.0
 40
1.0
 40
2.0
 40
2.0
 40
2.0
 40
3.0
 40
3.0
 40
3.0
 40
4.0
 40
4.0
 40
4.0
 40
4.0
 10
86.85741664495232
 20
-142.7878285754143
 30
0.0
 10
86.85741664495232
 20
-142.7320191309835
 30
0.0
 10
86.8126138671856
 20
-142.687251630995
 30
0.0
 10
86.75750778663158
 20
-142.687251630995
 30
0.0
 10
86.70236862137163
 20
-142.687251630995
 30
0.0
 10
86.65760112251374
 20
-142.7320191309835
 30
0.0
 10
86.65760112251374
 20
-142.7878285754143
 30
0.0
 10
86.65760112251374
 20
-142.8429677420671
 30
0.0
 10
86.70236862137163
 20
-142.887735242056
 30
0.0
 10
86.75750778663158
 20
-142.887735242056
 30
0.0
 10
86.8126138671856
 20
-142.887735242056
 30
0.0
 10
86.85741664495232
 20
-142.8429677420671
 30
0.0
 10
86.85741664495232
 20
-142.7878285754143
 30
0.0
  0
SPLINE
  5
68
330
1F
100
AcDbEntity
  8
_U+30EC_U+30A4_U+30E4_U+30FC 1
 62
   179
420
  2234388
370
     9
100
AcDbSpline
210
0.0
220
0.0
230
1.0
 70
    11
 71
     3
 72
    17
 73
    13
 74
     0
 42
0.0000000001
 43
0.0000000001
 12
1.0
 22
0.0
 32
0.0
 13
1.0
 23
0.0
 33
0.0
 40
0.0
 40
0.0
 40
0.0
 40
0.0
 40
1.0
 40
1.0
 40
1.0
 40
2.0
 40
2.0
 40
2.0
 40
3.0
 40
3.0
 40
3.0
 40
4.0
 40
4.0
 40
4.0
 40
4.0
 10
101.5207635211007
 20
-159.2874216268448
 30
0.0
 10
101.5207635211007
 20
-159.2323177379699
 30
0.0
 10
101.4759607444659
 20
-159.1875149602032
 30
0.0
 10
101.4201513014453
 20
-159.1875149602032
 30
0.0
 10
101.3650499746587
 20
-159.1875149602032
 30
0.0
 10
101.3202471968923
 20
-159.2323177379699
 30
0.0
 10
101.3202471968923
 20
-159.2874216268448
 30
0.0
 10
101.3202471968923
 20
-159.3425607934979
 30
0.0
 10
101.3650499746587
 20
-159.3873282934865
 30
0.0
 10
101.4201513014453
 20
-159.3873282934865
 30
0.0
 10
101.4759607444659
 20
-159.3873282934865
 30
0.0
 10
101.5207635211007
 20
-159.3425607934979
 30
0.0
 10
101.5207635211007
 20
-159.2874216268448
 30
0.0
  0
POLYLINE
  5
69
330
1F
100
AcDbEntity
  8
_U+30EC_U+30A4_U+30E4_U+30FC 1
 62
   179
420
  2234388
370
     9
100
AcDb2dPolyline
 66
     1
 10
0.0
 20
0.0
 30
0.0
  0
VERTEX
  5
6A
330
69
100
AcDbEntity
  8
_U+30EC_U+30A4_U+30E4_U+30FC 1
 62
   179
420
  2234388
370
     9
100
AcDbVertex
100
AcDb2dVertex
 10
101.4201513014453
 20
-159.2874216268448
 30
0.0
  0
VERTEX
  5
6B
330
69
100
AcDbEntity
  8
_U+30EC_U+30A4_U+30E4_U+30FC 1
 62
   179
420
  2234388
370
     9
100
AcDbVertex
100
AcDb2dVertex
 10
118.4203355899567
 20
-159.2874216268448
 30
0.0
  0
SEQEND
  5
6C
330
69
100
AcDbEntity
  8
_U+30EC_U+30A4_U+30E4_U+30FC 1
 62
   179
420
  2234388
370
     9
  0
POLYLINE
  5
6D
330
1F
100
AcDbEntity
  8
_U+30EC_U+30A4_U+30E4_U+30FC 1
 62
   179
420
  2234388
370
     9
100
AcDb2dPolyline
 66
     1
 10
0.0
 20
0.0
 30
0.0
  0
VERTEX
  5
6E
330
6D
100
AcDbEntity
  8
_U+30EC_U+30A4_U+30E4_U+30FC 1
 62
   179
420
  2234388
370
     9
100
AcDbVertex
100
AcDb2dVertex
 10
118.4203355899567
 20
-157.1273632940517
 30
0.0
  0
VERTEX
  5
6F
330
6D
100
AcDbEntity
  8
_U+30EC_U+30A4_U+30E4_U+30FC 1
 62
   179
420
  2234388
370
     9
100
AcDbVertex
100
AcDb2dVertex
 10
118.4203355899567
 20
-160.2878994043722
 30
0.0
  0
SEQEND
  5
70
330
6D
100
AcDbEntity
  8
_U+30EC_U+30A4_U+30E4_U+30FC 1
 62
   179
420
  2234388
370
     9
  0
INSERT
  5
72
330
1F
100
AcDbEntity
  8
_U+30EC_U+30A4_U+30E4_U+30FC 1
100
AcDbBlockReference
  2
block 2
 10
0.0
 20
0.0
 30
0.0
  0
POLYLINE
  5
79
330
1F
100
AcDbEntity
  8
_U+30EC_U+30A4_U+30E4_U+30FC 1
 62
   179
420
  2234388
370
     9
100
AcDb2dPolyline
 66
     1
 10
0.0
 20
0.0
 30
0.0
  0
VERTEX
  5
7A
330
79
100
AcDbEntity
  8
_U+30EC_U+30A4_U+30E4_U+30FC 1
 62
   179
420
  2234388
370
     9
100
AcDbVertex
100
AcDb2dVertex
 10
86.75750778663158
 20
-141.6874794090224
 30
0.0
  0
VERTEX
  5
7B
330
79
100
AcDbEntity
  8
_U+30EC_U+30A4_U+30E4_U+30FC 1
 62
   179
420
  2234388
370
     9
100
AcDbVertex
100
AcDb2dVertex
 10
86.75750778663158
 20
-140.6877071870502
 30
0.0
  0
SEQEND
  5
7C
330
79
100
AcDbEntity
  8
_U+30EC_U+30A4_U+30E4_U+30FC 1
 62
   179
420
  2234388
370
     9
  0
POLYLINE
  5
7D
330
1F
100
AcDbEntity
  8
_U+30EC_U+30A4_U+30E4_U+30FC 1
 62
   179
420
  2234388
370
     9
100
AcDb2dPolyline
 66
     1
 10
0.0
 20
0.0
 30
0.0
  0
VERTEX
  5
7E
330
7D
100
AcDbEntity
  8
_U+30EC_U+30A4_U+30E4_U+30FC 1
 62
   179
420
  2234388
370
     9
100
AcDbVertex
100
AcDb2dVertex
 10
86.75750778663158
 20
-141.6874794090224
 30
0.0
  0
VERTEX
  5
7F
330
7D
100
AcDbEntity
  8
_U+30EC_U+30A4_U+30E4_U+30FC 1
 62
   179
420
  2234388
370
     9
100
AcDbVertex
100
AcDb2dVertex
 10
86.75750778663158
 20
-143.7876007973865
 30
0.0
  0
SEQEND
  5
80
330
7D
100
AcDbEntity
  8
_U+30EC_U+30A4_U+30E4_U+30FC 1
 62
   179
420
  2234388
370
     9
  0
POLYLINE
  5
81
330
1F
100
AcDbEntity
  8
_U+30EC_U+30A4_U+30E4_U+30FC 1
 62
   179
420
  2234388
370
     9
100
AcDb2dPolyline
 66
     1
 10
0.0
 20
0.0
 30
0.0
  0
VERTEX
  5
82
330
81
100
AcDbEntity
  8
_U+30EC_U+30A4_U+30E4_U+30FC 1
 62
   179
420
  2234388
370
     9
100
AcDbVertex
100
AcDb2dVertex
 10
88.21751386049483
 20
-141.6874794090224
 30
0.0
  0
VERTEX
  5
83
330
81
100
AcDbEntity
  8
_U+30EC_U+30A4_U+30E4_U+30FC 1
 62
   179
420
  2234388
370
     9
100
AcDbVertex
100
AcDb2dVertex
 10
85.75738281214689
 20
-141.6874794090224
 30
0.0
  0
SEQEND
  5
84
330
81
100
AcDbEntity
  8
_U+30EC_U+30A4_U+30E4_U+30FC 1
 62
   179
420
  2234388
370
     9
  0
POLYLINE
  5
85
330
1F
100
AcDbEntity
  8
_U+30EC_U+30A4_U+30E4_U+30FC 1
 62
   179
420
  2234388
370
     9
100
AcDb2dPolyline
 66
     1
 10
0.0
 20
0.0
 30
0.0
  0
VERTEX
  5
86
330
85
100
AcDbEntity
  8
_U+30EC_U+30A4_U+30E4_U+30FC 1
 62
   179
420
  2234388
370
     9
100
AcDbVertex
100
AcDb2dVertex
 10
88.21751386049483
 20
-142.7878285754143
 30
0.0
  0
VERTEX
  5
87
330
85
100
AcDbEntity
  8
_U+30EC_U+30A4_U+30E4_U+30FC 1
 62
   179
420
  2234388
370
     9
100
AcDbVertex
100
AcDb2dVertex
 10
85.75738281214689
 20
-142.7878285754143
 30
0.0
  0
SEQEND
  5
88
330
85
100
AcDbEntity
  8
_U+30EC_U+30A4_U+30E4_U+30FC 1
 62
   179
420
  2234388
370
     9
  0
INSERT
  5
8A
330
1F
100
AcDbEntity
  8
_U+30EC_U+30A4_U+30E4_U+30FC 1
100
AcDbBlockReference
  2
block 3
 10
0.0
 20
0.0
 30
0.0
  0
POLYLINE
  5
99
330
1F
100
AcDbEntity
  8
_U+30EC_U+30A4_U+30E4_U+30FC 1
 62
   179
420
  2234388
370
     9
100
AcDb2dPolyline
 66
     1
 10
0.0
 20
0.0
 30
0.0
  0
VERTEX
  5
9A
330
99
100
AcDbEntity
  8
_U+30EC_U+30A4_U+30E4_U+30FC 1
 62
   179
420
  2234388
370
     9
100
AcDbVertex
100
AcDb2dVertex
 10
122.420094654581
 20
-154.5879630169087
 30
0.0
  0
VERTEX
  5
9B
330
99
100
AcDbEntity
  8
_U+30EC_U+30A4_U+30E4_U+30FC 1
 62
   179
420
  2234388
370
     9
100
AcDbVertex
100
AcDb2dVertex
 10
122.420094654581
 20
-155.5877352388806
 30
0.0
  0
SEQEND
  5
9C
330
99
100
AcDbEntity
  8
_U+30EC_U+30A4_U+30E4_U+30FC 1
 62
   179
420
  2234388
370
     9
  0
POLYLINE
  5
9D
330
1F
100
AcDbEntity
  8
_U+30EC_U+30A4_U+30E4_U+30FC 1
 62
   179
420
  2234388
370
     9
100
AcDb2dPolyline
 66
     1
 10
0.0
 20
0.0
 30
0.0
  0
VERTEX
  5
9E
330
9D
100
AcDbEntity
  8
_U+30EC_U+30A4_U+30E4_U+30FC 1
 62
   179
420
  2234388
370
     9
100
AcDbVertex
100
AcDb2dVertex
 10
122.420094654581
 20
-154.1883363503415
 30
0.0
  0
VERTEX
  5
9F
330
9D
100
AcDbEntity
  8
_U+30EC_U+30A4_U+30E4_U+30FC 1
 62
   179
420
  2234388
370
     9
100
AcDbVertex
100
AcDb2dVertex
 10
122.420094654581
 20
-154.5879630169087
 30
0.0
  0
SEQEND
  5
A0
330
9D
100
AcDbEntity
  8
_U+30EC_U+30A4_U+30E4_U+30FC 1
 62
   179
420
  2234388
370
     9
  0
POLYLINE
  5
A1
330
1F
100
AcDbEntity
  8
_U+30EC_U+30A4_U+30E4_U+30FC 1
 62
   179
420
  2234388
370
     9
100
AcDb2dPolyline
 66
     1
 10
0.0
 20
0.0
 30
0.0
  0
VERTEX
  5
A2
330
A1
100
AcDbEntity
  8
_U+30EC_U+30A4_U+30E4_U+30FC 1
 62
   179
420
  2234388
370
     9
100
AcDbVertex
100
AcDb2dVertex
 10
120.9600533029408
 20
-154.1883363503415
 30
0.0
  0
VERTEX
  5
A3
330
A1
100
AcDbEntity
  8
_U+30EC_U+30A4_U+30E4_U+30FC 1
 62
   179
420
  2234388
370
     9
100
AcDbVertex
100
AcDb2dVertex
 10
123.4205371290575
 20
-154.1883363503415
 30
0.0
  0
SEQEND
  5
A4
330
A1
100
AcDbEntity
  8
_U+30EC_U+30A4_U+30E4_U+30FC 1
 62
   179
420
  2234388
370
     9
  0
POLYLINE
  5
A5
330
1F
100
AcDbEntity
  8
_U+30EC_U+30A4_U+30E4_U+30FC 1
 62
   179
420
  2234388
370
     9
100
AcDb2dPolyline
 66
     1
 10
0.0
 20
0.0
 30
0.0
  0
VERTEX
  5
A6
330
A5
100
AcDbEntity
  8
_U+30EC_U+30A4_U+30E4_U+30FC 1
 62
   179
420
  2234388
370
     9
100
AcDbVertex
100
AcDb2dVertex
 10
120.9600533029408
 20
-154.5879630169087
 30
0.0
  0
VERTEX
  5
A7
330
A5
100
AcDbEntity
  8
_U+30EC_U+30A4_U+30E4_U+30FC 1
 62
   179
420
  2234388
370
     9
100
AcDbVertex
100
AcDb2dVertex
 10
123.4205371290575
 20
-154.5879630169087
 30
0.0
  0
SEQEND
  5
A8
330
A5
100
AcDbEntity
  8
_U+30EC_U+30A4_U+30E4_U+30FC 1
 62
   179
420
  2234388
370
     9
  0
INSERT
  5
AA
330
1F
100
AcDbEntity
  8
_U+30EC_U+30A4_U+30E4_U+30FC 1
100
AcDbBlockReference
  2
block 4
 10
0.0
 20
0.0
 30
0.0
  0
POLYLINE
  5
CD
330
1F
100
AcDbEntity
  8
_U+30EC_U+30A4_U+30E4_U+30FC 1
 62
   179
420
  2234388
370
     9
100
AcDb2dPolyline
 66
     1
 10
0.0
 20
0.0
 30
0.0
  0
VERTEX
  5
CE
330
CD
100
AcDbEntity
  8
_U+30EC_U+30A4_U+30E4_U+30FC 1
 62
   179
420
  2234388
370
     9
100
AcDbVertex
100
AcDb2dVertex
 10
89.42020382981165
 20
-159.2874216268448
 30
0.0
  0
VERTEX
  5
CF
330
CD
100
AcDbEntity
  8
_U+30EC_U+30A4_U+30E4_U+30FC 1
 62
   179
420
  2234388
370
     9
100
AcDbVertex
100
AcDb2dVertex
 10
101.4201513014453
 20
-159.2874216268448
 30
0.0
  0
SEQEND
  5
D0
330
CD
100
AcDbEntity
  8
_U+30EC_U+30A4_U+30E4_U+30FC 1
 62
   179
420
  2234388
370
     9
  0
POLYLINE
  5
D1
330
1F
100
AcDbEntity
  8
_U+30EC_U+30A4_U+30E4_U+30FC 1
 62
   179
420
  2234388
370
     9
100
AcDb2dPolyline
 66
     1
 10
0.0
 20
0.0
 30
0.0
  0
VERTEX
  5
D2
330
D1
100
AcDbEntity
  8
_U+30EC_U+30A4_U+30E4_U+30FC 1
 62
   179
420
  2234388
370
     9
100
AcDbVertex
100
AcDb2dVertex
 10
89.42020382981165
 20
-145.3275463525572
 30
0.0
  0
VERTEX
  5
D3
330
D1
100
AcDbEntity
  8
_U+30EC_U+30A4_U+30E4_U+30FC 1
 62
   179
420
  2234388
370
     9
100
AcDbVertex
100
AcDb2dVertex
 10
89.42020382981165
 20
-160.2878994043722
 30
0.0
  0
SEQEND
  5
D4
330
D1
100
AcDbEntity
  8
_U+30EC_U+30A4_U+30E4_U+30FC 1
 62
   179
420
  2234388
370
     9
  0
POLYLINE
  5
D5
330
1F
100
AcDbEntity
  8
_U+30EC_U+30A4_U+30E4_U+30FC 1
 62
   179
420
  2234388
370
     9
100
AcDb2dPolyline
 66
     1
 10
0.0
 20
0.0
 30
0.0
  0
VERTEX
  5
D6
330
D5
100
AcDbEntity
  8
_U+30EC_U+30A4_U+30E4_U+30FC 1
 62
   179
420
  2234388
370
     9
100
AcDbVertex
100
AcDb2dVertex
 10
101.4201513014453
 20
-157.8274155160987
 30
0.0
  0
VERTEX
  5
D7
330
D5
100
AcDbEntity
  8
_U+30EC_U+30A4_U+30E4_U+30FC 1
 62
   179
420
  2234388
370
     9
100
AcDbVertex
100
AcDb2dVertex
 10
101.4201513014453
 20
-160.2878994043722
 30
0.0
  0
SEQEND
  5
D8
330
D5
100
AcDbEntity
  8
_U+30EC_U+30A4_U+30E4_U+30FC 1
 62
   179
420
  2234388
370
     9
  0
INSERT
  5
DA
330
1F
100
AcDbEntity
  8
_U+30EC_U+30A4_U+30E4_U+30FC 1
100
AcDbBlockReference
  2
block 5
 10
0.0
 20
0.0
 30
0.0
  0
POLYLINE
  5
E1
330
1F
100
AcDbEntity
  8
_U+30EC_U+30A4_U+30E4_U+30FC 1
 62
   179
420
  2234388
370
     9
100
AcDb2dPolyline
 66
     1
 10
0.0
 20
0.0
 30
0.0
  0
VERTEX
  5
E2
330
E1
100
AcDbEntity
  8
_U+30EC_U+30A4_U+30E4_U+30FC 1
 62
   179
420
  2234388
370
     9
100
AcDbVertex
100
AcDb2dVertex
 10
122.420094654581
 20
-141.6874794090224
 30
0.0
  0
VERTEX
  5
E3
330
E1
100
AcDbEntity
  8
_U+30EC_U+30A4_U+30E4_U+30FC 1
 62
   179
420
  2234388
370
     9
100
AcDbVertex
100
AcDb2dVertex
 10
122.420094654581
 20
-154.1883363503415
 30
0.0
  0
SEQEND
  5
E4
330
E1
100
AcDbEntity
  8
_U+30EC_U+30A4_U+30E4_U+30FC 1
 62
   179
420
  2234388
370
     9
  0
POLYLINE
  5
E5
330
1F
100
AcDbEntity
  8
_U+30EC_U+30A4_U+30E4_U+30FC 1
 62
   179
420
  2234388
370
     9
100
AcDb2dPolyline
 66
     1
 10
0.0
 20
0.0
 30
0.0
  0
VERTEX
  5
E6
330
E5
100
AcDbEntity
  8
_U+30EC_U+30A4_U+30E4_U+30FC 1
 62
   179
420
  2234388
370
     9
100
AcDbVertex
100
AcDb2dVertex
 10
105.0602534308007
 20
-141.6874794090224
 30
0.0
  0
VERTEX
  5
E7
330
E5
100
AcDbEntity
  8
_U+30EC_U+30A4_U+30E4_U+30FC 1
 62
   179
420
  2234388
370
     9
100
AcDbVertex
100
AcDb2dVertex
 10
123.4205371290575
 20
-141.6874794090224
 30
0.0
  0
SEQEND
  5
E8
330
E5
100
AcDbEntity
  8
_U+30EC_U+30A4_U+30E4_U+30FC 1
 62
   179
420
  2234388
370
     9
  0
INSERT
  5
EA
330
1F
100
AcDbEntity
  8
_U+30EC_U+30A4_U+30E4_U+30FC 1
100
AcDbBlockReference
  2
block 6
 10
0.0
 20
0.0
 30
0.0
  0
ENDSEC
  0
SECTION
  2
OBJECTS
  0
DICTIONARY
  5
C
330
0
100
AcDbDictionary
281
     1
  3
ACAD_GROUP
350
D
  3
ACAD_LAYOUT
350
1A
  3
ACAD_MATERIAL
350
3B
  3
ACAD_MLEADERSTYLE
350
FC
  3
ACAD_MLINESTYLE
350
17
  3
ACAD_PLOTSETTINGS
350
19
  3
ACAD_PLOTSTYLENAME
350
E
  3
ACAD_TABLESTYLE
350
FB
  3
ACAD_VISUALSTYLE
350
2A
  0
SUN
  5
3F
330
29
100
AcDbSun
 90
        1
290
     0
 63
     7
421
 16777215
 40
1.0
291
     1
 91
  2455826
 92
 54000000
292
     0
 70
     2
 71
   256
280
     1
  0
DICTIONARY
  5
D
102
{ACAD_REACTORS
330
C
102
}
330
C
100
AcDbDictionary
281
     1
  0
DICTIONARY
  5
1A
102
{ACAD_REACTORS
330
C
102
}
330
C
100
AcDbDictionary
281
     1
  3
Layout1
350
1E
  3
Layout2
350
26
  3
Model
350
22
  0
DICTIONARY
  5
3B
102
{ACAD_REACTORS
330
C
102
}
330
C
100
AcDbDictionary
281
     1
  3
ByBlock
350
3D
  3
ByLayer
350
3C
  3
Global
350
3E
  0
DICTIONARY
  5
FC
102
{ACAD_REACTORS
330
C
102
}
330
C
100
AcDbDictionary
281
     1
  0
DICTIONARY
  5
17
102
{ACAD_REACTORS
330
C
102
}
330
C
100
AcDbDictionary
281
     1
  3
Standard
350
18
  0
DICTIONARY
  5
19
102
{ACAD_REACTORS
330
C
102
}
330
C
100
AcDbDictionary
281
     1
  0
ACDBDICTIONARYWDFLT
  5
E
102
{ACAD_REACTORS
330
C
102
}
330
C
100
AcDbDictionary
281
     1
  3
Normal
350
F
100
AcDbDictionaryWithDefault
340
F
  0
DICTIONARY
  5
FB
102
{ACAD_REACTORS
330
C
102
}
330
C
100
AcDbDictionary
281
     1
  0
DICTIONARY
  5
2A
102
{ACAD_REACTORS
330
C
102
}
330
C
100
AcDbDictionary
281
     1
  3
2dWireframe
350
2F
  3
3D Hidden
350
31
  3
3dWireframe
350
30
  3
Basic
350
32
  3
Brighten
350
36
  3
ColorChange
350
3A
  3
Conceptual
350
34
  3
Dim
350
35
  3
Facepattern
350
39
  3
Flat
350
2B
  3
FlatWithEdges
350
2C
  3
Gouraud
350
2D
  3
GouraudWithEdges
350
2E
  3
Linepattern
350
38
  3
Realistic
350
33
  3
Thicken
350
37
  0
LAYOUT
  5
1E
102
{ACAD_REACTORS
330
1A
102
}
330
1A
100
AcDbPlotSettings
  1

  2
none_device
  4

  6

 40
0.0
 41
0.0
 42
0.0
 43
0.0
 44
0.0
 45
0.0
 46
0.0
 47
0.0
 48
0.0
 49
0.0
140
0.0
141
0.0
142
1.0
143
1.0
 70
   688
 72
     0
 73
     0
 74
     5
  7

 75
    16
 76
     0
 77
     2
 78
   300
147
1.0
148
0.0
149
0.0
100
AcDbLayout
  1
Layout1
 70
     1
 71
     1
 10
0.0
 20
0.0
 11
12.0
 21
9.0
 12
0.0
 22
0.0
 32
0.0
 14
1.000000000000000E+20
 24
1.000000000000000E+20
 34
1.000000000000000E+20
 15
-1.000000000000000E+20
 25
-1.000000000000000E+20
 35
-1.000000000000000E+20
146
0.0
 13
0.0
 23
0.0
 33
0.0
 16
1.0
 26
0.0
 36
0.0
 17
0.0
 27
1.0
 37
0.0
 76
     0
330
1B
  0
LAYOUT
  5
26
102
{ACAD_REACTORS
330
1A
102
}
330
1A
100
AcDbPlotSettings
  1

  2
none_device
  4

  6

 40
0.0
 41
0.0
 42
0.0
 43
0.0
 44
0.0
 45
0.0
 46
0.0
 47
0.0
 48
0.0
 49
0.0
140
0.0
141
0.0
142
1.0
143
1.0
 70
   688
 72
     0
 73
     0
 74
     5
  7

 75
    16
 76
     0
 77
     2
 78
   300
147
1.0
148
0.0
149
0.0
100
AcDbLayout
  1
Layout2
 70
     1
 71
     2
 10
0.0
 20
0.0
 11
0.0
 21
0.0
 12
0.0
 22
0.0
 32
0.0
 14
0.0
 24
0.0
 34
0.0
 15
0.0
 25
0.0
 35
0.0
146
0.0
 13
0.0
 23
0.0
 33
0.0
 16
1.0
 26
0.0
 36
0.0
 17
0.0
 27
1.0
 37
0.0
 76
     0
330
23
  0
LAYOUT
  5
22
102
{ACAD_REACTORS
330
1A
102
}
330
1A
100
AcDbPlotSettings
  1

  2
none_device
  4

  6

 40
0.0
 41
0.0
 42
0.0
 43
0.0
 44
0.0
 45
0.0
 46
0.0
 47
0.0
 48
0.0
 49
0.0
140
0.0
141
0.0
142
1.0
143
1.0
 70
  1712
 72
     0
 73
     0
 74
     0
  7

 75
     0
 76
     0
 77
     2
 78
   300
147
1.0
148
0.0
149
0.0
100
AcDbLayout
  1
Model
 70
     1
 71
     0
 10
0.0
 20
0.0
 11
12.0
 21
9.0
 12
0.0
 22
0.0
 32
0.0
 14
1.000000000000000E+20
 24
1.000000000000000E+20
 34
1.000000000000000E+20
 15
-1.000000000000000E+20
 25
-1.000000000000000E+20
 35
-1.000000000000000E+20
146
0.0
 13
0.0
 23
0.0
 33
0.0
 16
1.0
 26
0.0
 36
0.0
 17
0.0
 27
1.0
 37
0.0
 76
     0
330
1F
331
29
  0
MATERIAL
  5
3D
102
{ACAD_REACTORS
330
3B
102
}
330
3B
100
AcDbMaterial
  1
ByBlock
 72
     1
 94
      127
  0
MATERIAL
  5
3C
102
{ACAD_REACTORS
330
3B
102
}
330
3B
100
AcDbMaterial
  1
ByLayer
 72
     1
 94
      127
  0
MATERIAL
  5
3E
102
{ACAD_REACTORS
330
3B
102
}
330
3B
100
AcDbMaterial
  1
Global
 72
     1
 94
      127
  0
MLINESTYLE
  5
18
102
{ACAD_REACTORS
330
17
102
}
330
17
100
AcDbMlineStyle
  2
Standard
 70
     0
  3

 62
   256
 51
90.0
 52
90.0
 71
     2
 49
0.5
 62
   256
  6
BYLAYER
 49
-0.5
 62
   256
  6
BYLAYER
  0
ACDBPLACEHOLDER
  5
F
102
{ACAD_REACTORS
330
E
102
}
330
E
  0
VISUALSTYLE
  5
2F
102
{ACAD_REACTORS
330
2A
102
}
330
2A
100
AcDbVisualStyle
  2
2dWireframe
 70
     4
177
     2
291
     0
 71
     0
176
     1
 72
     2
176
     1
 73
     0
176
     1
 90
        0
176
     1
 40
-0.6
176
     1
 41
-30.0
176
     1
 62
     5
 63
     7
421
 16777215
176
     1
 74
     1
176
     1
 91
        4
176
     1
 64
     7
176
     1
 65
   257
176
     1
 75
     1
176
     1
175
     1
176
     1
 42
1.0
176
     1
 92
        0
176
     1
 66
   257
176
     1
 43
1.0
176
     1
 76
     1
176
     1
 77
     6
176
     1
 78
     2
176
     1
 67
     7
176
     1
 79
     5
176
     1
170
     0
176
     1
171
     0
176
     1
290
     0
176
     1
 93
        1
176
     1
 44
0.0
176
     1
173
     0
176
     1
  0
VISUALSTYLE
  5
31
102
{ACAD_REACTORS
330
2A
102
}
330
2A
100
AcDbVisualStyle
  2
3D Hidden
 70
     6
177
     2
291
     0
 71
     1
176
     1
 72
     2
176
     1
 73
     2
176
     1
 90
        0
176
     1
 40
-0.6
176
     1
 41
-30.0
176
     1
 62
     5
 63
     7
421
 16777215
176
     1
 74
     2
176
     1
 91
        2
176
     1
 64
     7
176
     1
 65
   257
176
     1
 75
     2
176
     1
175
     1
176
     1
 42
40.0
176
     1
 92
        0
176
     1
 66
   257
176
     1
 43
1.0
176
     1
 76
     1
176
     1
 77
     6
176
     1
 78
     2
176
     1
 67
     7
176
     1
 79
     3
176
     1
170
     0
176
     1
171
     0
176
     1
290
     0
176
     1
 93
        1
176
     1
 44
0.0
176
     1
173
     0
176
     1
  0
VISUALSTYLE
  5
30
102
{ACAD_REACTORS
330
2A
102
}
330
2A
100
AcDbVisualStyle
  2
3dWireframe
 70
     5
177
     2
291
     0
 71
     0
176
     1
 72
     2
176
     1
 73
     0
176
     1
 90
        0
176
     1
 40
-0.6
176
     1
 41
-30.0
176
     1
 62
     5
 63
     7
421
 16777215
176
     1
 74
     1
176
     1
 91
        4
176
     1
 64
     7
176
     1
 65
   257
176
     1
 75
     1
176
     1
175
     1
176
     1
 42
1.0
176
     1
 92
        0
176
     1
 66
   257
176
     1
 43
1.0
176
     1
 76
     1
176
     1
 77
     6
176
     1
 78
     2
176
     1
 67
     7
176
     1
 79
     5
176
     1
170
     0
176
     1
171
     0
176
     1
290
     0
176
     1
 93
        1
176
     1
 44
0.0
176
     1
173
     0
176
     1
  0
VISUALSTYLE
  5
32
102
{ACAD_REACTORS
330
2A
102
}
330
2A
100
AcDbVisualStyle
  2
Basic
 70
     7
177
     2
291
     1
 71
     1
176
     1
 72
     0
176
     1
 73
     1
176
     1
 90
        0
176
     1
 40
-0.6
176
     1
 41
-30.0
176
     1
 62
     5
 63
     7
421
 16777215
176
     1
 74
     0
176
     1
 91
        4
176
     1
 64
     7
176
     1
 65
   257
176
     1
 75
     1
176
     1
175
     1
176
     1
 42
1.0
176
     1
 92
        8
176
     1
 66
     7
176
     1
 43
1.0
176
     1
 76
     1
176
     1
 77
     6
176
     1
 78
     2
176
     1
 67
     7
176
     1
 79
     5
176
     1
170
     0
176
     1
171
     0
176
     1
290
     0
176
     1
 93
        1
176
     1
 44
0.0
176
     1
173
     0
176
     1
  0
VISUALSTYLE
  5
36
102
{ACAD_REACTORS
330
2A
102
}
330
2A
100
AcDbVisualStyle
  2
Brighten
 70
    12
177
     2
291
     1
 71
     2
176
     1
 72
     2
176
     1
 73
     0
176
     1
 90
        0
176
     1
 40
-0.6
176
     1
 41
-30.0
176
     1
 62
     5
 63
     7
421
 16777215
176
     1
 74
     1
176
     1
 91
        4
176
     1
 64
     7
176
     1
 65
   257
176
     1
 75
     1
176
     1
175
     1
176
     1
 42
1.0
176
     1
 92
        8
176
     1
 66
     7
176
     1
 43
1.0
176
     1
 76
     1
176
     1
 77
     6
176
     1
 78
     2
176
     1
 67
     7
176
     1
 79
     5
176
     1
170
     0
176
     1
171
     0
176
     1
290
     0
176
     1
 93
        1
176
     1
 44
50.0
176
     1
173
     0
176
     1
  0
VISUALSTYLE
  5
3A
102
{ACAD_REACTORS
330
2A
102
}
330
2A
100
AcDbVisualStyle
  2
ColorChange
 70
    16
177
     2
291
     1
 71
     2
176
     1
 72
     2
176
     1
 73
     3
176
     1
 90
        0
176
     1
 40
-0.6
176
     1
 41
-30.0
176
     1
 62
     5
 63
     8
421
  8421504
176
     1
 74
     1
176
     1
 91
        4
176
     1
 64
     7
176
     1
 65
   257
176
     1
 75
     1
176
     1
175
     1
176
     1
 42
1.0
176
     1
 92
        8
176
     1
 66
     8
424
  8421504
176
     1
 43
1.0
176
     1
 76
     1
176
     1
 77
     6
176
     1
 78
     2
176
     1
 67
     7
176
     1
 79
     5
176
     1
170
     0
176
     1
171
     0
176
     1
290
     0
176
     1
 93
        1
176
     1
 44
0.0
176
     1
173
     0
176
     1
  0
VISUALSTYLE
  5
34
102
{ACAD_REACTORS
330
2A
102
}
330
2A
100
AcDbVisualStyle
  2
Conceptual
 70
     9
177
     2
291
     0
 71
     3
176
     1
 72
     2
176
     1
 73
     0
176
     1
 90
        0
176
     1
 40
-0.6
176
     1
 41
-30.0
176
     1
 62
     5
 63
     7
421
 16777215
176
     1
 74
     2
176
     1
 91
        2
176
     1
 64
     7
176
     1
 65
   257
176
     1
 75
     1
176
     1
175
     1
176
     1
 42
40.0
176
     1
 92
        8
176
     1
 66
     7
176
     1
 43
1.0
176
     1
 76
     1
176
     1
 77
     6
176
     1
 78
     2
176
     1
 67
     7
176
     1
 79
     3
176
     1
170
     0
176
     1
171
     0
176
     1
290
     0
176
     1
 93
        1
176
     1
 44
0.0
176
     1
173
     0
176
     1
  0
VISUALSTYLE
  5
35
102
{ACAD_REACTORS
330
2A
102
}
330
2A
100
AcDbVisualStyle
  2
Dim
 70
    11
177
     2
291
     1
 71
     2
176
     1
 72
     2
176
     1
 73
     0
176
     1
 90
        0
176
     1
 40
-0.6
176
     1
 41
-30.0
176
     1
 62
     5
 63
     7
421
 16777215
176
     1
 74
     1
176
     1
 91
        4
176
     1
 64
     7
176
     1
 65
   257
176
     1
 75
     1
176
     1
175
     1
176
     1
 42
1.0
176
     1
 92
        8
176
     1
 66
     7
176
     1
 43
1.0
176
     1
 76
     1
176
     1
 77
     6
176
     1
 78
     2
176
     1
 67
     7
176
     1
 79
     5
176
     1
170
     0
176
     1
171
     0
176
     1
290
     0
176
     1
 93
        1
176
     1
 44
-50.0
176
     1
173
     0
176
     1
  0
VISUALSTYLE
  5
39
102
{ACAD_REACTORS
330
2A
102
}
330
2A
100
AcDbVisualStyle
  2
Facepattern
 70
    15
177
     2
291
     1
 71
     2
176
     1
 72
     2
176
     1
 73
     0
176
     1
 90
        0
176
     1
 40
-0.6
176
     1
 41
-30.0
176
     1
 62
     5
 63
     7
421
 16777215
176
     1
 74
     1
176
     1
 91
        4
176
     1
 64
     7
176
     1
 65
   257
176
     1
 75
     1
176
     1
175
     1
176
     1
 42
1.0
176
     1
 92
        8
176
     1
 66
     7
176
     1
 43
1.0
176
     1
 76
     1
176
     1
 77
     6
176
     1
 78
     2
176
     1
 67
     7
176
     1
 79
     5
176
     1
170
     0
176
     1
171
     0
176
     1
290
     0
176
     1
 93
        1
176
     1
 44
0.0
176
     1
173
     0
176
     1
  0
VISUALSTYLE
  5
2B
102
{ACAD_REACTORS
330
2A
102
}
330
2A
100
AcDbVisualStyle
  2
Flat
 70
     0
177
     2
291
     1
 71
     2
176
     1
 72
     1
176
     1
 73
     1
176
     1
 90
        2
176
     1
 40
-0.6
176
     1
 41
30.0
176
     1
 62
     5
 63
     7
421
 16777215
176
     1
 74
     0
176
     1
 91
        4
176
     1
 64
     7
176
     1
 65
   257
176
     1
 75
     1
176
     1
175
     1
176
     1
 42
1.0
176
     1
 92
        8
176
     1
 66
     7
176
     1
 43
1.0
176
     1
 76
     1
176
     1
 77
     6
176
     1
 78
     2
176
     1
 67
     7
176
     1
 79
     5
176
     1
170
     0
176
     1
171
     0
176
     1
290
     0
176
     1
 93
       13
176
     1
 44
0.0
176
     1
173
     0
176
     1
  0
VISUALSTYLE
  5
2C
102
{ACAD_REACTORS
330
2A
102
}
330
2A
100
AcDbVisualStyle
  2
FlatWithEdges
 70
     1
177
     2
291
     1
 71
     2
176
     1
 72
     1
176
     1
 73
     1
176
     1
 90
        2
176
     1
 40
-0.6
176
     1
 41
30.0
176
     1
 62
     5
 63
     7
421
 16777215
176
     1
 74
     1
176
     1
 91
        4
176
     1
 64
     7
176
     1
 65
   257
176
     1
 75
     1
176
     1
175
     1
176
     1
 42
1.0
176
     1
 92
        0
176
     1
 66
   257
176
     1
 43
1.0
176
     1
 76
     1
176
     1
 77
     6
176
     1
 78
     2
176
     1
 67
     7
176
     1
 79
     5
176
     1
170
     0
176
     1
171
     0
176
     1
290
     0
176
     1
 93
       13
176
     1
 44
0.0
176
     1
173
     0
176
     1
  0
VISUALSTYLE
  5
2D
102
{ACAD_REACTORS
330
2A
102
}
330
2A
100
AcDbVisualStyle
  2
Gouraud
 70
     2
177
     2
291
     1
 71
     2
176
     1
 72
     2
176
     1
 73
     1
176
     1
 90
        2
176
     1
 40
-0.6
176
     1
 41
30.0
176
     1
 62
     5
 63
     7
421
 16777215
176
     1
 74
     0
176
     1
 91
        4
176
     1
 64
     7
176
     1
 65
   257
176
     1
 75
     1
176
     1
175
     1
176
     1
 42
1.0
176
     1
 92
        0
176
     1
 66
     7
176
     1
 43
1.0
176
     1
 76
     1
176
     1
 77
     6
176
     1
 78
     2
176
     1
 67
     7
176
     1
 79
     5
176
     1
170
     0
176
     1
171
     0
176
     1
290
     0
176
     1
 93
       13
176
     1
 44
0.0
176
     1
173
     0
176
     1
  0
VISUALSTYLE
  5
2E
102
{ACAD_REACTORS
330
2A
102
}
330
2A
100
AcDbVisualStyle
  2
GouraudWithEdges
 70
     3
177
     2
291
     1
 71
     2
176
     1
 72
     2
176
     1
 73
     1
176
     1
 90
        2
176
     1
 40
-0.6
176
     1
 41
30.0
176
     1
 62
     5
 63
     7
421
 16777215
176
     1
 74
     1
176
     1
 91
        4
176
     1
 64
     7
176
     1
 65
   257
176
     1
 75
     1
176
     1
175
     1
176
     1
 42
1.0
176
     1
 92
        0
176
     1
 66
   257
176
     1
 43
1.0
176
     1
 76
     1
176
     1
 77
     6
176
     1
 78
     2
176
     1
 67
     7
176
     1
 79
     5
176
     1
170
     0
176
     1
171
     0
176
     1
290
     0
176
     1
 93
       13
176
     1
 44
0.0
176
     1
173
     0
176
     1
  0
VISUALSTYLE
  5
38
102
{ACAD_REACTORS
330
2A
102
}
330
2A
100
AcDbVisualStyle
  2
Linepattern
 70
    14
177
     2
291
     1
 71
     2
176
     1
 72
     2
176
     1
 73
     0
176
     1
 90
        0
176
     1
 40
-0.6
176
     1
 41
-30.0
176
     1
 62
     5
 63
     7
421
 16777215
176
     1
 74
     1
176
     1
 91
        4
176
     1
 64
     7
176
     1
 65
   257
176
     1
 75
     7
176
     1
175
     7
176
     1
 42
1.0
176
     1
 92
        8
176
     1
 66
     7
176
     1
 43
1.0
176
     1
 76
     1
176
     1
 77
     6
176
     1
 78
     2
176
     1
 67
     7
176
     1
 79
     5
176
     1
170
     0
176
     1
171
     0
176
     1
290
     0
176
     1
 93
        1
176
     1
 44
0.0
176
     1
173
     0
176
     1
  0
VISUALSTYLE
  5
33
102
{ACAD_REACTORS
330
2A
102
}
330
2A
100
AcDbVisualStyle
  2
Realistic
 70
     8
177
     2
291
     0
 71
     2
176
     1
 72
     2
176
     1
 73
     0
176
     1
 90
        0
176
     1
 40
-0.6
176
     1
 41
-30.0
176
     1
 62
     5
 63
     7
421
 16777215
176
     1
 74
     1
176
     1
 91
        0
176
     1
 64
     7
176
     1
 65
   257
176
     1
 75
     1
176
     1
175
     1
176
     1
 42
1.0
176
     1
 92
        8
176
     1
 66
     8
424
  7895160
176
     1
 43
1.0
176
     1
 76
     1
176
     1
 77
     6
176
     1
 78
     2
176
     1
 67
     7
176
     1
 79
     5
176
     1
170
     0
176
     1
171
     0
176
     1
290
     0
176
     1
 93
       13
176
     1
 44
0.0
176
     1
173
     0
176
     1
  0
VISUALSTYLE
  5
37
102
{ACAD_REACTORS
330
2A
102
}
330
2A
100
AcDbVisualStyle
  2
Thicken
 70
    13
177
     2
291
     1
 71
     2
176
     1
 72
     2
176
     1
 73
     0
176
     1
 90
        0
176
     1
 40
-0.6
176
     1
 41
-30.0
176
     1
 62
     5
 63
     7
421
 16777215
176
     1
 74
     1
176
     1
 91
        4
176
     1
 64
     7
176
     1
 65
   257
176
     1
 75
     1
176
     1
175
     1
176
     1
 42
1.0
176
     1
 92
       12
176
     1
 66
     7
176
     1
 43
1.0
176
     1
 76
     1
176
     1
 77
     6
176
     1
 78
     2
176
     1
 67
     7
176
     1
 79
     5
176
     1
170
     0
176
     1
171
     0
176
     1
290
     0
176
     1
 93
        1
176
     1
 44
0.0
176
     1
173
     0
176
     1
  0
ENDSEC
  0
EOF
