  0
SECTION
  2
HEADER
  9
$ACADVER
  1
AC1024
  9
$ACADMAINTVER
 70
   226
  9
$DWGCODEPAGE
  3
ANSI_932
  9
$INSBASE
 10
0.0
 20
0.0
 30
0.0
  9
$EXTMIN
 10
1.000000000000000E+20
 20
1.000000000000000E+20
 30
1.000000000000000E+20
  9
$EXTMAX
 10
-1.000000000000000E+20
 20
-1.000000000000000E+20
 30
-1.000000000000000E+20
  9
$LIMMIN
 10
0.0
 20
0.0
  9
$LIMMAX
 10
12.0
 20
9.0
  9
$ORTHOMODE
 70
     0
  9
$REGENMODE
 70
     1
  9
$FILLMODE
 70
     1
  9
$QTEXTMODE
 70
     0
  9
$MIRRTEXT
 70
     0
  9
$LTSCALE
 40
1.0
  9
$ATTMODE
 70
     1
  9
$TEXTSIZE
 40
0.2
  9
$TRACEWID
 40
0.05
  9
$TEXTSTYLE
  7
Standard
  9
$CLAYER
  8
0
  9
$CELTYPE
  6
ByLayer
  9
$CECOLOR
 62
   256
  9
$CELTSCALE
 40
1.0
  9
$DISPSILH
 70
     0
  9
$DIMSCALE
 40
1.0
  9
$DIMASZ
 40
0.18
  9
$DIMEXO
 40
0.0625
  9
$DIMDLI
 40
0.38
  9
$DIMRND
 40
0.0
  9
$DIMDLE
 40
0.0
  9
$DIMEXE
 40
0.18
  9
$DIMTP
 40
0.0
  9
$DIMTM
 40
0.0
  9
$DIMTXT
 40
0.18
  9
$DIMCEN
 40
0.09
  9
$DIMTSZ
 40
0.0
  9
$DIMTOL
 70
     0
  9
$DIMLIM
 70
     0
  9
$DIMTIH
 70
     1
  9
$DIMTOH
 70
     1
  9
$DIMSE1
 70
     0
  9
$DIMSE2
 70
     0
  9
$DIMTAD
 70
     0
  9
$DIMZIN
 70
     0
  9
$DIMBLK
  1

  9
$DIMASO
 70
     1
  9
$DIMSHO
 70
     1
  9
$DIMPOST
  1

  9
$DIMAPOST
  1

  9
$DIMALT
 70
     0
  9
$DIMALTD
 70
     2
  9
$DIMALTF
 40
25.4
  9
$DIMLFAC
 40
1.0
  9
$DIMTOFL
 70
     0
  9
$DIMTVP
 40
0.0
  9
$DIMTIX
 70
     0
  9
$DIMSOXD
 70
     0
  9
$DIMSAH
 70
     0
  9
$DIMBLK1
  1

  9
$DIMBLK2
  1

  9
$DIMSTYLE
  2
Standard
  9
$DIMCLRD
 70
     0
  9
$DIMCLRE
 70
     0
  9
$DIMCLRT
 70
     0
  9
$DIMTFAC
 40
1.0
  9
$DIMGAP
 40
0.09
  9
$DIMJUST
 70
     0
  9
$DIMSD1
 70
     0
  9
$DIMSD2
 70
     0
  9
$DIMTOLJ
 70
     1
  9
$DIMTZIN
 70
     0
  9
$DIMALTZ
 70
     0
  9
$DIMALTTZ
 70
     0
  9
$DIMUPT
 70
     0
  9
$DIMDEC
 70
     4
  9
$DIMTDEC
 70
     4
  9
$DIMALTU
 70
     2
  9
$DIMALTTD
 70
     2
  9
$DIMTXSTY
  7
Standard
  9
$DIMAUNIT
 70
     0
  9
$DIMADEC
 70
     0
  9
$DIMALTRND
 40
0.0
  9
$DIMAZIN
 70
     0
  9
$DIMDSEP
 70
    46
  9
$DIMATFIT
 70
     3
  9
$DIMFRAC
 70
     0
  9
$DIMLDRBLK
  1

  9
$DIMLUNIT
 70
     2
  9
$DIMLWD
 70
    -2
  9
$DIMLWE
 70
    -2
  9
$DIMTMOVE
 70
     0
  9
$DIMFXL
 40
1.0
  9
$DIMFXLON
 70
     0
  9
$DIMJOGANG
 40
0.7853981633974483
  9
$DIMTFILL
 70
     0
  9
$DIMTFILLCLR
 70
     0
  9
$DIMARCSYM
 70
     0
  9
$DIMLTYPE
  6

  9
$DIMLTEX1
  6

  9
$DIMLTEX2
  6

  9
$DIMTXTDIRECTION
 70
     0
  9
$LUNITS
 70
     2
  9
$LUPREC
 70
     4
  9
$SKETCHINC
 40
0.1
  9
$FILLETRAD
 40
0.0
  9
$AUNITS
 70
     0
  9
$AUPREC
 70
     0
  9
$MENU
  1
.
  9
$ELEVATION
 40
0.0
  9
$PELEVATION
 40
0.0
  9
$THICKNESS
 40
0.0
  9
$LIMCHECK
 70
     0
  9
$CHAMFERA
 40
0.0
  9
$CHAMFERB
 40
0.0
  9
$CHAMFERC
 40
0.0
  9
$CHAMFERD
 40
0.0
  9
$SKPOLY
 70
     0
  9
$TDCREATE
 40
2459676.424120370
  9
$TDUCREATE
 40
2459676.049120370
  9
$TDUPDATE
 40
2459676.424120370
  9
$TDUUPDATE
 40
2459676.049120370
  9
$TDINDWG
 40
0.0000000000
  9
$TDUSRTIMER
 40
0.0000000000
  9
$USRTIMER
 70
     1
  9
$ANGBASE
 50
0.0
  9
$ANGDIR
 70
     0
  9
$PDMODE
 70
     0
  9
$PDSIZE
 40
0.0
  9
$PLINEWID
 40
0.0
  9
$SPLFRAME
 70
     0
  9
$SPLINETYPE
 70
     6
  9
$SPLINESEGS
 70
     8
  9
$HANDSEED
  5
148
  9
$SURFTAB1
 70
     6
  9
$SURFTAB2
 70
     6
  9
$SURFTYPE
 70
     6
  9
$SURFU
 70
     6
  9
$SURFV
 70
     6
  9
$UCSBASE
  2

  9
$UCSNAME
  2

  9
$UCSORG
 10
0.0
 20
0.0
 30
0.0
  9
$UCSXDIR
 10
1.0
 20
0.0
 30
0.0
  9
$UCSYDIR
 10
0.0
 20
1.0
 30
0.0
  9
$UCSORTHOREF
  2

  9
$UCSORTHOVIEW
 70
     0
  9
$UCSORGTOP
 10
0.0
 20
0.0
 30
0.0
  9
$UCSORGBOTTOM
 10
0.0
 20
0.0
 30
0.0
  9
$UCSORGLEFT
 10
0.0
 20
0.0
 30
0.0
  9
$UCSORGRIGHT
 10
0.0
 20
0.0
 30
0.0
  9
$UCSORGFRONT
 10
0.0
 20
0.0
 30
0.0
  9
$UCSORGBACK
 10
0.0
 20
0.0
 30
0.0
  9
$PUCSBASE
  2

  9
$PUCSNAME
  2

  9
$PUCSORG
 10
0.0
 20
0.0
 30
0.0
  9
$PUCSXDIR
 10
1.0
 20
0.0
 30
0.0
  9
$PUCSYDIR
 10
0.0
 20
1.0
 30
0.0
  9
$PUCSORTHOREF
  2

  9
$PUCSORTHOVIEW
 70
     0
  9
$PUCSORGTOP
 10
0.0
 20
0.0
 30
0.0
  9
$PUCSORGBOTTOM
 10
0.0
 20
0.0
 30
0.0
  9
$PUCSORGLEFT
 10
0.0
 20
0.0
 30
0.0
  9
$PUCSORGRIGHT
 10
0.0
 20
0.0
 30
0.0
  9
$PUCSORGFRONT
 10
0.0
 20
0.0
 30
0.0
  9
$PUCSORGBACK
 10
0.0
 20
0.0
 30
0.0
  9
$USERI1
 70
     0
  9
$USERI2
 70
     0
  9
$USERI3
 70
     0
  9
$USERI4
 70
     0
  9
$USERI5
 70
     0
  9
$USERR1
 40
0.0
  9
$USERR2
 40
0.0
  9
$USERR3
 40
0.0
  9
$USERR4
 40
0.0
  9
$USERR5
 40
0.0
  9
$WORLDVIEW
 70
     1
  9
$SHADEDGE
 70
     3
  9
$SHADEDIF
 70
    70
  9
$TILEMODE
 70
     1
  9
$MAXACTVP
 70
    64
  9
$PINSBASE
 10
0.0
 20
0.0
 30
0.0
  9
$PLIMCHECK
 70
     0
  9
$PEXTMIN
 10
1.000000000000000E+20
 20
1.000000000000000E+20
 30
1.000000000000000E+20
  9
$PEXTMAX
 10
-1.000000000000000E+20
 20
-1.000000000000000E+20
 30
-1.000000000000000E+20
  9
$PLIMMIN
 10
0.0
 20
0.0
  9
$PLIMMAX
 10
12.0
 20
9.0
  9
$UNITMODE
 70
     0
  9
$VISRETAIN
 70
     1
  9
$PLINEGEN
 70
     0
  9
$PSLTSCALE
 70
     1
  9
$TREEDEPTH
 70
  3020
  9
$CMLSTYLE
  2
Standard
  9
$CMLJUST
 70
     0
  9
$CMLSCALE
 40
1.0
  9
$PROXYGRAPHICS
 70
     1
  9
$MEASUREMENT
 70
     0
  9
$CELWEIGHT
370
    -1
  9
$ENDCAPS
280
     0
  9
$JOINSTYLE
280
     0
  9
$LWDISPLAY
290
     1
  9
$INSUNITS
 70
     4
  9
$HYPERLINKBASE
  1

  9
$STYLESHEET
  1

  9
$XEDIT
290
     1
  9
$CEPSNTYPE
380
     0
  9
$PSTYLEMODE
290
     1
  9
$FINGERPRINTGUID
  2
{FBE1AAAB-1E7D-0A4D-A594-07E402471C9C}
  9
$VERSIONGUID
  2
{938BC1CC-E9E5-4B45-8CDE-6502CA342A84}
  9
$EXTNAMES
290
     1
  9
$PSVPSCALE
 40
0.0
  9
$OLESTARTUP
290
     0
  9
$SORTENTS
280
   127
  9
$INDEXCTL
280
     0
  9
$HIDETEXT
280
     1
  9
$XCLIPFRAME
280
     2
  9
$HALOGAP
280
     0
  9
$OBSCOLOR
 70
   257
  9
$OBSLTYPE
280
     0
  9
$INTERSECTIONDISPLAY
280
     0
  9
$INTERSECTIONCOLOR
 70
   257
  9
$DIMASSOC
280
     2
  9
$PROJECTNAME
  1

  9
$CAMERADISPLAY
290
     0
  9
$LENSLENGTH
 40
50.0
  9
$CAMERAHEIGHT
 40
0.0
  9
$STEPSPERSEC
 40
2.0
  9
$STEPSIZE
 40
6.0
  9
$3DDWFPREC
 40
2.0
  9
$PSOLWIDTH
 40
0.25
  9
$PSOLHEIGHT
 40
4.0
  9
$LOFTANG1
 40
1.570796326794896
  9
$LOFTANG2
 40
1.570796326794896
  9
$LOFTMAG1
 40
0.0
  9
$LOFTMAG2
 40
0.0
  9
$LOFTPARAM
 70
     7
  9
$LOFTNORMALS
280
     1
  9
$LATITUDE
 40
37.795
  9
$LONGITUDE
 40
-122.394
  9
$NORTHDIRECTION
 40
0.0
  9
$TIMEZONE
 70
 -8000
  9
$LIGHTGLYPHDISPLAY
280
     1
  9
$TILEMODELIGHTSYNCH
280
     1
  9
$CMATERIAL
347
11
  9
$SOLIDHIST
280
     0
  9
$SHOWHIST
280
     1
  9
$DWFFRAME
280
     2
  9
$DGNFRAME
280
     0
  9
$REALWORLDSCALE
290
     1
  9
$INTERFERECOLOR
 62
     1
  9
$INTERFEREOBJVS
345
33
  9
$INTERFEREVPVS
346
30
  9
$CSHADOW
280
     0
  9
$SHADOWPLANELOCATION
 40
0.0
  0
ENDSEC
  0
SECTION
  2
CLASSES
  0
CLASS
  1
ACDBDICTIONARYWDFLT
  2
AcDbDictionaryWithDefault
  3
ObjectDBX Classes
 90
        0
 91
        1
280
     0
281
     0
  0
CLASS
  1
MATERIAL
  2
AcDbMaterial
  3
ObjectDBX Classes
 90
     1153
 91
        3
280
     0
281
     0
  0
CLASS
  1
VISUALSTYLE
  2
AcDbVisualStyle
  3
ObjectDBX Classes
 90
     4095
 91
       24
280
     0
281
     0
  0
CLASS
  1
SCALE
  2
AcDbScale
  3
ObjectDBX Classes
 90
     1153
 91
       17
280
     0
281
     0
  0
CLASS
  1
TABLESTYLE
  2
AcDbTableStyle
  3
ObjectDBX Classes
 90
     4095
 91
        1
280
     0
281
     0
  0
CLASS
  1
MLEADERSTYLE
  2
AcDbMLeaderStyle
  3
ACDB_MLEADERSTYLE_CLASS
 90
     4095
 91
        1
280
     0
281
     0
  0
CLASS
  1
ACDBSECTIONVIEWSTYLE
  2
AcDbSectionViewStyle
  3
ObjectDBX Classes
 90
     1025
 91
        1
280
     0
281
     0
  0
CLASS
  1
ACDBDETAILVIEWSTYLE
  2
AcDbDetailViewStyle
  3
ObjectDBX Classes
 90
     1025
 91
        1
280
     0
281
     0
  0
CLASS
  1
DICTIONARYVAR
  2
AcDbDictionaryVar
  3
ObjectDBX Classes
 90
        0
 91
        5
280
     0
281
     0
  0
CLASS
  1
CELLSTYLEMAP
  2
AcDbCellStyleMap
  3
ObjectDBX Classes
 90
     1152
 91
        1
280
     0
281
     0
  0
ENDSEC
  0
SECTION
  2
TABLES
  0
TABLE
  2
VPORT
  5
8
330
0
100
AcDbSymbolTable
 70
     1
  0
VPORT
  5
57
330
8
100
AcDbSymbolTableRecord
100
AcDbViewportTableRecord
  2
*Active
 70
     0
 10
0.0
 20
0.0
 11
1.0
 21
1.0
 12
0.0
 22
0.0
 13
0.0
 23
0.0
 14
1.0
 24
1.0
 15
0.0
 25
0.0
 16
0.0
 26
0.0
 36
1.0
 17
104.9999999737534
 27
-148.4999999628701
 37
0.0
 40
302.939999924255
 41
0.7070707070707534
 42
50.0
 43
0.0
 44
0.0
 50
0.0
 51
0.0
 71
     0
 72
   100
 73
     1
 74
     0
 75
     1
 76
     0
 77
     0
 78
     0
281
     0
 65
     1
110
0.0
120
0.0
130
0.0
111
1.0
121
0.0
131
0.0
112
0.0
122
1.0
132
0.0
 79
     0
146
0.0
 60
     3
 61
     5
292
     1
282
     1
141
0.0
142
0.0
 63
   250
421
  3355443
  0
ENDTAB
  0
TABLE
  2
LTYPE
  5
5
330
0
100
AcDbSymbolTable
 70
     2
  0
LTYPE
  5
5B
330
5
100
AcDbSymbolTableRecord
100
AcDbLinetypeTableRecord
  2
ByBlock
 70
     0
  3

 72
    65
 73
     0
 40
0.0
  0
LTYPE
  5
5C
330
5
100
AcDbSymbolTableRecord
100
AcDbLinetypeTableRecord
  2
ByLayer
 70
     0
  3

 72
    65
 73
     0
 40
0.0
  0
LTYPE
  5
5D
330
5
100
AcDbSymbolTableRecord
100
AcDbLinetypeTableRecord
  2
Continuous
 70
     0
  3
Solid line
 72
    65
 73
     0
 40
0.0
  0
LTYPE
  5
7E
330
5
100
AcDbSymbolTableRecord
100
AcDbLinetypeTableRecord
  2
AI-Linetype-0
 70
     0
  3
Adobe Illustrator Linetype No. 0
 72
    65
 73
     2
 40
1.411111110758333
 49
0.7055555553791667
 74
     0
 49
-0.7055555553791667
 74
     0
  0
ENDTAB
  0
TABLE
  2
LAYER
  5
2
330
0
100
AcDbSymbolTable
 70
     2
  0
LAYER
  5
54
330
2
100
AcDbSymbolTableRecord
100
AcDbLayerTableRecord
  2
0
 70
     0
 62
     7
  6
Continuous
370
    -3
390
F
347
21
  0
LAYER
  5
78
330
2
100
AcDbSymbolTableRecord
100
AcDbLayerTableRecord
  2
レイヤー 1
 70
     0
 62
     7
  6
Continuous
370
     0
390
F
347
21
  0
ENDTAB
  0
TABLE
  2
STYLE
  5
3
330
0
100
AcDbSymbolTable
 70
     2
  0
STYLE
  5
55
330
3
100
AcDbSymbolTableRecord
100
AcDbTextStyleTableRecord
  2
Standard
 70
     0
 40
0.0
 41
1.0
 50
0.0
 71
     0
 42
0.2
  3
txt
  4

  0
STYLE
  5
5A
330
3
100
AcDbSymbolTableRecord
100
AcDbTextStyleTableRecord
  2
Annotative
 70
     0
 40
0.0
 41
1.0
 50
0.0
 71
     0
 42
0.2
  3
txt
  4

1001
AcadAnnotative
1000
AnnotativeData
1002
{
1070
     1
1070
     1
1002
}
  0
ENDTAB
  0
TABLE
  2
VIEW
  5
6
330
0
100
AcDbSymbolTable
 70
     0
  0
ENDTAB
  0
TABLE
  2
UCS
  5
7
330
0
100
AcDbSymbolTable
 70
     0
  0
ENDTAB
  0
TABLE
  2
APPID
  5
9
330
0
100
AcDbSymbolTable
 70
     2
  0
APPID
  5
56
330
9
100
AcDbSymbolTableRecord
100
AcDbRegAppTableRecord
  2
ACAD
 70
     0
  0
APPID
  5
5E
330
9
100
AcDbSymbolTableRecord
100
AcDbRegAppTableRecord
  2
AcadAnnotative
 70
     0
  0
ENDTAB
  0
TABLE
  2
DIMSTYLE
  5
A
330
0
100
AcDbSymbolTable
 70
     2
100
AcDbDimStyleTable
 71
     0
  0
DIMSTYLE
105
58
330
A
100
AcDbSymbolTableRecord
100
AcDbDimStyleTableRecord
  2
Standard
 70
     0
340
55
  0
DIMSTYLE
105
59
330
A
100
AcDbSymbolTableRecord
100
AcDbDimStyleTableRecord
  2
Annotative
 70
     0
340
55
1001
AcadAnnotative
1000
AnnotativeData
1002
{
1070
     1
1070
     1
1002
}
  0
ENDTAB
  0
TABLE
  2
BLOCK_RECORD
  5
1
330
0
100
AcDbSymbolTable
 70
    16
  0
BLOCK_RECORD
  5
70
330
1
100
AcDbSymbolTableRecord
100
AcDbBlockTableRecord
  2
*Model_Space
340
73
 70
     0
280
     1
281
     0
  0
BLOCK_RECORD
  5
6C
330
1
100
AcDbSymbolTableRecord
100
AcDbBlockTableRecord
  2
*Paper_Space
340
6F
 70
     0
280
     1
281
     0
  0
BLOCK_RECORD
  5
74
330
1
100
AcDbSymbolTableRecord
100
AcDbBlockTableRecord
  2
*Paper_Space0
340
77
 70
     0
280
     1
281
     0
  0
BLOCK_RECORD
  5
79
330
1
100
AcDbSymbolTableRecord
100
AcDbBlockTableRecord
  2
Block_0
340
0
102
{BLKREFS
331
7A
102
}
 70
     0
280
     1
281
     0
  0
BLOCK_RECORD
  5
7F
330
1
100
AcDbSymbolTableRecord
100
AcDbBlockTableRecord
  2
Block_1
340
0
102
{BLKREFS
331
80
102
}
 70
     0
280
     1
281
     0
  0
BLOCK_RECORD
  5
86
330
1
100
AcDbSymbolTableRecord
100
AcDbBlockTableRecord
  2
Block_2
340
0
102
{BLKREFS
331
87
102
}
 70
     0
280
     1
281
     0
  0
BLOCK_RECORD
  5
8A
330
1
100
AcDbSymbolTableRecord
100
AcDbBlockTableRecord
  2
Block_3
340
0
102
{BLKREFS
331
8B
102
}
 70
     0
280
     1
281
     0
  0
BLOCK_RECORD
  5
A1
330
1
100
AcDbSymbolTableRecord
100
AcDbBlockTableRecord
  2
Block_4
340
0
102
{BLKREFS
331
A2
102
}
 70
     0
280
     1
281
     0
  0
BLOCK_RECORD
  5
B7
330
1
100
AcDbSymbolTableRecord
100
AcDbBlockTableRecord
  2
Block_5
340
0
102
{BLKREFS
331
B8
102
}
 70
     0
280
     1
281
     0
  0
BLOCK_RECORD
  5
BB
330
1
100
AcDbSymbolTableRecord
100
AcDbBlockTableRecord
  2
Block_6
340
0
102
{BLKREFS
331
BC
102
}
 70
     0
280
     1
281
     0
  0
BLOCK_RECORD
  5
C7
330
1
100
AcDbSymbolTableRecord
100
AcDbBlockTableRecord
  2
Block_7
340
0
102
{BLKREFS
331
C8
102
}
 70
     0
280
     1
281
     0
  0
BLOCK_RECORD
  5
CB
330
1
100
AcDbSymbolTableRecord
100
AcDbBlockTableRecord
  2
Block_8
340
0
102
{BLKREFS
331
CC
102
}
 70
     0
280
     1
281
     0
  0
BLOCK_RECORD
  5
D8
330
1
100
AcDbSymbolTableRecord
100
AcDbBlockTableRecord
  2
Block_9
340
0
102
{BLKREFS
331
D9
102
}
 70
     0
280
     1
281
     0
  0
BLOCK_RECORD
  5
DC
330
1
100
AcDbSymbolTableRecord
100
AcDbBlockTableRecord
  2
Block_10
340
0
102
{BLKREFS
331
DD
102
}
 70
     0
280
     1
281
     0
  0
BLOCK_RECORD
  5
E7
330
1
100
AcDbSymbolTableRecord
100
AcDbBlockTableRecord
  2
Block_11
340
0
102
{BLKREFS
331
E8
102
}
 70
     0
280
     1
281
     0
  0
BLOCK_RECORD
  5
EB
330
1
100
AcDbSymbolTableRecord
100
AcDbBlockTableRecord
  2
Block_12
340
0
102
{BLKREFS
331
EC
102
}
 70
     0
280
     1
281
     0
  0
BLOCK_RECORD
  5
F9
330
1
100
AcDbSymbolTableRecord
100
AcDbBlockTableRecord
  2
Block_13
340
0
102
{BLKREFS
331
FA
102
}
 70
     0
280
     1
281
     0
  0
BLOCK_RECORD
  5
FD
330
1
100
AcDbSymbolTableRecord
100
AcDbBlockTableRecord
  2
Block_14
340
0
102
{BLKREFS
331
FE
102
}
 70
     0
280
     1
281
     0
  0
ENDTAB
  0
ENDSEC
  0
SECTION
  2
BLOCKS
  0
BLOCK
  5
71
330
70
100
AcDbEntity
  8
0
100
AcDbBlockBegin
  2
*Model_Space
 70
     0
 10
0.0
 20
0.0
 30
0.0
  3
*Model_Space
  1

  0
ENDBLK
  5
72
330
70
100
AcDbEntity
  8
0
100
AcDbBlockEnd
  0
BLOCK
  5
6D
330
6C
100
AcDbEntity
 67
     1
  8
0
100
AcDbBlockBegin
  2
*Paper_Space
 70
     0
 10
0.0
 20
0.0
 30
0.0
  3
*Paper_Space
  1

  0
ENDBLK
  5
6E
330
6C
100
AcDbEntity
 67
     1
  8
0
100
AcDbBlockEnd
  0
BLOCK
  5
75
330
74
100
AcDbEntity
 67
     1
  8
0
100
AcDbBlockBegin
  2
*Paper_Space0
 70
     0
 10
0.0
 20
0.0
 30
0.0
  3
*Paper_Space0
  1

  0
ENDBLK
  5
76
330
74
100
AcDbEntity
 67
     1
  8
0
100
AcDbBlockEnd
  0
BLOCK
  5
7B
330
79
100
AcDbEntity
  8
0
100
AcDbBlockBegin
  2
Block_0
 70
     0
 10
0.0
 20
0.0
 30
0.0
  3
Block_0
  1

  0
LINE
  5
7D
330
79
100
AcDbEntity
  8
レイヤー 1
  6
AI-Linetype-0
 62
   154
420
    23468
370
    25
100
AcDbLine
 10
108.3390908510935
 20
-152.4898747074276
 30
0.0
 11
118.3849452269035
 21
-152.4898747074276
 31
0.0
  0
INSERT
  5
80
330
79
100
AcDbEntity
  8
レイヤー 1
100
AcDbBlockReference
  2
Block_1
 10
0.0
 20
0.0
 30
0.0
  0
INSERT
  5
87
330
79
100
AcDbEntity
  8
レイヤー 1
100
AcDbBlockReference
  2
Block_2
 10
0.0
 20
0.0
 30
0.0
  0
ENDBLK
  5
7C
330
79
100
AcDbEntity
  8
0
100
AcDbBlockEnd
  0
BLOCK
  5
81
330
7F
100
AcDbEntity
  8
0
100
AcDbBlockBegin
  2
Block_1
 70
     0
 10
0.0
 20
0.0
 30
0.0
  3
Block_1
  1

  0
LINE
  5
83
330
7F
100
AcDbEntity
  8
レイヤー 1
 62
    18
420
        0
370
     9
100
AcDbLine
 10
113.1460684014089
 20
-152.2837970439002
 30
0.0
 11
112.8792235435486
 21
-151.3200248106291
 31
0.0
  0
LINE
  5
84
330
7F
100
AcDbEntity
  8
レイヤー 1
 62
    18
420
        0
370
     9
100
AcDbLine
 10
113.1460684014089
 20
-152.2837970439002
 30
0.0
 11
113.1116341940318
 21
-150.6698364810955
 31
0.0
  0
LINE
  5
85
330
7F
100
AcDbEntity
  8
レイヤー 1
 62
    18
420
        0
370
     9
100
AcDbLine
 10
113.1460684014089
 20
-152.2837970439002
 30
0.0
 11
113.3969164789148
 21
-151.3156165885127
 31
0.0
  0
ENDBLK
  5
82
330
7F
100
AcDbEntity
  8
0
100
AcDbBlockEnd
  0
BLOCK
  5
88
330
86
100
AcDbEntity
  8
0
100
AcDbBlockBegin
  2
Block_2
 70
     0
 10
0.0
 20
0.0
 30
0.0
  3
Block_2
  1

  0
INSERT
  5
8B
330
86
100
AcDbEntity
  8
レイヤー 1
100
AcDbBlockReference
  2
Block_3
 10
0.0
 20
0.0
 30
0.0
  0
ENDBLK
  5
89
330
86
100
AcDbEntity
  8
0
100
AcDbBlockEnd
  0
BLOCK
  5
8C
330
8A
100
AcDbEntity
  8
0
100
AcDbBlockBegin
  2
Block_3
 70
     0
 10
0.0
 20
0.0
 30
0.0
  3
Block_3
  1

  0
SPLINE
  5
8E
330
8A
100
AcDbEntity
  8
レイヤー 1
100
AcDbSpline
210
0.0
220
0.0
230
1.0
 70
     9
 71
     3
 72
    17
 73
    13
 74
     0
 42
0.0000000001
 43
0.0000000001
 40
0.0
 40
0.0
 40
0.0
 40
0.0
 40
1.0
 40
1.0
 40
1.0
 40
2.0
 40
2.0
 40
2.0
 40
3.0
 40
3.0
 40
3.0
 40
4.0
 40
4.0
 40
4.0
 40
4.0
 10
109.1599175074322
 20
-149.6036159565227
 30
0.0
 10
109.1430365395545
 20
-149.6328992681473
 30
0.0
 10
109.0923936359213
 20
-149.7262613557976
 30
0.0
 10
109.081713839917
 20
-149.7452093809665
 30
0.0
 10
109.2718831107029
 20
-149.8044650233128
 30
0.0
 10
109.2932427027114
 20
-149.8106661951862
 30
0.0
 10
109.3652451983531
 20
-149.8382269590682
 30
0.0
 10
109.4200222165686
 20
-149.7514105528399
 30
0.0
 10
109.4434488658683
 20
-149.6773409999071
 30
0.0
 10
109.4582627764549
 20
-149.6036159565227
 30
0.0
 10
109.4582627764549
 20
-149.6036159565227
 30
0.0
 10
109.1599175074322
 20
-149.6036159565227
 30
0.0
 10
109.1599175074322
 20
-149.6036159565227
 30
0.0
  0
SPLINE
  5
8F
330
8A
100
AcDbEntity
  8
レイヤー 1
100
AcDbSpline
210
0.0
220
0.0
230
1.0
 70
    11
 71
     3
 72
    20
 73
    16
 74
     0
 42
0.0000000001
 43
0.0000000001
 40
0.0
 40
0.0
 40
0.0
 40
0.0
 40
1.0
 40
1.0
 40
1.0
 40
2.0
 40
2.0
 40
2.0
 40
3.0
 40
3.0
 40
3.0
 40
4.0
 40
4.0
 40
4.0
 40
5.0
 40
5.0
 40
5.0
 40
5.0
 10
109.0965277505036
 20
-148.7530218812145
 30
0.0
 10
109.0965277505036
 20
-148.7530218812145
 30
0.0
 10
109.0648328720393
 20
-148.7530218812145
 30
0.0
 10
109.0648328720393
 20
-148.7530218812145
 30
0.0
 10
109.1113416610902
 20
-148.852412885964
 30
0.0
 10
109.1430365395545
 20
-148.9328558655446
 30
0.0
 10
109.1767984753099
 20
-149.0596353794017
 30
0.0
 10
109.1767984753099
 20
-149.0596353794017
 30
0.0
 10
109.384193223522
 20
-149.0596353794017
 30
0.0
 10
109.384193223522
 20
-149.0596353794017
 30
0.0
 10
109.4158881019863
 20
-148.9666178013
 30
0.0
 10
109.439314751286
 20
-148.8822129619114
 30
0.0
 10
109.4623968910372
 20
-148.7530218812145
 30
0.0
 10
109.4623968910372
 20
-148.7530218812145
 30
0.0
 10
109.0965277505036
 20
-148.7530218812145
 30
0.0
 10
109.0965277505036
 20
-148.7530218812145
 30
0.0
  0
SPLINE
  5
90
330
8A
100
AcDbEntity
  8
レイヤー 1
100
AcDbSpline
210
0.0
220
0.0
230
1.0
 70
     9
 71
     3
 72
   242
 73
   238
 74
     0
 42
0.0000000001
 43
0.0000000001
 40
0.0
 40
0.0
 40
0.0
 40
0.0
 40
1.0
 40
1.0
 40
1.0
 40
2.0
 40
2.0
 40
2.0
 40
3.0
 40
3.0
 40
3.0
 40
4.0
 40
4.0
 40
4.0
 40
5.0
 40
5.0
 40
5.0
 40
6.0
 40
6.0
 40
6.0
 40
7.0
 40
7.0
 40
7.0
 40
8.0
 40
8.0
 40
8.0
 40
9.0
 40
9.0
 40
9.0
 40
10.0
 40
10.0
 40
10.0
 40
11.0
 40
11.0
 40
11.0
 40
12.0
 40
12.0
 40
12.0
 40
13.0
 40
13.0
 40
13.0
 40
14.0
 40
14.0
 40
14.0
 40
15.0
 40
15.0
 40
15.0
 40
16.0
 40
16.0
 40
16.0
 40
17.0
 40
17.0
 40
17.0
 40
18.0
 40
18.0
 40
18.0
 40
19.0
 40
19.0
 40
19.0
 40
20.0
 40
20.0
 40
20.0
 40
21.0
 40
21.0
 40
21.0
 40
22.0
 40
22.0
 40
22.0
 40
23.0
 40
23.0
 40
23.0
 40
24.0
 40
24.0
 40
24.0
 40
25.0
 40
25.0
 40
25.0
 40
26.0
 40
26.0
 40
26.0
 40
27.0
 40
27.0
 40
27.0
 40
28.0
 40
28.0
 40
28.0
 40
29.0
 40
29.0
 40
29.0
 40
30.0
 40
30.0
 40
30.0
 40
31.0
 40
31.0
 40
31.0
 40
32.0
 40
32.0
 40
32.0
 40
33.0
 40
33.0
 40
33.0
 40
34.0
 40
34.0
 40
34.0
 40
35.0
 40
35.0
 40
35.0
 40
36.0
 40
36.0
 40
36.0
 40
37.0
 40
37.0
 40
37.0
 40
38.0
 40
38.0
 40
38.0
 40
39.0
 40
39.0
 40
39.0
 40
40.0
 40
40.0
 40
40.0
 40
41.0
 40
41.0
 40
41.0
 40
42.0
 40
42.0
 40
42.0
 40
43.0
 40
43.0
 40
43.0
 40
44.0
 40
44.0
 40
44.0
 40
45.0
 40
45.0
 40
45.0
 40
46.0
 40
46.0
 40
46.0
 40
47.0
 40
47.0
 40
47.0
 40
48.0
 40
48.0
 40
48.0
 40
49.0
 40
49.0
 40
49.0
 40
50.0
 40
50.0
 40
50.0
 40
51.0
 40
51.0
 40
51.0
 40
52.0
 40
52.0
 40
52.0
 40
53.0
 40
53.0
 40
53.0
 40
54.0
 40
54.0
 40
54.0
 40
55.0
 40
55.0
 40
55.0
 40
56.0
 40
56.0
 40
56.0
 40
57.0
 40
57.0
 40
57.0
 40
58.0
 40
58.0
 40
58.0
 40
59.0
 40
59.0
 40
59.0
 40
60.0
 40
60.0
 40
60.0
 40
61.0
 40
61.0
 40
61.0
 40
62.0
 40
62.0
 40
62.0
 40
63.0
 40
63.0
 40
63.0
 40
64.0
 40
64.0
 40
64.0
 40
65.0
 40
65.0
 40
65.0
 40
66.0
 40
66.0
 40
66.0
 40
67.0
 40
67.0
 40
67.0
 40
68.0
 40
68.0
 40
68.0
 40
69.0
 40
69.0
 40
69.0
 40
70.0
 40
70.0
 40
70.0
 40
71.0
 40
71.0
 40
71.0
 40
72.0
 40
72.0
 40
72.0
 40
73.0
 40
73.0
 40
73.0
 40
74.0
 40
74.0
 40
74.0
 40
75.0
 40
75.0
 40
75.0
 40
76.0
 40
76.0
 40
76.0
 40
77.0
 40
77.0
 40
77.0
 40
78.0
 40
78.0
 40
78.0
 40
79.0
 40
79.0
 40
79.0
 40
79.0
 10
109.7249131670132
 20
-149.2184542812718
 30
0.0
 10
109.7249131670132
 20
-149.2184542812718
 30
0.0
 10
109.4710096297503
 20
-149.2184542812718
 30
0.0
 10
109.4710096297503
 20
-149.2184542812718
 30
0.0
 10
109.4710096297503
 20
-149.2184542812718
 30
0.0
 10
109.1936794431877
 20
-149.2184542812718
 30
0.0
 10
109.1936794431877
 20
-149.2184542812718
 30
0.0
 10
109.1936794431877
 20
-149.2184542812718
 30
0.0
 10
109.3208034665934
 20
-149.2608289557403
 30
0.0
 10
109.3208034665934
 20
-149.2608289557403
 30
0.0
 10
109.3311387530491
 20
-149.2649630703226
 30
0.0
 10
109.3438856063446
 20
-149.2711642421961
 30
0.0
 10
109.3438856063446
 20
-149.2839110954915
 30
0.0
 10
109.3438856063446
 20
-149.3052706875
 30
0.0
 10
109.3121907278803
 20
-149.3114718593735
 30
0.0
 10
109.2911756454203
 20
-149.3156059739558
 30
0.0
 10
109.280495849416
 20
-149.3390326232555
 30
0.0
 10
109.2508680282428
 20
-149.4044894374752
 30
0.0
 10
109.231920003074
 20
-149.448931169235
 30
0.0
 10
109.231920003074
 20
-149.448931169235
 30
0.0
 10
109.5027045082146
 20
-149.448931169235
 30
0.0
 10
109.5027045082146
 20
-149.448931169235
 30
0.0
 10
109.5936550290252
 20
-149.448931169235
 30
0.0
 10
109.7903699812329
 20
-149.4447970546527
 30
0.0
 10
109.9319634056767
 20
-149.4361843159396
 30
0.0
 10
109.9319634056767
 20
-149.4361843159396
 30
0.0
 10
109.9319634056767
 20
-149.6139512429784
 30
0.0
 10
109.9319634056767
 20
-149.6139512429784
 30
0.0
 10
109.8496256235792
 20
-149.6098171283962
 30
0.0
 10
109.8282660315707
 20
-149.6098171283962
 30
0.0
 10
109.6484320472407
 20
-149.6056830138138
 30
0.0
 10
109.6167371687764
 20
-149.760023291553
 30
0.0
 10
109.5722954370166
 20
-149.8402940163593
 30
0.0
 10
109.5278537052569
 20
-149.91022945471
 30
0.0
 10
109.6484320472407
 20
-149.9694850970562
 30
0.0
 10
109.7545409881863
 20
-150.0370089685671
 30
0.0
 10
109.8578938527438
 20
-150.1196912602131
 30
0.0
 10
109.8578938527438
 20
-150.1196912602131
 30
0.0
 10
109.7397270775998
 20
-150.2867783912478
 30
0.0
 10
109.7397270775998
 20
-150.2867783912478
 30
0.0
 10
109.7163004283001
 20
-150.2678303660788
 30
0.0
 10
109.7035535750046
 20
-150.2592176273657
 30
0.0
 10
109.591587971734
 20
-150.1744682784286
 30
0.0
 10
109.5426676158435
 20
-150.1365722280908
 30
0.0
 10
109.4837564830457
 20
-150.1007432350442
 30
0.0
 10
109.4031412486909
 20
-150.0563015032845
 30
0.0
 10
109.1916123858965
 20
-150.242336659488
 30
0.0
 10
108.9862846949756
 20
-150.2657633087877
 30
0.0
 10
108.6965521646661
 20
-150.2953911299609
 30
0.0
 10
108.6965521646661
 20
-150.2953911299609
 30
0.0
 10
108.5928547905601
 20
-150.1155571456308
 30
0.0
 10
108.5928547905601
 20
-150.1155571456308
 30
0.0
 10
108.9101480847516
 20
-150.1110785215
 30
0.0
 10
109.0858479544994
 20
-150.0859293244577
 30
0.0
 10
109.2381211749474
 20
-149.9756862689297
 30
0.0
 10
109.1196098902548
 20
-149.9250433652965
 30
0.0
 10
109.0307264267354
 20
-149.8974826014145
 30
0.0
 10
108.9948974336887
 20
-149.8847357481191
 30
0.0
 10
108.9759494085199
 20
-149.9122965120011
 30
0.0
 10
108.9611354979333
 20
-149.9312445371699
 30
0.0
 10
108.9335747340513
 20
-149.9653509824739
 30
0.0
 10
108.9335747340513
 20
-149.9653509824739
 30
0.0
 10
108.7368597818435
 20
-149.8826686908279
 30
0.0
 10
108.7368597818435
 20
-149.8826686908279
 30
0.0
 10
108.819197563941
 20
-149.8023979660216
 30
0.0
 10
108.8805202635785
 20
-149.7069688210802
 30
0.0
 10
108.9377088486336
 20
-149.6056830138138
 30
0.0
 10
108.7475395778478
 20
-149.6098171283962
 30
0.0
 10
108.7261799858393
 20
-149.6098171283962
 30
0.0
 10
108.6438422037418
 20
-149.6139512429784
 30
0.0
 10
108.6438422037418
 20
-149.6139512429784
 30
0.0
 10
108.6438422037418
 20
-149.4361843159396
 30
0.0
 10
108.6438422037418
 20
-149.4361843159396
 30
0.0
 10
108.7833685708944
 20
-149.4427299973615
 30
0.0
 10
108.9928303763976
 20
-149.4468641119438
 30
0.0
 10
109.0183240829885
 20
-149.4468641119438
 30
0.0
 10
109.0352050508662
 20
-149.4131021761884
 30
0.0
 10
109.0899820690816
 20
-149.2925238342046
 30
0.0
 10
109.1092746037991
 20
-149.2184542812718
 30
0.0
 10
109.0899820690816
 20
-149.2184542812718
 30
0.0
 10
108.9125596515913
 20
-149.2246554531452
 30
0.0
 10
108.7179117566747
 20
-149.2374023064406
 30
0.0
 10
108.7179117566747
 20
-149.2374023064406
 30
0.0
 10
108.7179117566747
 20
-149.3707275017198
 30
0.0
 10
108.7179117566747
 20
-149.3707275017198
 30
0.0
 10
108.6689914007841
 20
-149.3962212083106
 30
0.0
 10
108.6097357584378
 20
-149.427916086775
 30
0.0
 10
108.4767550727072
 20
-149.4933729009947
 30
0.0
 10
108.4767550727072
 20
-149.4933729009947
 30
0.0
 10
108.4767550727072
 20
-149.6394449495693
 30
0.0
 10
108.4767550727072
 20
-149.6394449495693
 30
0.0
 10
108.4767550727072
 20
-149.6394449495693
 30
0.0
 10
108.4767550727072
 20
-150.1069444069177
 30
0.0
 10
108.4767550727072
 20
-150.1069444069177
 30
0.0
 10
108.4767550727072
 20
-150.2337239207749
 30
0.0
 10
108.4405815701121
 20
-150.2929795631212
 30
0.0
 10
108.157050211676
 20
-150.2847113339566
 30
0.0
 10
108.157050211676
 20
-150.2847113339566
 30
0.0
 10
108.05335283757
 20
-150.0773165857445
 30
0.0
 10
108.05335283757
 20
-150.0773165857445
 30
0.0
 10
108.1170871040471
 20
-150.09006343904
 30
0.0
 10
108.1656629503891
 20
-150.0941975536222
 30
0.0
 10
108.2059705675666
 20
-150.0941975536222
 30
0.0
 10
108.2821071777906
 20
-150.0941975536222
 30
0.0
 10
108.2924424642463
 20
-150.0711154138711
 30
0.0
 10
108.2924424642463
 20
-150.0053140901028
 30
0.0
 10
108.2924424642463
 20
-150.0053140901028
 30
0.0
 10
108.2924424642463
 20
-149.5760551926407
 30
0.0
 10
108.2924424642463
 20
-149.5760551926407
 30
0.0
 10
108.1952907715623
 20
-149.6160183002696
 30
0.0
 10
108.1784098036846
 20
-149.6225639816916
 30
0.0
 10
108.1319010146337
 20
-149.6415120068604
 30
0.0
 10
108.1274223905029
 20
-149.6625270893205
 30
0.0
 10
108.1232882759205
 20
-149.6921549104936
 30
0.0
 10
108.1043402507517
 20
-149.6921549104936
 30
0.0
 10
108.0957275120385
 20
-149.6921549104936
 30
0.0
 10
108.0853922255828
 20
-149.6880207959113
 30
0.0
 10
108.0788465441608
 20
-149.6649386561601
 30
0.0
 10
108.0788465441608
 20
-149.6649386561601
 30
0.0
 10
108.0261365832365
 20
-149.4723578185347
 30
0.0
 10
108.0261365832365
 20
-149.4723578185347
 30
0.0
 10
108.1718641222626
 20
-149.4258490294838
 30
0.0
 10
108.2376654460308
 20
-149.4024223801841
 30
0.0
 10
108.2924424642463
 20
-149.3814072977241
 30
0.0
 10
108.2924424642463
 20
-149.3814072977241
 30
0.0
 10
108.2924424642463
 20
-148.9686848585911
 30
0.0
 10
108.2924424642463
 20
-148.9686848585911
 30
0.0
 10
108.2924424642463
 20
-148.9686848585911
 30
0.0
 10
108.239732503322
 20
-148.9686848585911
 30
0.0
 10
108.239732503322
 20
-148.9686848585911
 30
0.0
 10
108.239732503322
 20
-148.9686848585911
 30
0.0
 10
108.1615288358068
 20
-148.9686848585911
 30
0.0
 10
108.1615288358068
 20
-148.9686848585911
 30
0.0
 10
108.0936604547474
 20
-148.9686848585911
 30
0.0
 10
108.0853922255828
 20
-148.9686848585911
 30
0.0
 10
108.0492187229877
 20
-148.9752305400131
 30
0.0
 10
108.0492187229877
 20
-148.9752305400131
 30
0.0
 10
108.0492187229877
 20
-148.7804103903222
 30
0.0
 10
108.0492187229877
 20
-148.7804103903222
 30
0.0
 10
108.0767794868697
 20
-148.7867838169699
 30
0.0
 10
108.0853922255828
 20
-148.7867838169699
 30
0.0
 10
108.1549831543848
 20
-148.7867838169699
 30
0.0
 10
108.1549831543848
 20
-148.7867838169699
 30
0.0
 10
108.288308349664
 20
-148.7867838169699
 30
0.0
 10
108.288308349664
 20
-148.7867838169699
 30
0.0
 10
108.288308349664
 20
-148.7170206333936
 30
0.0
 10
108.288308349664
 20
-148.6345105965219
 30
0.0
 10
108.2862412923729
 20
-148.6302042271653
 30
0.0
 10
108.2776285536597
 20
-148.4503702428353
 30
0.0
 10
108.2776285536597
 20
-148.4314222176664
 30
0.0
 10
108.2755614963686
 20
-148.3849134286156
 30
0.0
 10
108.2755614963686
 20
-148.3849134286156
 30
0.0
 10
108.4915689832937
 20
-148.3933539125544
 30
0.0
 10
108.4915689832937
 20
-148.3933539125544
 30
0.0
 10
108.5019042697495
 20
-148.3933539125544
 30
0.0
 10
108.5232638617581
 20
-148.3954209698456
 30
0.0
 10
108.5232638617581
 20
-148.4123019377233
 30
0.0
 10
108.5232638617581
 20
-148.4314222176664
 30
0.0
 10
108.5084499511715
 20
-148.4419297588964
 30
0.0
 10
108.4829562445806
 20
-148.4610500388396
 30
0.0
 10
108.4829562445806
 20
-148.5116929424728
 30
0.0
 10
108.4767550727072
 20
-148.7402750279191
 30
0.0
 10
108.4788221299983
 20
-148.7867838169699
 30
0.0
 10
108.6076687011467
 20
-148.7867838169699
 30
0.0
 10
108.6204155544421
 20
-148.7867838169699
 30
0.0
 10
108.7179117566747
 20
-148.7783433330311
 30
0.0
 10
108.7179117566747
 20
-148.7783433330311
 30
0.0
 10
108.7179117566747
 20
-148.973163482722
 30
0.0
 10
108.7179117566747
 20
-148.973163482722
 30
0.0
 10
108.6796711967884
 20
-148.9707519158823
 30
0.0
 10
108.6121473252775
 20
-148.9666178013
 30
0.0
 10
108.4767550727072
 20
-148.9686848585911
 30
0.0
 10
108.4767550727072
 20
-148.9686848585911
 30
0.0
 10
108.4767550727072
 20
-149.3073377447912
 30
0.0
 10
108.4767550727072
 20
-149.3073377447912
 30
0.0
 10
108.5315320909226
 20
-149.2839110954915
 30
0.0
 10
108.5973334146909
 20
-149.2563503316095
 30
0.0
 10
108.6459092610329
 20
-149.2332681918583
 30
0.0
 10
108.6459092610329
 20
-149.2332681918583
 30
0.0
 10
108.6459092610329
 20
-149.0555012648195
 30
0.0
 10
108.6459092610329
 20
-149.0555012648195
 30
0.0
 10
108.7599419215947
 20
-149.0682481181149
 30
0.0
 10
108.8784532062873
 20
-149.0682481181149
 30
0.0
 10
108.9948974336887
 20
-149.0682481181149
 30
0.0
 10
108.9714707843891
 20
-148.973163482722
 30
0.0
 10
108.9442545300556
 20
-148.890481191076
 30
0.0
 10
108.8805202635785
 20
-148.7571559957968
 30
0.0
 10
108.8360785318187
 20
-148.7592230530879
 30
0.0
 10
108.7537407497213
 20
-148.7635294224445
 30
0.0
 10
108.715500189835
 20
-148.7655964797357
 30
0.0
 10
108.715500189835
 20
-148.7655964797357
 30
0.0
 10
108.715500189835
 20
-148.5857624954056
 30
0.0
 10
108.715500189835
 20
-148.5857624954056
 30
0.0
 10
108.8405571559496
 20
-148.5942029793445
 30
0.0
 10
109.0138454588576
 20
-148.598509348701
 30
0.0
 10
109.0965277505036
 20
-148.598509348701
 30
0.0
 10
109.0965277505036
 20
-148.598509348701
 30
0.0
 10
109.1788655326011
 20
-148.598509348701
 30
0.0
 10
109.1788655326011
 20
-148.598509348701
 30
0.0
 10
109.1788655326011
 20
-148.4355563322487
 30
0.0
 10
109.1788655326011
 20
-148.4250487910187
 30
0.0
 10
109.1767984753099
 20
-148.370099518029
 30
0.0
 10
109.1767984753099
 20
-148.370099518029
 30
0.0
 10
109.4010741913997
 20
-148.3954209698456
 30
0.0
 10
109.4010741913997
 20
-148.3954209698456
 30
0.0
 10
109.405208305982
 20
-148.3954209698456
 30
0.0
 10
109.4265678979906
 20
-148.3974880271367
 30
0.0
 10
109.4265678979906
 20
-148.4143689950144
 30
0.0
 10
109.4265678979906
 20
-148.429182905601
 30
0.0
 10
109.4158881019863
 20
-148.4377956443142
 30
0.0
 10
109.3883273381043
 20
-148.4526095549007
 30
0.0
 10
109.3821261662308
 20
-148.5180663691205
 30
0.0
 10
109.3800591089397
 20
-148.5392537063547
 30
0.0
 10
109.3800591089397
 20
-148.598509348701
 30
0.0
 10
109.3800591089397
 20
-148.598509348701
 30
0.0
 10
109.4751437443326
 20
-148.598509348701
 30
0.0
 10
109.4751437443326
 20
-148.598509348701
 30
0.0
 10
109.5574815264301
 20
-148.598509348701
 30
0.0
 10
109.7311143388866
 20
-148.5942029793445
 30
0.0
 10
109.8558267954527
 20
-148.5857624954056
 30
0.0
 10
109.8558267954527
 20
-148.5857624954056
 30
0.0
 10
109.8558267954527
 20
-148.7655964797357
 30
0.0
 10
109.8558267954527
 20
-148.7655964797357
 30
0.0
 10
109.8261989742795
 20
-148.7635294224445
 30
0.0
 10
109.707687689587
 20
-148.7592230530879
 30
0.0
 10
109.6677245819581
 20
-148.7571559957968
 30
0.0
 10
109.6529106713715
 20
-148.8079711542042
 30
0.0
 10
109.619148735616
 20
-148.9201090122491
 30
0.0
 10
109.5533474118478
 20
-149.0596353794017
 30
0.0
 10
109.5957220863163
 20
-149.0596353794017
 30
0.0
 10
109.8727077633304
 20
-149.0406873542329
 30
0.0
 10
109.9340304629679
 20
-149.0386202969417
 30
0.0
 10
109.9340304629679
 20
-149.0386202969417
 30
0.0
 10
109.9340304629679
 20
-149.222588395854
 30
0.0
 10
109.9340304629679
 20
-149.222588395854
 30
0.0
 10
109.9047471513432
 20
-149.222588395854
 30
0.0
 10
109.887521673917
 20
-149.2184542812718
 30
0.0
 10
109.7249131670132
 20
-149.2184542812718
 30
0.0
  0
HATCH
  5
91
330
8A
100
AcDbEntity
  8
レイヤー 1
 62
    18
420
        0
440
 33554687
100
AcDbHatch
 10
0.0
 20
0.0
 30
0.0
210
0.0
220
0.0
230
1.0
  2
SOLID
 70
     1
 71
     1
 91
        3
 92
        1
 93
        1
 72
     4
 94
        3
 73
     0
 74
     0
 95
       17
 96
       13
 40
0.0
 40
0.0
 40
0.0
 40
0.0
 40
1.0
 40
1.0
 40
1.0
 40
2.0
 40
2.0
 40
2.0
 40
3.0
 40
3.0
 40
3.0
 40
4.0
 40
4.0
 40
4.0
 40
4.0
 10
109.1599175074322
 20
-149.6036159565227
 10
109.1430365395545
 20
-149.6328992681473
 10
109.0923936359213
 20
-149.7262613557976
 10
109.081713839917
 20
-149.7452093809665
 10
109.2718831107029
 20
-149.8044650233128
 10
109.2932427027114
 20
-149.8106661951862
 10
109.3652451983531
 20
-149.8382269590682
 10
109.4200222165686
 20
-149.7514105528399
 10
109.4434488658683
 20
-149.6773409999071
 10
109.4582627764549
 20
-149.6036159565227
 10
109.4582627764549
 20
-149.6036159565227
 10
109.1599175074322
 20
-149.6036159565227
 10
109.1599175074322
 20
-149.6036159565227
 97
        0
 97
        1
330
8E
 92
        1
 93
        1
 72
     4
 94
        3
 73
     0
 74
     0
 95
       20
 96
       16
 40
0.0
 40
0.0
 40
0.0
 40
0.0
 40
1.0
 40
1.0
 40
1.0
 40
2.0
 40
2.0
 40
2.0
 40
3.0
 40
3.0
 40
3.0
 40
4.0
 40
4.0
 40
4.0
 40
5.0
 40
5.0
 40
5.0
 40
5.0
 10
109.0965277505036
 20
-148.7530218812145
 10
109.0965277505036
 20
-148.7530218812145
 10
109.0648328720393
 20
-148.7530218812145
 10
109.0648328720393
 20
-148.7530218812145
 10
109.1113416610902
 20
-148.852412885964
 10
109.1430365395545
 20
-148.9328558655446
 10
109.1767984753099
 20
-149.0596353794017
 10
109.1767984753099
 20
-149.0596353794017
 10
109.384193223522
 20
-149.0596353794017
 10
109.384193223522
 20
-149.0596353794017
 10
109.4158881019863
 20
-148.9666178013
 10
109.439314751286
 20
-148.8822129619114
 10
109.4623968910372
 20
-148.7530218812145
 10
109.4623968910372
 20
-148.7530218812145
 10
109.0965277505036
 20
-148.7530218812145
 10
109.0965277505036
 20
-148.7530218812145
 97
        0
 97
        1
330
8F
 92
        1
 93
        1
 72
     4
 94
        3
 73
     0
 74
     0
 95
      242
 96
      238
 40
0.0
 40
0.0
 40
0.0
 40
0.0
 40
1.0
 40
1.0
 40
1.0
 40
2.0
 40
2.0
 40
2.0
 40
3.0
 40
3.0
 40
3.0
 40
4.0
 40
4.0
 40
4.0
 40
5.0
 40
5.0
 40
5.0
 40
6.0
 40
6.0
 40
6.0
 40
7.0
 40
7.0
 40
7.0
 40
8.0
 40
8.0
 40
8.0
 40
9.0
 40
9.0
 40
9.0
 40
10.0
 40
10.0
 40
10.0
 40
11.0
 40
11.0
 40
11.0
 40
12.0
 40
12.0
 40
12.0
 40
13.0
 40
13.0
 40
13.0
 40
14.0
 40
14.0
 40
14.0
 40
15.0
 40
15.0
 40
15.0
 40
16.0
 40
16.0
 40
16.0
 40
17.0
 40
17.0
 40
17.0
 40
18.0
 40
18.0
 40
18.0
 40
19.0
 40
19.0
 40
19.0
 40
20.0
 40
20.0
 40
20.0
 40
21.0
 40
21.0
 40
21.0
 40
22.0
 40
22.0
 40
22.0
 40
23.0
 40
23.0
 40
23.0
 40
24.0
 40
24.0
 40
24.0
 40
25.0
 40
25.0
 40
25.0
 40
26.0
 40
26.0
 40
26.0
 40
27.0
 40
27.0
 40
27.0
 40
28.0
 40
28.0
 40
28.0
 40
29.0
 40
29.0
 40
29.0
 40
30.0
 40
30.0
 40
30.0
 40
31.0
 40
31.0
 40
31.0
 40
32.0
 40
32.0
 40
32.0
 40
33.0
 40
33.0
 40
33.0
 40
34.0
 40
34.0
 40
34.0
 40
35.0
 40
35.0
 40
35.0
 40
36.0
 40
36.0
 40
36.0
 40
37.0
 40
37.0
 40
37.0
 40
38.0
 40
38.0
 40
38.0
 40
39.0
 40
39.0
 40
39.0
 40
40.0
 40
40.0
 40
40.0
 40
41.0
 40
41.0
 40
41.0
 40
42.0
 40
42.0
 40
42.0
 40
43.0
 40
43.0
 40
43.0
 40
44.0
 40
44.0
 40
44.0
 40
45.0
 40
45.0
 40
45.0
 40
46.0
 40
46.0
 40
46.0
 40
47.0
 40
47.0
 40
47.0
 40
48.0
 40
48.0
 40
48.0
 40
49.0
 40
49.0
 40
49.0
 40
50.0
 40
50.0
 40
50.0
 40
51.0
 40
51.0
 40
51.0
 40
52.0
 40
52.0
 40
52.0
 40
53.0
 40
53.0
 40
53.0
 40
54.0
 40
54.0
 40
54.0
 40
55.0
 40
55.0
 40
55.0
 40
56.0
 40
56.0
 40
56.0
 40
57.0
 40
57.0
 40
57.0
 40
58.0
 40
58.0
 40
58.0
 40
59.0
 40
59.0
 40
59.0
 40
60.0
 40
60.0
 40
60.0
 40
61.0
 40
61.0
 40
61.0
 40
62.0
 40
62.0
 40
62.0
 40
63.0
 40
63.0
 40
63.0
 40
64.0
 40
64.0
 40
64.0
 40
65.0
 40
65.0
 40
65.0
 40
66.0
 40
66.0
 40
66.0
 40
67.0
 40
67.0
 40
67.0
 40
68.0
 40
68.0
 40
68.0
 40
69.0
 40
69.0
 40
69.0
 40
70.0
 40
70.0
 40
70.0
 40
71.0
 40
71.0
 40
71.0
 40
72.0
 40
72.0
 40
72.0
 40
73.0
 40
73.0
 40
73.0
 40
74.0
 40
74.0
 40
74.0
 40
75.0
 40
75.0
 40
75.0
 40
76.0
 40
76.0
 40
76.0
 40
77.0
 40
77.0
 40
77.0
 40
78.0
 40
78.0
 40
78.0
 40
79.0
 40
79.0
 40
79.0
 40
79.0
 10
109.7249131670132
 20
-149.2184542812718
 10
109.7249131670132
 20
-149.2184542812718
 10
109.4710096297503
 20
-149.2184542812718
 10
109.4710096297503
 20
-149.2184542812718
 10
109.4710096297503
 20
-149.2184542812718
 10
109.1936794431877
 20
-149.2184542812718
 10
109.1936794431877
 20
-149.2184542812718
 10
109.1936794431877
 20
-149.2184542812718
 10
109.3208034665934
 20
-149.2608289557403
 10
109.3208034665934
 20
-149.2608289557403
 10
109.3311387530491
 20
-149.2649630703226
 10
109.3438856063446
 20
-149.2711642421961
 10
109.3438856063446
 20
-149.2839110954915
 10
109.3438856063446
 20
-149.3052706875
 10
109.3121907278803
 20
-149.3114718593735
 10
109.2911756454203
 20
-149.3156059739558
 10
109.280495849416
 20
-149.3390326232555
 10
109.2508680282428
 20
-149.4044894374752
 10
109.231920003074
 20
-149.448931169235
 10
109.231920003074
 20
-149.448931169235
 10
109.5027045082146
 20
-149.448931169235
 10
109.5027045082146
 20
-149.448931169235
 10
109.5936550290252
 20
-149.448931169235
 10
109.7903699812329
 20
-149.4447970546527
 10
109.9319634056767
 20
-149.4361843159396
 10
109.9319634056767
 20
-149.4361843159396
 10
109.9319634056767
 20
-149.6139512429784
 10
109.9319634056767
 20
-149.6139512429784
 10
109.8496256235792
 20
-149.6098171283962
 10
109.8282660315707
 20
-149.6098171283962
 10
109.6484320472407
 20
-149.6056830138138
 10
109.6167371687764
 20
-149.760023291553
 10
109.5722954370166
 20
-149.8402940163593
 10
109.5278537052569
 20
-149.91022945471
 10
109.6484320472407
 20
-149.9694850970562
 10
109.7545409881863
 20
-150.0370089685671
 10
109.8578938527438
 20
-150.1196912602131
 10
109.8578938527438
 20
-150.1196912602131
 10
109.7397270775998
 20
-150.2867783912478
 10
109.7397270775998
 20
-150.2867783912478
 10
109.7163004283001
 20
-150.2678303660788
 10
109.7035535750046
 20
-150.2592176273657
 10
109.591587971734
 20
-150.1744682784286
 10
109.5426676158435
 20
-150.1365722280908
 10
109.4837564830457
 20
-150.1007432350442
 10
109.4031412486909
 20
-150.0563015032845
 10
109.1916123858965
 20
-150.242336659488
 10
108.9862846949756
 20
-150.2657633087877
 10
108.6965521646661
 20
-150.2953911299609
 10
108.6965521646661
 20
-150.2953911299609
 10
108.5928547905601
 20
-150.1155571456308
 10
108.5928547905601
 20
-150.1155571456308
 10
108.9101480847516
 20
-150.1110785215
 10
109.0858479544994
 20
-150.0859293244577
 10
109.2381211749474
 20
-149.9756862689297
 10
109.1196098902548
 20
-149.9250433652965
 10
109.0307264267354
 20
-149.8974826014145
 10
108.9948974336887
 20
-149.8847357481191
 10
108.9759494085199
 20
-149.9122965120011
 10
108.9611354979333
 20
-149.9312445371699
 10
108.9335747340513
 20
-149.9653509824739
 10
108.9335747340513
 20
-149.9653509824739
 10
108.7368597818435
 20
-149.8826686908279
 10
108.7368597818435
 20
-149.8826686908279
 10
108.819197563941
 20
-149.8023979660216
 10
108.8805202635785
 20
-149.7069688210802
 10
108.9377088486336
 20
-149.6056830138138
 10
108.7475395778478
 20
-149.6098171283962
 10
108.7261799858393
 20
-149.6098171283962
 10
108.6438422037418
 20
-149.6139512429784
 10
108.6438422037418
 20
-149.6139512429784
 10
108.6438422037418
 20
-149.4361843159396
 10
108.6438422037418
 20
-149.4361843159396
 10
108.7833685708944
 20
-149.4427299973615
 10
108.9928303763976
 20
-149.4468641119438
 10
109.0183240829885
 20
-149.4468641119438
 10
109.0352050508662
 20
-149.4131021761884
 10
109.0899820690816
 20
-149.2925238342046
 10
109.1092746037991
 20
-149.2184542812718
 10
109.0899820690816
 20
-149.2184542812718
 10
108.9125596515913
 20
-149.2246554531452
 10
108.7179117566747
 20
-149.2374023064406
 10
108.7179117566747
 20
-149.2374023064406
 10
108.7179117566747
 20
-149.3707275017198
 10
108.7179117566747
 20
-149.3707275017198
 10
108.6689914007841
 20
-149.3962212083106
 10
108.6097357584378
 20
-149.427916086775
 10
108.4767550727072
 20
-149.4933729009947
 10
108.4767550727072
 20
-149.4933729009947
 10
108.4767550727072
 20
-149.6394449495693
 10
108.4767550727072
 20
-149.6394449495693
 10
108.4767550727072
 20
-149.6394449495693
 10
108.4767550727072
 20
-150.1069444069177
 10
108.4767550727072
 20
-150.1069444069177
 10
108.4767550727072
 20
-150.2337239207749
 10
108.4405815701121
 20
-150.2929795631212
 10
108.157050211676
 20
-150.2847113339566
 10
108.157050211676
 20
-150.2847113339566
 10
108.05335283757
 20
-150.0773165857445
 10
108.05335283757
 20
-150.0773165857445
 10
108.1170871040471
 20
-150.09006343904
 10
108.1656629503891
 20
-150.0941975536222
 10
108.2059705675666
 20
-150.0941975536222
 10
108.2821071777906
 20
-150.0941975536222
 10
108.2924424642463
 20
-150.0711154138711
 10
108.2924424642463
 20
-150.0053140901028
 10
108.2924424642463
 20
-150.0053140901028
 10
108.2924424642463
 20
-149.5760551926407
 10
108.2924424642463
 20
-149.5760551926407
 10
108.1952907715623
 20
-149.6160183002696
 10
108.1784098036846
 20
-149.6225639816916
 10
108.1319010146337
 20
-149.6415120068604
 10
108.1274223905029
 20
-149.6625270893205
 10
108.1232882759205
 20
-149.6921549104936
 10
108.1043402507517
 20
-149.6921549104936
 10
108.0957275120385
 20
-149.6921549104936
 10
108.0853922255828
 20
-149.6880207959113
 10
108.0788465441608
 20
-149.6649386561601
 10
108.0788465441608
 20
-149.6649386561601
 10
108.0261365832365
 20
-149.4723578185347
 10
108.0261365832365
 20
-149.4723578185347
 10
108.1718641222626
 20
-149.4258490294838
 10
108.2376654460308
 20
-149.4024223801841
 10
108.2924424642463
 20
-149.3814072977241
 10
108.2924424642463
 20
-149.3814072977241
 10
108.2924424642463
 20
-148.9686848585911
 10
108.2924424642463
 20
-148.9686848585911
 10
108.2924424642463
 20
-148.9686848585911
 10
108.239732503322
 20
-148.9686848585911
 10
108.239732503322
 20
-148.9686848585911
 10
108.239732503322
 20
-148.9686848585911
 10
108.1615288358068
 20
-148.9686848585911
 10
108.1615288358068
 20
-148.9686848585911
 10
108.0936604547474
 20
-148.9686848585911
 10
108.0853922255828
 20
-148.9686848585911
 10
108.0492187229877
 20
-148.9752305400131
 10
108.0492187229877
 20
-148.9752305400131
 10
108.0492187229877
 20
-148.7804103903222
 10
108.0492187229877
 20
-148.7804103903222
 10
108.0767794868697
 20
-148.7867838169699
 10
108.0853922255828
 20
-148.7867838169699
 10
108.1549831543848
 20
-148.7867838169699
 10
108.1549831543848
 20
-148.7867838169699
 10
108.288308349664
 20
-148.7867838169699
 10
108.288308349664
 20
-148.7867838169699
 10
108.288308349664
 20
-148.7170206333936
 10
108.288308349664
 20
-148.6345105965219
 10
108.2862412923729
 20
-148.6302042271653
 10
108.2776285536597
 20
-148.4503702428353
 10
108.2776285536597
 20
-148.4314222176664
 10
108.2755614963686
 20
-148.3849134286156
 10
108.2755614963686
 20
-148.3849134286156
 10
108.4915689832937
 20
-148.3933539125544
 10
108.4915689832937
 20
-148.3933539125544
 10
108.5019042697495
 20
-148.3933539125544
 10
108.5232638617581
 20
-148.3954209698456
 10
108.5232638617581
 20
-148.4123019377233
 10
108.5232638617581
 20
-148.4314222176664
 10
108.5084499511715
 20
-148.4419297588964
 10
108.4829562445806
 20
-148.4610500388396
 10
108.4829562445806
 20
-148.5116929424728
 10
108.4767550727072
 20
-148.7402750279191
 10
108.4788221299983
 20
-148.7867838169699
 10
108.6076687011467
 20
-148.7867838169699
 10
108.6204155544421
 20
-148.7867838169699
 10
108.7179117566747
 20
-148.7783433330311
 10
108.7179117566747
 20
-148.7783433330311
 10
108.7179117566747
 20
-148.973163482722
 10
108.7179117566747
 20
-148.973163482722
 10
108.6796711967884
 20
-148.9707519158823
 10
108.6121473252775
 20
-148.9666178013
 10
108.4767550727072
 20
-148.9686848585911
 10
108.4767550727072
 20
-148.9686848585911
 10
108.4767550727072
 20
-149.3073377447912
 10
108.4767550727072
 20
-149.3073377447912
 10
108.5315320909226
 20
-149.2839110954915
 10
108.5973334146909
 20
-149.2563503316095
 10
108.6459092610329
 20
-149.2332681918583
 10
108.6459092610329
 20
-149.2332681918583
 10
108.6459092610329
 20
-149.0555012648195
 10
108.6459092610329
 20
-149.0555012648195
 10
108.7599419215947
 20
-149.0682481181149
 10
108.8784532062873
 20
-149.0682481181149
 10
108.9948974336887
 20
-149.0682481181149
 10
108.9714707843891
 20
-148.973163482722
 10
108.9442545300556
 20
-148.890481191076
 10
108.8805202635785
 20
-148.7571559957968
 10
108.8360785318187
 20
-148.7592230530879
 10
108.7537407497213
 20
-148.7635294224445
 10
108.715500189835
 20
-148.7655964797357
 10
108.715500189835
 20
-148.7655964797357
 10
108.715500189835
 20
-148.5857624954056
 10
108.715500189835
 20
-148.5857624954056
 10
108.8405571559496
 20
-148.5942029793445
 10
109.0138454588576
 20
-148.598509348701
 10
109.0965277505036
 20
-148.598509348701
 10
109.0965277505036
 20
-148.598509348701
 10
109.1788655326011
 20
-148.598509348701
 10
109.1788655326011
 20
-148.598509348701
 10
109.1788655326011
 20
-148.4355563322487
 10
109.1788655326011
 20
-148.4250487910187
 10
109.1767984753099
 20
-148.370099518029
 10
109.1767984753099
 20
-148.370099518029
 10
109.4010741913997
 20
-148.3954209698456
 10
109.4010741913997
 20
-148.3954209698456
 10
109.405208305982
 20
-148.3954209698456
 10
109.4265678979906
 20
-148.3974880271367
 10
109.4265678979906
 20
-148.4143689950144
 10
109.4265678979906
 20
-148.429182905601
 10
109.4158881019863
 20
-148.4377956443142
 10
109.3883273381043
 20
-148.4526095549007
 10
109.3821261662308
 20
-148.5180663691205
 10
109.3800591089397
 20
-148.5392537063547
 10
109.3800591089397
 20
-148.598509348701
 10
109.3800591089397
 20
-148.598509348701
 10
109.4751437443326
 20
-148.598509348701
 10
109.4751437443326
 20
-148.598509348701
 10
109.5574815264301
 20
-148.598509348701
 10
109.7311143388866
 20
-148.5942029793445
 10
109.8558267954527
 20
-148.5857624954056
 10
109.8558267954527
 20
-148.5857624954056
 10
109.8558267954527
 20
-148.7655964797357
 10
109.8558267954527
 20
-148.7655964797357
 10
109.8261989742795
 20
-148.7635294224445
 10
109.707687689587
 20
-148.7592230530879
 10
109.6677245819581
 20
-148.7571559957968
 10
109.6529106713715
 20
-148.8079711542042
 10
109.619148735616
 20
-148.9201090122491
 10
109.5533474118478
 20
-149.0596353794017
 10
109.5957220863163
 20
-149.0596353794017
 10
109.8727077633304
 20
-149.0406873542329
 10
109.9340304629679
 20
-149.0386202969417
 10
109.9340304629679
 20
-149.0386202969417
 10
109.9340304629679
 20
-149.222588395854
 10
109.9340304629679
 20
-149.222588395854
 10
109.9047471513432
 20
-149.222588395854
 10
109.887521673917
 20
-149.2184542812718
 10
109.7249131670132
 20
-149.2184542812718
 97
        0
 97
        1
330
90
 75
     2
 76
     1
 98
        1
 10
0.0
 20
0.0
450
        0
451
        0
460
0.0
461
0.0
452
        0
462
0.0
453
        0
470

  0
SPLINE
  5
92
330
8A
100
AcDbEntity
  8
レイヤー 1
100
AcDbSpline
210
0.0
220
0.0
230
1.0
 70
    11
 71
     3
 72
    17
 73
    13
 74
     0
 42
0.0000000001
 43
0.0000000001
 40
0.0
 40
0.0
 40
0.0
 40
0.0
 40
1.0
 40
1.0
 40
1.0
 40
2.0
 40
2.0
 40
2.0
 40
3.0
 40
3.0
 40
3.0
 40
4.0
 40
4.0
 40
4.0
 40
4.0
 10
111.5811306144658
 20
-150.0180609433982
 30
0.0
 10
111.5811306144658
 20
-150.0180609433982
 30
0.0
 10
110.8745415304411
 20
-150.0180609433982
 30
0.0
 10
110.8745415304411
 20
-150.0180609433982
 30
0.0
 10
110.8745415304411
 20
-150.0180609433982
 30
0.0
 10
110.8745415304411
 20
-150.1324381135085
 30
0.0
 10
110.8745415304411
 20
-150.1324381135085
 30
0.0
 10
110.8745415304411
 20
-150.1324381135085
 30
0.0
 10
111.5811306144658
 20
-150.1324381135085
 30
0.0
 10
111.5811306144658
 20
-150.1324381135085
 30
0.0
 10
111.5811306144658
 20
-150.1324381135085
 30
0.0
 10
111.5811306144658
 20
-150.0180609433982
 30
0.0
 10
111.5811306144658
 20
-150.0180609433982
 30
0.0
  0
SPLINE
  5
93
330
8A
100
AcDbEntity
  8
レイヤー 1
100
AcDbSpline
210
0.0
220
0.0
230
1.0
 70
    11
 71
     3
 72
    17
 73
    13
 74
     0
 42
0.0000000001
 43
0.0000000001
 40
0.0
 40
0.0
 40
0.0
 40
0.0
 40
1.0
 40
1.0
 40
1.0
 40
2.0
 40
2.0
 40
2.0
 40
3.0
 40
3.0
 40
3.0
 40
4.0
 40
4.0
 40
4.0
 40
4.0
 10
111.5811306144658
 20
-149.7748372021396
 30
0.0
 10
111.5811306144658
 20
-149.7748372021396
 30
0.0
 10
110.8745415304411
 20
-149.7748372021396
 30
0.0
 10
110.8745415304411
 20
-149.7748372021396
 30
0.0
 10
110.8745415304411
 20
-149.7748372021396
 30
0.0
 10
110.8745415304411
 20
-149.8892143722499
 30
0.0
 10
110.8745415304411
 20
-149.8892143722499
 30
0.0
 10
110.8745415304411
 20
-149.8892143722499
 30
0.0
 10
111.5811306144658
 20
-149.8892143722499
 30
0.0
 10
111.5811306144658
 20
-149.8892143722499
 30
0.0
 10
111.5811306144658
 20
-149.8892143722499
 30
0.0
 10
111.5811306144658
 20
-149.7748372021396
 30
0.0
 10
111.5811306144658
 20
-149.7748372021396
 30
0.0
  0
SPLINE
  5
94
330
8A
100
AcDbEntity
  8
レイヤー 1
100
AcDbSpline
210
0.0
220
0.0
230
1.0
 70
    11
 71
     3
 72
    17
 73
    13
 74
     0
 42
0.0000000001
 43
0.0000000001
 40
0.0
 40
0.0
 40
0.0
 40
0.0
 40
1.0
 40
1.0
 40
1.0
 40
2.0
 40
2.0
 40
2.0
 40
3.0
 40
3.0
 40
3.0
 40
4.0
 40
4.0
 40
4.0
 40
4.0
 10
111.5811306144658
 20
-149.5419487473367
 30
0.0
 10
111.5811306144658
 20
-149.5419487473367
 30
0.0
 10
110.8745415304411
 20
-149.5419487473367
 30
0.0
 10
110.8745415304411
 20
-149.5419487473367
 30
0.0
 10
110.8745415304411
 20
-149.5419487473367
 30
0.0
 10
110.8745415304411
 20
-149.6501247455736
 30
0.0
 10
110.8745415304411
 20
-149.6501247455736
 30
0.0
 10
110.8745415304411
 20
-149.6501247455736
 30
0.0
 10
111.5811306144658
 20
-149.6501247455736
 30
0.0
 10
111.5811306144658
 20
-149.6501247455736
 30
0.0
 10
111.5811306144658
 20
-149.6501247455736
 30
0.0
 10
111.5811306144658
 20
-149.5419487473367
 30
0.0
 10
111.5811306144658
 20
-149.5419487473367
 30
0.0
  0
SPLINE
  5
95
330
8A
100
AcDbEntity
  8
レイヤー 1
100
AcDbSpline
210
0.0
220
0.0
230
1.0
 70
     9
 71
     3
 72
   203
 73
   199
 74
     0
 42
0.0000000001
 43
0.0000000001
 40
0.0
 40
0.0
 40
0.0
 40
0.0
 40
1.0
 40
1.0
 40
1.0
 40
2.0
 40
2.0
 40
2.0
 40
3.0
 40
3.0
 40
3.0
 40
4.0
 40
4.0
 40
4.0
 40
5.0
 40
5.0
 40
5.0
 40
6.0
 40
6.0
 40
6.0
 40
7.0
 40
7.0
 40
7.0
 40
8.0
 40
8.0
 40
8.0
 40
9.0
 40
9.0
 40
9.0
 40
10.0
 40
10.0
 40
10.0
 40
11.0
 40
11.0
 40
11.0
 40
12.0
 40
12.0
 40
12.0
 40
13.0
 40
13.0
 40
13.0
 40
14.0
 40
14.0
 40
14.0
 40
15.0
 40
15.0
 40
15.0
 40
16.0
 40
16.0
 40
16.0
 40
17.0
 40
17.0
 40
17.0
 40
18.0
 40
18.0
 40
18.0
 40
19.0
 40
19.0
 40
19.0
 40
20.0
 40
20.0
 40
20.0
 40
21.0
 40
21.0
 40
21.0
 40
22.0
 40
22.0
 40
22.0
 40
23.0
 40
23.0
 40
23.0
 40
24.0
 40
24.0
 40
24.0
 40
25.0
 40
25.0
 40
25.0
 40
26.0
 40
26.0
 40
26.0
 40
27.0
 40
27.0
 40
27.0
 40
28.0
 40
28.0
 40
28.0
 40
29.0
 40
29.0
 40
29.0
 40
30.0
 40
30.0
 40
30.0
 40
31.0
 40
31.0
 40
31.0
 40
32.0
 40
32.0
 40
32.0
 40
33.0
 40
33.0
 40
33.0
 40
34.0
 40
34.0
 40
34.0
 40
35.0
 40
35.0
 40
35.0
 40
36.0
 40
36.0
 40
36.0
 40
37.0
 40
37.0
 40
37.0
 40
38.0
 40
38.0
 40
38.0
 40
39.0
 40
39.0
 40
39.0
 40
40.0
 40
40.0
 40
40.0
 40
41.0
 40
41.0
 40
41.0
 40
42.0
 40
42.0
 40
42.0
 40
43.0
 40
43.0
 40
43.0
 40
44.0
 40
44.0
 40
44.0
 40
45.0
 40
45.0
 40
45.0
 40
46.0
 40
46.0
 40
46.0
 40
47.0
 40
47.0
 40
47.0
 40
48.0
 40
48.0
 40
48.0
 40
49.0
 40
49.0
 40
49.0
 40
50.0
 40
50.0
 40
50.0
 40
51.0
 40
51.0
 40
51.0
 40
52.0
 40
52.0
 40
52.0
 40
53.0
 40
53.0
 40
53.0
 40
54.0
 40
54.0
 40
54.0
 40
55.0
 40
55.0
 40
55.0
 40
56.0
 40
56.0
 40
56.0
 40
57.0
 40
57.0
 40
57.0
 40
58.0
 40
58.0
 40
58.0
 40
59.0
 40
59.0
 40
59.0
 40
60.0
 40
60.0
 40
60.0
 40
61.0
 40
61.0
 40
61.0
 40
62.0
 40
62.0
 40
62.0
 40
63.0
 40
63.0
 40
63.0
 40
64.0
 40
64.0
 40
64.0
 40
65.0
 40
65.0
 40
65.0
 40
66.0
 40
66.0
 40
66.0
 40
66.0
 10
111.4161105407224
 20
-149.2859781527827
 30
0.0
 10
111.4161105407224
 20
-149.2859781527827
 30
0.0
 10
110.8576605625633
 20
-149.2859781527827
 30
0.0
 10
110.8576605625633
 20
-149.2859781527827
 30
0.0
 10
110.8469807665591
 20
-149.3304198845424
 30
0.0
 10
110.8387125373945
 20
-149.3621147630067
 30
0.0
 10
110.8259656840991
 20
-149.4003553228929
 30
0.0
 10
110.8514593906899
 20
-149.4003553228929
 30
0.0
 10
110.8662733012765
 20
-149.4024223801841
 30
0.0
 10
110.8724744731499
 20
-149.4024223801841
 30
0.0
 10
110.8724744731499
 20
-149.4024223801841
 30
0.0
 10
111.0609211961931
 20
-149.4024223801841
 30
0.0
 10
111.0609211961931
 20
-149.4024223801841
 30
0.0
 10
111.0609211961931
 20
-149.4024223801841
 30
0.0
 10
111.4354030754397
 20
-149.4024223801841
 30
0.0
 10
111.4354030754397
 20
-149.4024223801841
 30
0.0
 10
111.4860459790729
 20
-149.4024223801841
 30
0.0
 10
111.769577337509
 20
-149.3896755268887
 30
0.0
 10
111.8012722159733
 20
-149.3896755268887
 30
0.0
 10
111.7992051586821
 20
-149.4172362907707
 30
0.0
 10
111.797138101391
 20
-149.4361843159396
 30
0.0
 10
111.797138101391
 20
-149.4658121371127
 30
0.0
 10
111.7947265345513
 20
-149.497507015577
 30
0.0
 10
111.7947265345513
 20
-149.6328992681473
 30
0.0
 10
111.7947265345513
 20
-149.6604600320293
 30
0.0
 10
111.7947265345513
 20
-149.6604600320293
 30
0.0
 10
111.7947265345513
 20
-149.9060953401276
 30
0.0
 10
111.7947265345513
 20
-149.9060953401276
 30
0.0
 10
111.7947265345513
 20
-149.9505370718873
 30
0.0
 10
111.7992051586821
 20
-150.1472520240951
 30
0.0
 10
111.8033392732644
 20
-150.2995252445432
 30
0.0
 10
111.8033392732644
 20
-150.2995252445432
 30
0.0
 10
111.5769964998835
 20
-150.2995252445432
 30
0.0
 10
111.5769964998835
 20
-150.2995252445432
 30
0.0
 10
111.5769964998835
 20
-150.2995252445432
 30
0.0
 10
111.5790635571747
 20
-150.2657633087877
 30
0.0
 10
111.5790635571747
 20
-150.2657633087877
 30
0.0
 10
111.5790635571747
 20
-150.2657633087877
 30
0.0
 10
110.8766085877322
 20
-150.2657633087877
 30
0.0
 10
110.8766085877322
 20
-150.2657633087877
 30
0.0
 10
110.8766085877322
 20
-150.2657633087877
 30
0.0
 10
110.8790201545719
 20
-150.2995252445432
 30
0.0
 10
110.8790201545719
 20
-150.2995252445432
 30
0.0
 10
110.8790201545719
 20
-150.2995252445432
 30
0.0
 10
110.6609456103556
 20
-150.2995252445432
 30
0.0
 10
110.6609456103556
 20
-150.2995252445432
 30
0.0
 10
110.6650797249379
 20
-150.2444037167792
 30
0.0
 10
110.6650797249379
 20
-150.2316568634837
 30
0.0
 10
110.6716254063599
 20
-150.117624202922
 30
0.0
 10
110.673692463651
 20
-150.09006343904
 30
0.0
 10
110.6757595209421
 20
-149.9567382437608
 30
0.0
 10
110.6757595209421
 20
-149.9377902185919
 30
0.0
 10
110.6757595209421
 20
-149.9377902185919
 30
0.0
 10
110.6757595209421
 20
-149.7345295849622
 30
0.0
 10
110.6757595209421
 20
-149.7345295849622
 30
0.0
 10
110.5362331537895
 20
-149.9842990076428
 30
0.0
 10
110.3670789654638
 20
-150.1155571456308
 30
0.0
 10
110.2613145340666
 20
-150.1810139598506
 30
0.0
 10
110.2613145340666
 20
-150.1810139598506
 30
0.0
 10
110.08768172161
 20
-150.0414875926979
 30
0.0
 10
110.08768172161
 20
-150.0414875926979
 30
0.0
 10
110.1765651851295
 20
-149.9905001795162
 30
0.0
 10
110.3202256668644
 20
-149.9036837732879
 30
0.0
 10
110.4580294862744
 20
-149.7093803879199
 30
0.0
 10
110.5489800070849
 20
-149.5822563645141
 30
0.0
 10
110.6144368213047
 20
-149.4385958827792
 30
0.0
 10
110.6481987570602
 20
-149.2859781527827
 30
0.0
 10
110.4197889263881
 20
-149.2883897196223
 30
0.0
 10
110.239954942058
 20
-149.2945908914958
 30
0.0
 10
110.1448703066651
 20
-149.2966579487869
 30
0.0
 10
110.1448703066651
 20
-149.2966579487869
 30
0.0
 10
110.1448703066651
 20
-149.118891021748
 30
0.0
 10
110.1448703066651
 20
-149.118891021748
 30
0.0
 10
110.3415852588729
 20
-149.12543670317
 30
0.0
 10
110.625116617309
 20
-149.1295708177523
 30
0.0
 10
110.7753227804659
 20
-149.1295708177523
 30
0.0
 10
110.7753227804659
 20
-149.1295708177523
 30
0.0
 10
110.9889187005514
 20
-149.1295708177523
 30
0.0
 10
110.9889187005514
 20
-149.1295708177523
 30
0.0
 10
110.9889187005514
 20
-149.1295708177523
 30
0.0
 10
110.9889187005514
 20
-149.021739329064
 30
0.0
 10
110.9889187005514
 20
-149.021739329064
 30
0.0
 10
110.9889187005514
 20
-149.021739329064
 30
0.0
 10
110.8428466519768
 20
-149.021739329064
 30
0.0
 10
110.8428466519768
 20
-149.021739329064
 30
0.0
 10
110.673692463651
 20
-149.021739329064
 30
0.0
 10
110.5045382753252
 20
-149.0258734436463
 30
0.0
 10
110.3374511442906
 20
-149.0324191250683
 30
0.0
 10
110.3374511442906
 20
-149.0324191250683
 30
0.0
 10
110.3374511442906
 20
-148.8608533699028
 30
0.0
 10
110.3374511442906
 20
-148.8608533699028
 30
0.0
 10
110.4917914220298
 20
-148.8713609111328
 30
0.0
 10
110.6778265782333
 20
-148.8713609111328
 30
0.0
 10
110.8428466519768
 20
-148.8713609111328
 30
0.0
 10
110.8428466519768
 20
-148.8713609111328
 30
0.0
 10
110.9889187005514
 20
-148.8713609111328
 30
0.0
 10
110.9889187005514
 20
-148.8713609111328
 30
0.0
 10
110.9889187005514
 20
-148.8713609111328
 30
0.0
 10
110.9889187005514
 20
-148.7530218812145
 30
0.0
 10
110.9889187005514
 20
-148.7530218812145
 30
0.0
 10
110.9889187005514
 20
-148.7530218812145
 30
0.0
 10
110.8576605625633
 20
-148.7530218812145
 30
0.0
 10
110.8576605625633
 20
-148.7530218812145
 30
0.0
 10
110.8111517735125
 20
-148.7530218812145
 30
0.0
 10
110.6082356494312
 20
-148.7614623651534
 30
0.0
 10
110.5658609749627
 20
-148.7614623651534
 30
0.0
 10
110.3626003413329
 20
-148.7655964797357
 30
0.0
 10
110.2864637311089
 20
-148.7676635370268
 30
0.0
 10
110.2082600635937
 20
-148.7699028490922
 30
0.0
 10
110.2082600635937
 20
-148.7699028490922
 30
0.0
 10
110.2082600635937
 20
-148.5857624954056
 30
0.0
 10
110.2082600635937
 20
-148.5857624954056
 30
0.0
 10
110.3226372337041
 20
-148.5942029793445
 30
0.0
 10
110.3670789654638
 20
-148.5942029793445
 30
0.0
 10
110.749829073875
 20
-148.6028157180576
 30
0.0
 10
110.6864393169464
 20
-148.5075588278905
 30
0.0
 10
110.6588785530644
 20
-148.4799980640084
 30
0.0
 10
110.6230495600178
 20
-148.4439968161876
 30
0.0
 10
110.6230495600178
 20
-148.4439968161876
 30
0.0
 10
110.798404920217
 20
-148.3614867793159
 30
0.0
 10
110.798404920217
 20
-148.3614867793159
 30
0.0
 10
110.8387125373945
 20
-148.3974880271367
 30
0.0
 10
110.8831542691542
 20
-148.4398627016053
 30
0.0
 10
110.9572238220871
 20
-148.5497612475848
 30
0.0
 10
110.9572238220871
 20
-148.5497612475848
 30
0.0
 10
110.8428466519768
 20
-148.6048827753488
 30
0.0
 10
110.8428466519768
 20
-148.6048827753488
 30
0.0
 10
110.8428466519768
 20
-148.6048827753488
 30
0.0
 10
110.853526447981
 20
-148.6048827753488
 30
0.0
 10
110.853526447981
 20
-148.6048827753488
 30
0.0
 10
110.853526447981
 20
-148.6048827753488
 30
0.0
 10
111.3761474330934
 20
-148.6048827753488
 30
0.0
 10
111.3761474330934
 20
-148.6048827753488
 30
0.0
 10
111.3761474330934
 20
-148.6048827753488
 30
0.0
 10
111.280718288152
 20
-148.560441043589
 30
0.0
 10
111.280718288152
 20
-148.560441043589
 30
0.0
 10
111.308279052034
 20
-148.522372738477
 30
0.0
 10
111.3654676370892
 20
-148.4419297588964
 30
0.0
 10
111.3802815476757
 20
-148.3678602059636
 30
0.0
 10
111.3802815476757
 20
-148.3678602059636
 30
0.0
 10
111.5938774677612
 20
-148.4314222176664
 30
0.0
 10
111.5938774677612
 20
-148.4314222176664
 30
0.0
 10
111.6024902064744
 20
-148.4334892749576
 30
0.0
 10
111.6235052889344
 20
-148.4439968161876
 30
0.0
 10
111.6235052889344
 20
-148.4651841534219
 30
0.0
 10
111.6235052889344
 20
-148.5032524585339
 30
0.0
 10
111.5580484747146
 20
-148.5032524585339
 30
0.0
 10
111.5387559399972
 20
-148.5032524585339
 30
0.0
 10
111.5284206535415
 20
-148.522372738477
 30
0.0
 10
111.5049940042418
 20
-148.5625081008802
 30
0.0
 10
111.4753661830686
 20
-148.6028157180576
 30
0.0
 10
111.8753417689061
 20
-148.5964422914099
 30
0.0
 10
111.9049695900793
 20
-148.5942029793445
 30
0.0
 10
111.9811062003033
 20
-148.588001807471
 30
0.0
 10
111.9811062003033
 20
-148.588001807471
 30
0.0
 10
111.9811062003033
 20
-148.7699028490922
 30
0.0
 10
111.9811062003033
 20
-148.7699028490922
 30
0.0
 10
111.9621581751344
 20
-148.7699028490922
 30
0.0
 10
111.9366644685436
 20
-148.7676635370268
 30
0.0
 10
111.7165228670361
 20
-148.7592230530879
 30
0.0
 10
111.665879963403
 20
-148.7571559957968
 30
0.0
 10
111.4457383618955
 20
-148.7530218812145
 30
0.0
 10
111.4012966301358
 20
-148.7530218812145
 30
0.0
 10
111.4012966301358
 20
-148.7530218812145
 30
0.0
 10
111.1856336527591
 20
-148.7530218812145
 30
0.0
 10
111.1856336527591
 20
-148.7530218812145
 30
0.0
 10
111.1856336527591
 20
-148.7530218812145
 30
0.0
 10
111.1856336527591
 20
-148.8713609111328
 30
0.0
 10
111.1856336527591
 20
-148.8713609111328
 30
0.0
 10
111.1856336527591
 20
-148.8713609111328
 30
0.0
 10
111.3589219556672
 20
-148.8713609111328
 30
0.0
 10
111.3589219556672
 20
-148.8713609111328
 30
0.0
 10
111.5218749721195
 20
-148.8713609111328
 30
0.0
 10
111.7123887524538
 20
-148.8713609111328
 30
0.0
 10
111.8687960874842
 20
-148.8608533699028
 30
0.0
 10
111.8687960874842
 20
-148.8608533699028
 30
0.0
 10
111.8687960874842
 20
-149.0324191250683
 30
0.0
 10
111.8687960874842
 20
-149.0324191250683
 30
0.0
 10
111.659334281981
 20
-149.0238063863551
 30
0.0
 10
111.4626193297732
 20
-149.021739329064
 30
0.0
 10
111.3589219556672
 20
-149.021739329064
 30
0.0
 10
111.3589219556672
 20
-149.021739329064
 30
0.0
 10
111.1856336527591
 20
-149.021739329064
 30
0.0
 10
111.1856336527591
 20
-149.021739329064
 30
0.0
 10
111.1856336527591
 20
-149.021739329064
 30
0.0
 10
111.1856336527591
 20
-149.1295708177523
 30
0.0
 10
111.1856336527591
 20
-149.1295708177523
 30
0.0
 10
111.1856336527591
 20
-149.1295708177523
 30
0.0
 10
111.4161105407224
 20
-149.1295708177523
 30
0.0
 10
111.4161105407224
 20
-149.1295708177523
 30
0.0
 10
111.5494357360015
 20
-149.1295708177523
 30
0.0
 10
111.8371012090199
 20
-149.12543670317
 30
0.0
 10
112.0465630145231
 20
-149.118891021748
 30
0.0
 10
112.0465630145231
 20
-149.118891021748
 30
0.0
 10
112.0465630145231
 20
-149.2966579487869
 30
0.0
 10
112.0465630145231
 20
-149.2966579487869
 30
0.0
 10
111.8539821768976
 20
-149.2904567769135
 30
0.0
 10
111.5411675068369
 20
-149.2859781527827
 30
0.0
 10
111.4161105407224
 20
-149.2859781527827
 30
0.0
  0
HATCH
  5
96
330
8A
100
AcDbEntity
  8
レイヤー 1
 62
    18
420
        0
440
 33554687
100
AcDbHatch
 10
0.0
 20
0.0
 30
0.0
210
0.0
220
0.0
230
1.0
  2
SOLID
 70
     1
 71
     1
 91
        4
 92
        1
 93
        1
 72
     4
 94
        3
 73
     0
 74
     0
 95
       17
 96
       13
 40
0.0
 40
0.0
 40
0.0
 40
0.0
 40
1.0
 40
1.0
 40
1.0
 40
2.0
 40
2.0
 40
2.0
 40
3.0
 40
3.0
 40
3.0
 40
4.0
 40
4.0
 40
4.0
 40
4.0
 10
111.5811306144658
 20
-150.0180609433982
 10
111.5811306144658
 20
-150.0180609433982
 10
110.8745415304411
 20
-150.0180609433982
 10
110.8745415304411
 20
-150.0180609433982
 10
110.8745415304411
 20
-150.0180609433982
 10
110.8745415304411
 20
-150.1324381135085
 10
110.8745415304411
 20
-150.1324381135085
 10
110.8745415304411
 20
-150.1324381135085
 10
111.5811306144658
 20
-150.1324381135085
 10
111.5811306144658
 20
-150.1324381135085
 10
111.5811306144658
 20
-150.1324381135085
 10
111.5811306144658
 20
-150.0180609433982
 10
111.5811306144658
 20
-150.0180609433982
 97
        0
 97
        1
330
92
 92
        1
 93
        1
 72
     4
 94
        3
 73
     0
 74
     0
 95
       17
 96
       13
 40
0.0
 40
0.0
 40
0.0
 40
0.0
 40
1.0
 40
1.0
 40
1.0
 40
2.0
 40
2.0
 40
2.0
 40
3.0
 40
3.0
 40
3.0
 40
4.0
 40
4.0
 40
4.0
 40
4.0
 10
111.5811306144658
 20
-149.7748372021396
 10
111.5811306144658
 20
-149.7748372021396
 10
110.8745415304411
 20
-149.7748372021396
 10
110.8745415304411
 20
-149.7748372021396
 10
110.8745415304411
 20
-149.7748372021396
 10
110.8745415304411
 20
-149.8892143722499
 10
110.8745415304411
 20
-149.8892143722499
 10
110.8745415304411
 20
-149.8892143722499
 10
111.5811306144658
 20
-149.8892143722499
 10
111.5811306144658
 20
-149.8892143722499
 10
111.5811306144658
 20
-149.8892143722499
 10
111.5811306144658
 20
-149.7748372021396
 10
111.5811306144658
 20
-149.7748372021396
 97
        0
 97
        1
330
93
 92
        1
 93
        1
 72
     4
 94
        3
 73
     0
 74
     0
 95
       17
 96
       13
 40
0.0
 40
0.0
 40
0.0
 40
0.0
 40
1.0
 40
1.0
 40
1.0
 40
2.0
 40
2.0
 40
2.0
 40
3.0
 40
3.0
 40
3.0
 40
4.0
 40
4.0
 40
4.0
 40
4.0
 10
111.5811306144658
 20
-149.5419487473367
 10
111.5811306144658
 20
-149.5419487473367
 10
110.8745415304411
 20
-149.5419487473367
 10
110.8745415304411
 20
-149.5419487473367
 10
110.8745415304411
 20
-149.5419487473367
 10
110.8745415304411
 20
-149.6501247455736
 10
110.8745415304411
 20
-149.6501247455736
 10
110.8745415304411
 20
-149.6501247455736
 10
111.5811306144658
 20
-149.6501247455736
 10
111.5811306144658
 20
-149.6501247455736
 10
111.5811306144658
 20
-149.6501247455736
 10
111.5811306144658
 20
-149.5419487473367
 10
111.5811306144658
 20
-149.5419487473367
 97
        0
 97
        1
330
94
 92
        1
 93
        1
 72
     4
 94
        3
 73
     0
 74
     0
 95
      203
 96
      199
 40
0.0
 40
0.0
 40
0.0
 40
0.0
 40
1.0
 40
1.0
 40
1.0
 40
2.0
 40
2.0
 40
2.0
 40
3.0
 40
3.0
 40
3.0
 40
4.0
 40
4.0
 40
4.0
 40
5.0
 40
5.0
 40
5.0
 40
6.0
 40
6.0
 40
6.0
 40
7.0
 40
7.0
 40
7.0
 40
8.0
 40
8.0
 40
8.0
 40
9.0
 40
9.0
 40
9.0
 40
10.0
 40
10.0
 40
10.0
 40
11.0
 40
11.0
 40
11.0
 40
12.0
 40
12.0
 40
12.0
 40
13.0
 40
13.0
 40
13.0
 40
14.0
 40
14.0
 40
14.0
 40
15.0
 40
15.0
 40
15.0
 40
16.0
 40
16.0
 40
16.0
 40
17.0
 40
17.0
 40
17.0
 40
18.0
 40
18.0
 40
18.0
 40
19.0
 40
19.0
 40
19.0
 40
20.0
 40
20.0
 40
20.0
 40
21.0
 40
21.0
 40
21.0
 40
22.0
 40
22.0
 40
22.0
 40
23.0
 40
23.0
 40
23.0
 40
24.0
 40
24.0
 40
24.0
 40
25.0
 40
25.0
 40
25.0
 40
26.0
 40
26.0
 40
26.0
 40
27.0
 40
27.0
 40
27.0
 40
28.0
 40
28.0
 40
28.0
 40
29.0
 40
29.0
 40
29.0
 40
30.0
 40
30.0
 40
30.0
 40
31.0
 40
31.0
 40
31.0
 40
32.0
 40
32.0
 40
32.0
 40
33.0
 40
33.0
 40
33.0
 40
34.0
 40
34.0
 40
34.0
 40
35.0
 40
35.0
 40
35.0
 40
36.0
 40
36.0
 40
36.0
 40
37.0
 40
37.0
 40
37.0
 40
38.0
 40
38.0
 40
38.0
 40
39.0
 40
39.0
 40
39.0
 40
40.0
 40
40.0
 40
40.0
 40
41.0
 40
41.0
 40
41.0
 40
42.0
 40
42.0
 40
42.0
 40
43.0
 40
43.0
 40
43.0
 40
44.0
 40
44.0
 40
44.0
 40
45.0
 40
45.0
 40
45.0
 40
46.0
 40
46.0
 40
46.0
 40
47.0
 40
47.0
 40
47.0
 40
48.0
 40
48.0
 40
48.0
 40
49.0
 40
49.0
 40
49.0
 40
50.0
 40
50.0
 40
50.0
 40
51.0
 40
51.0
 40
51.0
 40
52.0
 40
52.0
 40
52.0
 40
53.0
 40
53.0
 40
53.0
 40
54.0
 40
54.0
 40
54.0
 40
55.0
 40
55.0
 40
55.0
 40
56.0
 40
56.0
 40
56.0
 40
57.0
 40
57.0
 40
57.0
 40
58.0
 40
58.0
 40
58.0
 40
59.0
 40
59.0
 40
59.0
 40
60.0
 40
60.0
 40
60.0
 40
61.0
 40
61.0
 40
61.0
 40
62.0
 40
62.0
 40
62.0
 40
63.0
 40
63.0
 40
63.0
 40
64.0
 40
64.0
 40
64.0
 40
65.0
 40
65.0
 40
65.0
 40
66.0
 40
66.0
 40
66.0
 40
66.0
 10
111.4161105407224
 20
-149.2859781527827
 10
111.4161105407224
 20
-149.2859781527827
 10
110.8576605625633
 20
-149.2859781527827
 10
110.8576605625633
 20
-149.2859781527827
 10
110.8469807665591
 20
-149.3304198845424
 10
110.8387125373945
 20
-149.3621147630067
 10
110.8259656840991
 20
-149.4003553228929
 10
110.8514593906899
 20
-149.4003553228929
 10
110.8662733012765
 20
-149.4024223801841
 10
110.8724744731499
 20
-149.4024223801841
 10
110.8724744731499
 20
-149.4024223801841
 10
111.0609211961931
 20
-149.4024223801841
 10
111.0609211961931
 20
-149.4024223801841
 10
111.0609211961931
 20
-149.4024223801841
 10
111.4354030754397
 20
-149.4024223801841
 10
111.4354030754397
 20
-149.4024223801841
 10
111.4860459790729
 20
-149.4024223801841
 10
111.769577337509
 20
-149.3896755268887
 10
111.8012722159733
 20
-149.3896755268887
 10
111.7992051586821
 20
-149.4172362907707
 10
111.797138101391
 20
-149.4361843159396
 10
111.797138101391
 20
-149.4658121371127
 10
111.7947265345513
 20
-149.497507015577
 10
111.7947265345513
 20
-149.6328992681473
 10
111.7947265345513
 20
-149.6604600320293
 10
111.7947265345513
 20
-149.6604600320293
 10
111.7947265345513
 20
-149.9060953401276
 10
111.7947265345513
 20
-149.9060953401276
 10
111.7947265345513
 20
-149.9505370718873
 10
111.7992051586821
 20
-150.1472520240951
 10
111.8033392732644
 20
-150.2995252445432
 10
111.8033392732644
 20
-150.2995252445432
 10
111.5769964998835
 20
-150.2995252445432
 10
111.5769964998835
 20
-150.2995252445432
 10
111.5769964998835
 20
-150.2995252445432
 10
111.5790635571747
 20
-150.2657633087877
 10
111.5790635571747
 20
-150.2657633087877
 10
111.5790635571747
 20
-150.2657633087877
 10
110.8766085877322
 20
-150.2657633087877
 10
110.8766085877322
 20
-150.2657633087877
 10
110.8766085877322
 20
-150.2657633087877
 10
110.8790201545719
 20
-150.2995252445432
 10
110.8790201545719
 20
-150.2995252445432
 10
110.8790201545719
 20
-150.2995252445432
 10
110.6609456103556
 20
-150.2995252445432
 10
110.6609456103556
 20
-150.2995252445432
 10
110.6650797249379
 20
-150.2444037167792
 10
110.6650797249379
 20
-150.2316568634837
 10
110.6716254063599
 20
-150.117624202922
 10
110.673692463651
 20
-150.09006343904
 10
110.6757595209421
 20
-149.9567382437608
 10
110.6757595209421
 20
-149.9377902185919
 10
110.6757595209421
 20
-149.9377902185919
 10
110.6757595209421
 20
-149.7345295849622
 10
110.6757595209421
 20
-149.7345295849622
 10
110.5362331537895
 20
-149.9842990076428
 10
110.3670789654638
 20
-150.1155571456308
 10
110.2613145340666
 20
-150.1810139598506
 10
110.2613145340666
 20
-150.1810139598506
 10
110.08768172161
 20
-150.0414875926979
 10
110.08768172161
 20
-150.0414875926979
 10
110.1765651851295
 20
-149.9905001795162
 10
110.3202256668644
 20
-149.9036837732879
 10
110.4580294862744
 20
-149.7093803879199
 10
110.5489800070849
 20
-149.5822563645141
 10
110.6144368213047
 20
-149.4385958827792
 10
110.6481987570602
 20
-149.2859781527827
 10
110.4197889263881
 20
-149.2883897196223
 10
110.239954942058
 20
-149.2945908914958
 10
110.1448703066651
 20
-149.2966579487869
 10
110.1448703066651
 20
-149.2966579487869
 10
110.1448703066651
 20
-149.118891021748
 10
110.1448703066651
 20
-149.118891021748
 10
110.3415852588729
 20
-149.12543670317
 10
110.625116617309
 20
-149.1295708177523
 10
110.7753227804659
 20
-149.1295708177523
 10
110.7753227804659
 20
-149.1295708177523
 10
110.9889187005514
 20
-149.1295708177523
 10
110.9889187005514
 20
-149.1295708177523
 10
110.9889187005514
 20
-149.1295708177523
 10
110.9889187005514
 20
-149.021739329064
 10
110.9889187005514
 20
-149.021739329064
 10
110.9889187005514
 20
-149.021739329064
 10
110.8428466519768
 20
-149.021739329064
 10
110.8428466519768
 20
-149.021739329064
 10
110.673692463651
 20
-149.021739329064
 10
110.5045382753252
 20
-149.0258734436463
 10
110.3374511442906
 20
-149.0324191250683
 10
110.3374511442906
 20
-149.0324191250683
 10
110.3374511442906
 20
-148.8608533699028
 10
110.3374511442906
 20
-148.8608533699028
 10
110.4917914220298
 20
-148.8713609111328
 10
110.6778265782333
 20
-148.8713609111328
 10
110.8428466519768
 20
-148.8713609111328
 10
110.8428466519768
 20
-148.8713609111328
 10
110.9889187005514
 20
-148.8713609111328
 10
110.9889187005514
 20
-148.8713609111328
 10
110.9889187005514
 20
-148.8713609111328
 10
110.9889187005514
 20
-148.7530218812145
 10
110.9889187005514
 20
-148.7530218812145
 10
110.9889187005514
 20
-148.7530218812145
 10
110.8576605625633
 20
-148.7530218812145
 10
110.8576605625633
 20
-148.7530218812145
 10
110.8111517735125
 20
-148.7530218812145
 10
110.6082356494312
 20
-148.7614623651534
 10
110.5658609749627
 20
-148.7614623651534
 10
110.3626003413329
 20
-148.7655964797357
 10
110.2864637311089
 20
-148.7676635370268
 10
110.2082600635937
 20
-148.7699028490922
 10
110.2082600635937
 20
-148.7699028490922
 10
110.2082600635937
 20
-148.5857624954056
 10
110.2082600635937
 20
-148.5857624954056
 10
110.3226372337041
 20
-148.5942029793445
 10
110.3670789654638
 20
-148.5942029793445
 10
110.749829073875
 20
-148.6028157180576
 10
110.6864393169464
 20
-148.5075588278905
 10
110.6588785530644
 20
-148.4799980640084
 10
110.6230495600178
 20
-148.4439968161876
 10
110.6230495600178
 20
-148.4439968161876
 10
110.798404920217
 20
-148.3614867793159
 10
110.798404920217
 20
-148.3614867793159
 10
110.8387125373945
 20
-148.3974880271367
 10
110.8831542691542
 20
-148.4398627016053
 10
110.9572238220871
 20
-148.5497612475848
 10
110.9572238220871
 20
-148.5497612475848
 10
110.8428466519768
 20
-148.6048827753488
 10
110.8428466519768
 20
-148.6048827753488
 10
110.8428466519768
 20
-148.6048827753488
 10
110.853526447981
 20
-148.6048827753488
 10
110.853526447981
 20
-148.6048827753488
 10
110.853526447981
 20
-148.6048827753488
 10
111.3761474330934
 20
-148.6048827753488
 10
111.3761474330934
 20
-148.6048827753488
 10
111.3761474330934
 20
-148.6048827753488
 10
111.280718288152
 20
-148.560441043589
 10
111.280718288152
 20
-148.560441043589
 10
111.308279052034
 20
-148.522372738477
 10
111.3654676370892
 20
-148.4419297588964
 10
111.3802815476757
 20
-148.3678602059636
 10
111.3802815476757
 20
-148.3678602059636
 10
111.5938774677612
 20
-148.4314222176664
 10
111.5938774677612
 20
-148.4314222176664
 10
111.6024902064744
 20
-148.4334892749576
 10
111.6235052889344
 20
-148.4439968161876
 10
111.6235052889344
 20
-148.4651841534219
 10
111.6235052889344
 20
-148.5032524585339
 10
111.5580484747146
 20
-148.5032524585339
 10
111.5387559399972
 20
-148.5032524585339
 10
111.5284206535415
 20
-148.522372738477
 10
111.5049940042418
 20
-148.5625081008802
 10
111.4753661830686
 20
-148.6028157180576
 10
111.8753417689061
 20
-148.5964422914099
 10
111.9049695900793
 20
-148.5942029793445
 10
111.9811062003033
 20
-148.588001807471
 10
111.9811062003033
 20
-148.588001807471
 10
111.9811062003033
 20
-148.7699028490922
 10
111.9811062003033
 20
-148.7699028490922
 10
111.9621581751344
 20
-148.7699028490922
 10
111.9366644685436
 20
-148.7676635370268
 10
111.7165228670361
 20
-148.7592230530879
 10
111.665879963403
 20
-148.7571559957968
 10
111.4457383618955
 20
-148.7530218812145
 10
111.4012966301358
 20
-148.7530218812145
 10
111.4012966301358
 20
-148.7530218812145
 10
111.1856336527591
 20
-148.7530218812145
 10
111.1856336527591
 20
-148.7530218812145
 10
111.1856336527591
 20
-148.7530218812145
 10
111.1856336527591
 20
-148.8713609111328
 10
111.1856336527591
 20
-148.8713609111328
 10
111.1856336527591
 20
-148.8713609111328
 10
111.3589219556672
 20
-148.8713609111328
 10
111.3589219556672
 20
-148.8713609111328
 10
111.5218749721195
 20
-148.8713609111328
 10
111.7123887524538
 20
-148.8713609111328
 10
111.8687960874842
 20
-148.8608533699028
 10
111.8687960874842
 20
-148.8608533699028
 10
111.8687960874842
 20
-149.0324191250683
 10
111.8687960874842
 20
-149.0324191250683
 10
111.659334281981
 20
-149.0238063863551
 10
111.4626193297732
 20
-149.021739329064
 10
111.3589219556672
 20
-149.021739329064
 10
111.3589219556672
 20
-149.021739329064
 10
111.1856336527591
 20
-149.021739329064
 10
111.1856336527591
 20
-149.021739329064
 10
111.1856336527591
 20
-149.021739329064
 10
111.1856336527591
 20
-149.1295708177523
 10
111.1856336527591
 20
-149.1295708177523
 10
111.1856336527591
 20
-149.1295708177523
 10
111.4161105407224
 20
-149.1295708177523
 10
111.4161105407224
 20
-149.1295708177523
 10
111.5494357360015
 20
-149.1295708177523
 10
111.8371012090199
 20
-149.12543670317
 10
112.0465630145231
 20
-149.118891021748
 10
112.0465630145231
 20
-149.118891021748
 10
112.0465630145231
 20
-149.2966579487869
 10
112.0465630145231
 20
-149.2966579487869
 10
111.8539821768976
 20
-149.2904567769135
 10
111.5411675068369
 20
-149.2859781527827
 10
111.4161105407224
 20
-149.2859781527827
 97
        0
 97
        1
330
95
 75
     2
 76
     1
 98
        1
 10
0.0
 20
0.0
450
        0
451
        0
460
0.0
461
0.0
452
        0
462
0.0
453
        0
470

  0
SPLINE
  5
97
330
8A
100
AcDbEntity
  8
レイヤー 1
100
AcDbSpline
210
0.0
220
0.0
230
1.0
 70
     9
 71
     3
 72
    29
 73
    25
 74
     0
 42
0.0000000001
 43
0.0000000001
 40
0.0
 40
0.0
 40
0.0
 40
0.0
 40
1.0
 40
1.0
 40
1.0
 40
2.0
 40
2.0
 40
2.0
 40
3.0
 40
3.0
 40
3.0
 40
4.0
 40
4.0
 40
4.0
 40
5.0
 40
5.0
 40
5.0
 40
6.0
 40
6.0
 40
6.0
 40
7.0
 40
7.0
 40
7.0
 40
8.0
 40
8.0
 40
8.0
 40
8.0
 10
113.2916205228923
 20
-148.7339016012714
 30
0.0
 10
113.2916205228923
 20
-148.7339016012714
 30
0.0
 10
112.9384982356542
 20
-148.7339016012714
 30
0.0
 10
112.9384982356542
 20
-148.7339016012714
 30
0.0
 10
112.8261881228351
 20
-148.7339016012714
 30
0.0
 10
112.6866617556825
 20
-148.7402750279191
 30
0.0
 10
112.5788302669942
 20
-148.7530218812145
 30
0.0
 10
112.5788302669942
 20
-148.7530218812145
 30
0.0
 10
112.5788302669942
 20
-148.5180663691205
 30
0.0
 10
112.5788302669942
 20
-148.5180663691205
 30
0.0
 10
112.6973415516868
 20
-148.532880279707
 30
0.0
 10
112.8813096505991
 20
-148.5371866490636
 30
0.0
 10
112.9384982356542
 20
-148.5371866490636
 30
0.0
 10
112.9384982356542
 20
-148.5371866490636
 30
0.0
 10
113.2916205228923
 20
-148.5371866490636
 30
0.0
 10
113.2916205228923
 20
-148.5371866490636
 30
0.0
 10
113.3105685480612
 20
-148.5371866490636
 30
0.0
 10
113.513829181691
 20
-148.5371866490636
 30
0.0
 10
113.6554226061347
 20
-148.5180663691205
 30
0.0
 10
113.6554226061347
 20
-148.5180663691205
 30
0.0
 10
113.6554226061347
 20
-148.7530218812145
 30
0.0
 10
113.6554226061347
 20
-148.7530218812145
 30
0.0
 10
113.4990152711044
 20
-148.7339016012714
 30
0.0
 10
113.3085014907701
 20
-148.7339016012714
 30
0.0
 10
113.2916205228923
 20
-148.7339016012714
 30
0.0
  0
SPLINE
  5
98
330
8A
100
AcDbEntity
  8
レイヤー 1
100
AcDbSpline
210
0.0
220
0.0
230
1.0
 70
     9
 71
     3
 72
    47
 73
    43
 74
     0
 42
0.0000000001
 43
0.0000000001
 40
0.0
 40
0.0
 40
0.0
 40
0.0
 40
1.0
 40
1.0
 40
1.0
 40
2.0
 40
2.0
 40
2.0
 40
3.0
 40
3.0
 40
3.0
 40
4.0
 40
4.0
 40
4.0
 40
5.0
 40
5.0
 40
5.0
 40
6.0
 40
6.0
 40
6.0
 40
7.0
 40
7.0
 40
7.0
 40
8.0
 40
8.0
 40
8.0
 40
9.0
 40
9.0
 40
9.0
 40
10.0
 40
10.0
 40
10.0
 40
11.0
 40
11.0
 40
11.0
 40
12.0
 40
12.0
 40
12.0
 40
13.0
 40
13.0
 40
13.0
 40
14.0
 40
14.0
 40
14.0
 40
14.0
 10
113.3932508397072
 20
-149.2628960130315
 30
0.0
 10
113.3932508397072
 20
-149.2628960130315
 30
0.0
 10
113.2916205228923
 20
-149.2628960130315
 30
0.0
 10
113.2916205228923
 20
-149.2628960130315
 30
0.0
 10
113.2916205228923
 20
-149.3497124192598
 30
0.0
 10
113.2706054404323
 20
-149.739008209093
 30
0.0
 10
113.0738904882246
 20
-149.9588053010519
 30
0.0
 10
112.9216172677765
 20
-150.1279594893777
 30
0.0
 10
112.7142225195645
 20
-150.1978949277283
 30
0.0
 10
112.6294731706273
 20
-150.2254556916103
 30
0.0
 10
112.6294731706273
 20
-150.2254556916103
 30
0.0
 10
112.4348252757107
 20
-150.0583685605757
 30
0.0
 10
112.4348252757107
 20
-150.0583685605757
 30
0.0
 10
112.5323214779433
 20
-150.0456217072803
 30
0.0
 10
112.7076768381425
 20
-150.0221950579805
 30
0.0
 10
112.8961235611857
 20
-149.8340928444859
 30
0.0
 10
112.9701931141185
 20
-149.7620903488442
 30
0.0
 10
113.0738904882246
 20
-149.6225639816916
 30
0.0
 10
113.0738904882246
 20
-149.2628960130315
 30
0.0
 10
113.0738904882246
 20
-149.2628960130315
 30
0.0
 10
112.8430690907128
 20
-149.2628960130315
 30
0.0
 10
112.8430690907128
 20
-149.2628960130315
 30
0.0
 10
112.6570339345093
 20
-149.2628960130315
 30
0.0
 10
112.4709987783058
 20
-149.2670301276138
 30
0.0
 10
112.2846191125538
 20
-149.2818440382003
 30
0.0
 10
112.2846191125538
 20
-149.2818440382003
 30
0.0
 10
112.2846191125538
 20
-149.0620469462414
 30
0.0
 10
112.2846191125538
 20
-149.0620469462414
 30
0.0
 10
112.473065835597
 20
-149.076860856828
 30
0.0
 10
112.7586642513242
 20
-149.0809949714103
 30
0.0
 10
112.8430690907128
 20
-149.0809949714103
 30
0.0
 10
112.8430690907128
 20
-149.0809949714103
 30
0.0
 10
113.3932508397072
 20
-149.0809949714103
 30
0.0
 10
113.3932508397072
 20
-149.0809949714103
 30
0.0
 10
113.4121988648761
 20
-149.0809949714103
 30
0.0
 10
113.7294921590676
 20
-149.0809949714103
 30
0.0
 10
113.9582464992882
 20
-149.0620469462414
 30
0.0
 10
113.9582464992882
 20
-149.0620469462414
 30
0.0
 10
113.9582464992882
 20
-149.2818440382003
 30
0.0
 10
113.9582464992882
 20
-149.2818440382003
 30
0.0
 10
113.769799776245
 20
-149.2670301276138
 30
0.0
 10
113.5813530532019
 20
-149.2628960130315
 30
0.0
 10
113.3932508397072
 20
-149.2628960130315
 30
0.0
  0
HATCH
  5
99
330
8A
100
AcDbEntity
  8
レイヤー 1
 62
    18
420
        0
440
 33554687
100
AcDbHatch
 10
0.0
 20
0.0
 30
0.0
210
0.0
220
0.0
230
1.0
  2
SOLID
 70
     1
 71
     1
 91
        2
 92
        1
 93
        1
 72
     4
 94
        3
 73
     0
 74
     0
 95
       29
 96
       25
 40
0.0
 40
0.0
 40
0.0
 40
0.0
 40
1.0
 40
1.0
 40
1.0
 40
2.0
 40
2.0
 40
2.0
 40
3.0
 40
3.0
 40
3.0
 40
4.0
 40
4.0
 40
4.0
 40
5.0
 40
5.0
 40
5.0
 40
6.0
 40
6.0
 40
6.0
 40
7.0
 40
7.0
 40
7.0
 40
8.0
 40
8.0
 40
8.0
 40
8.0
 10
113.2916205228923
 20
-148.7339016012714
 10
113.2916205228923
 20
-148.7339016012714
 10
112.9384982356542
 20
-148.7339016012714
 10
112.9384982356542
 20
-148.7339016012714
 10
112.8261881228351
 20
-148.7339016012714
 10
112.6866617556825
 20
-148.7402750279191
 10
112.5788302669942
 20
-148.7530218812145
 10
112.5788302669942
 20
-148.7530218812145
 10
112.5788302669942
 20
-148.5180663691205
 10
112.5788302669942
 20
-148.5180663691205
 10
112.6973415516868
 20
-148.532880279707
 10
112.8813096505991
 20
-148.5371866490636
 10
112.9384982356542
 20
-148.5371866490636
 10
112.9384982356542
 20
-148.5371866490636
 10
113.2916205228923
 20
-148.5371866490636
 10
113.2916205228923
 20
-148.5371866490636
 10
113.3105685480612
 20
-148.5371866490636
 10
113.513829181691
 20
-148.5371866490636
 10
113.6554226061347
 20
-148.5180663691205
 10
113.6554226061347
 20
-148.5180663691205
 10
113.6554226061347
 20
-148.7530218812145
 10
113.6554226061347
 20
-148.7530218812145
 10
113.4990152711044
 20
-148.7339016012714
 10
113.3085014907701
 20
-148.7339016012714
 10
113.2916205228923
 20
-148.7339016012714
 97
        0
 97
        1
330
97
 92
        1
 93
        1
 72
     4
 94
        3
 73
     0
 74
     0
 95
       47
 96
       43
 40
0.0
 40
0.0
 40
0.0
 40
0.0
 40
1.0
 40
1.0
 40
1.0
 40
2.0
 40
2.0
 40
2.0
 40
3.0
 40
3.0
 40
3.0
 40
4.0
 40
4.0
 40
4.0
 40
5.0
 40
5.0
 40
5.0
 40
6.0
 40
6.0
 40
6.0
 40
7.0
 40
7.0
 40
7.0
 40
8.0
 40
8.0
 40
8.0
 40
9.0
 40
9.0
 40
9.0
 40
10.0
 40
10.0
 40
10.0
 40
11.0
 40
11.0
 40
11.0
 40
12.0
 40
12.0
 40
12.0
 40
13.0
 40
13.0
 40
13.0
 40
14.0
 40
14.0
 40
14.0
 40
14.0
 10
113.3932508397072
 20
-149.2628960130315
 10
113.3932508397072
 20
-149.2628960130315
 10
113.2916205228923
 20
-149.2628960130315
 10
113.2916205228923
 20
-149.2628960130315
 10
113.2916205228923
 20
-149.3497124192598
 10
113.2706054404323
 20
-149.739008209093
 10
113.0738904882246
 20
-149.9588053010519
 10
112.9216172677765
 20
-150.1279594893777
 10
112.7142225195645
 20
-150.1978949277283
 10
112.6294731706273
 20
-150.2254556916103
 10
112.6294731706273
 20
-150.2254556916103
 10
112.4348252757107
 20
-150.0583685605757
 10
112.4348252757107
 20
-150.0583685605757
 10
112.5323214779433
 20
-150.0456217072803
 10
112.7076768381425
 20
-150.0221950579805
 10
112.8961235611857
 20
-149.8340928444859
 10
112.9701931141185
 20
-149.7620903488442
 10
113.0738904882246
 20
-149.6225639816916
 10
113.0738904882246
 20
-149.2628960130315
 10
113.0738904882246
 20
-149.2628960130315
 10
112.8430690907128
 20
-149.2628960130315
 10
112.8430690907128
 20
-149.2628960130315
 10
112.6570339345093
 20
-149.2628960130315
 10
112.4709987783058
 20
-149.2670301276138
 10
112.2846191125538
 20
-149.2818440382003
 10
112.2846191125538
 20
-149.2818440382003
 10
112.2846191125538
 20
-149.0620469462414
 10
112.2846191125538
 20
-149.0620469462414
 10
112.473065835597
 20
-149.076860856828
 10
112.7586642513242
 20
-149.0809949714103
 10
112.8430690907128
 20
-149.0809949714103
 10
112.8430690907128
 20
-149.0809949714103
 10
113.3932508397072
 20
-149.0809949714103
 10
113.3932508397072
 20
-149.0809949714103
 10
113.4121988648761
 20
-149.0809949714103
 10
113.7294921590676
 20
-149.0809949714103
 10
113.9582464992882
 20
-149.0620469462414
 10
113.9582464992882
 20
-149.0620469462414
 10
113.9582464992882
 20
-149.2818440382003
 10
113.9582464992882
 20
-149.2818440382003
 10
113.769799776245
 20
-149.2670301276138
 10
113.5813530532019
 20
-149.2628960130315
 10
113.3932508397072
 20
-149.2628960130315
 97
        0
 97
        1
330
98
 75
     2
 76
     1
 98
        1
 10
0.0
 20
0.0
450
        0
451
        0
460
0.0
461
0.0
452
        0
462
0.0
453
        0
470

  0
SPLINE
  5
9A
330
8A
100
AcDbEntity
  8
レイヤー 1
100
AcDbSpline
210
0.0
220
0.0
230
1.0
 70
     9
 71
     3
 72
    29
 73
    25
 74
     0
 42
0.0000000001
 43
0.0000000001
 40
0.0
 40
0.0
 40
0.0
 40
0.0
 40
1.0
 40
1.0
 40
1.0
 40
2.0
 40
2.0
 40
2.0
 40
3.0
 40
3.0
 40
3.0
 40
4.0
 40
4.0
 40
4.0
 40
5.0
 40
5.0
 40
5.0
 40
6.0
 40
6.0
 40
6.0
 40
7.0
 40
7.0
 40
7.0
 40
8.0
 40
8.0
 40
8.0
 40
8.0
 10
115.2391330007041
 20
-149.4258490294838
 30
0.0
 10
115.2391330007041
 20
-149.4258490294838
 30
0.0
 10
114.754752575478
 20
-149.4258490294838
 30
0.0
 10
114.754752575478
 20
-149.4258490294838
 30
0.0
 10
114.727191811596
 20
-149.4258490294838
 30
0.0
 10
114.4098985174045
 20
-149.4258490294838
 30
0.0
 10
114.1983696546101
 20
-149.4509982265261
 30
0.0
 10
114.1983696546101
 20
-149.4509982265261
 30
0.0
 10
114.1983696546101
 20
-149.2205213385629
 30
0.0
 10
114.1983696546101
 20
-149.2205213385629
 30
0.0
 10
114.3568440469316
 20
-149.2439479878626
 30
0.0
 10
114.5473578272659
 20
-149.2460150451537
 30
0.0
 10
114.754752575478
 20
-149.2460150451537
 30
0.0
 10
114.754752575478
 20
-149.2460150451537
 30
0.0
 10
115.2391330007041
 20
-149.2460150451537
 30
0.0
 10
115.2391330007041
 20
-149.2460150451537
 30
0.0
 10
115.4251681569076
 20
-149.2460150451537
 30
0.0
 10
115.6115478226596
 20
-149.2439479878626
 30
0.0
 10
115.7955159215719
 20
-149.2205213385629
 30
0.0
 10
115.7955159215719
 20
-149.2205213385629
 30
0.0
 10
115.7955159215719
 20
-149.4509982265261
 30
0.0
 10
115.7955159215719
 20
-149.4509982265261
 30
0.0
 10
115.6115478226596
 20
-149.427916086775
 30
0.0
 10
115.3638454572701
 20
-149.4258490294838
 30
0.0
 10
115.2391330007041
 20
-149.4258490294838
 30
0.0
  0
HATCH
  5
9B
330
8A
100
AcDbEntity
  8
レイヤー 1
 62
    18
420
        0
440
 33554687
100
AcDbHatch
 10
0.0
 20
0.0
 30
0.0
210
0.0
220
0.0
230
1.0
  2
SOLID
 70
     1
 71
     1
 91
        1
 92
        1
 93
        1
 72
     4
 94
        3
 73
     0
 74
     0
 95
       29
 96
       25
 40
0.0
 40
0.0
 40
0.0
 40
0.0
 40
1.0
 40
1.0
 40
1.0
 40
2.0
 40
2.0
 40
2.0
 40
3.0
 40
3.0
 40
3.0
 40
4.0
 40
4.0
 40
4.0
 40
5.0
 40
5.0
 40
5.0
 40
6.0
 40
6.0
 40
6.0
 40
7.0
 40
7.0
 40
7.0
 40
8.0
 40
8.0
 40
8.0
 40
8.0
 10
115.2391330007041
 20
-149.4258490294838
 10
115.2391330007041
 20
-149.4258490294838
 10
114.754752575478
 20
-149.4258490294838
 10
114.754752575478
 20
-149.4258490294838
 10
114.727191811596
 20
-149.4258490294838
 10
114.4098985174045
 20
-149.4258490294838
 10
114.1983696546101
 20
-149.4509982265261
 10
114.1983696546101
 20
-149.4509982265261
 10
114.1983696546101
 20
-149.2205213385629
 10
114.1983696546101
 20
-149.2205213385629
 10
114.3568440469316
 20
-149.2439479878626
 10
114.5473578272659
 20
-149.2460150451537
 10
114.754752575478
 20
-149.2460150451537
 10
114.754752575478
 20
-149.2460150451537
 10
115.2391330007041
 20
-149.2460150451537
 10
115.2391330007041
 20
-149.2460150451537
 10
115.4251681569076
 20
-149.2460150451537
 10
115.6115478226596
 20
-149.2439479878626
 10
115.7955159215719
 20
-149.2205213385629
 10
115.7955159215719
 20
-149.2205213385629
 10
115.7955159215719
 20
-149.4509982265261
 10
115.7955159215719
 20
-149.4509982265261
 10
115.6115478226596
 20
-149.427916086775
 10
115.3638454572701
 20
-149.4258490294838
 10
115.2391330007041
 20
-149.4258490294838
 97
        0
 97
        1
330
9A
 75
     2
 76
     1
 98
        1
 10
0.0
 20
0.0
450
        0
451
        0
460
0.0
461
0.0
452
        0
462
0.0
453
        0
470

  0
SPLINE
  5
9C
330
8A
100
AcDbEntity
  8
レイヤー 1
100
AcDbSpline
210
0.0
220
0.0
230
1.0
 70
     9
 71
     3
 72
    47
 73
    43
 74
     0
 42
0.0000000001
 43
0.0000000001
 40
0.0
 40
0.0
 40
0.0
 40
0.0
 40
1.0
 40
1.0
 40
1.0
 40
2.0
 40
2.0
 40
2.0
 40
3.0
 40
3.0
 40
3.0
 40
4.0
 40
4.0
 40
4.0
 40
5.0
 40
5.0
 40
5.0
 40
6.0
 40
6.0
 40
6.0
 40
7.0
 40
7.0
 40
7.0
 40
8.0
 40
8.0
 40
8.0
 40
9.0
 40
9.0
 40
9.0
 40
10.0
 40
10.0
 40
10.0
 40
11.0
 40
11.0
 40
11.0
 40
12.0
 40
12.0
 40
12.0
 40
13.0
 40
13.0
 40
13.0
 40
14.0
 40
14.0
 40
14.0
 40
14.0
 10
117.4591525313991
 20
-148.8312255487297
 30
0.0
 10
117.3892170930485
 20
-149.1106227925834
 30
0.0
 10
117.3130804828245
 20
-149.4151692334795
 30
0.0
 10
117.0002658127638
 20
-149.7472764382576
 30
0.0
 10
116.7632432433786
 20
-149.9970458609382
 30
0.0
 10
116.5179524448288
 20
-150.0962646109134
 30
0.0
 10
116.4121880134316
 20
-150.138639285382
 30
0.0
 10
116.4121880134316
 20
-150.138639285382
 30
0.0
 10
116.217540118515
 20
-149.9567382437608
 30
0.0
 10
116.217540118515
 20
-149.9567382437608
 30
0.0
 10
116.4035752747185
 20
-149.91022945471
 30
0.0
 10
116.7653103006698
 20
-149.8172118766082
 30
0.0
 10
117.0615885124012
 20
-149.3221516553778
 30
0.0
 10
117.2221299620139
 20
-149.0555012648195
 30
0.0
 10
117.2348768153093
 20
-148.8822129619114
 30
0.0
 10
117.2434895540224
 20
-148.7910901863265
 30
0.0
 10
117.2434895540224
 20
-148.7910901863265
 30
0.0
 10
116.7377495367878
 20
-148.7910901863265
 30
0.0
 10
116.7377495367878
 20
-148.7910901863265
 30
0.0
 10
116.6192382520952
 20
-148.7910901863265
 30
0.0
 10
116.1982475837976
 20
-148.8100382114954
 30
0.0
 10
116.0459743633496
 20
-148.8205457527254
 30
0.0
 10
116.0459743633496
 20
-148.8205457527254
 30
0.0
 10
116.0459743633496
 20
-148.6112562019965
 30
0.0
 10
116.0459743633496
 20
-148.6112562019965
 30
0.0
 10
116.1879122973419
 20
-148.6238308005176
 30
0.0
 10
116.464897974356
 20
-148.6281371698742
 30
0.0
 10
116.5813422017574
 20
-148.6281371698742
 30
0.0
 10
116.5813422017574
 20
-148.6281371698742
 30
0.0
 10
116.9365315462867
 20
-148.6281371698742
 30
0.0
 10
116.9365315462867
 20
-148.6281371698742
 30
0.0
 10
116.9640923101687
 20
-148.6281371698742
 30
0.0
 10
117.1249782693299
 20
-148.6260701125831
 30
0.0
 10
117.2348768153093
 20
-148.6112562019965
 30
0.0
 10
117.2920654003645
 20
-148.6048827753488
 30
0.0
 10
117.3089463682422
 20
-148.5857624954056
 30
0.0
 10
117.3323730175419
 20
-148.5625081008802
 30
0.0
 10
117.3323730175419
 20
-148.5625081008802
 30
0.0
 10
117.5204752310365
 20
-148.7127142640371
 30
0.0
 10
117.5204752310365
 20
-148.7127142640371
 30
0.0
 10
117.5056613204499
 20
-148.7423420852102
 30
0.0
 10
117.4953260339942
 20
-148.7614623651534
 30
0.0
 10
117.4591525313991
 20
-148.8312255487297
 30
0.0
  0
HATCH
  5
9D
330
8A
100
AcDbEntity
  8
レイヤー 1
 62
    18
420
        0
440
 33554687
100
AcDbHatch
 10
0.0
 20
0.0
 30
0.0
210
0.0
220
0.0
230
1.0
  2
SOLID
 70
     1
 71
     1
 91
        1
 92
        1
 93
        1
 72
     4
 94
        3
 73
     0
 74
     0
 95
       47
 96
       43
 40
0.0
 40
0.0
 40
0.0
 40
0.0
 40
1.0
 40
1.0
 40
1.0
 40
2.0
 40
2.0
 40
2.0
 40
3.0
 40
3.0
 40
3.0
 40
4.0
 40
4.0
 40
4.0
 40
5.0
 40
5.0
 40
5.0
 40
6.0
 40
6.0
 40
6.0
 40
7.0
 40
7.0
 40
7.0
 40
8.0
 40
8.0
 40
8.0
 40
9.0
 40
9.0
 40
9.0
 40
10.0
 40
10.0
 40
10.0
 40
11.0
 40
11.0
 40
11.0
 40
12.0
 40
12.0
 40
12.0
 40
13.0
 40
13.0
 40
13.0
 40
14.0
 40
14.0
 40
14.0
 40
14.0
 10
117.4591525313991
 20
-148.8312255487297
 10
117.3892170930485
 20
-149.1106227925834
 10
117.3130804828245
 20
-149.4151692334795
 10
117.0002658127638
 20
-149.7472764382576
 10
116.7632432433786
 20
-149.9970458609382
 10
116.5179524448288
 20
-150.0962646109134
 10
116.4121880134316
 20
-150.138639285382
 10
116.4121880134316
 20
-150.138639285382
 10
116.217540118515
 20
-149.9567382437608
 10
116.217540118515
 20
-149.9567382437608
 10
116.4035752747185
 20
-149.91022945471
 10
116.7653103006698
 20
-149.8172118766082
 10
117.0615885124012
 20
-149.3221516553778
 10
117.2221299620139
 20
-149.0555012648195
 10
117.2348768153093
 20
-148.8822129619114
 10
117.2434895540224
 20
-148.7910901863265
 10
117.2434895540224
 20
-148.7910901863265
 10
116.7377495367878
 20
-148.7910901863265
 10
116.7377495367878
 20
-148.7910901863265
 10
116.6192382520952
 20
-148.7910901863265
 10
116.1982475837976
 20
-148.8100382114954
 10
116.0459743633496
 20
-148.8205457527254
 10
116.0459743633496
 20
-148.8205457527254
 10
116.0459743633496
 20
-148.6112562019965
 10
116.0459743633496
 20
-148.6112562019965
 10
116.1879122973419
 20
-148.6238308005176
 10
116.464897974356
 20
-148.6281371698742
 10
116.5813422017574
 20
-148.6281371698742
 10
116.5813422017574
 20
-148.6281371698742
 10
116.9365315462867
 20
-148.6281371698742
 10
116.9365315462867
 20
-148.6281371698742
 10
116.9640923101687
 20
-148.6281371698742
 10
117.1249782693299
 20
-148.6260701125831
 10
117.2348768153093
 20
-148.6112562019965
 10
117.2920654003645
 20
-148.6048827753488
 10
117.3089463682422
 20
-148.5857624954056
 10
117.3323730175419
 20
-148.5625081008802
 10
117.3323730175419
 20
-148.5625081008802
 10
117.5204752310365
 20
-148.7127142640371
 10
117.5204752310365
 20
-148.7127142640371
 10
117.5056613204499
 20
-148.7423420852102
 10
117.4953260339942
 20
-148.7614623651534
 10
117.4591525313991
 20
-148.8312255487297
 97
        0
 97
        1
330
9C
 75
     2
 76
     1
 98
        1
 10
0.0
 20
0.0
450
        0
451
        0
460
0.0
461
0.0
452
        0
462
0.0
453
        0
470

  0
SPLINE
  5
9E
330
8A
100
AcDbEntity
  8
レイヤー 1
100
AcDbSpline
210
0.0
220
0.0
230
1.0
 70
    11
 71
     3
 72
    17
 73
    13
 74
     0
 42
0.0000000001
 43
0.0000000001
 40
0.0
 40
0.0
 40
0.0
 40
0.0
 40
1.0
 40
1.0
 40
1.0
 40
2.0
 40
2.0
 40
2.0
 40
3.0
 40
3.0
 40
3.0
 40
4.0
 40
4.0
 40
4.0
 40
4.0
 10
117.8494818498779
 20
-148.6133232592876
 30
0.0
 10
117.8494818498779
 20
-148.6725789016339
 30
0.0
 10
117.8959906389287
 20
-148.7190876906848
 30
0.0
 10
117.955246281275
 20
-148.7190876906848
 30
0.0
 10
118.0145019236213
 20
-148.7190876906848
 30
0.0
 10
118.0630777699634
 20
-148.6725789016339
 30
0.0
 10
118.0630777699634
 20
-148.6133232592876
 30
0.0
 10
118.0630777699634
 20
-148.5540676169413
 30
0.0
 10
118.0145019236213
 20
-148.5054917705993
 30
0.0
 10
117.955246281275
 20
-148.5054917705993
 30
0.0
 10
117.8959906389287
 20
-148.5054917705993
 30
0.0
 10
117.8494818498779
 20
-148.5540676169413
 30
0.0
 10
117.8494818498779
 20
-148.6133232592876
 30
0.0
  0
SPLINE
  5
9F
330
8A
100
AcDbEntity
  8
レイヤー 1
100
AcDbSpline
210
0.0
220
0.0
230
1.0
 70
     9
 71
     3
 72
    17
 73
    13
 74
     0
 42
0.0000000001
 43
0.0000000001
 40
0.0
 40
0.0
 40
0.0
 40
0.0
 40
1.0
 40
1.0
 40
1.0
 40
2.0
 40
2.0
 40
2.0
 40
3.0
 40
3.0
 40
3.0
 40
4.0
 40
4.0
 40
4.0
 40
4.0
 10
118.1647080867783
 20
-148.6133232592876
 30
0.0
 10
118.1647080867783
 20
-148.7275281746236
 30
0.0
 10
118.0716905086765
 20
-148.8227850647908
 30
0.0
 10
117.955246281275
 20
-148.8227850647908
 30
0.0
 10
117.8408691111648
 20
-148.8227850647908
 30
0.0
 10
117.7457844757719
 20
-148.7275281746236
 30
0.0
 10
117.7457844757719
 20
-148.6133232592876
 30
0.0
 10
117.7457844757719
 20
-148.4968790318862
 30
0.0
 10
117.8408691111648
 20
-148.4038614537844
 30
0.0
 10
117.955246281275
 20
-148.4038614537844
 30
0.0
 10
118.0696234513854
 20
-148.4038614537844
 30
0.0
 10
118.1647080867783
 20
-148.4968790318862
 30
0.0
 10
118.1647080867783
 20
-148.6133232592876
 30
0.0
  0
HATCH
  5
A0
330
8A
100
AcDbEntity
  8
レイヤー 1
 62
    18
420
        0
440
 33554687
100
AcDbHatch
 10
0.0
 20
0.0
 30
0.0
210
0.0
220
0.0
230
1.0
  2
SOLID
 70
     1
 71
     1
 91
        2
 92
        1
 93
        1
 72
     4
 94
        3
 73
     0
 74
     0
 95
       17
 96
       13
 40
0.0
 40
0.0
 40
0.0
 40
0.0
 40
1.0
 40
1.0
 40
1.0
 40
2.0
 40
2.0
 40
2.0
 40
3.0
 40
3.0
 40
3.0
 40
4.0
 40
4.0
 40
4.0
 40
4.0
 10
117.8494818498779
 20
-148.6133232592876
 10
117.8494818498779
 20
-148.6725789016339
 10
117.8959906389287
 20
-148.7190876906848
 10
117.955246281275
 20
-148.7190876906848
 10
118.0145019236213
 20
-148.7190876906848
 10
118.0630777699634
 20
-148.6725789016339
 10
118.0630777699634
 20
-148.6133232592876
 10
118.0630777699634
 20
-148.5540676169413
 10
118.0145019236213
 20
-148.5054917705993
 10
117.955246281275
 20
-148.5054917705993
 10
117.8959906389287
 20
-148.5054917705993
 10
117.8494818498779
 20
-148.5540676169413
 10
117.8494818498779
 20
-148.6133232592876
 97
        0
 97
        1
330
9E
 92
        1
 93
        1
 72
     4
 94
        3
 73
     0
 74
     0
 95
       17
 96
       13
 40
0.0
 40
0.0
 40
0.0
 40
0.0
 40
1.0
 40
1.0
 40
1.0
 40
2.0
 40
2.0
 40
2.0
 40
3.0
 40
3.0
 40
3.0
 40
4.0
 40
4.0
 40
4.0
 40
4.0
 10
118.1647080867783
 20
-148.6133232592876
 10
118.1647080867783
 20
-148.7275281746236
 10
118.0716905086765
 20
-148.8227850647908
 10
117.955246281275
 20
-148.8227850647908
 10
117.8408691111648
 20
-148.8227850647908
 10
117.7457844757719
 20
-148.7275281746236
 10
117.7457844757719
 20
-148.6133232592876
 10
117.7457844757719
 20
-148.4968790318862
 10
117.8408691111648
 20
-148.4038614537844
 10
117.955246281275
 20
-148.4038614537844
 10
118.0696234513854
 20
-148.4038614537844
 10
118.1647080867783
 20
-148.4968790318862
 10
118.1647080867783
 20
-148.6133232592876
 97
        0
 97
        1
330
9F
 75
     2
 76
     1
 98
        1
 10
0.0
 20
0.0
450
        0
451
        0
460
0.0
461
0.0
452
        0
462
0.0
453
        0
470

  0
ENDBLK
  5
8D
330
8A
100
AcDbEntity
  8
0
100
AcDbBlockEnd
  0
BLOCK
  5
A3
330
A1
100
AcDbEntity
  8
0
100
AcDbBlockBegin
  2
Block_4
 70
     0
 10
0.0
 20
0.0
 30
0.0
  3
Block_4
  1

  0
LINE
  5
A5
330
A1
100
AcDbEntity
  8
レイヤー 1
 62
    18
420
        0
370
    25
100
AcDbLine
 10
89.31659208870536
 20
-143.5884910702197
 30
0.0
 11
102.4171615668891
 21
-143.5884910702197
 31
0.0
  0
LINE
  5
A6
330
A1
100
AcDbEntity
  8
レイヤー 1
 62
    18
420
        0
370
    25
100
AcDbLine
 10
101.3174828173179
 20
-144.6884874310454
 30
0.0
 11
101.3174828173179
 21
-154.1883694109058
 31
0.0
  0
LINE
  5
A7
330
A1
100
AcDbEntity
  8
レイヤー 1
 62
    18
420
        0
370
    25
100
AcDbLine
 10
89.31729764426089
 20
-144.6884874310454
 30
0.0
 11
101.3174827060554
 21
-144.6884874310454
 31
0.0
  0
LINE
  5
A8
330
A1
100
AcDbEntity
  8
レイヤー 1
 62
    18
420
        0
370
    25
100
AcDbLine
 10
89.31729764426089
 20
-143.5884910702197
 30
0.0
 11
89.31729764426089
 21
-144.6884874310454
 31
0.0
  0
LINE
  5
A9
330
A1
100
AcDbEntity
  8
レイヤー 1
 62
    18
420
        0
370
    25
100
AcDbLine
 10
102.4171616781514
 20
-143.5884910702197
 30
0.0
 11
102.4171616781514
 21
-153.088690550072
 31
0.0
  0
LINE
  5
AA
330
A1
100
AcDbEntity
  8
レイヤー 1
 62
    18
420
        0
370
    25
100
AcDbLine
 10
118.3176318280521
 20
-153.088690550072
 30
0.0
 11
118.3176318280521
 21
-153.4886699843115
 31
0.0
  0
LINE
  5
AB
330
A1
100
AcDbEntity
  8
レイヤー 1
 62
    18
420
        0
370
    25
100
AcDbLine
 10
102.4171616781514
 20
-153.088690550072
 30
0.0
 11
118.3176318280521
 21
-153.088690550072
 31
0.0
  0
LINE
  5
AC
330
A1
100
AcDbEntity
  8
レイヤー 1
 62
    18
420
        0
370
    25
100
AcDbLine
 10
118.3176318280521
 20
-153.4886699843115
 30
0.0
 11
101.3174828173179
 21
-154.1883694109058
 31
0.0
  0
ENDBLK
  5
A4
330
A1
100
AcDbEntity
  8
0
100
AcDbBlockEnd
  0
BLOCK
  5
B9
330
B7
100
AcDbEntity
  8
0
100
AcDbBlockBegin
  2
Block_5
 70
     0
 10
0.0
 20
0.0
 30
0.0
  3
Block_5
  1

  0
INSERT
  5
BC
330
B7
100
AcDbEntity
  8
レイヤー 1
100
AcDbBlockReference
  2
Block_6
 10
0.0
 20
0.0
 30
0.0
  0
ENDBLK
  5
BA
330
B7
100
AcDbEntity
  8
0
100
AcDbBlockEnd
  0
BLOCK
  5
BD
330
BB
100
AcDbEntity
  8
0
100
AcDbBlockBegin
  2
Block_6
 70
     0
 10
0.0
 20
0.0
 30
0.0
  3
Block_6
  1

  0
SPLINE
  5
BF
330
BB
100
AcDbEntity
  8
レイヤー 1
100
AcDbSpline
210
0.0
220
0.0
230
1.0
 70
    11
 71
     3
 72
    26
 73
    22
 74
     0
 42
0.0000000001
 43
0.0000000001
 40
0.0
 40
0.0
 40
0.0
 40
0.0
 40
1.0
 40
1.0
 40
1.0
 40
2.0
 40
2.0
 40
2.0
 40
3.0
 40
3.0
 40
3.0
 40
4.0
 40
4.0
 40
4.0
 40
5.0
 40
5.0
 40
5.0
 40
6.0
 40
6.0
 40
6.0
 40
7.0
 40
7.0
 40
7.0
 40
7.0
 10
109.1795545516982
 20
-157.5421494831839
 30
0.0
 10
109.1795545516982
 20
-157.5421494831839
 30
0.0
 10
109.1795545516982
 20
-156.4379963801613
 30
0.0
 10
109.1795545516982
 20
-156.4379963801613
 30
0.0
 10
109.1795545516982
 20
-156.4379963801613
 30
0.0
 10
108.8495144042112
 20
-156.4379963801613
 30
0.0
 10
108.8495144042112
 20
-156.4379963801613
 30
0.0
 10
108.8495144042112
 20
-156.4379963801613
 30
0.0
 10
108.8495144042112
 20
-156.2898572742956
 30
0.0
 10
108.8495144042112
 20
-156.2898572742956
 30
0.0
 10
109.1816216089893
 20
-156.275043363709
 30
0.0
 10
109.2281303980402
 20
-156.1120903472567
 30
0.0
 10
109.2577582192133
 20
-155.9977131771464
 30
0.0
 10
109.2577582192133
 20
-155.9977131771464
 30
0.0
 10
109.4038302677879
 20
-155.9977131771464
 30
0.0
 10
109.4038302677879
 20
-155.9977131771464
 30
0.0
 10
109.4038302677879
 20
-155.9977131771464
 30
0.0
 10
109.4038302677879
 20
-157.5421494831839
 30
0.0
 10
109.4038302677879
 20
-157.5421494831839
 30
0.0
 10
109.4038302677879
 20
-157.5421494831839
 30
0.0
 10
109.1795545516982
 20
-157.5421494831839
 30
0.0
 10
109.1795545516982
 20
-157.5421494831839
 30
0.0
  0
HATCH
  5
C0
330
BB
100
AcDbEntity
  8
レイヤー 1
 62
    18
420
        0
440
 33554687
100
AcDbHatch
 10
0.0
 20
0.0
 30
0.0
210
0.0
220
0.0
230
1.0
  2
SOLID
 70
     1
 71
     1
 91
        1
 92
        1
 93
        1
 72
     4
 94
        3
 73
     0
 74
     0
 95
       26
 96
       22
 40
0.0
 40
0.0
 40
0.0
 40
0.0
 40
1.0
 40
1.0
 40
1.0
 40
2.0
 40
2.0
 40
2.0
 40
3.0
 40
3.0
 40
3.0
 40
4.0
 40
4.0
 40
4.0
 40
5.0
 40
5.0
 40
5.0
 40
6.0
 40
6.0
 40
6.0
 40
7.0
 40
7.0
 40
7.0
 40
7.0
 10
109.1795545516982
 20
-157.5421494831839
 10
109.1795545516982
 20
-157.5421494831839
 10
109.1795545516982
 20
-156.4379963801613
 10
109.1795545516982
 20
-156.4379963801613
 10
109.1795545516982
 20
-156.4379963801613
 10
108.8495144042112
 20
-156.4379963801613
 10
108.8495144042112
 20
-156.4379963801613
 10
108.8495144042112
 20
-156.4379963801613
 10
108.8495144042112
 20
-156.2898572742956
 10
108.8495144042112
 20
-156.2898572742956
 10
109.1816216089893
 20
-156.275043363709
 10
109.2281303980402
 20
-156.1120903472567
 10
109.2577582192133
 20
-155.9977131771464
 10
109.2577582192133
 20
-155.9977131771464
 10
109.4038302677879
 20
-155.9977131771464
 10
109.4038302677879
 20
-155.9977131771464
 10
109.4038302677879
 20
-155.9977131771464
 10
109.4038302677879
 20
-157.5421494831839
 10
109.4038302677879
 20
-157.5421494831839
 10
109.4038302677879
 20
-157.5421494831839
 10
109.1795545516982
 20
-157.5421494831839
 10
109.1795545516982
 20
-157.5421494831839
 97
        0
 97
        1
330
BF
 75
     2
 76
     1
 98
        1
 10
0.0
 20
0.0
450
        0
451
        0
460
0.0
461
0.0
452
        0
462
0.0
453
        0
470

  0
SPLINE
  5
C1
330
BB
100
AcDbEntity
  8
レイヤー 1
100
AcDbSpline
210
0.0
220
0.0
230
1.0
 70
     9
 71
     3
 72
    26
 73
    22
 74
     0
 42
0.0000000001
 43
0.0000000001
 40
0.0
 40
0.0
 40
0.0
 40
0.0
 40
1.0
 40
1.0
 40
1.0
 40
2.0
 40
2.0
 40
2.0
 40
3.0
 40
3.0
 40
3.0
 40
4.0
 40
4.0
 40
4.0
 40
5.0
 40
5.0
 40
5.0
 40
6.0
 40
6.0
 40
6.0
 40
7.0
 40
7.0
 40
7.0
 40
7.0
 10
110.3160915522821
 20
-157.5421494831839
 30
0.0
 10
110.3160915522821
 20
-157.5421494831839
 30
0.0
 10
110.0790689828969
 20
-157.5421494831839
 30
0.0
 10
110.0790689828969
 20
-157.5421494831839
 30
0.0
 10
110.1045626894877
 20
-157.233124418157
 30
0.0
 10
110.2971435271132
 20
-156.7149820571754
 30
0.0
 10
110.7033202848241
 20
-156.2092420399407
 30
0.0
 10
110.7033202848241
 20
-156.2092420399407
 30
0.0
 10
109.8654730628114
 20
-156.2092420399407
 30
0.0
 10
109.8654730628114
 20
-156.2092420399407
 30
0.0
 10
109.8654730628114
 20
-156.2092420399407
 30
0.0
 10
109.8654730628114
 20
-155.9977131771464
 30
0.0
 10
109.8654730628114
 20
-155.9977131771464
 30
0.0
 10
109.8654730628114
 20
-155.9977131771464
 30
0.0
 10
110.9403428542093
 20
-155.9977131771464
 30
0.0
 10
110.9403428542093
 20
-155.9977131771464
 30
0.0
 10
110.9403428542093
 20
-155.9977131771464
 30
0.0
 10
110.9403428542093
 20
-156.2092420399407
 30
0.0
 10
110.9403428542093
 20
-156.2092420399407
 30
0.0
 10
110.6165038785958
 20
-156.4993190797988
 30
0.0
 10
110.3498534880375
 20
-157.0915309937132
 30
0.0
 10
110.3160915522821
 20
-157.5421494831839
 30
0.0
  0
HATCH
  5
C2
330
BB
100
AcDbEntity
  8
レイヤー 1
 62
    18
420
        0
440
 33554687
100
AcDbHatch
 10
0.0
 20
0.0
 30
0.0
210
0.0
220
0.0
230
1.0
  2
SOLID
 70
     1
 71
     1
 91
        1
 92
        1
 93
        1
 72
     4
 94
        3
 73
     0
 74
     0
 95
       26
 96
       22
 40
0.0
 40
0.0
 40
0.0
 40
0.0
 40
1.0
 40
1.0
 40
1.0
 40
2.0
 40
2.0
 40
2.0
 40
3.0
 40
3.0
 40
3.0
 40
4.0
 40
4.0
 40
4.0
 40
5.0
 40
5.0
 40
5.0
 40
6.0
 40
6.0
 40
6.0
 40
7.0
 40
7.0
 40
7.0
 40
7.0
 10
110.3160915522821
 20
-157.5421494831839
 10
110.3160915522821
 20
-157.5421494831839
 10
110.0790689828969
 20
-157.5421494831839
 10
110.0790689828969
 20
-157.5421494831839
 10
110.1045626894877
 20
-157.233124418157
 10
110.2971435271132
 20
-156.7149820571754
 10
110.7033202848241
 20
-156.2092420399407
 10
110.7033202848241
 20
-156.2092420399407
 10
109.8654730628114
 20
-156.2092420399407
 10
109.8654730628114
 20
-156.2092420399407
 10
109.8654730628114
 20
-156.2092420399407
 10
109.8654730628114
 20
-155.9977131771464
 10
109.8654730628114
 20
-155.9977131771464
 10
109.8654730628114
 20
-155.9977131771464
 10
110.9403428542093
 20
-155.9977131771464
 10
110.9403428542093
 20
-155.9977131771464
 10
110.9403428542093
 20
-155.9977131771464
 10
110.9403428542093
 20
-156.2092420399407
 10
110.9403428542093
 20
-156.2092420399407
 10
110.6165038785958
 20
-156.4993190797988
 10
110.3498534880375
 20
-157.0915309937132
 10
110.3160915522821
 20
-157.5421494831839
 97
        0
 97
        1
330
C1
 75
     2
 76
     1
 98
        1
 10
0.0
 20
0.0
450
        0
451
        0
460
0.0
461
0.0
452
        0
462
0.0
453
        0
470

  0
ENDBLK
  5
BE
330
BB
100
AcDbEntity
  8
0
100
AcDbBlockEnd
  0
BLOCK
  5
C9
330
C7
100
AcDbEntity
  8
0
100
AcDbBlockBegin
  2
Block_7
 70
     0
 10
0.0
 20
0.0
 30
0.0
  3
Block_7
  1

  0
INSERT
  5
CC
330
C7
100
AcDbEntity
  8
レイヤー 1
100
AcDbBlockReference
  2
Block_8
 10
0.0
 20
0.0
 30
0.0
  0
ENDBLK
  5
CA
330
C7
100
AcDbEntity
  8
0
100
AcDbBlockEnd
  0
BLOCK
  5
CD
330
CB
100
AcDbEntity
  8
0
100
AcDbBlockBegin
  2
Block_8
 70
     0
 10
0.0
 20
0.0
 30
0.0
  3
Block_8
  1

  0
SPLINE
  5
CF
330
CB
100
AcDbEntity
  8
レイヤー 1
100
AcDbSpline
210
0.0
220
0.0
230
1.0
 70
    11
 71
     3
 72
    26
 73
    22
 74
     0
 42
0.0000000001
 43
0.0000000001
 40
0.0
 40
0.0
 40
0.0
 40
0.0
 40
1.0
 40
1.0
 40
1.0
 40
2.0
 40
2.0
 40
2.0
 40
3.0
 40
3.0
 40
3.0
 40
4.0
 40
4.0
 40
4.0
 40
5.0
 40
5.0
 40
5.0
 40
6.0
 40
6.0
 40
6.0
 40
7.0
 40
7.0
 40
7.0
 40
7.0
 10
86.30377602009073
 20
-142.4998290659375
 30
0.0
 10
86.30377602009073
 20
-142.4998290659375
 30
0.0
 10
85.19962291706816
 20
-142.4998290659375
 30
0.0
 10
85.19962291706816
 20
-142.4998290659375
 30
0.0
 10
85.19962291706816
 20
-142.4998290659375
 30
0.0
 10
85.19962291706816
 20
-142.8298692134244
 30
0.0
 10
85.19962291706816
 20
-142.8298692134244
 30
0.0
 10
85.19962291706816
 20
-142.8298692134244
 30
0.0
 10
85.05148381120241
 20
-142.8298692134244
 30
0.0
 10
85.05148381120241
 20
-142.8298692134244
 30
0.0
 10
85.03666990061583
 20
-142.4977620086464
 30
0.0
 10
84.87371688416351
 20
-142.4512532195955
 30
0.0
 10
84.75933971405323
 20
-142.4216253984224
 30
0.0
 10
84.75933971405323
 20
-142.4216253984224
 30
0.0
 10
84.75933971405323
 20
-142.2755533498478
 30
0.0
 10
84.75933971405323
 20
-142.2755533498478
 30
0.0
 10
84.75933971405323
 20
-142.2755533498478
 30
0.0
 10
86.30377602009073
 20
-142.2755533498478
 30
0.0
 10
86.30377602009073
 20
-142.2755533498478
 30
0.0
 10
86.30377602009073
 20
-142.2755533498478
 30
0.0
 10
86.30377602009073
 20
-142.4998290659375
 30
0.0
 10
86.30377602009073
 20
-142.4998290659375
 30
0.0
  0
HATCH
  5
D0
330
CB
100
AcDbEntity
  8
レイヤー 1
 62
    18
420
        0
440
 33554687
100
AcDbHatch
 10
0.0
 20
0.0
 30
0.0
210
0.0
220
0.0
230
1.0
  2
SOLID
 70
     1
 71
     1
 91
        1
 92
        1
 93
        1
 72
     4
 94
        3
 73
     0
 74
     0
 95
       26
 96
       22
 40
0.0
 40
0.0
 40
0.0
 40
0.0
 40
1.0
 40
1.0
 40
1.0
 40
2.0
 40
2.0
 40
2.0
 40
3.0
 40
3.0
 40
3.0
 40
4.0
 40
4.0
 40
4.0
 40
5.0
 40
5.0
 40
5.0
 40
6.0
 40
6.0
 40
6.0
 40
7.0
 40
7.0
 40
7.0
 40
7.0
 10
86.30377602009073
 20
-142.4998290659375
 10
86.30377602009073
 20
-142.4998290659375
 10
85.19962291706816
 20
-142.4998290659375
 10
85.19962291706816
 20
-142.4998290659375
 10
85.19962291706816
 20
-142.4998290659375
 10
85.19962291706816
 20
-142.8298692134244
 10
85.19962291706816
 20
-142.8298692134244
 10
85.19962291706816
 20
-142.8298692134244
 10
85.05148381120241
 20
-142.8298692134244
 10
85.05148381120241
 20
-142.8298692134244
 10
85.03666990061583
 20
-142.4977620086464
 10
84.87371688416351
 20
-142.4512532195955
 10
84.75933971405323
 20
-142.4216253984224
 10
84.75933971405323
 20
-142.4216253984224
 10
84.75933971405323
 20
-142.2755533498478
 10
84.75933971405323
 20
-142.2755533498478
 10
84.75933971405323
 20
-142.2755533498478
 10
86.30377602009073
 20
-142.2755533498478
 10
86.30377602009073
 20
-142.2755533498478
 10
86.30377602009073
 20
-142.2755533498478
 10
86.30377602009073
 20
-142.4998290659375
 10
86.30377602009073
 20
-142.4998290659375
 97
        0
 97
        1
330
CF
 75
     2
 76
     1
 98
        1
 10
0.0
 20
0.0
450
        0
451
        0
460
0.0
461
0.0
452
        0
462
0.0
453
        0
470

  0
SPLINE
  5
D1
330
CB
100
AcDbEntity
  8
レイヤー 1
100
AcDbSpline
210
0.0
220
0.0
230
1.0
 70
    11
 71
     3
 72
    17
 73
    13
 74
     0
 42
0.0000000001
 43
0.0000000001
 40
0.0
 40
0.0
 40
0.0
 40
0.0
 40
1.0
 40
1.0
 40
1.0
 40
2.0
 40
2.0
 40
2.0
 40
3.0
 40
3.0
 40
3.0
 40
4.0
 40
4.0
 40
4.0
 40
4.0
 10
86.30377602009073
 20
-141.7143472953006
 30
0.0
 10
86.30377602009073
 20
-141.7143472953006
 30
0.0
 10
86.05193954011896
 20
-141.7143472953006
 30
0.0
 10
86.05193954011896
 20
-141.7143472953006
 30
0.0
 10
86.05193954011896
 20
-141.7143472953006
 30
0.0
 10
86.05193954011896
 20
-141.4625108153288
 30
0.0
 10
86.05193954011896
 20
-141.4625108153288
 30
0.0
 10
86.05193954011896
 20
-141.4625108153288
 30
0.0
 10
86.30377602009073
 20
-141.4625108153288
 30
0.0
 10
86.30377602009073
 20
-141.4625108153288
 30
0.0
 10
86.30377602009073
 20
-141.4625108153288
 30
0.0
 10
86.30377602009073
 20
-141.7143472953006
 30
0.0
 10
86.30377602009073
 20
-141.7143472953006
 30
0.0
  0
HATCH
  5
D2
330
CB
100
AcDbEntity
  8
レイヤー 1
 62
    18
420
        0
440
 33554687
100
AcDbHatch
 10
0.0
 20
0.0
 30
0.0
210
0.0
220
0.0
230
1.0
  2
SOLID
 70
     1
 71
     1
 91
        1
 92
        1
 93
        1
 72
     4
 94
        3
 73
     0
 74
     0
 95
       17
 96
       13
 40
0.0
 40
0.0
 40
0.0
 40
0.0
 40
1.0
 40
1.0
 40
1.0
 40
2.0
 40
2.0
 40
2.0
 40
3.0
 40
3.0
 40
3.0
 40
4.0
 40
4.0
 40
4.0
 40
4.0
 10
86.30377602009073
 20
-141.7143472953006
 10
86.30377602009073
 20
-141.7143472953006
 10
86.05193954011896
 20
-141.7143472953006
 10
86.05193954011896
 20
-141.7143472953006
 10
86.05193954011896
 20
-141.7143472953006
 10
86.05193954011896
 20
-141.4625108153288
 10
86.05193954011896
 20
-141.4625108153288
 10
86.05193954011896
 20
-141.4625108153288
 10
86.30377602009073
 20
-141.4625108153288
 10
86.30377602009073
 20
-141.4625108153288
 10
86.30377602009073
 20
-141.4625108153288
 10
86.30377602009073
 20
-141.7143472953006
 10
86.30377602009073
 20
-141.7143472953006
 97
        0
 97
        1
330
D1
 75
     2
 76
     1
 98
        1
 10
0.0
 20
0.0
450
        0
451
        0
460
0.0
461
0.0
452
        0
462
0.0
453
        0
470

  0
SPLINE
  5
D3
330
CB
100
AcDbEntity
  8
レイヤー 1
100
AcDbSpline
210
0.0
220
0.0
230
1.0
 70
    11
 71
     3
 72
    26
 73
    22
 74
     0
 42
0.0000000001
 43
0.0000000001
 40
0.0
 40
0.0
 40
0.0
 40
0.0
 40
1.0
 40
1.0
 40
1.0
 40
2.0
 40
2.0
 40
2.0
 40
3.0
 40
3.0
 40
3.0
 40
4.0
 40
4.0
 40
4.0
 40
5.0
 40
5.0
 40
5.0
 40
6.0
 40
6.0
 40
6.0
 40
7.0
 40
7.0
 40
7.0
 40
7.0
 10
86.30377602009073
 20
-140.7748697564729
 30
0.0
 10
86.30377602009073
 20
-140.7748697564729
 30
0.0
 10
85.19962291706816
 20
-140.7748697564729
 30
0.0
 10
85.19962291706816
 20
-140.7748697564729
 30
0.0
 10
85.19962291706816
 20
-140.7748697564729
 30
0.0
 10
85.19962291706816
 20
-141.1049099039598
 30
0.0
 10
85.19962291706816
 20
-141.1049099039598
 30
0.0
 10
85.19962291706816
 20
-141.1049099039598
 30
0.0
 10
85.05148381120241
 20
-141.1049099039598
 30
0.0
 10
85.05148381120241
 20
-141.1049099039598
 30
0.0
 10
85.03666990061583
 20
-140.7728026991818
 30
0.0
 10
84.87371688416351
 20
-140.7262939101309
 30
0.0
 10
84.75933971405323
 20
-140.6966660889578
 30
0.0
 10
84.75933971405323
 20
-140.6966660889578
 30
0.0
 10
84.75933971405323
 20
-140.5505940403832
 30
0.0
 10
84.75933971405323
 20
-140.5505940403832
 30
0.0
 10
84.75933971405323
 20
-140.5505940403832
 30
0.0
 10
86.30377602009073
 20
-140.5505940403832
 30
0.0
 10
86.30377602009073
 20
-140.5505940403832
 30
0.0
 10
86.30377602009073
 20
-140.5505940403832
 30
0.0
 10
86.30377602009073
 20
-140.7748697564729
 30
0.0
 10
86.30377602009073
 20
-140.7748697564729
 30
0.0
  0
HATCH
  5
D4
330
CB
100
AcDbEntity
  8
レイヤー 1
 62
    18
420
        0
440
 33554687
100
AcDbHatch
 10
0.0
 20
0.0
 30
0.0
210
0.0
220
0.0
230
1.0
  2
SOLID
 70
     1
 71
     1
 91
        1
 92
        1
 93
        1
 72
     4
 94
        3
 73
     0
 74
     0
 95
       26
 96
       22
 40
0.0
 40
0.0
 40
0.0
 40
0.0
 40
1.0
 40
1.0
 40
1.0
 40
2.0
 40
2.0
 40
2.0
 40
3.0
 40
3.0
 40
3.0
 40
4.0
 40
4.0
 40
4.0
 40
5.0
 40
5.0
 40
5.0
 40
6.0
 40
6.0
 40
6.0
 40
7.0
 40
7.0
 40
7.0
 40
7.0
 10
86.30377602009073
 20
-140.7748697564729
 10
86.30377602009073
 20
-140.7748697564729
 10
85.19962291706816
 20
-140.7748697564729
 10
85.19962291706816
 20
-140.7748697564729
 10
85.19962291706816
 20
-140.7748697564729
 10
85.19962291706816
 20
-141.1049099039598
 10
85.19962291706816
 20
-141.1049099039598
 10
85.19962291706816
 20
-141.1049099039598
 10
85.05148381120241
 20
-141.1049099039598
 10
85.05148381120241
 20
-141.1049099039598
 10
85.03666990061583
 20
-140.7728026991818
 10
84.87371688416351
 20
-140.7262939101309
 10
84.75933971405323
 20
-140.6966660889578
 10
84.75933971405323
 20
-140.6966660889578
 10
84.75933971405323
 20
-140.5505940403832
 10
84.75933971405323
 20
-140.5505940403832
 10
84.75933971405323
 20
-140.5505940403832
 10
86.30377602009073
 20
-140.5505940403832
 10
86.30377602009073
 20
-140.5505940403832
 10
86.30377602009073
 20
-140.5505940403832
 10
86.30377602009073
 20
-140.7748697564729
 10
86.30377602009073
 20
-140.7748697564729
 97
        0
 97
        1
330
D3
 75
     2
 76
     1
 98
        1
 10
0.0
 20
0.0
450
        0
451
        0
460
0.0
461
0.0
452
        0
462
0.0
453
        0
470

  0
ENDBLK
  5
CE
330
CB
100
AcDbEntity
  8
0
100
AcDbBlockEnd
  0
BLOCK
  5
DA
330
D8
100
AcDbEntity
  8
0
100
AcDbBlockBegin
  2
Block_9
 70
     0
 10
0.0
 20
0.0
 30
0.0
  3
Block_9
  1

  0
INSERT
  5
DD
330
D8
100
AcDbEntity
  8
レイヤー 1
100
AcDbBlockReference
  2
Block_10
 10
0.0
 20
0.0
 30
0.0
  0
ENDBLK
  5
DB
330
D8
100
AcDbEntity
  8
0
100
AcDbBlockEnd
  0
BLOCK
  5
DE
330
DC
100
AcDbEntity
  8
0
100
AcDbBlockBegin
  2
Block_10
 70
     0
 10
0.0
 20
0.0
 30
0.0
  3
Block_10
  1

  0
SPLINE
  5
E0
330
DC
100
AcDbEntity
  8
レイヤー 1
100
AcDbSpline
210
0.0
220
0.0
230
1.0
 70
    11
 71
     3
 72
    26
 73
    22
 74
     0
 42
0.0000000001
 43
0.0000000001
 40
0.0
 40
0.0
 40
0.0
 40
0.0
 40
1.0
 40
1.0
 40
1.0
 40
2.0
 40
2.0
 40
2.0
 40
3.0
 40
3.0
 40
3.0
 40
4.0
 40
4.0
 40
4.0
 40
5.0
 40
5.0
 40
5.0
 40
6.0
 40
6.0
 40
6.0
 40
7.0
 40
7.0
 40
7.0
 40
7.0
 10
94.67949216383013
 20
-157.5424939927324
 30
0.0
 10
94.67949216383013
 20
-157.5424939927324
 30
0.0
 10
94.67949216383013
 20
-156.4383408897098
 30
0.0
 10
94.67949216383013
 20
-156.4383408897098
 30
0.0
 10
94.67949216383013
 20
-156.4383408897098
 30
0.0
 10
94.34945201634318
 20
-156.4383408897098
 30
0.0
 10
94.34945201634318
 20
-156.4383408897098
 30
0.0
 10
94.34945201634318
 20
-156.4383408897098
 30
0.0
 10
94.34945201634318
 20
-156.2902017838441
 30
0.0
 10
94.34945201634318
 20
-156.2902017838441
 30
0.0
 10
94.68155922112128
 20
-156.2753878732575
 30
0.0
 10
94.72806801017215
 20
-156.1124348568052
 30
0.0
 10
94.7576958313453
 20
-155.9980576866949
 30
0.0
 10
94.7576958313453
 20
-155.9980576866949
 30
0.0
 10
94.90376787991989
 20
-155.9980576866949
 30
0.0
 10
94.90376787991989
 20
-155.9980576866949
 30
0.0
 10
94.90376787991989
 20
-155.9980576866949
 30
0.0
 10
94.90376787991989
 20
-157.5424939927324
 30
0.0
 10
94.90376787991989
 20
-157.5424939927324
 30
0.0
 10
94.90376787991989
 20
-157.5424939927324
 30
0.0
 10
94.67949216383013
 20
-157.5424939927324
 30
0.0
 10
94.67949216383013
 20
-157.5424939927324
 30
0.0
  0
HATCH
  5
E1
330
DC
100
AcDbEntity
  8
レイヤー 1
 62
    18
420
        0
440
 33554687
100
AcDbHatch
 10
0.0
 20
0.0
 30
0.0
210
0.0
220
0.0
230
1.0
  2
SOLID
 70
     1
 71
     1
 91
        1
 92
        1
 93
        1
 72
     4
 94
        3
 73
     0
 74
     0
 95
       26
 96
       22
 40
0.0
 40
0.0
 40
0.0
 40
0.0
 40
1.0
 40
1.0
 40
1.0
 40
2.0
 40
2.0
 40
2.0
 40
3.0
 40
3.0
 40
3.0
 40
4.0
 40
4.0
 40
4.0
 40
5.0
 40
5.0
 40
5.0
 40
6.0
 40
6.0
 40
6.0
 40
7.0
 40
7.0
 40
7.0
 40
7.0
 10
94.67949216383013
 20
-157.5424939927324
 10
94.67949216383013
 20
-157.5424939927324
 10
94.67949216383013
 20
-156.4383408897098
 10
94.67949216383013
 20
-156.4383408897098
 10
94.67949216383013
 20
-156.4383408897098
 10
94.34945201634318
 20
-156.4383408897098
 10
94.34945201634318
 20
-156.4383408897098
 10
94.34945201634318
 20
-156.4383408897098
 10
94.34945201634318
 20
-156.2902017838441
 10
94.34945201634318
 20
-156.2902017838441
 10
94.68155922112128
 20
-156.2753878732575
 10
94.72806801017215
 20
-156.1124348568052
 10
94.7576958313453
 20
-155.9980576866949
 10
94.7576958313453
 20
-155.9980576866949
 10
94.90376787991989
 20
-155.9980576866949
 10
94.90376787991989
 20
-155.9980576866949
 10
94.90376787991989
 20
-155.9980576866949
 10
94.90376787991989
 20
-157.5424939927324
 10
94.90376787991989
 20
-157.5424939927324
 10
94.90376787991989
 20
-157.5424939927324
 10
94.67949216383013
 20
-157.5424939927324
 10
94.67949216383013
 20
-157.5424939927324
 97
        0
 97
        1
330
E0
 75
     2
 76
     1
 98
        1
 10
0.0
 20
0.0
450
        0
451
        0
460
0.0
461
0.0
452
        0
462
0.0
453
        0
470

  0
SPLINE
  5
E2
330
DC
100
AcDbEntity
  8
レイヤー 1
100
AcDbSpline
210
0.0
220
0.0
230
1.0
 70
     9
 71
     3
 72
    44
 73
    40
 74
     0
 42
0.0000000001
 43
0.0000000001
 40
0.0
 40
0.0
 40
0.0
 40
0.0
 40
1.0
 40
1.0
 40
1.0
 40
2.0
 40
2.0
 40
2.0
 40
3.0
 40
3.0
 40
3.0
 40
4.0
 40
4.0
 40
4.0
 40
5.0
 40
5.0
 40
5.0
 40
6.0
 40
6.0
 40
6.0
 40
7.0
 40
7.0
 40
7.0
 40
8.0
 40
8.0
 40
8.0
 40
9.0
 40
9.0
 40
9.0
 40
10.0
 40
10.0
 40
10.0
 40
11.0
 40
11.0
 40
11.0
 40
12.0
 40
12.0
 40
12.0
 40
13.0
 40
13.0
 40
13.0
 40
13.0
 10
95.9981024608095
 20
-156.9606173652737
 30
0.0
 10
95.78020017136745
 20
-157.1194362671437
 30
0.0
 10
95.68701033849144
 20
-157.1935058200766
 30
0.0
 10
95.63843449214942
 20
-157.3371663018115
 30
0.0
 10
95.63843449214942
 20
-157.3371663018115
 30
0.0
 10
96.41685381704164
 20
-157.3371663018115
 30
0.0
 10
96.41685381704164
 20
-157.3371663018115
 30
0.0
 10
96.41685381704164
 20
-157.3371663018115
 30
0.0
 10
96.41685381704164
 20
-157.5424939927324
 30
0.0
 10
96.41685381704164
 20
-157.5424939927324
 30
0.0
 10
96.41685381704164
 20
-157.5424939927324
 30
0.0
 10
95.38883732424308
 20
-157.5424939927324
 30
0.0
 10
95.38883732424308
 20
-157.5424939927324
 30
0.0
 10
95.42053220270737
 20
-157.1848930813635
 30
0.0
 10
95.48616127170138
 20
-157.1066894138483
 30
0.0
 10
95.87115069217805
 20
-156.8083441448257
 30
0.0
 10
96.12712128673212
 20
-156.6095621353268
 30
0.0
 10
96.19257810095186
 20
-156.5416937542673
 30
0.0
 10
96.19257810095186
 20
-156.4042344444059
 30
0.0
 10
96.19257810095186
 20
-156.2857231597133
 30
0.0
 10
96.12074786008442
 20
-156.1548095312738
 30
0.0
 10
95.92403290787663
 20
-156.1548095312738
 30
0.0
 10
95.66375594396602
 20
-156.1548095312738
 30
0.0
 10
95.65531546002715
 20
-156.385286419237
 30
0.0
 10
95.65100909067059
 20
-156.5017306466384
 30
0.0
 10
95.65100909067059
 20
-156.5017306466384
 30
0.0
 10
95.4269056293551
 20
-156.5017306466384
 30
0.0
 10
95.4269056293551
 20
-156.5017306466384
 30
0.0
 10
95.43534611329395
 20
-156.3746066232327
 30
0.0
 10
95.44585365452396
 20
-156.2626410199621
 30
0.0
 10
95.52629663410455
 20
-156.1441297352695
 30
0.0
 10
95.63619518008401
 20
-155.9832437761083
 30
0.0
 10
95.82240259106177
 20
-155.9494818403529
 30
0.0
 10
95.9388468184632
 20
-155.9494818403529
 30
0.0
 10
96.21600475025156
 20
-155.9494818403529
 30
0.0
 10
96.42322724368934
 20
-156.1334499392652
 30
0.0
 10
96.42322724368934
 20
-156.406301501697
 30
0.0
 10
96.42322724368934
 20
-156.6350558419176
 30
0.0
 10
96.30695527106215
 20
-156.7342745918928
 30
0.0
 10
95.9981024608095
 20
-156.9606173652737
 30
0.0
  0
HATCH
  5
E3
330
DC
100
AcDbEntity
  8
レイヤー 1
 62
    18
420
        0
440
 33554687
100
AcDbHatch
 10
0.0
 20
0.0
 30
0.0
210
0.0
220
0.0
230
1.0
  2
SOLID
 70
     1
 71
     1
 91
        1
 92
        1
 93
        1
 72
     4
 94
        3
 73
     0
 74
     0
 95
       44
 96
       40
 40
0.0
 40
0.0
 40
0.0
 40
0.0
 40
1.0
 40
1.0
 40
1.0
 40
2.0
 40
2.0
 40
2.0
 40
3.0
 40
3.0
 40
3.0
 40
4.0
 40
4.0
 40
4.0
 40
5.0
 40
5.0
 40
5.0
 40
6.0
 40
6.0
 40
6.0
 40
7.0
 40
7.0
 40
7.0
 40
8.0
 40
8.0
 40
8.0
 40
9.0
 40
9.0
 40
9.0
 40
10.0
 40
10.0
 40
10.0
 40
11.0
 40
11.0
 40
11.0
 40
12.0
 40
12.0
 40
12.0
 40
13.0
 40
13.0
 40
13.0
 40
13.0
 10
95.9981024608095
 20
-156.9606173652737
 10
95.78020017136745
 20
-157.1194362671437
 10
95.68701033849144
 20
-157.1935058200766
 10
95.63843449214942
 20
-157.3371663018115
 10
95.63843449214942
 20
-157.3371663018115
 10
96.41685381704164
 20
-157.3371663018115
 10
96.41685381704164
 20
-157.3371663018115
 10
96.41685381704164
 20
-157.3371663018115
 10
96.41685381704164
 20
-157.5424939927324
 10
96.41685381704164
 20
-157.5424939927324
 10
96.41685381704164
 20
-157.5424939927324
 10
95.38883732424308
 20
-157.5424939927324
 10
95.38883732424308
 20
-157.5424939927324
 10
95.42053220270737
 20
-157.1848930813635
 10
95.48616127170138
 20
-157.1066894138483
 10
95.87115069217805
 20
-156.8083441448257
 10
96.12712128673212
 20
-156.6095621353268
 10
96.19257810095186
 20
-156.5416937542673
 10
96.19257810095186
 20
-156.4042344444059
 10
96.19257810095186
 20
-156.2857231597133
 10
96.12074786008442
 20
-156.1548095312738
 10
95.92403290787663
 20
-156.1548095312738
 10
95.66375594396602
 20
-156.1548095312738
 10
95.65531546002715
 20
-156.385286419237
 10
95.65100909067059
 20
-156.5017306466384
 10
95.65100909067059
 20
-156.5017306466384
 10
95.4269056293551
 20
-156.5017306466384
 10
95.4269056293551
 20
-156.5017306466384
 10
95.43534611329395
 20
-156.3746066232327
 10
95.44585365452396
 20
-156.2626410199621
 10
95.52629663410455
 20
-156.1441297352695
 10
95.63619518008401
 20
-155.9832437761083
 10
95.82240259106177
 20
-155.9494818403529
 10
95.9388468184632
 20
-155.9494818403529
 10
96.21600475025156
 20
-155.9494818403529
 10
96.42322724368934
 20
-156.1334499392652
 10
96.42322724368934
 20
-156.406301501697
 10
96.42322724368934
 20
-156.6350558419176
 10
96.30695527106215
 20
-156.7342745918928
 10
95.9981024608095
 20
-156.9606173652737
 97
        0
 97
        1
330
E2
 75
     2
 76
     1
 98
        1
 10
0.0
 20
0.0
450
        0
451
        0
460
0.0
461
0.0
452
        0
462
0.0
453
        0
470

  0
ENDBLK
  5
DF
330
DC
100
AcDbEntity
  8
0
100
AcDbBlockEnd
  0
BLOCK
  5
E9
330
E7
100
AcDbEntity
  8
0
100
AcDbBlockBegin
  2
Block_11
 70
     0
 10
0.0
 20
0.0
 30
0.0
  3
Block_11
  1

  0
INSERT
  5
EC
330
E7
100
AcDbEntity
  8
レイヤー 1
100
AcDbBlockReference
  2
Block_12
 10
0.0
 20
0.0
 30
0.0
  0
ENDBLK
  5
EA
330
E7
100
AcDbEntity
  8
0
100
AcDbBlockEnd
  0
BLOCK
  5
ED
330
EB
100
AcDbEntity
  8
0
100
AcDbBlockBegin
  2
Block_12
 70
     0
 10
0.0
 20
0.0
 30
0.0
  3
Block_12
  1

  0
SPLINE
  5
EF
330
EB
100
AcDbEntity
  8
レイヤー 1
100
AcDbSpline
210
0.0
220
0.0
230
1.0
 70
     9
 71
     3
 72
    17
 73
    13
 74
     0
 42
0.0000000001
 43
0.0000000001
 40
0.0
 40
0.0
 40
0.0
 40
0.0
 40
1.0
 40
1.0
 40
1.0
 40
2.0
 40
2.0
 40
2.0
 40
3.0
 40
3.0
 40
3.0
 40
4.0
 40
4.0
 40
4.0
 40
4.0
 10
120.2713839760085
 20
-149.2036403706852
 30
0.0
 10
120.2713839760085
 20
-149.3221516553778
 30
0.0
 10
120.3285725610637
 20
-149.4978515251255
 30
0.0
 10
120.6141709767909
 20
-149.4978515251255
 30
0.0
 10
120.8405137501718
 20
-149.4978515251255
 30
0.0
 10
120.9355983855647
 20
-149.3579806484244
 30
0.0
 10
120.9355983855647
 20
-149.222588395854
 30
0.0
 10
120.9355983855647
 20
-148.9604166294265
 30
0.0
 10
120.7261365800615
 20
-148.9221760695403
 30
0.0
 10
120.6096923526601
 20
-148.9221760695403
 30
0.0
 10
120.4343369924608
 20
-148.9221760695403
 30
0.0
 10
120.2713839760085
 20
-149.0176052144817
 30
0.0
 10
120.2713839760085
 20
-149.2036403706852
 30
0.0
  0
SPLINE
  5
F0
330
EB
100
AcDbEntity
  8
レイヤー 1
100
AcDbSpline
210
0.0
220
0.0
230
1.0
 70
     9
 71
     3
 72
    32
 73
    28
 74
     0
 42
0.0000000001
 43
0.0000000001
 40
0.0
 40
0.0
 40
0.0
 40
0.0
 40
1.0
 40
1.0
 40
1.0
 40
2.0
 40
2.0
 40
2.0
 40
3.0
 40
3.0
 40
3.0
 40
4.0
 40
4.0
 40
4.0
 40
5.0
 40
5.0
 40
5.0
 40
6.0
 40
6.0
 40
6.0
 40
7.0
 40
7.0
 40
7.0
 40
8.0
 40
8.0
 40
8.0
 40
9.0
 40
9.0
 40
9.0
 40
9.0
 10
121.7224581943957
 20
-149.2439479878626
 30
0.0
 10
121.7224581943957
 20
-149.4172362907707
 30
0.0
 10
121.6528672655937
 20
-149.662871598869
 30
0.0
 10
121.3207600608156
 20
-149.7007676492067
 30
0.0
 10
121.3207600608156
 20
-149.7007676492067
 30
0.0
 10
121.3207600608156
 20
-149.4871717291212
 30
0.0
 10
121.3207600608156
 20
-149.4871717291212
 30
0.0
 10
121.3800157031619
 20
-149.476491933117
 30
0.0
 10
121.5278102994791
 20
-149.4447970546527
 30
0.0
 10
121.5278102994791
 20
-149.2418809305715
 30
0.0
 10
121.5278102994791
 20
-148.9497368334223
 30
0.0
 10
121.1977701519922
 20
-148.9118407830845
 30
0.0
 10
120.9927869706198
 20
-148.8990939297891
 30
0.0
 10
121.0730576954262
 20
-148.9900444505997
 30
0.0
 10
121.1302462804813
 20
-149.0575683221106
 30
0.0
 10
121.1302462804813
 20
-149.2394693637318
 30
0.0
 10
121.1302462804813
 20
-149.4193033480618
 30
0.0
 10
121.0244818490841
 20
-149.7217827316668
 30
0.0
 10
120.6183050913732
 20
-149.7217827316668
 30
0.0
 10
120.2989447398905
 20
-149.7217827316668
 30
0.0
 10
120.0788031383831
 20
-149.5230007221678
 30
0.0
 10
120.0788031383831
 20
-149.2057074279763
 30
0.0
 10
120.0788031383831
 20
-148.6916991815771
 30
0.0
 10
120.6331190019598
 20
-148.6810193855728
 30
0.0
 10
120.8467149220452
 20
-148.6810193855728
 30
0.0
 10
121.0771918100085
 20
-148.6810193855728
 30
0.0
 10
121.7224581943957
 20
-148.7003119202902
 30
0.0
 10
121.7224581943957
 20
-149.2439479878626
 30
0.0
  0
HATCH
  5
F1
330
EB
100
AcDbEntity
  8
レイヤー 1
 62
    18
420
        0
440
 33554687
100
AcDbHatch
 10
0.0
 20
0.0
 30
0.0
210
0.0
220
0.0
230
1.0
  2
SOLID
 70
     1
 71
     1
 91
        2
 92
        1
 93
        1
 72
     4
 94
        3
 73
     0
 74
     0
 95
       17
 96
       13
 40
0.0
 40
0.0
 40
0.0
 40
0.0
 40
1.0
 40
1.0
 40
1.0
 40
2.0
 40
2.0
 40
2.0
 40
3.0
 40
3.0
 40
3.0
 40
4.0
 40
4.0
 40
4.0
 40
4.0
 10
120.2713839760085
 20
-149.2036403706852
 10
120.2713839760085
 20
-149.3221516553778
 10
120.3285725610637
 20
-149.4978515251255
 10
120.6141709767909
 20
-149.4978515251255
 10
120.8405137501718
 20
-149.4978515251255
 10
120.9355983855647
 20
-149.3579806484244
 10
120.9355983855647
 20
-149.222588395854
 10
120.9355983855647
 20
-148.9604166294265
 10
120.7261365800615
 20
-148.9221760695403
 10
120.6096923526601
 20
-148.9221760695403
 10
120.4343369924608
 20
-148.9221760695403
 10
120.2713839760085
 20
-149.0176052144817
 10
120.2713839760085
 20
-149.2036403706852
 97
        0
 97
        1
330
EF
 92
        1
 93
        1
 72
     4
 94
        3
 73
     0
 74
     0
 95
       32
 96
       28
 40
0.0
 40
0.0
 40
0.0
 40
0.0
 40
1.0
 40
1.0
 40
1.0
 40
2.0
 40
2.0
 40
2.0
 40
3.0
 40
3.0
 40
3.0
 40
4.0
 40
4.0
 40
4.0
 40
5.0
 40
5.0
 40
5.0
 40
6.0
 40
6.0
 40
6.0
 40
7.0
 40
7.0
 40
7.0
 40
8.0
 40
8.0
 40
8.0
 40
9.0
 40
9.0
 40
9.0
 40
9.0
 10
121.7224581943957
 20
-149.2439479878626
 10
121.7224581943957
 20
-149.4172362907707
 10
121.6528672655937
 20
-149.662871598869
 10
121.3207600608156
 20
-149.7007676492067
 10
121.3207600608156
 20
-149.7007676492067
 10
121.3207600608156
 20
-149.4871717291212
 10
121.3207600608156
 20
-149.4871717291212
 10
121.3800157031619
 20
-149.476491933117
 10
121.5278102994791
 20
-149.4447970546527
 10
121.5278102994791
 20
-149.2418809305715
 10
121.5278102994791
 20
-148.9497368334223
 10
121.1977701519922
 20
-148.9118407830845
 10
120.9927869706198
 20
-148.8990939297891
 10
121.0730576954262
 20
-148.9900444505997
 10
121.1302462804813
 20
-149.0575683221106
 10
121.1302462804813
 20
-149.2394693637318
 10
121.1302462804813
 20
-149.4193033480618
 10
121.0244818490841
 20
-149.7217827316668
 10
120.6183050913732
 20
-149.7217827316668
 10
120.2989447398905
 20
-149.7217827316668
 10
120.0788031383831
 20
-149.5230007221678
 10
120.0788031383831
 20
-149.2057074279763
 10
120.0788031383831
 20
-148.6916991815771
 10
120.6331190019598
 20
-148.6810193855728
 10
120.8467149220452
 20
-148.6810193855728
 10
121.0771918100085
 20
-148.6810193855728
 10
121.7224581943957
 20
-148.7003119202902
 10
121.7224581943957
 20
-149.2439479878626
 97
        0
 97
        1
330
F0
 75
     2
 76
     1
 98
        1
 10
0.0
 20
0.0
450
        0
451
        0
460
0.0
461
0.0
452
        0
462
0.0
453
        0
470

  0
SPLINE
  5
F2
330
EB
100
AcDbEntity
  8
レイヤー 1
100
AcDbSpline
210
0.0
220
0.0
230
1.0
 70
    11
 71
     3
 72
    17
 73
    13
 74
     0
 42
0.0000000001
 43
0.0000000001
 40
0.0
 40
0.0
 40
0.0
 40
0.0
 40
1.0
 40
1.0
 40
1.0
 40
2.0
 40
2.0
 40
2.0
 40
3.0
 40
3.0
 40
3.0
 40
4.0
 40
4.0
 40
4.0
 40
4.0
 10
121.6718152907626
 20
-148.4646673890991
 30
0.0
 10
121.6718152907626
 20
-148.4646673890991
 30
0.0
 10
121.4199788107908
 20
-148.4646673890991
 30
0.0
 10
121.4199788107908
 20
-148.4646673890991
 30
0.0
 10
121.4199788107908
 20
-148.4646673890991
 30
0.0
 10
121.4199788107908
 20
-148.2128309091273
 30
0.0
 10
121.4199788107908
 20
-148.2128309091273
 30
0.0
 10
121.4199788107908
 20
-148.2128309091273
 30
0.0
 10
121.6718152907626
 20
-148.2128309091273
 30
0.0
 10
121.6718152907626
 20
-148.2128309091273
 30
0.0
 10
121.6718152907626
 20
-148.2128309091273
 30
0.0
 10
121.6718152907626
 20
-148.4646673890991
 30
0.0
 10
121.6718152907626
 20
-148.4646673890991
 30
0.0
  0
HATCH
  5
F3
330
EB
100
AcDbEntity
  8
レイヤー 1
 62
    18
420
        0
440
 33554687
100
AcDbHatch
 10
0.0
 20
0.0
 30
0.0
210
0.0
220
0.0
230
1.0
  2
SOLID
 70
     1
 71
     1
 91
        1
 92
        1
 93
        1
 72
     4
 94
        3
 73
     0
 74
     0
 95
       17
 96
       13
 40
0.0
 40
0.0
 40
0.0
 40
0.0
 40
1.0
 40
1.0
 40
1.0
 40
2.0
 40
2.0
 40
2.0
 40
3.0
 40
3.0
 40
3.0
 40
4.0
 40
4.0
 40
4.0
 40
4.0
 10
121.6718152907626
 20
-148.4646673890991
 10
121.6718152907626
 20
-148.4646673890991
 10
121.4199788107908
 20
-148.4646673890991
 10
121.4199788107908
 20
-148.4646673890991
 10
121.4199788107908
 20
-148.4646673890991
 10
121.4199788107908
 20
-148.2128309091273
 10
121.4199788107908
 20
-148.2128309091273
 10
121.4199788107908
 20
-148.2128309091273
 10
121.6718152907626
 20
-148.2128309091273
 10
121.6718152907626
 20
-148.2128309091273
 10
121.6718152907626
 20
-148.2128309091273
 10
121.6718152907626
 20
-148.4646673890991
 10
121.6718152907626
 20
-148.4646673890991
 97
        0
 97
        1
330
F2
 75
     2
 76
     1
 98
        1
 10
0.0
 20
0.0
450
        0
451
        0
460
0.0
461
0.0
452
        0
462
0.0
453
        0
470

  0
SPLINE
  5
F4
330
EB
100
AcDbEntity
  8
レイヤー 1
100
AcDbSpline
210
0.0
220
0.0
230
1.0
 70
     9
 71
     3
 72
    53
 73
    49
 74
     0
 42
0.0000000001
 43
0.0000000001
 40
0.0
 40
0.0
 40
0.0
 40
0.0
 40
1.0
 40
1.0
 40
1.0
 40
2.0
 40
2.0
 40
2.0
 40
3.0
 40
3.0
 40
3.0
 40
4.0
 40
4.0
 40
4.0
 40
5.0
 40
5.0
 40
5.0
 40
6.0
 40
6.0
 40
6.0
 40
7.0
 40
7.0
 40
7.0
 40
8.0
 40
8.0
 40
8.0
 40
9.0
 40
9.0
 40
9.0
 40
10.0
 40
10.0
 40
10.0
 40
11.0
 40
11.0
 40
11.0
 40
12.0
 40
12.0
 40
12.0
 40
13.0
 40
13.0
 40
13.0
 40
14.0
 40
14.0
 40
14.0
 40
15.0
 40
15.0
 40
15.0
 40
16.0
 40
16.0
 40
16.0
 40
16.0
 10
121.7224581943957
 20
-147.4955620290983
 30
0.0
 10
121.7224581943957
 20
-147.5737656966135
 30
0.0
 10
121.705577226518
 20
-147.6753960134284
 30
0.0
 10
121.6421874695894
 20
-147.7770263302432
 30
0.0
 10
121.53228892361
 20
-147.9503146331513
 30
0.0
 10
121.4010307856219
 20
-147.9716742251598
 30
0.0
 10
121.2931992969336
 20
-147.9906222503287
 30
0.0
 10
121.2931992969336
 20
-147.9906222503287
 30
0.0
 10
121.2931992969336
 20
-147.7684135915301
 30
0.0
 10
121.2931992969336
 20
-147.7684135915301
 30
0.0
 10
121.4919813064325
 20
-147.7136365733146
 30
0.0
 10
121.5216091276057
 20
-147.5865125499089
 30
0.0
 10
121.5216091276057
 20
-147.4934949718072
 30
0.0
 10
121.5216091276057
 20
-147.3539686046545
 30
0.0
 10
121.422045868082
 20
-147.2016953842065
 30
0.0
 10
121.1895019228276
 20
-147.2016953842065
 30
0.0
 10
120.9335313282736
 20
-147.2016953842065
 30
0.0
 10
120.863595889923
 20
-147.3815293685365
 30
0.0
 10
120.863595889923
 20
-147.5021077105203
 30
0.0
 10
120.863595889923
 20
-147.5338025889846
 30
0.0
 10
120.863595889923
 20
-147.6753960134284
 30
0.0
 10
120.9927869706198
 20
-147.7642794769478
 30
0.0
 10
120.9927869706198
 20
-147.7642794769478
 30
0.0
 10
120.973838945451
 20
-147.9399793466955
 30
0.0
 10
120.973838945451
 20
-147.9399793466955
 30
0.0
 10
120.973838945451
 20
-147.9399793466955
 30
0.0
 10
120.1273789847251
 20
-147.8194010047118
 30
0.0
 10
120.1273789847251
 20
-147.8194010047118
 30
0.0
 10
120.1273789847251
 20
-147.8194010047118
 30
0.0
 10
120.1273789847251
 20
-147.0408094250453
 30
0.0
 10
120.1273789847251
 20
-147.0408094250453
 30
0.0
 10
120.1273789847251
 20
-147.0408094250453
 30
0.0
 10
120.3220268796417
 20
-147.0408094250453
 30
0.0
 10
120.3220268796417
 20
-147.0408094250453
 30
0.0
 10
120.3220268796417
 20
-147.0408094250453
 30
0.0
 10
120.3220268796417
 20
-147.6564479882595
 30
0.0
 10
120.3220268796417
 20
-147.6564479882595
 30
0.0
 10
120.3220268796417
 20
-147.6564479882595
 30
0.0
 10
120.7450846052304
 20
-147.7219048024792
 30
0.0
 10
120.7450846052304
 20
-147.7219048024792
 30
0.0
 10
120.7113226694749
 20
-147.6605821028418
 30
0.0
 10
120.6710150522975
 20
-147.5782443207443
 30
0.0
 10
120.6710150522975
 20
-147.4597330360517
 30
0.0
 10
120.6710150522975
 20
-147.2058294987888
 30
0.0
 10
120.8573947180495
 20
-146.9688069294036
 30
0.0
 10
121.1705538976587
 20
-146.9688069294036
 30
0.0
 10
121.4878471918502
 20
-146.9688069294036
 30
0.0
 10
121.7224581943957
 20
-147.1930826454934
 30
0.0
 10
121.7224581943957
 20
-147.4955620290983
 30
0.0
  0
HATCH
  5
F5
330
EB
100
AcDbEntity
  8
レイヤー 1
 62
    18
420
        0
440
 33554687
100
AcDbHatch
 10
0.0
 20
0.0
 30
0.0
210
0.0
220
0.0
230
1.0
  2
SOLID
 70
     1
 71
     1
 91
        1
 92
        1
 93
        1
 72
     4
 94
        3
 73
     0
 74
     0
 95
       53
 96
       49
 40
0.0
 40
0.0
 40
0.0
 40
0.0
 40
1.0
 40
1.0
 40
1.0
 40
2.0
 40
2.0
 40
2.0
 40
3.0
 40
3.0
 40
3.0
 40
4.0
 40
4.0
 40
4.0
 40
5.0
 40
5.0
 40
5.0
 40
6.0
 40
6.0
 40
6.0
 40
7.0
 40
7.0
 40
7.0
 40
8.0
 40
8.0
 40
8.0
 40
9.0
 40
9.0
 40
9.0
 40
10.0
 40
10.0
 40
10.0
 40
11.0
 40
11.0
 40
11.0
 40
12.0
 40
12.0
 40
12.0
 40
13.0
 40
13.0
 40
13.0
 40
14.0
 40
14.0
 40
14.0
 40
15.0
 40
15.0
 40
15.0
 40
16.0
 40
16.0
 40
16.0
 40
16.0
 10
121.7224581943957
 20
-147.4955620290983
 10
121.7224581943957
 20
-147.5737656966135
 10
121.705577226518
 20
-147.6753960134284
 10
121.6421874695894
 20
-147.7770263302432
 10
121.53228892361
 20
-147.9503146331513
 10
121.4010307856219
 20
-147.9716742251598
 10
121.2931992969336
 20
-147.9906222503287
 10
121.2931992969336
 20
-147.9906222503287
 10
121.2931992969336
 20
-147.7684135915301
 10
121.2931992969336
 20
-147.7684135915301
 10
121.4919813064325
 20
-147.7136365733146
 10
121.5216091276057
 20
-147.5865125499089
 10
121.5216091276057
 20
-147.4934949718072
 10
121.5216091276057
 20
-147.3539686046545
 10
121.422045868082
 20
-147.2016953842065
 10
121.1895019228276
 20
-147.2016953842065
 10
120.9335313282736
 20
-147.2016953842065
 10
120.863595889923
 20
-147.3815293685365
 10
120.863595889923
 20
-147.5021077105203
 10
120.863595889923
 20
-147.5338025889846
 10
120.863595889923
 20
-147.6753960134284
 10
120.9927869706198
 20
-147.7642794769478
 10
120.9927869706198
 20
-147.7642794769478
 10
120.973838945451
 20
-147.9399793466955
 10
120.973838945451
 20
-147.9399793466955
 10
120.973838945451
 20
-147.9399793466955
 10
120.1273789847251
 20
-147.8194010047118
 10
120.1273789847251
 20
-147.8194010047118
 10
120.1273789847251
 20
-147.8194010047118
 10
120.1273789847251
 20
-147.0408094250453
 10
120.1273789847251
 20
-147.0408094250453
 10
120.1273789847251
 20
-147.0408094250453
 10
120.3220268796417
 20
-147.0408094250453
 10
120.3220268796417
 20
-147.0408094250453
 10
120.3220268796417
 20
-147.0408094250453
 10
120.3220268796417
 20
-147.6564479882595
 10
120.3220268796417
 20
-147.6564479882595
 10
120.3220268796417
 20
-147.6564479882595
 10
120.7450846052304
 20
-147.7219048024792
 10
120.7450846052304
 20
-147.7219048024792
 10
120.7113226694749
 20
-147.6605821028418
 10
120.6710150522975
 20
-147.5782443207443
 10
120.6710150522975
 20
-147.4597330360517
 10
120.6710150522975
 20
-147.2058294987888
 10
120.8573947180495
 20
-146.9688069294036
 10
121.1705538976587
 20
-146.9688069294036
 10
121.4878471918502
 20
-146.9688069294036
 10
121.7224581943957
 20
-147.1930826454934
 10
121.7224581943957
 20
-147.4955620290983
 97
        0
 97
        1
330
F4
 75
     2
 76
     1
 98
        1
 10
0.0
 20
0.0
450
        0
451
        0
460
0.0
461
0.0
452
        0
462
0.0
453
        0
470

  0
ENDBLK
  5
EE
330
EB
100
AcDbEntity
  8
0
100
AcDbBlockEnd
  0
BLOCK
  5
FB
330
F9
100
AcDbEntity
  8
0
100
AcDbBlockBegin
  2
Block_13
 70
     0
 10
0.0
 20
0.0
 30
0.0
  3
Block_13
  1

  0
INSERT
  5
FE
330
F9
100
AcDbEntity
  8
レイヤー 1
100
AcDbBlockReference
  2
Block_14
 10
0.0
 20
0.0
 30
0.0
  0
ENDBLK
  5
FC
330
F9
100
AcDbEntity
  8
0
100
AcDbBlockEnd
  0
BLOCK
  5
FF
330
FD
100
AcDbEntity
  8
0
100
AcDbBlockBegin
  2
Block_14
 70
     0
 10
0.0
 20
0.0
 30
0.0
  3
Block_14
  1

  0
SPLINE
  5
101
330
FD
100
AcDbEntity
  8
レイヤー 1
100
AcDbSpline
210
0.0
220
0.0
230
1.0
 70
     9
 71
     3
 72
    17
 73
    13
 74
     0
 42
0.0000000001
 43
0.0000000001
 40
0.0
 40
0.0
 40
0.0
 40
0.0
 40
1.0
 40
1.0
 40
1.0
 40
2.0
 40
2.0
 40
2.0
 40
3.0
 40
3.0
 40
3.0
 40
4.0
 40
4.0
 40
4.0
 40
4.0
 10
123.6227728640596
 20
-154.3530245924881
 30
0.0
 10
123.6227728640596
 20
-154.6027940151687
 30
0.0
 10
123.9063042224956
 20
-154.6493028042196
 30
0.0
 10
124.2511582805691
 20
-154.6493028042196
 30
0.0
 10
124.5705186320518
 20
-154.6493028042196
 30
0.0
 10
124.8791991875302
 20
-154.6131293016245
 30
0.0
 10
124.8791991875302
 20
-154.3530245924881
 30
0.0
 10
124.8791991875302
 20
-154.1053222270986
 30
0.0
 10
124.5980793959338
 20
-154.0567463807566
 30
0.0
 10
124.2511582805691
 20
-154.0567463807566
 30
0.0
 10
123.9314534195379
 20
-154.0567463807566
 30
0.0
 10
123.6227728640596
 20
-154.0949869406429
 30
0.0
 10
123.6227728640596
 20
-154.3530245924881
 30
0.0
  0
SPLINE
  5
102
330
FD
100
AcDbEntity
  8
レイヤー 1
100
AcDbSpline
210
0.0
220
0.0
230
1.0
 70
     9
 71
     3
 72
    29
 73
    25
 74
     0
 42
0.0000000001
 43
0.0000000001
 40
0.0
 40
0.0
 40
0.0
 40
0.0
 40
1.0
 40
1.0
 40
1.0
 40
2.0
 40
2.0
 40
2.0
 40
3.0
 40
3.0
 40
3.0
 40
4.0
 40
4.0
 40
4.0
 40
5.0
 40
5.0
 40
5.0
 40
6.0
 40
6.0
 40
6.0
 40
7.0
 40
7.0
 40
7.0
 40
8.0
 40
8.0
 40
8.0
 40
8.0
 10
124.8454372517747
 20
-153.9551160639417
 30
0.0
 10
125.0548990572779
 20
-154.0632920621786
 30
0.0
 10
125.0738470824468
 20
-154.2365803650867
 30
0.0
 10
125.0738470824468
 20
-154.3530245924881
 30
0.0
 10
125.0738470824468
 20
-154.5139105516493
 30
0.0
 10
125.0273382933959
 20
-154.6555039760931
 30
0.0
 10
124.8454372517747
 20
-154.7505886114859
 30
0.0
 10
124.6507893568581
 20
-154.854285985592
 30
0.0
 10
124.4141112970215
 20
-154.8735785203094
 30
0.0
 10
124.2511582805691
 20
-154.8735785203094
 30
0.0
 10
124.1071532892857
 20
-154.8735785203094
 30
0.0
 10
123.8553168093139
 20
-154.8563530428831
 30
0.0
 10
123.656534799815
 20
-154.7505886114859
 30
0.0
 10
123.4536186757338
 20
-154.6427571227976
 30
0.0
 10
123.4301920264341
 20
-154.4818711636365
 30
0.0
 10
123.4301920264341
 20
-154.3530245924881
 30
0.0
 10
123.4301920264341
 20
-154.1942056906181
 30
0.0
 10
123.4746337581938
 20
-154.0505452088832
 30
0.0
 10
123.656534799815
 20
-153.9551160639417
 30
0.0
 10
123.8491156374405
 20
-153.8558973139666
 30
0.0
 10
124.0775254681125
 20
-153.8324706646669
 30
0.0
 10
124.2511582805691
 20
-153.8324706646669
 30
0.0
 10
124.4223795261861
 20
-153.8324706646669
 30
0.0
 10
124.6528564141493
 20
-153.8538302566754
 30
0.0
 10
124.8454372517747
 20
-153.9551160639417
 30
0.0
  0
HATCH
  5
103
330
FD
100
AcDbEntity
  8
レイヤー 1
 62
    18
420
        0
440
 33554687
100
AcDbHatch
 10
0.0
 20
0.0
 30
0.0
210
0.0
220
0.0
230
1.0
  2
SOLID
 70
     1
 71
     1
 91
        2
 92
        1
 93
        1
 72
     4
 94
        3
 73
     0
 74
     0
 95
       17
 96
       13
 40
0.0
 40
0.0
 40
0.0
 40
0.0
 40
1.0
 40
1.0
 40
1.0
 40
2.0
 40
2.0
 40
2.0
 40
3.0
 40
3.0
 40
3.0
 40
4.0
 40
4.0
 40
4.0
 40
4.0
 10
123.6227728640596
 20
-154.3530245924881
 10
123.6227728640596
 20
-154.6027940151687
 10
123.9063042224956
 20
-154.6493028042196
 10
124.2511582805691
 20
-154.6493028042196
 10
124.5705186320518
 20
-154.6493028042196
 10
124.8791991875302
 20
-154.6131293016245
 10
124.8791991875302
 20
-154.3530245924881
 10
124.8791991875302
 20
-154.1053222270986
 10
124.5980793959338
 20
-154.0567463807566
 10
124.2511582805691
 20
-154.0567463807566
 10
123.9314534195379
 20
-154.0567463807566
 10
123.6227728640596
 20
-154.0949869406429
 10
123.6227728640596
 20
-154.3530245924881
 97
        0
 97
        1
330
101
 92
        1
 93
        1
 72
     4
 94
        3
 73
     0
 74
     0
 95
       29
 96
       25
 40
0.0
 40
0.0
 40
0.0
 40
0.0
 40
1.0
 40
1.0
 40
1.0
 40
2.0
 40
2.0
 40
2.0
 40
3.0
 40
3.0
 40
3.0
 40
4.0
 40
4.0
 40
4.0
 40
5.0
 40
5.0
 40
5.0
 40
6.0
 40
6.0
 40
6.0
 40
7.0
 40
7.0
 40
7.0
 40
8.0
 40
8.0
 40
8.0
 40
8.0
 10
124.8454372517747
 20
-153.9551160639417
 10
125.0548990572779
 20
-154.0632920621786
 10
125.0738470824468
 20
-154.2365803650867
 10
125.0738470824468
 20
-154.3530245924881
 10
125.0738470824468
 20
-154.5139105516493
 10
125.0273382933959
 20
-154.6555039760931
 10
124.8454372517747
 20
-154.7505886114859
 10
124.6507893568581
 20
-154.854285985592
 10
124.4141112970215
 20
-154.8735785203094
 10
124.2511582805691
 20
-154.8735785203094
 10
124.1071532892857
 20
-154.8735785203094
 10
123.8553168093139
 20
-154.8563530428831
 10
123.656534799815
 20
-154.7505886114859
 10
123.4536186757338
 20
-154.6427571227976
 10
123.4301920264341
 20
-154.4818711636365
 10
123.4301920264341
 20
-154.3530245924881
 10
123.4301920264341
 20
-154.1942056906181
 10
123.4746337581938
 20
-154.0505452088832
 10
123.656534799815
 20
-153.9551160639417
 10
123.8491156374405
 20
-153.8558973139666
 10
124.0775254681125
 20
-153.8324706646669
 10
124.2511582805691
 20
-153.8324706646669
 10
124.4223795261861
 20
-153.8324706646669
 10
124.6528564141493
 20
-153.8538302566754
 10
124.8454372517747
 20
-153.9551160639417
 97
        0
 97
        1
330
102
 75
     2
 76
     1
 98
        1
 10
0.0
 20
0.0
450
        0
451
        0
460
0.0
461
0.0
452
        0
462
0.0
453
        0
470

  0
SPLINE
  5
104
330
FD
100
AcDbEntity
  8
レイヤー 1
100
AcDbSpline
210
0.0
220
0.0
230
1.0
 70
    11
 71
     3
 72
    17
 73
    13
 74
     0
 42
0.0000000001
 43
0.0000000001
 40
0.0
 40
0.0
 40
0.0
 40
0.0
 40
1.0
 40
1.0
 40
1.0
 40
2.0
 40
2.0
 40
2.0
 40
3.0
 40
3.0
 40
3.0
 40
4.0
 40
4.0
 40
4.0
 40
4.0
 10
125.0232041788136
 20
-153.6161186681932
 30
0.0
 10
125.0232041788136
 20
-153.6161186681932
 30
0.0
 10
124.7713676988419
 20
-153.6161186681932
 30
0.0
 10
124.7713676988419
 20
-153.6161186681932
 30
0.0
 10
124.7713676988419
 20
-153.6161186681932
 30
0.0
 10
124.7713676988419
 20
-153.3642821882214
 30
0.0
 10
124.7713676988419
 20
-153.3642821882214
 30
0.0
 10
124.7713676988419
 20
-153.3642821882214
 30
0.0
 10
125.0232041788136
 20
-153.3642821882214
 30
0.0
 10
125.0232041788136
 20
-153.3642821882214
 30
0.0
 10
125.0232041788136
 20
-153.3642821882214
 30
0.0
 10
125.0232041788136
 20
-153.6161186681932
 30
0.0
 10
125.0232041788136
 20
-153.6161186681932
 30
0.0
  0
HATCH
  5
105
330
FD
100
AcDbEntity
  8
レイヤー 1
 62
    18
420
        0
440
 33554687
100
AcDbHatch
 10
0.0
 20
0.0
 30
0.0
210
0.0
220
0.0
230
1.0
  2
SOLID
 70
     1
 71
     1
 91
        1
 92
        1
 93
        1
 72
     4
 94
        3
 73
     0
 74
     0
 95
       17
 96
       13
 40
0.0
 40
0.0
 40
0.0
 40
0.0
 40
1.0
 40
1.0
 40
1.0
 40
2.0
 40
2.0
 40
2.0
 40
3.0
 40
3.0
 40
3.0
 40
4.0
 40
4.0
 40
4.0
 40
4.0
 10
125.0232041788136
 20
-153.6161186681932
 10
125.0232041788136
 20
-153.6161186681932
 10
124.7713676988419
 20
-153.6161186681932
 10
124.7713676988419
 20
-153.6161186681932
 10
124.7713676988419
 20
-153.6161186681932
 10
124.7713676988419
 20
-153.3642821882214
 10
124.7713676988419
 20
-153.3642821882214
 10
124.7713676988419
 20
-153.3642821882214
 10
125.0232041788136
 20
-153.3642821882214
 10
125.0232041788136
 20
-153.3642821882214
 10
125.0232041788136
 20
-153.3642821882214
 10
125.0232041788136
 20
-153.6161186681932
 10
125.0232041788136
 20
-153.6161186681932
 97
        0
 97
        1
330
104
 75
     2
 76
     1
 98
        1
 10
0.0
 20
0.0
450
        0
451
        0
460
0.0
461
0.0
452
        0
462
0.0
453
        0
470

  0
SPLINE
  5
106
330
FD
100
AcDbEntity
  8
レイヤー 1
100
AcDbSpline
210
0.0
220
0.0
230
1.0
 70
    11
 71
     3
 72
    14
 73
    10
 74
     0
 42
0.0000000001
 43
0.0000000001
 40
0.0
 40
0.0
 40
0.0
 40
0.0
 40
1.0
 40
1.0
 40
1.0
 40
2.0
 40
2.0
 40
2.0
 40
3.0
 40
3.0
 40
3.0
 40
3.0
 10
123.8215548735585
 20
-152.5136881129132
 30
0.0
 10
123.8215548735585
 20
-152.5136881129132
 30
0.0
 10
124.4775010539501
 20
-152.9708522838059
 30
0.0
 10
124.4775010539501
 20
-152.9708522838059
 30
0.0
 10
124.4775010539501
 20
-152.9708522838059
 30
0.0
 10
124.4775010539501
 20
-152.5136881129132
 30
0.0
 10
124.4775010539501
 20
-152.5136881129132
 30
0.0
 10
124.4775010539501
 20
-152.5136881129132
 30
0.0
 10
123.8215548735585
 20
-152.5136881129132
 30
0.0
 10
123.8215548735585
 20
-152.5136881129132
 30
0.0
  0
SPLINE
  5
107
330
FD
100
AcDbEntity
  8
レイヤー 1
100
AcDbSpline
210
0.0
220
0.0
230
1.0
 70
    11
 71
     3
 72
    38
 73
    34
 74
     0
 42
0.0000000001
 43
0.0000000001
 40
0.0
 40
0.0
 40
0.0
 40
0.0
 40
1.0
 40
1.0
 40
1.0
 40
2.0
 40
2.0
 40
2.0
 40
3.0
 40
3.0
 40
3.0
 40
4.0
 40
4.0
 40
4.0
 40
5.0
 40
5.0
 40
5.0
 40
6.0
 40
6.0
 40
6.0
 40
7.0
 40
7.0
 40
7.0
 40
8.0
 40
8.0
 40
8.0
 40
9.0
 40
9.0
 40
9.0
 40
10.0
 40
10.0
 40
10.0
 40
11.0
 40
11.0
 40
11.0
 40
11.0
 10
124.676283063449
 20
-152.2959580782455
 30
0.0
 10
124.676283063449
 20
-152.2959580782455
 30
0.0
 10
125.0232041788136
 20
-152.2959580782455
 30
0.0
 10
125.0232041788136
 20
-152.2959580782455
 30
0.0
 10
125.0232041788136
 20
-152.2959580782455
 30
0.0
 10
125.0232041788136
 20
-152.5136881129132
 30
0.0
 10
125.0232041788136
 20
-152.5136881129132
 30
0.0
 10
125.0232041788136
 20
-152.5136881129132
 30
0.0
 10
124.676283063449
 20
-152.5136881129132
 30
0.0
 10
124.676283063449
 20
-152.5136881129132
 30
0.0
 10
124.676283063449
 20
-152.5136881129132
 30
0.0
 10
124.676283063449
 20
-153.1696342933048
 30
0.0
 10
124.676283063449
 20
-153.1696342933048
 30
0.0
 10
124.676283063449
 20
-153.1696342933048
 30
0.0
 10
124.4520073473592
 20
-153.1696342933048
 30
0.0
 10
124.4520073473592
 20
-153.1696342933048
 30
0.0
 10
124.4520073473592
 20
-153.1696342933048
 30
0.0
 10
123.4787678727761
 20
-152.4906059731621
 30
0.0
 10
123.4787678727761
 20
-152.4906059731621
 30
0.0
 10
123.4787678727761
 20
-152.4906059731621
 30
0.0
 10
123.4787678727761
 20
-152.2959580782455
 30
0.0
 10
123.4787678727761
 20
-152.2959580782455
 30
0.0
 10
123.4787678727761
 20
-152.2959580782455
 30
0.0
 10
124.4775010539501
 20
-152.2959580782455
 30
0.0
 10
124.4775010539501
 20
-152.2959580782455
 30
0.0
 10
124.4775010539501
 20
-152.2959580782455
 30
0.0
 10
124.4775010539501
 20
-152.0885633300334
 30
0.0
 10
124.4775010539501
 20
-152.0885633300334
 30
0.0
 10
124.4775010539501
 20
-152.0885633300334
 30
0.0
 10
124.676283063449
 20
-152.0885633300334
 30
0.0
 10
124.676283063449
 20
-152.0885633300334
 30
0.0
 10
124.676283063449
 20
-152.0885633300334
 30
0.0
 10
124.676283063449
 20
-152.2959580782455
 30
0.0
 10
124.676283063449
 20
-152.2959580782455
 30
0.0
  0
HATCH
  5
108
330
FD
100
AcDbEntity
  8
レイヤー 1
 62
    18
420
        0
440
 33554687
100
AcDbHatch
 10
0.0
 20
0.0
 30
0.0
210
0.0
220
0.0
230
1.0
  2
SOLID
 70
     1
 71
     1
 91
        2
 92
        1
 93
        1
 72
     4
 94
        3
 73
     0
 74
     0
 95
       14
 96
       10
 40
0.0
 40
0.0
 40
0.0
 40
0.0
 40
1.0
 40
1.0
 40
1.0
 40
2.0
 40
2.0
 40
2.0
 40
3.0
 40
3.0
 40
3.0
 40
3.0
 10
123.8215548735585
 20
-152.5136881129132
 10
123.8215548735585
 20
-152.5136881129132
 10
124.4775010539501
 20
-152.9708522838059
 10
124.4775010539501
 20
-152.9708522838059
 10
124.4775010539501
 20
-152.9708522838059
 10
124.4775010539501
 20
-152.5136881129132
 10
124.4775010539501
 20
-152.5136881129132
 10
124.4775010539501
 20
-152.5136881129132
 10
123.8215548735585
 20
-152.5136881129132
 10
123.8215548735585
 20
-152.5136881129132
 97
        0
 97
        1
330
106
 92
        1
 93
        1
 72
     4
 94
        3
 73
     0
 74
     0
 95
       38
 96
       34
 40
0.0
 40
0.0
 40
0.0
 40
0.0
 40
1.0
 40
1.0
 40
1.0
 40
2.0
 40
2.0
 40
2.0
 40
3.0
 40
3.0
 40
3.0
 40
4.0
 40
4.0
 40
4.0
 40
5.0
 40
5.0
 40
5.0
 40
6.0
 40
6.0
 40
6.0
 40
7.0
 40
7.0
 40
7.0
 40
8.0
 40
8.0
 40
8.0
 40
9.0
 40
9.0
 40
9.0
 40
10.0
 40
10.0
 40
10.0
 40
11.0
 40
11.0
 40
11.0
 40
11.0
 10
124.676283063449
 20
-152.2959580782455
 10
124.676283063449
 20
-152.2959580782455
 10
125.0232041788136
 20
-152.2959580782455
 10
125.0232041788136
 20
-152.2959580782455
 10
125.0232041788136
 20
-152.2959580782455
 10
125.0232041788136
 20
-152.5136881129132
 10
125.0232041788136
 20
-152.5136881129132
 10
125.0232041788136
 20
-152.5136881129132
 10
124.676283063449
 20
-152.5136881129132
 10
124.676283063449
 20
-152.5136881129132
 10
124.676283063449
 20
-152.5136881129132
 10
124.676283063449
 20
-153.1696342933048
 10
124.676283063449
 20
-153.1696342933048
 10
124.676283063449
 20
-153.1696342933048
 10
124.4520073473592
 20
-153.1696342933048
 10
124.4520073473592
 20
-153.1696342933048
 10
124.4520073473592
 20
-153.1696342933048
 10
123.4787678727761
 20
-152.4906059731621
 10
123.4787678727761
 20
-152.4906059731621
 10
123.4787678727761
 20
-152.4906059731621
 10
123.4787678727761
 20
-152.2959580782455
 10
123.4787678727761
 20
-152.2959580782455
 10
123.4787678727761
 20
-152.2959580782455
 10
124.4775010539501
 20
-152.2959580782455
 10
124.4775010539501
 20
-152.2959580782455
 10
124.4775010539501
 20
-152.2959580782455
 10
124.4775010539501
 20
-152.0885633300334
 10
124.4775010539501
 20
-152.0885633300334
 10
124.4775010539501
 20
-152.0885633300334
 10
124.676283063449
 20
-152.0885633300334
 10
124.676283063449
 20
-152.0885633300334
 10
124.676283063449
 20
-152.0885633300334
 10
124.676283063449
 20
-152.2959580782455
 10
124.676283063449
 20
-152.2959580782455
 97
        0
 97
        1
330
107
 75
     2
 76
     1
 98
        1
 10
0.0
 20
0.0
450
        0
451
        0
460
0.0
461
0.0
452
        0
462
0.0
453
        0
470

  0
ENDBLK
  5
100
330
FD
100
AcDbEntity
  8
0
100
AcDbBlockEnd
  0
ENDSEC
  0
SECTION
  2
ENTITIES
  0
INSERT
  5
7A
330
70
100
AcDbEntity
  8
レイヤー 1
100
AcDbBlockReference
  2
Block_0
 10
0.0
 20
0.0
 30
0.0
  0
INSERT
  5
A2
330
70
100
AcDbEntity
  8
レイヤー 1
100
AcDbBlockReference
  2
Block_4
 10
0.0
 20
0.0
 30
0.0
  0
SPLINE
  5
AD
330
70
100
AcDbEntity
  8
レイヤー 1
 62
    18
420
        0
370
     9
100
AcDbSpline
210
0.0
220
0.0
230
1.0
 70
     9
 71
     3
 72
    17
 73
    13
 74
     0
 42
0.0000000001
 43
0.0000000001
 40
0.0
 40
0.0
 40
0.0
 40
0.0
 40
1.0
 40
1.0
 40
1.0
 40
2.0
 40
2.0
 40
2.0
 40
3.0
 40
3.0
 40
3.0
 40
4.0
 40
4.0
 40
4.0
 40
4.0
 10
122.4172975567943
 20
-143.5884910702197
 30
0.0
 10
122.4172975567943
 20
-143.5333519049601
 30
0.0
 10
122.3725300579364
 20
-143.4885844061019
 30
0.0
 10
122.317394969495
 20
-143.4885844061019
 30
0.0
 10
122.2622870051934
 20
-143.4885844061019
 30
0.0
 10
122.2174842285586
 20
-143.5333519049601
 30
0.0
 10
122.2174842285586
 20
-143.5884910702197
 30
0.0
 10
122.2174842285586
 20
-143.6439414009527
 30
0.0
 10
122.2622870051934
 20
-143.6887441787194
 30
0.0
 10
122.317394969495
 20
-143.6887441787194
 30
0.0
 10
122.3725300579364
 20
-143.6887441787194
 30
0.0
 10
122.4172975567943
 20
-143.6439414009527
 30
0.0
 10
122.4172975567943
 20
-143.5884910702197
 30
0.0
  0
SPLINE
  5
AE
330
70
100
AcDbEntity
  8
レイヤー 1
 62
    18
420
        0
370
     9
100
AcDbSpline
210
0.0
220
0.0
230
1.0
 70
     9
 71
     3
 72
    17
 73
    13
 74
     0
 42
0.0000000001
 43
0.0000000001
 40
0.0
 40
0.0
 40
0.0
 40
0.0
 40
1.0
 40
1.0
 40
1.0
 40
2.0
 40
2.0
 40
2.0
 40
3.0
 40
3.0
 40
3.0
 40
4.0
 40
4.0
 40
4.0
 40
4.0
 10
122.4172975567943
 20
-153.088690550072
 30
0.0
 10
122.4172975567943
 20
-153.0331986070433
 30
0.0
 10
122.3725300579364
 20
-152.9884311081854
 30
0.0
 10
122.317394969495
 20
-152.9884311081854
 30
0.0
 10
122.2622870051934
 20
-152.9884311081854
 30
0.0
 10
122.2174842285586
 20
-153.0331986070433
 30
0.0
 10
122.2174842285586
 20
-153.088690550072
 30
0.0
 10
122.2174842285586
 20
-153.1437944375551
 30
0.0
 10
122.2622870051934
 20
-153.1885972141898
 30
0.0
 10
122.317394969495
 20
-153.1885972141898
 30
0.0
 10
122.3725300579364
 20
-153.1885972141898
 30
0.0
 10
122.4172975567943
 20
-153.1437944375551
 30
0.0
 10
122.4172975567943
 20
-153.088690550072
 30
0.0
  0
SPLINE
  5
AF
330
70
100
AcDbEntity
  8
レイヤー 1
 62
    18
420
        0
370
     9
100
AcDbSpline
210
0.0
220
0.0
230
1.0
 70
     9
 71
     3
 72
    17
 73
    13
 74
     0
 42
0.0000000001
 43
0.0000000001
 40
0.0
 40
0.0
 40
0.0
 40
0.0
 40
1.0
 40
1.0
 40
1.0
 40
2.0
 40
2.0
 40
2.0
 40
3.0
 40
3.0
 40
3.0
 40
4.0
 40
4.0
 40
4.0
 40
4.0
 10
122.4172975567943
 20
-153.4886699843115
 30
0.0
 10
122.4172975567943
 20
-153.4331719540609
 30
0.0
 10
122.3725300579364
 20
-153.3884105424255
 30
0.0
 10
122.317394969495
 20
-153.3884105424255
 30
0.0
 10
122.2622870051934
 20
-153.3884105424255
 30
0.0
 10
122.2174842285586
 20
-153.4331719540609
 30
0.0
 10
122.2174842285586
 20
-153.4886699843115
 30
0.0
 10
122.2174842285586
 20
-153.5437738717952
 30
0.0
 10
122.2622870051934
 20
-153.5885766484299
 30
0.0
 10
122.317394969495
 20
-153.5885766484299
 30
0.0
 10
122.3725300579364
 20
-153.5885766484299
 30
0.0
 10
122.4172975567943
 20
-153.5437738717952
 30
0.0
 10
122.4172975567943
 20
-153.4886699843115
 30
0.0
  0
SPLINE
  5
B0
330
70
100
AcDbEntity
  8
レイヤー 1
 62
    18
420
        0
370
     9
100
AcDbSpline
210
0.0
220
0.0
230
1.0
 70
     9
 71
     3
 72
    17
 73
    13
 74
     0
 42
0.0000000001
 43
0.0000000001
 40
0.0
 40
0.0
 40
0.0
 40
0.0
 40
1.0
 40
1.0
 40
1.0
 40
2.0
 40
2.0
 40
2.0
 40
3.0
 40
3.0
 40
3.0
 40
4.0
 40
4.0
 40
4.0
 40
4.0
 10
118.41753849217
 20
-158.188445975522
 30
0.0
 10
118.41753849217
 20
-158.1333420880389
 30
0.0
 10
118.3727709933121
 20
-158.0885393114041
 30
0.0
 10
118.3176318280521
 20
-158.0885393114041
 30
0.0
 10
118.2618223850315
 20
-158.0885393114041
 30
0.0
 10
118.2170588594092
 20
-158.1333420880389
 30
0.0
 10
118.2170588594092
 20
-158.188445975522
 30
0.0
 10
118.2170588594092
 20
-158.2435851407819
 30
0.0
 10
118.2618223850315
 20
-158.2883526396398
 30
0.0
 10
118.3176318280521
 20
-158.2883526396398
 30
0.0
 10
118.3727709933121
 20
-158.2883526396398
 30
0.0
 10
118.41753849217
 20
-158.2435851407819
 30
0.0
 10
118.41753849217
 20
-158.188445975522
 30
0.0
  0
SPLINE
  5
B1
330
70
100
AcDbEntity
  8
レイヤー 1
 62
    18
420
        0
370
     9
100
AcDbSpline
210
0.0
220
0.0
230
1.0
 70
     9
 71
     3
 72
    17
 73
    13
 74
     0
 42
0.0000000001
 43
0.0000000001
 40
0.0
 40
0.0
 40
0.0
 40
0.0
 40
1.0
 40
1.0
 40
1.0
 40
2.0
 40
2.0
 40
2.0
 40
3.0
 40
3.0
 40
3.0
 40
4.0
 40
4.0
 40
4.0
 40
4.0
 10
89.41649540862663
 20
-158.188445975522
 30
0.0
 10
89.41649540862663
 20
-158.1333420880389
 30
0.0
 10
89.37172790976873
 20
-158.0885393114041
 30
0.0
 10
89.31659208870536
 20
-158.0885393114041
 30
0.0
 10
89.26148485702602
 20
-158.0885393114041
 30
0.0
 10
89.21668208039095
 20
-158.1333420880389
 30
0.0
 10
89.21668208039095
 20
-158.188445975522
 30
0.0
 10
89.21668208039095
 20
-158.2435851407819
 30
0.0
 10
89.26148485702602
 20
-158.2883526396398
 30
0.0
 10
89.31659208870536
 20
-158.2883526396398
 30
0.0
 10
89.37172790976873
 20
-158.2883526396398
 30
0.0
 10
89.41649540862663
 20
-158.2435851407819
 30
0.0
 10
89.41649540862663
 20
-158.188445975522
 30
0.0
  0
SPLINE
  5
B2
330
70
100
AcDbEntity
  8
レイヤー 1
 62
    18
420
        0
370
     9
100
AcDbSpline
210
0.0
220
0.0
230
1.0
 70
     9
 71
     3
 72
    17
 73
    13
 74
     0
 42
0.0000000001
 43
0.0000000001
 40
0.0
 40
0.0
 40
0.0
 40
0.0
 40
1.0
 40
1.0
 40
1.0
 40
2.0
 40
2.0
 40
2.0
 40
3.0
 40
3.0
 40
3.0
 40
4.0
 40
4.0
 40
4.0
 40
4.0
 10
87.04970167917512
 20
-143.5884910702197
 30
0.0
 10
87.04970167917512
 20
-143.5333519049601
 30
0.0
 10
87.00493418031722
 20
-143.4885844061019
 30
0.0
 10
86.94979501505727
 20
-143.4885844061019
 30
0.0
 10
86.8946911275742
 20
-143.4885844061019
 30
0.0
 10
86.84988835093944
 20
-143.5333519049601
 30
0.0
 10
86.84988835093944
 20
-143.5884910702197
 30
0.0
 10
86.84988835093944
 20
-143.6439414009527
 30
0.0
 10
86.8946911275742
 20
-143.6887441787194
 30
0.0
 10
86.94979501505727
 20
-143.6887441787194
 30
0.0
 10
87.00493418031722
 20
-143.6887441787194
 30
0.0
 10
87.04970167917512
 20
-143.6439414009527
 30
0.0
 10
87.04970167917512
 20
-143.5884910702197
 30
0.0
  0
CIRCLE
  5
B3
330
70
100
AcDbEntity
  8
レイヤー 1
 62
    18
420
        0
370
     9
100
AcDbCircle
 10
86.94979501505727
 20
-144.6884874310455
 30
0.0
 40
0.099906664117715
  0
CIRCLE
  5
B4
330
70
100
AcDbEntity
  8
レイヤー 1
 62
    18
420
        0
370
     9
100
AcDbCircle
 10
101.3174828173178
 20
-158.188445975522
 30
0.0
 40
0.0999066641179156
  0
LINE
  5
B5
330
70
100
AcDbEntity
  8
レイヤー 1
 62
    18
420
        0
370
     9
100
AcDbLine
 10
101.3174828173179
 20
-158.188445975522
 30
0.0
 11
118.3176318280521
 21
-158.188445975522
 31
0.0
  0
LINE
  5
B6
330
70
100
AcDbEntity
  8
レイヤー 1
 62
    18
420
        0
370
     9
100
AcDbLine
 10
118.3176318280521
 20
-156.0283876972963
 30
0.0
 11
118.3176318280521
 21
-159.1885709500066
 31
0.0
  0
INSERT
  5
B8
330
70
100
AcDbEntity
  8
レイヤー 1
100
AcDbBlockReference
  2
Block_5
 10
0.0
 20
0.0
 30
0.0
  0
LINE
  5
C3
330
70
100
AcDbEntity
  8
レイヤー 1
 62
    18
420
        0
370
     9
100
AcDbLine
 10
86.94979501505727
 20
-143.5884910702197
 30
0.0
 11
86.94979501505727
 21
-142.588366095735
 31
0.0
  0
LINE
  5
C4
330
70
100
AcDbEntity
  8
レイヤー 1
 62
    18
420
        0
370
     9
100
AcDbLine
 10
86.94979501505727
 20
-143.5884910702197
 30
0.0
 11
86.94979501505727
 21
-145.6882596277613
 31
0.0
  0
LINE
  5
C5
330
70
100
AcDbEntity
  8
レイヤー 1
 62
    18
420
        0
370
     9
100
AcDbLine
 10
88.4098363666974
 20
-143.5884910702197
 30
0.0
 11
85.95002281834137
 21
-143.5884910702197
 31
0.0
  0
LINE
  5
C6
330
70
100
AcDbEntity
  8
レイヤー 1
 62
    18
420
        0
370
     9
100
AcDbLine
 10
88.4098363666974
 20
-144.6884874310454
 30
0.0
 11
85.95002281834137
 21
-144.6884874310454
 31
0.0
  0
INSERT
  5
C8
330
70
100
AcDbEntity
  8
レイヤー 1
100
AcDbBlockReference
  2
Block_7
 10
0.0
 20
0.0
 30
0.0
  0
LINE
  5
D5
330
70
100
AcDbEntity
  8
レイヤー 1
 62
    18
420
        0
370
     9
100
AcDbLine
 10
89.31659208870536
 20
-158.188445975522
 30
0.0
 11
101.3174827060554
 21
-158.188445975522
 31
0.0
  0
LINE
  5
D6
330
70
100
AcDbEntity
  8
レイヤー 1
 62
    18
420
        0
370
     9
100
AcDbLine
 10
89.31659208870536
 20
-147.2285579217983
 30
0.0
 11
89.31659208870536
 21
-159.1885709500066
 31
0.0
  0
LINE
  5
D7
330
70
100
AcDbEntity
  8
レイヤー 1
 62
    18
420
        0
370
     9
100
AcDbLine
 10
101.3174828173179
 20
-156.7284399016587
 30
0.0
 11
101.3174828173179
 21
-159.1885709500066
 31
0.0
  0
INSERT
  5
D9
330
70
100
AcDbEntity
  8
レイヤー 1
100
AcDbBlockReference
  2
Block_9
 10
0.0
 20
0.0
 30
0.0
  0
LINE
  5
E4
330
70
100
AcDbEntity
  8
レイヤー 1
 62
    18
420
        0
370
     9
100
AcDbLine
 10
122.317394969495
 20
-143.5884910702197
 30
0.0
 11
122.317394969495
 21
-153.088690550072
 31
0.0
  0
LINE
  5
E5
330
70
100
AcDbEntity
  8
レイヤー 1
 62
    18
420
        0
370
     9
100
AcDbLine
 10
104.9575533071681
 20
-143.5884910702197
 30
0.0
 11
123.3171671914669
 21
-143.5884910702197
 31
0.0
  0
LINE
  5
E6
330
70
100
AcDbEntity
  8
レイヤー 1
 62
    18
420
        0
370
     9
100
AcDbLine
 10
120.8573848188132
 20
-153.088690550072
 30
0.0
 11
123.3171671914669
 21
-153.088690550072
 31
0.0
  0
INSERT
  5
E8
330
70
100
AcDbEntity
  8
レイヤー 1
100
AcDbBlockReference
  2
Block_11
 10
0.0
 20
0.0
 30
0.0
  0
LINE
  5
F6
330
70
100
AcDbEntity
  8
レイヤー 1
 62
    18
420
        0
370
     9
100
AcDbLine
 10
122.317394969495
 20
-153.4886699843115
 30
0.0
 11
122.317394969495
 21
-154.4884069032512
 31
0.0
  0
LINE
  5
F7
330
70
100
AcDbEntity
  8
レイヤー 1
 62
    18
420
        0
370
     9
100
AcDbLine
 10
122.317394969495
 20
-153.088690550072
 30
0.0
 11
122.317394969495
 21
-153.4886699843115
 31
0.0
  0
LINE
  5
F8
330
70
100
AcDbEntity
  8
レイヤー 1
 62
    18
420
        0
370
     9
100
AcDbLine
 10
120.8573848188132
 20
-153.4886699843115
 30
0.0
 11
123.3171671914669
 21
-153.4886699843115
 31
0.0
  0
INSERT
  5
FA
330
70
100
AcDbEntity
  8
レイヤー 1
100
AcDbBlockReference
  2
Block_13
 10
0.0
 20
0.0
 30
0.0
  0
ENDSEC
  0
SECTION
  2
OBJECTS
  0
DICTIONARY
  5
C
330
0
100
AcDbDictionary
281
     1
  3
ACAD_COLOR
350
63
  3
ACAD_DETAILVIEWSTYLE
350
6A
  3
ACAD_GROUP
350
D
  3
ACAD_LAYOUT
350
62
  3
ACAD_MATERIAL
350
10
  3
ACAD_MLEADERSTYLE
350
66
  3
ACAD_MLINESTYLE
350
5F
  3
ACAD_PLOTSETTINGS
350
61
  3
ACAD_PLOTSTYLENAME
350
E
  3
ACAD_SCALELIST
350
42
  3
ACAD_SECTIONVIEWSTYLE
350
68
  3
ACAD_TABLESTYLE
350
64
  3
ACAD_VISUALSTYLE
350
29
  3
ACDB_RECOMPOSE_DATA
350
111
  3
AcDbVariableDictionary
350
109
  0
DICTIONARY
  5
63
102
{ACAD_REACTORS
330
C
102
}
330
C
100
AcDbDictionary
281
     1
  0
DICTIONARY
  5
6A
102
{ACAD_REACTORS
330
C
102
}
330
C
100
AcDbDictionary
281
     1
  3
Imperial24
350
6B
  0
DICTIONARY
  5
D
102
{ACAD_REACTORS
330
C
102
}
330
C
100
AcDbDictionary
281
     1
  0
DICTIONARY
  5
62
102
{ACAD_REACTORS
330
C
102
}
330
C
100
AcDbDictionary
281
     1
  3
Layout1
350
6F
  3
Layout2
350
77
  3
Model
350
73
  0
DICTIONARY
  5
10
102
{ACAD_REACTORS
330
C
102
}
330
C
100
AcDbDictionary
281
     1
  3
ByBlock
350
19
  3
ByLayer
350
11
  3
Global
350
21
  0
DICTIONARY
  5
66
102
{ACAD_REACTORS
330
C
102
}
330
C
100
AcDbDictionary
281
     1
  3
Standard
350
67
  0
DICTIONARY
  5
5F
102
{ACAD_REACTORS
330
C
102
}
330
C
100
AcDbDictionary
281
     1
  3
Standard
350
60
  0
DICTIONARY
  5
61
102
{ACAD_REACTORS
330
C
102
}
330
C
100
AcDbDictionary
281
     1
  0
ACDBDICTIONARYWDFLT
  5
E
102
{ACAD_REACTORS
330
C
102
}
330
C
100
AcDbDictionary
281
     1
  3
Normal
350
F
100
AcDbDictionaryWithDefault
340
F
  0
DICTIONARY
  5
42
102
{ACAD_REACTORS
330
C
102
}
330
C
100
AcDbDictionary
281
     1
  3
A0
350
43
  3
A1
350
44
  3
A2
350
45
  3
A3
350
46
  3
A4
350
47
  3
A5
350
48
  3
A6
350
49
  3
A7
350
4A
  3
A8
350
4B
  3
A9
350
4C
  3
B0
350
4D
  3
B1
350
4E
  3
B2
350
4F
  3
B3
350
50
  3
B4
350
51
  3
B5
350
52
  3
B6
350
53
  0
DICTIONARY
  5
68
102
{ACAD_REACTORS
330
C
102
}
330
C
100
AcDbDictionary
281
     1
  3
Imperial24
350
69
  0
DICTIONARY
  5
64
102
{ACAD_REACTORS
330
C
102
}
330
C
100
AcDbDictionary
281
     1
  3
Standard
350
65
  0
DICTIONARY
  5
29
102
{ACAD_REACTORS
330
C
102
}
330
C
100
AcDbDictionary
281
     1
  3
2dWireframe
350
2F
  3
Basic
350
2E
  3
Brighten
350
35
  3
ColorChange
350
39
  3
Conceptual
350
32
  3
Dim
350
34
  3
EdgeColorOff
350
41
  3
Facepattern
350
38
  3
Flat
350
2A
  3
FlatWithEdges
350
2B
  3
Gouraud
350
2C
  3
GouraudWithEdges
350
2D
  3
Hidden
350
31
  3
JitterOff
350
3F
  3
Linepattern
350
37
  3
OverhangOff
350
40
  3
Realistic
350
33
  3
Shaded
350
3E
  3
Shaded with edges
350
3D
  3
Shades of Gray
350
3A
  3
Sketchy
350
3B
  3
Thicken
350
36
  3
Wireframe
350
30
  3
X-Ray
350
3C
  0
XRECORD
  5
111
102
{ACAD_REACTORS
330
C
102
}
330
C
100
AcDbXrecord
280
     1
 90
        1
330
65
  0
DICTIONARY
  5
109
102
{ACAD_REACTORS
330
C
102
}
330
C
100
AcDbDictionary
281
     1
  3
CANNOSCALE
350
10E
  3
CMLEADERSTYLE
350
10B
  3
CTABLESTYLE
350
10A
  3
CVIEWDETAILSTYLE
350
10C
  3
CVIEWSECTIONSTYLE
350
10D
  0
ACDBDETAILVIEWSTYLE
  5
6B
102
{ACAD_XDICTIONARY
360
146
102
}
102
{ACAD_REACTORS
330
6A
102
}
330
6A
100
AcDbModelDocViewStyle
 70
     0
  3
Imperial24
290
     0
100
AcDbDetailViewStyle
 70
     0
 71
     0
 90
        3
 71
     1
340
55
 62
   256
 40
0.24
340
0
 62
   256
 40
0.24
300

 40
0.36
280
     3
 71
     2
340
5D
 90
       25
 62
   256
 71
     3
340
55
 62
   256
 40
0.24
 90
        1
 40
0.75
 90
        1
300
%<\AcVar ViewType \f "%tc1">% %<\AcVar ViewDetailId>%\PSCALE %<\AcVar ViewScale \f "%sn">%
 71
     4
340
5D
 90
       25
 62
   256
340
5D
 90
       25
 62
   256
280
     0
  0
LAYOUT
  5
6F
102
{ACAD_REACTORS
330
62
102
}
330
62
100
AcDbPlotSettings
  1

  2

  4

  6

 40
0.0
 41
0.0
 42
0.0
 43
0.0
 44
0.0
 45
0.0
 46
0.0
 47
0.0
 48
0.0
 49
0.0
140
0.0
141
0.0
142
1.0
143
1.0
 70
   688
 72
     0
 73
     0
 74
     5
  7

 75
    16
147
1.0
 76
     0
 77
     2
 78
   300
148
0.0
149
0.0
100
AcDbLayout
  1
Layout1
 70
     1
 71
     1
 10
0.0
 20
0.0
 11
12.0
 21
9.0
 12
0.0
 22
0.0
 32
0.0
 14
0.0
 24
0.0
 34
0.0
 15
0.0
 25
0.0
 35
0.0
146
0.0
 13
0.0
 23
0.0
 33
0.0
 16
1.0
 26
0.0
 36
0.0
 17
0.0
 27
1.0
 37
0.0
 76
     0
330
6C
  0
LAYOUT
  5
77
102
{ACAD_REACTORS
330
62
102
}
330
62
100
AcDbPlotSettings
  1

  2

  4

  6

 40
0.0
 41
0.0
 42
0.0
 43
0.0
 44
0.0
 45
0.0
 46
0.0
 47
0.0
 48
0.0
 49
0.0
140
0.0
141
0.0
142
1.0
143
1.0
 70
   688
 72
     0
 73
     0
 74
     5
  7

 75
    16
147
1.0
 76
     0
 77
     2
 78
   300
148
0.0
149
0.0
100
AcDbLayout
  1
Layout2
 70
     1
 71
     2
 10
0.0
 20
0.0
 11
12.0
 21
9.0
 12
0.0
 22
0.0
 32
0.0
 14
0.0
 24
0.0
 34
0.0
 15
0.0
 25
0.0
 35
0.0
146
0.0
 13
0.0
 23
0.0
 33
0.0
 16
1.0
 26
0.0
 36
0.0
 17
0.0
 27
1.0
 37
0.0
 76
     0
330
74
  0
LAYOUT
  5
73
102
{ACAD_REACTORS
330
62
102
}
330
62
100
AcDbPlotSettings
  1

  2

  4

  6

 40
0.0
 41
0.0
 42
0.0
 43
0.0
 44
0.0
 45
0.0
 46
0.0
 47
0.0
 48
0.0
 49
0.0
140
0.0
141
0.0
142
1.0
143
1.0
 70
  1712
 72
     0
 73
     0
 74
     0
  7

 75
     0
147
1.0
 76
     0
 77
     2
 78
   300
148
0.0
149
0.0
100
AcDbLayout
  1
Model
 70
     1
 71
     0
 10
0.0
 20
0.0
 11
12.0
 21
9.0
 12
0.0
 22
0.0
 32
0.0
 14
0.0
 24
0.0
 34
0.0
 15
0.0
 25
0.0
 35
0.0
146
0.0
 13
0.0
 23
0.0
 33
0.0
 16
1.0
 26
0.0
 36
0.0
 17
0.0
 27
1.0
 37
0.0
 76
     0
330
70
  0
MATERIAL
  5
19
102
{ACAD_XDICTIONARY
360
1A
102
}
102
{ACAD_REACTORS
330
10
102
}
330
10
100
AcDbMaterial
  1
ByBlock
 72
     0
 43
0.0208333333333333
 43
0.0
 43
0.0
 43
0.0
 43
0.0
 43
0.0208333333333333
 43
0.0
 43
0.0
 43
0.0
 43
0.0
 43
1.0
 43
0.0
 43
0.0
 43
0.0
 43
0.0
 43
1.0
 77
     0
 47
0.0208333333333333
 47
0.0
 47
0.0
 47
0.0
 47
0.0
 47
0.0208333333333333
 47
0.0
 47
0.0
 47
0.0
 47
0.0
 47
1.0
 47
0.0
 47
0.0
 47
0.0
 47
0.0
 47
1.0
171
     0
 49
0.0208333333333333
 49
0.0
 49
0.0
 49
0.0
 49
0.0
 49
0.0208333333333333
 49
0.0
 49
0.0
 49
0.0
 49
0.0
 49
1.0
 49
0.0
 49
0.0
 49
0.0
 49
0.0
 49
1.0
175
     0
142
0.0208333333333333
142
0.0
142
0.0
142
0.0
142
0.0
142
0.0208333333333333
142
0.0
142
0.0
142
0.0
142
0.0
142
1.0
142
0.0
142
0.0
142
0.0
142
0.0
142
1.0
179
     0
144
0.0208333333333333
144
0.0
144
0.0
144
0.0
144
0.0
144
0.0208333333333333
144
0.0
144
0.0
144
0.0
144
0.0
144
1.0
144
0.0
144
0.0
144
0.0
144
0.0
144
1.0
147
0.0208333333333333
147
0.0
147
0.0
147
0.0
147
0.0
147
0.0208333333333333
147
0.0
147
0.0
147
0.0
147
0.0
147
1.0
147
0.0
147
0.0
147
0.0
147
0.0
147
1.0
  0
MATERIAL
  5
11
102
{ACAD_XDICTIONARY
360
12
102
}
102
{ACAD_REACTORS
330
10
102
}
330
10
100
AcDbMaterial
  1
ByLayer
 72
     0
 43
0.0208333333333333
 43
0.0
 43
0.0
 43
0.0
 43
0.0
 43
0.0208333333333333
 43
0.0
 43
0.0
 43
0.0
 43
0.0
 43
1.0
 43
0.0
 43
0.0
 43
0.0
 43
0.0
 43
1.0
 77
     0
 47
0.0208333333333333
 47
0.0
 47
0.0
 47
0.0
 47
0.0
 47
0.0208333333333333
 47
0.0
 47
0.0
 47
0.0
 47
0.0
 47
1.0
 47
0.0
 47
0.0
 47
0.0
 47
0.0
 47
1.0
171
     0
 49
0.0208333333333333
 49
0.0
 49
0.0
 49
0.0
 49
0.0
 49
0.0208333333333333
 49
0.0
 49
0.0
 49
0.0
 49
0.0
 49
1.0
 49
0.0
 49
0.0
 49
0.0
 49
0.0
 49
1.0
175
     0
142
0.0208333333333333
142
0.0
142
0.0
142
0.0
142
0.0
142
0.0208333333333333
142
0.0
142
0.0
142
0.0
142
0.0
142
1.0
142
0.0
142
0.0
142
0.0
142
0.0
142
1.0
179
     0
144
0.0208333333333333
144
0.0
144
0.0
144
0.0
144
0.0
144
0.0208333333333333
144
0.0
144
0.0
144
0.0
144
0.0
144
1.0
144
0.0
144
0.0
144
0.0
144
0.0
144
1.0
147
0.0208333333333333
147
0.0
147
0.0
147
0.0
147
0.0
147
0.0208333333333333
147
0.0
147
0.0
147
0.0
147
0.0
147
1.0
147
0.0
147
0.0
147
0.0
147
0.0
147
1.0
  0
MATERIAL
  5
21
102
{ACAD_XDICTIONARY
360
22
102
}
102
{ACAD_REACTORS
330
10
102
}
330
10
100
AcDbMaterial
  1
Global
 72
     0
 43
0.0208333333333333
 43
0.0
 43
0.0
 43
0.0
 43
0.0
 43
0.0208333333333333
 43
0.0
 43
0.0
 43
0.0
 43
0.0
 43
1.0
 43
0.0
 43
0.0
 43
0.0
 43
0.0
 43
1.0
 77
     0
 47
0.0208333333333333
 47
0.0
 47
0.0
 47
0.0
 47
0.0
 47
0.0208333333333333
 47
0.0
 47
0.0
 47
0.0
 47
0.0
 47
1.0
 47
0.0
 47
0.0
 47
0.0
 47
0.0
 47
1.0
171
     0
 49
0.0208333333333333
 49
0.0
 49
0.0
 49
0.0
 49
0.0
 49
0.0208333333333333
 49
0.0
 49
0.0
 49
0.0
 49
0.0
 49
1.0
 49
0.0
 49
0.0
 49
0.0
 49
0.0
 49
1.0
175
     0
142
0.0208333333333333
142
0.0
142
0.0
142
0.0
142
0.0
142
0.0208333333333333
142
0.0
142
0.0
142
0.0
142
0.0
142
1.0
142
0.0
142
0.0
142
0.0
142
0.0
142
1.0
179
     0
144
0.0208333333333333
144
0.0
144
0.0
144
0.0
144
0.0
144
0.0208333333333333
144
0.0
144
0.0
144
0.0
144
0.0
144
1.0
144
0.0
144
0.0
144
0.0
144
0.0
144
1.0
147
0.0208333333333333
147
0.0
147
0.0
147
0.0
147
0.0
147
0.0208333333333333
147
0.0
147
0.0
147
0.0
147
0.0
147
1.0
147
0.0
147
0.0
147
0.0
147
0.0
147
1.0
  0
MLEADERSTYLE
  5
67
102
{ACAD_XDICTIONARY
360
142
102
}
102
{ACAD_REACTORS
330
66
102
}
330
66
100
AcDbMLeaderStyle
179
     2
170
     2
171
     1
172
     0
 90
        2
 40
0.0
 41
0.0
173
     1
 91
-1056964608
340
5B
 92
       -2
290
     1
 42
0.09
291
     1
 43
0.36
  3
Standard
 44
0.18
300

342
55
174
     1
178
     6
175
     1
176
     0
 93
-1056964608
 45
0.18
292
     0
297
     0
 46
0.18
 94
-1056964608
 47
1.0
 49
1.0
140
1.0
293
     1
141
0.0
294
     1
177
     0
142
1.0
295
     0
296
     0
143
0.125
271
     0
272
     9
273
     9
  0
MLINESTYLE
  5
60
102
{ACAD_REACTORS
330
5F
102
}
330
5F
100
AcDbMlineStyle
  2
STANDARD
 70
     0
  3

 62
   256
 51
90.0
 52
90.0
 71
     2
 49
0.5
 62
   256
  6
BYLAYER
 49
-0.5
 62
   256
  6
BYLAYER
  0
ACDBPLACEHOLDER
  5
F
102
{ACAD_REACTORS
330
E
102
}
330
E
  0
SCALE
  5
43
102
{ACAD_REACTORS
330
42
102
}
330
42
100
AcDbScale
 70
     0
300
1:1
140
1.0
141
1.0
290
     1
  0
SCALE
  5
44
102
{ACAD_REACTORS
330
42
102
}
330
42
100
AcDbScale
 70
     0
300
1/128" = 1'-0"
140
0.0078125
141
12.0
290
     0
  0
SCALE
  5
45
102
{ACAD_REACTORS
330
42
102
}
330
42
100
AcDbScale
 70
     0
300
1/64" = 1'-0"
140
0.015625
141
12.0
290
     0
  0
SCALE
  5
46
102
{ACAD_REACTORS
330
42
102
}
330
42
100
AcDbScale
 70
     0
300
1/32" = 1'-0"
140
0.03125
141
12.0
290
     0
  0
SCALE
  5
47
102
{ACAD_REACTORS
330
42
102
}
330
42
100
AcDbScale
 70
     0
300
1/16" = 1'-0"
140
0.0625
141
12.0
290
     0
  0
SCALE
  5
48
102
{ACAD_REACTORS
330
42
102
}
330
42
100
AcDbScale
 70
     0
300
3/32" = 1'-0"
140
0.09375
141
12.0
290
     0
  0
SCALE
  5
49
102
{ACAD_REACTORS
330
42
102
}
330
42
100
AcDbScale
 70
     0
300
1/8" = 1'-0"
140
0.125
141
12.0
290
     0
  0
SCALE
  5
4A
102
{ACAD_REACTORS
330
42
102
}
330
42
100
AcDbScale
 70
     0
300
3/16" = 1'-0"
140
0.1875
141
12.0
290
     0
  0
SCALE
  5
4B
102
{ACAD_REACTORS
330
42
102
}
330
42
100
AcDbScale
 70
     0
300
1/4" = 1'-0"
140
0.25
141
12.0
290
     0
  0
SCALE
  5
4C
102
{ACAD_REACTORS
330
42
102
}
330
42
100
AcDbScale
 70
     0
300
3/8" = 1'-0"
140
0.375
141
12.0
290
     0
  0
SCALE
  5
4D
102
{ACAD_REACTORS
330
42
102
}
330
42
100
AcDbScale
 70
     0
300
1/2" = 1'-0"
140
0.5
141
12.0
290
     0
  0
SCALE
  5
4E
102
{ACAD_REACTORS
330
42
102
}
330
42
100
AcDbScale
 70
     0
300
3/4" = 1'-0"
140
0.75
141
12.0
290
     0
  0
SCALE
  5
4F
102
{ACAD_REACTORS
330
42
102
}
330
42
100
AcDbScale
 70
     0
300
1" = 1'-0"
140
1.0
141
12.0
290
     0
  0
SCALE
  5
50
102
{ACAD_REACTORS
330
42
102
}
330
42
100
AcDbScale
 70
     0
300
1-1/2" = 1'-0"
140
1.5
141
12.0
290
     0
  0
SCALE
  5
51
102
{ACAD_REACTORS
330
42
102
}
330
42
100
AcDbScale
 70
     0
300
3" = 1'-0"
140
3.0
141
12.0
290
     0
  0
SCALE
  5
52
102
{ACAD_REACTORS
330
42
102
}
330
42
100
AcDbScale
 70
     0
300
6" = 1'-0"
140
6.0
141
12.0
290
     0
  0
SCALE
  5
53
102
{ACAD_REACTORS
330
42
102
}
330
42
100
AcDbScale
 70
     0
300
1'-0" = 1'-0"
140
12.0
141
12.0
290
     0
  0
ACDBSECTIONVIEWSTYLE
  5
69
102
{ACAD_XDICTIONARY
360
144
102
}
102
{ACAD_REACTORS
330
68
102
}
330
68
100
AcDbModelDocViewStyle
 70
     0
  3
Imperial24
290
     0
100
AcDbSectionViewStyle
 70
     0
 71
     0
 90
       78
 71
     1
340
55
 62
   256
 40
0.24
340
0
340
0
 62
   256
 40
0.24
300
I, O, Q, S, X, Z
 40
0.48
 90
        3
 40
0.18
 90
        1
 71
     2
340
5D
 90
       25
 62
   256
340
5D
 90
       50
 62
   256
 40
0.24
 40
0.0
 40
0.24
 71
     3
340
55
 62
   256
 40
0.24
 90
        1
 40
0.75
 90
        1
300
%<\AcVar ViewType \f "%tc1">% %<\AcVar ViewSectionStartId>%-%<\AcVar ViewSectionEndId>%\PSCALE %<\AcVar ViewScale \f "%sn">%
 71
     4
 62
   256
 62
   257
300
ANSI31
 40
1.0
 90
        0
290
     0
290
     0
 90
        6
 40
0.0
 40
1.570796326794896
 40
0.2617993877991494
 40
1.308996938995747
 40
-0.2617993877991494
 40
1.832595714594046
  0
TABLESTYLE
  5
65
102
{ACAD_XDICTIONARY
360
10F
102
}
102
{ACAD_REACTORS
330
64
102
}
330
64
100
AcDbTableStyle
280
     0
  3
Standard
 70
     0
 71
     0
 40
0.06
 41
0.06
280
     0
281
     0
  7
Standard
140
0.18
170
     2
 62
     0
 63
     7
283
     0
 90
      512
 91
        0
  1

274
    -2
284
     1
 64
     0
275
    -2
285
     1
 65
     0
276
    -2
286
     1
 66
     0
277
    -2
287
     1
 67
     0
278
    -2
288
     1
 68
     0
279
    -2
289
     1
 69
     0
  7
Standard
140
0.25
170
     5
 62
     0
 63
     7
283
     0
 90
      512
 91
        0
  1

274
    -2
284
     1
 64
     0
275
    -2
285
     1
 65
     0
276
    -2
286
     1
 66
     0
277
    -2
287
     1
 67
     0
278
    -2
288
     1
 68
     0
279
    -2
289
     1
 69
     0
  7
Standard
140
0.18
170
     5
 62
     0
 63
     7
283
     0
 90
      512
 91
        0
  1

274
    -2
284
     1
 64
     0
275
    -2
285
     1
 65
     0
276
    -2
286
     1
 66
     0
277
    -2
287
     1
 67
     0
278
    -2
288
     1
 68
     0
279
    -2
289
     1
 69
     0
  0
VISUALSTYLE
  5
2F
102
{ACAD_XDICTIONARY
360
11C
102
}
102
{ACAD_REACTORS
330
29
102
}
330
29
100
AcDbVisualStyle
  2
2dWireframe
 70
     4
177
     2
291
     0
 71
     0
176
     1
 72
     2
176
     1
 73
     0
176
     1
 90
        0
176
     1
 40
0.6
176
     1
 41
30.0
176
     1
 63
     7
421
 16777215
176
     1
 74
     1
176
     1
 91
        4
176
     1
 64
     7
176
     1
 65
   257
176
     1
 75
     1
176
     1
175
     1
176
     1
 42
1.0
176
     1
 92
        0
176
     1
 66
   257
176
     1
 43
1.0
176
     1
 76
     1
176
     1
 77
     6
176
     1
 78
     2
176
     1
 67
     7
176
     1
 79
     5
176
     1
170
     0
176
     1
171
     0
176
     1
290
     0
176
     1
 93
        1
176
     1
 44
0.0
176
     1
173
     0
176
     1
1001
ACAD
1000
AcDbSavedByObjectVersion
1070
     0
  0
VISUALSTYLE
  5
2E
102
{ACAD_XDICTIONARY
360
11A
102
}
102
{ACAD_REACTORS
330
29
102
}
330
29
100
AcDbVisualStyle
  2
Basic
 70
     7
177
     2
291
     1
 71
     1
176
     1
 72
     0
176
     1
 73
     1
176
     1
 90
        0
176
     1
 40
0.6
176
     1
 41
30.0
176
     1
 63
     7
421
 16777215
176
     1
 74
     0
176
     1
 91
        4
176
     1
 64
     7
176
     1
 65
   257
176
     1
 75
     1
176
     1
175
     1
176
     1
 42
1.0
176
     1
 92
        8
176
     1
 66
     7
176
     1
 43
1.0
176
     1
 76
     1
176
     1
 77
     6
176
     1
 78
     2
176
     1
 67
     7
176
     1
 79
     5
176
     1
170
     0
176
     1
171
     0
176
     1
290
     0
176
     1
 93
        1
176
     1
 44
0.0
176
     1
173
     0
176
     1
1001
ACAD
1000
AcDbSavedByObjectVersion
1070
     0
  0
VISUALSTYLE
  5
35
102
{ACAD_XDICTIONARY
360
128
102
}
102
{ACAD_REACTORS
330
29
102
}
330
29
100
AcDbVisualStyle
  2
Brighten
 70
    12
177
     2
291
     1
 71
     2
176
     1
 72
     2
176
     1
 73
     0
176
     1
 90
        0
176
     1
 40
0.6
176
     1
 41
30.0
176
     1
 63
     7
421
 16777215
176
     1
 74
     1
176
     1
 91
        4
176
     1
 64
     7
176
     1
 65
   257
176
     1
 75
     1
176
     1
175
     1
176
     1
 42
1.0
176
     1
 92
        8
176
     1
 66
     7
176
     1
 43
1.0
176
     1
 76
     1
176
     1
 77
     6
176
     1
 78
     2
176
     1
 67
     7
176
     1
 79
     5
176
     1
170
     0
176
     1
171
     0
176
     1
290
     0
176
     1
 93
        1
176
     1
 44
50.0
176
     1
173
     0
176
     1
1001
ACAD
1000
AcDbSavedByObjectVersion
1070
     0
  0
VISUALSTYLE
  5
39
102
{ACAD_XDICTIONARY
360
130
102
}
102
{ACAD_REACTORS
330
29
102
}
330
29
100
AcDbVisualStyle
  2
ColorChange
 70
    16
177
     2
291
     1
 71
     2
176
     1
 72
     2
176
     1
 73
     3
176
     1
 90
        0
176
     1
 40
0.6
176
     1
 41
30.0
176
     1
 63
     8
421
  8421504
176
     1
 74
     1
176
     1
 91
        4
176
     1
 64
     7
176
     1
 65
   257
176
     1
 75
     1
176
     1
175
     1
176
     1
 42
1.0
176
     1
 92
        8
176
     1
 66
     8
424
  8421504
176
     1
 43
1.0
176
     1
 76
     1
176
     1
 77
     6
176
     1
 78
     2
176
     1
 67
     7
176
     1
 79
     5
176
     1
170
     0
176
     1
171
     0
176
     1
290
     0
176
     1
 93
        1
176
     1
 44
0.0
176
     1
173
     0
176
     1
1001
ACAD
1000
AcDbSavedByObjectVersion
1070
     0
  0
VISUALSTYLE
  5
32
102
{ACAD_XDICTIONARY
360
122
102
}
102
{ACAD_REACTORS
330
29
102
}
330
29
100
AcDbVisualStyle
  2
Conceptual
 70
     9
177
     2
291
     0
 71
     3
176
     1
 72
     2
176
     1
 73
     0
176
     1
 90
        0
176
     1
 40
0.6
176
     1
 41
30.0
176
     1
 63
     7
421
 16777215
176
     1
 74
     2
176
     1
 91
        2
176
     1
 64
     7
176
     1
 65
   257
176
     1
 75
     1
176
     1
175
     1
176
     1
 42
179.0
176
     1
 92
        8
176
     1
 66
     7
176
     1
 43
1.0
176
     1
 76
     1
176
     1
 77
     6
176
     1
 78
     2
176
     1
 67
     7
176
     1
 79
     3
176
     1
170
     0
176
     1
171
     0
176
     1
290
     0
176
     1
 93
        1
176
     1
 44
0.0
176
     1
173
     0
176
     1
1001
ACAD
1000
AcDbSavedByObjectVersion
1070
     0
  0
VISUALSTYLE
  5
34
102
{ACAD_XDICTIONARY
360
126
102
}
102
{ACAD_REACTORS
330
29
102
}
330
29
100
AcDbVisualStyle
  2
Dim
 70
    11
177
     2
291
     1
 71
     2
176
     1
 72
     2
176
     1
 73
     0
176
     1
 90
        0
176
     1
 40
0.6
176
     1
 41
30.0
176
     1
 63
     7
421
 16777215
176
     1
 74
     1
176
     1
 91
        4
176
     1
 64
     7
176
     1
 65
   257
176
     1
 75
     1
176
     1
175
     1
176
     1
 42
1.0
176
     1
 92
        8
176
     1
 66
     7
176
     1
 43
1.0
176
     1
 76
     1
176
     1
 77
     6
176
     1
 78
     2
176
     1
 67
     7
176
     1
 79
     5
176
     1
170
     0
176
     1
171
     0
176
     1
290
     0
176
     1
 93
        1
176
     1
 44
-50.0
176
     1
173
     0
176
     1
1001
ACAD
1000
AcDbSavedByObjectVersion
1070
     0
  0
VISUALSTYLE
  5
41
102
{ACAD_XDICTIONARY
360
140
102
}
102
{ACAD_REACTORS
330
29
102
}
330
29
100
AcDbVisualStyle
  2
EdgeColorOff
 70
    22
177
     2
291
     1
 71
     2
176
     0
 72
     2
176
     0
 73
     0
176
     0
 90
        0
176
     0
 40
0.6
176
     0
 41
30.0
176
     0
 63
     7
421
 16777215
176
     0
 74
     1
176
     0
 91
        4
176
     0
 64
     7
176
     0
 65
   257
176
     0
 75
     1
176
     0
175
     1
176
     0
 42
1.0
176
     0
 92
        8
176
     2
 66
     7
176
     0
 43
1.0
176
     0
 76
     1
176
     0
 77
     6
176
     0
 78
     2
176
     0
 67
     7
176
     0
 79
     5
176
     0
170
     0
176
     0
171
     0
176
     0
290
     0
176
     0
 93
        1
176
     0
 44
0.0
176
     0
173
     0
176
     0
1001
ACAD
1000
AcDbSavedByObjectVersion
1070
     0
  0
VISUALSTYLE
  5
38
102
{ACAD_XDICTIONARY
360
12E
102
}
102
{ACAD_REACTORS
330
29
102
}
330
29
100
AcDbVisualStyle
  2
Facepattern
 70
    15
177
     2
291
     1
 71
     2
176
     1
 72
     2
176
     1
 73
     0
176
     1
 90
        0
176
     1
 40
0.6
176
     1
 41
30.0
176
     1
 63
     7
421
 16777215
176
     1
 74
     1
176
     1
 91
        4
176
     1
 64
     7
176
     1
 65
   257
176
     1
 75
     1
176
     1
175
     1
176
     1
 42
1.0
176
     1
 92
        8
176
     1
 66
     7
176
     1
 43
1.0
176
     1
 76
     1
176
     1
 77
     6
176
     1
 78
     2
176
     1
 67
     7
176
     1
 79
     5
176
     1
170
     0
176
     1
171
     0
176
     1
290
     0
176
     1
 93
        1
176
     1
 44
0.0
176
     1
173
     0
176
     1
1001
ACAD
1000
AcDbSavedByObjectVersion
1070
     0
  0
VISUALSTYLE
  5
2A
102
{ACAD_XDICTIONARY
360
112
102
}
102
{ACAD_REACTORS
330
29
102
}
330
29
100
AcDbVisualStyle
  2
Flat
 70
     0
177
     2
291
     1
 71
     2
176
     1
 72
     1
176
     1
 73
     1
176
     1
 90
        2
176
     1
 40
0.6
176
     1
 41
30.0
176
     1
 63
     7
421
 16777215
176
     1
 74
     0
176
     1
 91
        0
176
     1
 64
     7
176
     1
 65
   257
176
     1
 75
     1
176
     1
175
     1
176
     1
 42
1.0
176
     1
 92
        8
176
     1
 66
     7
176
     1
 43
1.0
176
     1
 76
     1
176
     1
 77
     6
176
     1
 78
     2
176
     1
 67
     7
176
     1
 79
     5
176
     1
170
     0
176
     1
171
     0
176
     1
290
     0
176
     1
 93
       13
176
     1
 44
0.0
176
     1
173
     0
176
     1
1001
ACAD
1000
AcDbSavedByObjectVersion
1070
     0
  0
VISUALSTYLE
  5
2B
102
{ACAD_XDICTIONARY
360
114
102
}
102
{ACAD_REACTORS
330
29
102
}
330
29
100
AcDbVisualStyle
  2
FlatWithEdges
 70
     1
177
     2
291
     1
 71
     2
176
     1
 72
     1
176
     1
 73
     1
176
     1
 90
        2
176
     1
 40
0.6
176
     1
 41
30.0
176
     1
 63
     7
421
 16777215
176
     1
 74
     1
176
     1
 91
        0
176
     1
 64
     7
176
     1
 65
   257
176
     1
 75
     1
176
     1
175
     1
176
     1
 42
1.0
176
     1
 92
        0
176
     1
 66
   257
176
     1
 43
1.0
176
     1
 76
     1
176
     1
 77
     6
176
     1
 78
     2
176
     1
 67
     7
176
     1
 79
     5
176
     1
170
     0
176
     1
171
     0
176
     1
290
     0
176
     1
 93
       13
176
     1
 44
0.0
176
     1
173
     0
176
     1
1001
ACAD
1000
AcDbSavedByObjectVersion
1070
     0
  0
VISUALSTYLE
  5
2C
102
{ACAD_XDICTIONARY
360
116
102
}
102
{ACAD_REACTORS
330
29
102
}
330
29
100
AcDbVisualStyle
  2
Gouraud
 70
     2
177
     2
291
     1
 71
     2
176
     1
 72
     2
176
     1
 73
     1
176
     1
 90
        2
176
     1
 40
0.6
176
     1
 41
30.0
176
     1
 63
     7
421
 16777215
176
     1
 74
     0
176
     1
 91
        0
176
     1
 64
     7
176
     1
 65
   257
176
     1
 75
     1
176
     1
175
     1
176
     1
 42
1.0
176
     1
 92
        0
176
     1
 66
     7
176
     1
 43
1.0
176
     1
 76
     1
176
     1
 77
     6
176
     1
 78
     2
176
     1
 67
     7
176
     1
 79
     5
176
     1
170
     0
176
     1
171
     0
176
     1
290
     0
176
     1
 93
       13
176
     1
 44
0.0
176
     1
173
     0
176
     1
1001
ACAD
1000
AcDbSavedByObjectVersion
1070
     0
  0
VISUALSTYLE
  5
2D
102
{ACAD_XDICTIONARY
360
118
102
}
102
{ACAD_REACTORS
330
29
102
}
330
29
100
AcDbVisualStyle
  2
GouraudWithEdges
 70
     3
177
     2
291
     1
 71
     2
176
     1
 72
     2
176
     1
 73
     1
176
     1
 90
        2
176
     1
 40
0.6
176
     1
 41
30.0
176
     1
 63
     7
421
 16777215
176
     1
 74
     1
176
     1
 91
        0
176
     1
 64
     7
176
     1
 65
   257
176
     1
 75
     1
176
     1
175
     1
176
     1
 42
1.0
176
     1
 92
        0
176
     1
 66
   257
176
     1
 43
1.0
176
     1
 76
     1
176
     1
 77
     6
176
     1
 78
     2
176
     1
 67
     7
176
     1
 79
     5
176
     1
170
     0
176
     1
171
     0
176
     1
290
     0
176
     1
 93
       13
176
     1
 44
0.0
176
     1
173
     0
176
     1
1001
ACAD
1000
AcDbSavedByObjectVersion
1070
     0
  0
VISUALSTYLE
  5
31
102
{ACAD_XDICTIONARY
360
120
102
}
102
{ACAD_REACTORS
330
29
102
}
330
29
100
AcDbVisualStyle
  2
Hidden
 70
     6
177
     2
291
     0
 71
     1
176
     1
 72
     2
176
     1
 73
     2
176
     1
 90
        0
176
     1
 40
0.6
176
     1
 41
30.0
176
     1
 63
     7
421
 16777215
176
     1
 74
     2
176
     1
 91
        2
176
     1
 64
     7
176
     1
 65
   257
176
     1
 75
     2
176
     1
175
     1
176
     1
 42
40.0
176
     1
 92
        0
176
     1
 66
   257
176
     1
 43
1.0
176
     1
 76
     1
176
     1
 77
     6
176
     1
 78
     2
176
     1
 67
     7
176
     1
 79
     3
176
     1
170
     0
176
     1
171
     0
176
     1
290
     0
176
     1
 93
        1
176
     1
 44
0.0
176
     1
173
     0
176
     1
1001
ACAD
1000
AcDbSavedByObjectVersion
1070
     0
  0
VISUALSTYLE
  5
3F
102
{ACAD_XDICTIONARY
360
13C
102
}
102
{ACAD_REACTORS
330
29
102
}
330
29
100
AcDbVisualStyle
  2
JitterOff
 70
    20
177
     2
291
     1
 71
     2
176
     0
 72
     2
176
     0
 73
     0
176
     0
 90
        0
176
     0
 40
0.6
176
     0
 41
30.0
176
     0
 63
     7
421
 16777215
176
     0
 74
     1
176
     0
 91
        4
176
     0
 64
     7
176
     0
 65
   257
176
     0
 75
     1
176
     0
175
     1
176
     0
 42
1.0
176
     0
 92
       10
176
     2
 66
     7
176
     0
 43
1.0
176
     0
 76
     1
176
     0
 77
     6
176
     0
 78
     2
176
     0
 67
     7
176
     0
 79
     5
176
     0
170
     0
176
     0
171
     0
176
     0
290
     0
176
     0
 93
        1
176
     0
 44
0.0
176
     0
173
     0
176
     0
1001
ACAD
1000
AcDbSavedByObjectVersion
1070
     0
  0
VISUALSTYLE
  5
37
102
{ACAD_XDICTIONARY
360
12C
102
}
102
{ACAD_REACTORS
330
29
102
}
330
29
100
AcDbVisualStyle
  2
Linepattern
 70
    14
177
     2
291
     1
 71
     2
176
     1
 72
     2
176
     1
 73
     0
176
     1
 90
        0
176
     1
 40
0.6
176
     1
 41
30.0
176
     1
 63
     7
421
 16777215
176
     1
 74
     1
176
     1
 91
        4
176
     1
 64
     7
176
     1
 65
   257
176
     1
 75
     7
176
     1
175
     7
176
     1
 42
1.0
176
     1
 92
        8
176
     1
 66
     7
176
     1
 43
1.0
176
     1
 76
     1
176
     1
 77
     6
176
     1
 78
     2
176
     1
 67
     7
176
     1
 79
     5
176
     1
170
     0
176
     1
171
     0
176
     1
290
     0
176
     1
 93
        1
176
     1
 44
0.0
176
     1
173
     0
176
     1
1001
ACAD
1000
AcDbSavedByObjectVersion
1070
     0
  0
VISUALSTYLE
  5
40
102
{ACAD_XDICTIONARY
360
13E
102
}
102
{ACAD_REACTORS
330
29
102
}
330
29
100
AcDbVisualStyle
  2
OverhangOff
 70
    21
177
     2
291
     1
 71
     2
176
     0
 72
     2
176
     0
 73
     0
176
     0
 90
        0
176
     0
 40
0.6
176
     0
 41
30.0
176
     0
 63
     7
421
 16777215
176
     0
 74
     1
176
     0
 91
        4
176
     0
 64
     7
176
     0
 65
   257
176
     0
 75
     1
176
     0
175
     1
176
     0
 42
1.0
176
     0
 92
        9
176
     2
 66
     7
176
     0
 43
1.0
176
     0
 76
     1
176
     0
 77
     6
176
     0
 78
     2
176
     0
 67
     7
176
     0
 79
     5
176
     0
170
     0
176
     0
171
     0
176
     0
290
     0
176
     0
 93
        1
176
     0
 44
0.0
176
     0
173
     0
176
     0
1001
ACAD
1000
AcDbSavedByObjectVersion
1070
     0
  0
VISUALSTYLE
  5
33
102
{ACAD_XDICTIONARY
360
124
102
}
102
{ACAD_REACTORS
330
29
102
}
330
29
100
AcDbVisualStyle
  2
Realistic
 70
     8
177
     2
291
     0
 71
     2
176
     1
 72
     3
176
     1
 73
     0
176
     1
 90
        2
176
     1
 40
0.6
176
     1
 41
30.0
176
     1
 63
     7
421
 16777215
176
     1
 74
     0
176
     1
 91
        0
176
     1
 64
     7
176
     1
 65
   257
176
     1
 75
     1
176
     1
175
     1
176
     1
 42
1.0
176
     1
 92
        8
176
     1
 66
   257
176
     1
 43
1.0
176
     1
 76
     1
176
     1
 77
     6
176
     1
 78
     2
176
     1
 67
     7
176
     1
 79
     3
176
     1
170
     0
176
     1
171
     0
176
     1
290
     0
176
     1
 93
       13
176
     1
 44
0.0
176
     1
173
     0
176
     1
1001
ACAD
1000
AcDbSavedByObjectVersion
1070
     0
  0
VISUALSTYLE
  5
3E
102
{ACAD_XDICTIONARY
360
13A
102
}
102
{ACAD_REACTORS
330
29
102
}
330
29
100
AcDbVisualStyle
  2
Shaded
 70
    27
177
     2
291
     0
 71
     2
176
     1
 72
     2
176
     1
 73
     1
176
     1
 90
        2
176
     1
 40
0.6
176
     1
 41
30.0
176
     1
 63
     7
421
 16777215
176
     1
 74
     0
176
     1
 91
        4
176
     1
 64
     7
176
     1
 65
   257
176
     1
 75
     1
176
     1
175
     1
176
     1
 42
1.0
176
     1
 92
        8
176
     1
 66
   257
176
     1
 43
1.0
176
     1
 76
     1
176
     1
 77
     6
176
     1
 78
     2
176
     1
 67
     8
425
  7895160
176
     1
 79
     3
176
     1
170
     0
176
     1
171
     0
176
     1
290
     0
176
     1
 93
        5
176
     1
 44
0.0
176
     1
173
     0
176
     1
1001
ACAD
1000
AcDbSavedByObjectVersion
1070
     0
  0
VISUALSTYLE
  5
3D
102
{ACAD_XDICTIONARY
360
138
102
}
102
{ACAD_REACTORS
330
29
102
}
330
29
100
AcDbVisualStyle
  2
Shaded with edges
 70
    26
177
     2
291
     0
 71
     2
176
     1
 72
     2
176
     1
 73
     1
176
     1
 90
        2
176
     1
 40
0.6
176
     1
 41
30.0
176
     1
 63
     7
421
 16777215
176
     1
 74
     1
176
     1
 91
        2
176
     1
 64
     7
176
     1
 65
   257
176
     1
 75
     2
176
     1
175
     1
176
     1
 42
1.0
176
     1
 92
        8
176
     1
 66
   257
176
     1
 43
1.0
176
     1
 76
     1
176
     1
 77
     6
176
     1
 78
     2
176
     1
 67
     7
176
     1
 79
     3
176
     1
170
     0
176
     1
171
     0
176
     1
290
     0
176
     1
 93
        5
176
     1
 44
0.0
176
     1
173
     0
176
     1
1001
ACAD
1000
AcDbSavedByObjectVersion
1070
     0
  0
VISUALSTYLE
  5
3A
102
{ACAD_XDICTIONARY
360
132
102
}
102
{ACAD_REACTORS
330
29
102
}
330
29
100
AcDbVisualStyle
  2
Shades of Gray
 70
    23
177
     2
291
     0
 71
     2
176
     1
 72
     2
176
     1
 73
     3
176
     1
 90
        0
176
     1
 40
0.6
176
     1
 41
30.0
176
     1
 63
     7
421
 16777215
176
     1
 74
     2
176
     1
 91
        2
176
     1
 64
     7
176
     1
 65
     7
176
     1
 75
     1
176
     1
175
     1
176
     1
 42
40.0
176
     1
 92
        8
176
     1
 66
     7
176
     1
 43
1.0
176
     1
 76
     1
176
     1
 77
     6
176
     1
 78
     2
176
     1
 67
     7
176
     1
 79
     3
176
     1
170
     0
176
     1
171
     0
176
     1
290
     0
176
     1
 93
        1
176
     1
 44
0.0
176
     1
173
     0
176
     1
1001
ACAD
1000
AcDbSavedByObjectVersion
1070
     0
  0
VISUALSTYLE
  5
3B
102
{ACAD_XDICTIONARY
360
134
102
}
102
{ACAD_REACTORS
330
29
102
}
330
29
100
AcDbVisualStyle
  2
Sketchy
 70
    24
177
     2
291
     0
 71
     1
176
     1
 72
     2
176
     1
 73
     2
176
     1
 90
        0
176
     1
 40
0.6
176
     1
 41
30.0
176
     1
 63
     7
421
 16777215
176
     1
 74
     2
176
     1
 91
        2
176
     1
 64
     7
176
     1
 65
     7
176
     1
 75
     1
176
     1
175
     1
176
     1
 42
40.0
176
     1
 92
       11
176
     1
 66
     7
176
     1
 43
1.0
176
     1
 76
     1
176
     1
 77
     6
176
     1
 78
     2
176
     1
 67
     7
176
     1
 79
     6
176
     1
170
     0
176
     1
171
     0
176
     1
290
     0
176
     1
 93
        1
176
     1
 44
0.0
176
     1
173
     0
176
     1
1001
ACAD
1000
AcDbSavedByObjectVersion
1070
     0
  0
VISUALSTYLE
  5
36
102
{ACAD_XDICTIONARY
360
12A
102
}
102
{ACAD_REACTORS
330
29
102
}
330
29
100
AcDbVisualStyle
  2
Thicken
 70
    13
177
     2
291
     1
 71
     2
176
     1
 72
     2
176
     1
 73
     0
176
     1
 90
        0
176
     1
 40
0.6
176
     1
 41
30.0
176
     1
 63
     7
421
 16777215
176
     1
 74
     1
176
     1
 91
        4
176
     1
 64
     7
176
     1
 65
   257
176
     1
 75
     1
176
     1
175
     1
176
     1
 42
1.0
176
     1
 92
       12
176
     1
 66
     7
176
     1
 43
1.0
176
     1
 76
     1
176
     1
 77
     6
176
     1
 78
     2
176
     1
 67
     7
176
     1
 79
     5
176
     1
170
     0
176
     1
171
     0
176
     1
290
     0
176
     1
 93
        1
176
     1
 44
0.0
176
     1
173
     0
176
     1
1001
ACAD
1000
AcDbSavedByObjectVersion
1070
     0
  0
VISUALSTYLE
  5
30
102
{ACAD_XDICTIONARY
360
11E
102
}
102
{ACAD_REACTORS
330
29
102
}
330
29
100
AcDbVisualStyle
  2
Wireframe
 70
     5
177
     2
291
     0
 71
     0
176
     1
 72
     2
176
     1
 73
     0
176
     1
 90
        0
176
     1
 40
0.6
176
     1
 41
30.0
176
     1
 63
     7
421
 16777215
176
     1
 74
     1
176
     1
 91
        4
176
     1
 64
     7
176
     1
 65
   257
176
     1
 75
     1
176
     1
175
     1
176
     1
 42
1.0
176
     1
 92
        0
176
     1
 66
   257
176
     1
 43
1.0
176
     1
 76
     1
176
     1
 77
     6
176
     1
 78
     2
176
     1
 67
     7
176
     1
 79
     3
176
     1
170
     0
176
     1
171
     0
176
     1
290
     0
176
     1
 93
        1
176
     1
 44
0.0
176
     1
173
     0
176
     1
1001
ACAD
1000
AcDbSavedByObjectVersion
1070
     0
  0
VISUALSTYLE
  5
3C
102
{ACAD_XDICTIONARY
360
136
102
}
102
{ACAD_REACTORS
330
29
102
}
330
29
100
AcDbVisualStyle
  2
X-Ray
 70
    25
177
     2
291
     0
 71
     2
176
     1
 72
     2
176
     1
 73
     1
176
     1
 90
        1
176
     1
 40
0.5
176
     1
 41
30.0
176
     1
 63
     7
421
 16777215
176
     1
 74
     1
176
     1
 91
        0
176
     1
 64
     7
176
     1
 65
   257
176
     1
 75
     1
176
     1
175
     1
176
     1
 42
1.0
176
     1
 92
        8
176
     1
 66
     7
176
     1
 43
1.0
176
     1
 76
     1
176
     1
 77
     6
176
     1
 78
     2
176
     1
 67
     7
176
     1
 79
     3
176
     1
170
     0
176
     1
171
     0
176
     1
290
     0
176
     1
 93
       13
176
     1
 44
0.0
176
     1
173
     0
176
     1
1001
ACAD
1000
AcDbSavedByObjectVersion
1070
     0
  0
DICTIONARYVAR
  5
10E
102
{ACAD_REACTORS
330
109
102
}
330
109
100
DictionaryVariables
280
     0
  1
1:1
  0
DICTIONARYVAR
  5
10B
102
{ACAD_REACTORS
330
109
102
}
330
109
100
DictionaryVariables
280
     0
  1
STANDARD
  0
DICTIONARYVAR
  5
10A
102
{ACAD_REACTORS
330
109
102
}
330
109
100
DictionaryVariables
280
     0
  1
STANDARD
  0
DICTIONARYVAR
  5
10C
102
{ACAD_REACTORS
330
109
102
}
330
109
100
DictionaryVariables
280
     0
  1
Imperial24
  0
DICTIONARYVAR
  5
10D
102
{ACAD_REACTORS
330
109
102
}
330
109
100
DictionaryVariables
280
     0
  1
Imperial24
  0
DICTIONARY
  5
146
330
6B
100
AcDbDictionary
280
     1
281
     1
  3
ACAD_XREC_ROUNDTRIP
360
147
  0
DICTIONARY
  5
1A
330
19
100
AcDbDictionary
280
     1
281
     1
  3
BUMPTILE
360
1C
  3
DIFFUSETILE
360
1B
  3
OPACITYTILE
360
1F
  3
REFLECTIONTILE
360
1E
  3
REFRACTIONTILE
360
20
  3
SPECULARTILE
360
1D
  0
DICTIONARY
  5
12
330
11
100
AcDbDictionary
280
     1
281
     1
  3
BUMPTILE
360
14
  3
DIFFUSETILE
360
13
  3
OPACITYTILE
360
17
  3
REFLECTIONTILE
360
16
  3
REFRACTIONTILE
360
18
  3
SPECULARTILE
360
15
  0
DICTIONARY
  5
22
330
21
100
AcDbDictionary
280
     1
281
     1
  3
BUMPTILE
360
24
  3
DIFFUSETILE
360
23
  3
OPACITYTILE
360
27
  3
REFLECTIONTILE
360
26
  3
REFRACTIONTILE
360
28
  3
SPECULARTILE
360
25
  0
DICTIONARY
  5
142
330
67
100
AcDbDictionary
280
     1
281
     1
  3
ACAD_XREC_ROUNDTRIP
360
143
  0
DICTIONARY
  5
144
330
69
100
AcDbDictionary
280
     1
281
     1
  3
ACAD_XREC_ROUNDTRIP
360
145
  0
DICTIONARY
  5
10F
330
65
100
AcDbDictionary
280
     1
281
     1
  3
ACAD_ROUNDTRIP_2008_TABLESTYLE_CELLSTYLEMAP
360
110
  0
DICTIONARY
  5
11C
330
2F
100
AcDbDictionary
280
     1
281
     1
  3
ACAD_XREC_ROUNDTRIP
360
11D
  0
DICTIONARY
  5
11A
330
2E
100
AcDbDictionary
280
     1
281
     1
  3
ACAD_XREC_ROUNDTRIP
360
11B
  0
DICTIONARY
  5
128
330
35
100
AcDbDictionary
280
     1
281
     1
  3
ACAD_XREC_ROUNDTRIP
360
129
  0
DICTIONARY
  5
130
330
39
100
AcDbDictionary
280
     1
281
     1
  3
ACAD_XREC_ROUNDTRIP
360
131
  0
DICTIONARY
  5
122
330
32
100
AcDbDictionary
280
     1
281
     1
  3
ACAD_XREC_ROUNDTRIP
360
123
  0
DICTIONARY
  5
126
330
34
100
AcDbDictionary
280
     1
281
     1
  3
ACAD_XREC_ROUNDTRIP
360
127
  0
DICTIONARY
  5
140
330
41
100
AcDbDictionary
280
     1
281
     1
  3
ACAD_XREC_ROUNDTRIP
360
141
  0
DICTIONARY
  5
12E
330
38
100
AcDbDictionary
280
     1
281
     1
  3
ACAD_XREC_ROUNDTRIP
360
12F
  0
DICTIONARY
  5
112
330
2A
100
AcDbDictionary
280
     1
281
     1
  3
ACAD_XREC_ROUNDTRIP
360
113
  0
DICTIONARY
  5
114
330
2B
100
AcDbDictionary
280
     1
281
     1
  3
ACAD_XREC_ROUNDTRIP
360
115
  0
DICTIONARY
  5
116
330
2C
100
AcDbDictionary
280
     1
281
     1
  3
ACAD_XREC_ROUNDTRIP
360
117
  0
DICTIONARY
  5
118
330
2D
100
AcDbDictionary
280
     1
281
     1
  3
ACAD_XREC_ROUNDTRIP
360
119
  0
DICTIONARY
  5
120
330
31
100
AcDbDictionary
280
     1
281
     1
  3
ACAD_XREC_ROUNDTRIP
360
121
  0
DICTIONARY
  5
13C
330
3F
100
AcDbDictionary
280
     1
281
     1
  3
ACAD_XREC_ROUNDTRIP
360
13D
  0
DICTIONARY
  5
12C
330
37
100
AcDbDictionary
280
     1
281
     1
  3
ACAD_XREC_ROUNDTRIP
360
12D
  0
DICTIONARY
  5
13E
330
40
100
AcDbDictionary
280
     1
281
     1
  3
ACAD_XREC_ROUNDTRIP
360
13F
  0
DICTIONARY
  5
124
330
33
100
AcDbDictionary
280
     1
281
     1
  3
ACAD_XREC_ROUNDTRIP
360
125
  0
DICTIONARY
  5
13A
330
3E
100
AcDbDictionary
280
     1
281
     1
  3
ACAD_XREC_ROUNDTRIP
360
13B
  0
DICTIONARY
  5
138
330
3D
100
AcDbDictionary
280
     1
281
     1
  3
ACAD_XREC_ROUNDTRIP
360
139
  0
DICTIONARY
  5
132
330
3A
100
AcDbDictionary
280
     1
281
     1
  3
ACAD_XREC_ROUNDTRIP
360
133
  0
DICTIONARY
  5
134
330
3B
100
AcDbDictionary
280
     1
281
     1
  3
ACAD_XREC_ROUNDTRIP
360
135
  0
DICTIONARY
  5
12A
330
36
100
AcDbDictionary
280
     1
281
     1
  3
ACAD_XREC_ROUNDTRIP
360
12B
  0
DICTIONARY
  5
11E
330
30
100
AcDbDictionary
280
     1
281
     1
  3
ACAD_XREC_ROUNDTRIP
360
11F
  0
DICTIONARY
  5
136
330
3C
100
AcDbDictionary
280
     1
281
     1
  3
ACAD_XREC_ROUNDTRIP
360
137
  0
XRECORD
  5
147
102
{ACAD_REACTORS
330
146
102
}
330
146
100
AcDbXrecord
280
     1
102
DISPLAYNAME
  1
Imperial24
102
FLAGS
 90
        0
  0
XRECORD
  5
1C
102
{ACAD_REACTORS
330
1A
102
}
330
1A
100
AcDbXrecord
280
     1
270
     1
271
     1
  0
XRECORD
  5
1B
102
{ACAD_REACTORS
330
1A
102
}
330
1A
100
AcDbXrecord
280
     1
270
     1
271
     1
  0
XRECORD
  5
1F
102
{ACAD_REACTORS
330
1A
102
}
330
1A
100
AcDbXrecord
280
     1
270
     1
271
     1
  0
XRECORD
  5
1E
102
{ACAD_REACTORS
330
1A
102
}
330
1A
100
AcDbXrecord
280
     1
270
     1
271
     1
  0
XRECORD
  5
20
102
{ACAD_REACTORS
330
1A
102
}
330
1A
100
AcDbXrecord
280
     1
270
     1
271
     1
  0
XRECORD
  5
1D
102
{ACAD_REACTORS
330
1A
102
}
330
1A
100
AcDbXrecord
280
     1
270
     1
271
     1
  0
XRECORD
  5
14
102
{ACAD_REACTORS
330
12
102
}
330
12
100
AcDbXrecord
280
     1
270
     1
271
     1
  0
XRECORD
  5
13
102
{ACAD_REACTORS
330
12
102
}
330
12
100
AcDbXrecord
280
     1
270
     1
271
     1
  0
XRECORD
  5
17
102
{ACAD_REACTORS
330
12
102
}
330
12
100
AcDbXrecord
280
     1
270
     1
271
     1
  0
XRECORD
  5
16
102
{ACAD_REACTORS
330
12
102
}
330
12
100
AcDbXrecord
280
     1
270
     1
271
     1
  0
XRECORD
  5
18
102
{ACAD_REACTORS
330
12
102
}
330
12
100
AcDbXrecord
280
     1
270
     1
271
     1
  0
XRECORD
  5
15
102
{ACAD_REACTORS
330
12
102
}
330
12
100
AcDbXrecord
280
     1
270
     1
271
     1
  0
XRECORD
  5
24
102
{ACAD_REACTORS
330
22
102
}
330
22
100
AcDbXrecord
280
     1
270
     1
271
     1
  0
XRECORD
  5
23
102
{ACAD_REACTORS
330
22
102
}
330
22
100
AcDbXrecord
280
     1
270
     1
271
     1
  0
XRECORD
  5
27
102
{ACAD_REACTORS
330
22
102
}
330
22
100
AcDbXrecord
280
     1
270
     1
271
     1
  0
XRECORD
  5
26
102
{ACAD_REACTORS
330
22
102
}
330
22
100
AcDbXrecord
280
     1
270
     1
271
     1
  0
XRECORD
  5
28
102
{ACAD_REACTORS
330
22
102
}
330
22
100
AcDbXrecord
280
     1
270
     1
271
     1
  0
XRECORD
  5
25
102
{ACAD_REACTORS
330
22
102
}
330
22
100
AcDbXrecord
280
     1
270
     1
271
     1
  0
XRECORD
  5
143
102
{ACAD_REACTORS
330
142
102
}
330
142
100
AcDbXrecord
280
     1
102
ACAD_ROUNDTRIP_2012_MLEADER_STYLE
298
     1
  0
XRECORD
  5
145
102
{ACAD_REACTORS
330
144
102
}
330
144
100
AcDbXrecord
280
     1
102
DISPLAYNAME
  1
Imperial24
102
FLAGS
 90
        0
  0
CELLSTYLEMAP
  5
110
102
{ACAD_REACTORS
330
10F
102
}
330
10F
100
AcDbCellStyleMap
 90
        3
300
CELLSTYLE
  1
TABLEFORMAT_BEGIN
 90
        5
170
     1
 91
        0
 92
    32768
 62
   257
 93
        1
300
CONTENTFORMAT
  1
CONTENTFORMAT_BEGIN
 90
        0
 91
        0
 92
      512
 93
        0
300

 40
0.0
140
1.0
 94
        5
 62
     0
340
55
144
0.25
309
CONTENTFORMAT_END
171
     0
 94
        0
309
TABLEFORMAT_END
  1
CELLSTYLE_BEGIN
 90
        1
 91
        1
300
_TITLE
309
CELLSTYLE_END
300
CELLSTYLE
  1
TABLEFORMAT_BEGIN
 90
        5
170
     1
 91
        0
 92
        0
 62
   257
 93
        1
300
CONTENTFORMAT
  1
CONTENTFORMAT_BEGIN
 90
        0
 91
        0
 92
      512
 93
        0
300

 40
0.0
140
1.0
 94
        5
 62
     0
340
55
144
0.18
309
CONTENTFORMAT_END
171
     0
 94
        0
309
TABLEFORMAT_END
  1
CELLSTYLE_BEGIN
 90
        2
 91
        1
300
_HEADER
309
CELLSTYLE_END
300
CELLSTYLE
  1
TABLEFORMAT_BEGIN
 90
        5
170
     1
 91
        0
 92
        0
 62
   257
 93
        1
300
CONTENTFORMAT
  1
CONTENTFORMAT_BEGIN
 90
        0
 91
        0
 92
      512
 93
        0
300

 40
0.0
140
1.0
 94
        2
 62
     0
340
55
144
0.18
309
CONTENTFORMAT_END
171
     0
 94
        0
309
TABLEFORMAT_END
  1
CELLSTYLE_BEGIN
 90
        3
 91
        2
300
_DATA
309
CELLSTYLE_END
  0
XRECORD
  5
11D
102
{ACAD_REACTORS
330
11C
102
}
330
11C
100
AcDbXrecord
280
     1
102
RTVSPost2010Prop28
280
     1
102
RTVSPost2010PropOp28
 70
     1
102
RTVSPost2010Prop29
280
     1
102
RTVSPost2010PropOp29
 70
     1
102
RTVSPost2010Prop30
280
     0
102
RTVSPost2010PropOp30
 70
     1
102
RTVSPost2010Prop31
280
     0
102
RTVSPost2010PropOp31
 70
     1
102
RTVSPost2010Prop32
280
     0
102
RTVSPost2010PropOp32
 70
     1
102
RTVSPost2010Prop33
280
     0
102
RTVSPost2010PropOp33
 70
     1
102
RTVSPost2010Prop34
280
     0
102
RTVSPost2010PropOp34
 70
     1
102
RTVSPost2010Prop35
280
     0
102
RTVSPost2010PropOp35
 70
     1
102
RTVSPost2010Prop36
280
     0
102
RTVSPost2010PropOp36
 70
     1
102
RTVSPost2010Prop37
 90
       50
102
RTVSPost2010PropOp37
 70
     1
102
RTVSPost2010Prop38
140
0.0
102
RTVSPost2010PropOp38
 70
     1
102
RTVSPost2010Prop39
140
1.0
102
RTVSPost2010PropOp39
 70
     1
102
RTVSPost2010Prop40
 90
        0
102
RTVSPost2010PropOp40
 70
     1
102
RTVSPost2010Prop41ColorIndex
 90
       18
102
RTVSPost2010Prop41ColorRGB
 90
        0
102
RTVSPost2010PropOp41
 70
     1
102
RTVSPost2010Prop42
 90
       50
102
RTVSPost2010PropOp42
 70
     1
102
RTVSPost2010Prop43
 90
        3
102
RTVSPost2010PropOp43
 70
     1
102
RTVSPost2010Prop44ColorIndex
 90
        5
102
RTVSPost2010Prop44ColorRGB
 90
      255
102
RTVSPost2010PropOp44
 70
     1
102
RTVSPost2010Prop45
280
     0
102
RTVSPost2010PropOp45
 70
     1
102
RTVSPost2010Prop46
 90
       50
102
RTVSPost2010PropOp46
 70
     1
102
RTVSPost2010Prop47
 90
       50
102
RTVSPost2010PropOp47
 70
     1
102
RTVSPost2010Prop48
 90
       50
102
RTVSPost2010PropOp48
 70
     1
102
RTVSPost2010Prop49
280
     0
102
RTVSPost2010PropOp49
 70
     1
102
RTVSPost2010Prop50
 90
       50
102
RTVSPost2010PropOp50
 70
     1
102
RTVSPost2010Prop51ColorIndex
 90
      256
102
RTVSPost2010Prop51ColorRGB
 90
-16777216
102
RTVSPost2010PropOp51
 70
     0
102
RTVSPost2010Prop52
140
1.0
102
RTVSPost2010PropOp52
 70
     0
102
RTVSPost2010Prop53
 90
        2
102
RTVSPost2010PropOp53
 70
     1
102
RTVSPost2010Prop54
  1
strokes_ogs.tif
102
RTVSPost2010PropOp54
 70
     1
102
RTVSPost2010Prop55
280
     0
102
RTVSPost2010PropOp55
 70
     1
102
RTVSPost2010Prop56
140
1.0
102
RTVSPost2010PropOp56
 70
     1
102
RTVSPost2010Prop57
140
1.0
102
RTVSPost2010PropOp57
 70
     1
  0
XRECORD
  5
11B
102
{ACAD_REACTORS
330
11A
102
}
330
11A
100
AcDbXrecord
280
     1
102
RTVSPost2010Prop28
280
     0
102
RTVSPost2010PropOp28
 70
     1
102
RTVSPost2010Prop29
280
     1
102
RTVSPost2010PropOp29
 70
     1
102
RTVSPost2010Prop30
280
     1
102
RTVSPost2010PropOp30
 70
     1
102
RTVSPost2010Prop31
280
     0
102
RTVSPost2010PropOp31
 70
     1
102
RTVSPost2010Prop32
280
     0
102
RTVSPost2010PropOp32
 70
     1
102
RTVSPost2010Prop33
280
     0
102
RTVSPost2010PropOp33
 70
     1
102
RTVSPost2010Prop34
280
     0
102
RTVSPost2010PropOp34
 70
     1
102
RTVSPost2010Prop35
280
     0
102
RTVSPost2010PropOp35
 70
     1
102
RTVSPost2010Prop36
280
     0
102
RTVSPost2010PropOp36
 70
     1
102
RTVSPost2010Prop37
 90
       50
102
RTVSPost2010PropOp37
 70
     1
102
RTVSPost2010Prop38
140
0.0
102
RTVSPost2010PropOp38
 70
     1
102
RTVSPost2010Prop39
140
1.0
102
RTVSPost2010PropOp39
 70
     1
102
RTVSPost2010Prop40
 90
        0
102
RTVSPost2010PropOp40
 70
     1
102
RTVSPost2010Prop41ColorIndex
 90
       18
102
RTVSPost2010Prop41ColorRGB
 90
        0
102
RTVSPost2010PropOp41
 70
     1
102
RTVSPost2010Prop42
 90
       50
102
RTVSPost2010PropOp42
 70
     1
102
RTVSPost2010Prop43
 90
        3
102
RTVSPost2010PropOp43
 70
     1
102
RTVSPost2010Prop44ColorIndex
 90
        5
102
RTVSPost2010Prop44ColorRGB
 90
      255
102
RTVSPost2010PropOp44
 70
     1
102
RTVSPost2010Prop45
280
     0
102
RTVSPost2010PropOp45
 70
     1
102
RTVSPost2010Prop46
 90
       50
102
RTVSPost2010PropOp46
 70
     1
102
RTVSPost2010Prop47
 90
       50
102
RTVSPost2010PropOp47
 70
     1
102
RTVSPost2010Prop48
 90
       50
102
RTVSPost2010PropOp48
 70
     1
102
RTVSPost2010Prop49
280
     0
102
RTVSPost2010PropOp49
 70
     1
102
RTVSPost2010Prop50
 90
       50
102
RTVSPost2010PropOp50
 70
     1
102
RTVSPost2010Prop51ColorIndex
 90
      256
102
RTVSPost2010Prop51ColorRGB
 90
-16777216
102
RTVSPost2010PropOp51
 70
     0
102
RTVSPost2010Prop52
140
1.0
102
RTVSPost2010PropOp52
 70
     0
102
RTVSPost2010Prop53
 90
        2
102
RTVSPost2010PropOp53
 70
     1
102
RTVSPost2010Prop54
  1
strokes_ogs.tif
102
RTVSPost2010PropOp54
 70
     1
102
RTVSPost2010Prop55
280
     0
102
RTVSPost2010PropOp55
 70
     1
102
RTVSPost2010Prop56
140
1.0
102
RTVSPost2010PropOp56
 70
     1
102
RTVSPost2010Prop57
140
1.0
102
RTVSPost2010PropOp57
 70
     1
  0
XRECORD
  5
129
102
{ACAD_REACTORS
330
128
102
}
330
128
100
AcDbXrecord
280
     1
102
RTVSPost2010Prop28
280
     0
102
RTVSPost2010PropOp28
 70
     1
102
RTVSPost2010Prop29
280
     1
102
RTVSPost2010PropOp29
 70
     1
102
RTVSPost2010Prop30
280
     1
102
RTVSPost2010PropOp30
 70
     1
102
RTVSPost2010Prop31
280
     0
102
RTVSPost2010PropOp31
 70
     1
102
RTVSPost2010Prop32
280
     0
102
RTVSPost2010PropOp32
 70
     1
102
RTVSPost2010Prop33
280
     0
102
RTVSPost2010PropOp33
 70
     1
102
RTVSPost2010Prop34
280
     0
102
RTVSPost2010PropOp34
 70
     1
102
RTVSPost2010Prop35
280
     0
102
RTVSPost2010PropOp35
 70
     1
102
RTVSPost2010Prop36
280
     0
102
RTVSPost2010PropOp36
 70
     1
102
RTVSPost2010Prop37
 90
       50
102
RTVSPost2010PropOp37
 70
     1
102
RTVSPost2010Prop38
140
0.0
102
RTVSPost2010PropOp38
 70
     1
102
RTVSPost2010Prop39
140
1.0
102
RTVSPost2010PropOp39
 70
     1
102
RTVSPost2010Prop40
 90
        0
102
RTVSPost2010PropOp40
 70
     1
102
RTVSPost2010Prop41ColorIndex
 90
       18
102
RTVSPost2010Prop41ColorRGB
 90
        0
102
RTVSPost2010PropOp41
 70
     1
102
RTVSPost2010Prop42
 90
       50
102
RTVSPost2010PropOp42
 70
     1
102
RTVSPost2010Prop43
 90
        3
102
RTVSPost2010PropOp43
 70
     1
102
RTVSPost2010Prop44ColorIndex
 90
        5
102
RTVSPost2010Prop44ColorRGB
 90
      255
102
RTVSPost2010PropOp44
 70
     1
102
RTVSPost2010Prop45
280
     0
102
RTVSPost2010PropOp45
 70
     1
102
RTVSPost2010Prop46
 90
       50
102
RTVSPost2010PropOp46
 70
     1
102
RTVSPost2010Prop47
 90
       50
102
RTVSPost2010PropOp47
 70
     1
102
RTVSPost2010Prop48
 90
       50
102
RTVSPost2010PropOp48
 70
     1
102
RTVSPost2010Prop49
280
     0
102
RTVSPost2010PropOp49
 70
     1
102
RTVSPost2010Prop50
 90
       50
102
RTVSPost2010PropOp50
 70
     1
102
RTVSPost2010Prop51ColorIndex
 90
      256
102
RTVSPost2010Prop51ColorRGB
 90
-16777216
102
RTVSPost2010PropOp51
 70
     0
102
RTVSPost2010Prop52
140
1.0
102
RTVSPost2010PropOp52
 70
     0
102
RTVSPost2010Prop53
 90
        2
102
RTVSPost2010PropOp53
 70
     1
102
RTVSPost2010Prop54
  1
strokes_ogs.tif
102
RTVSPost2010PropOp54
 70
     1
102
RTVSPost2010Prop55
280
     0
102
RTVSPost2010PropOp55
 70
     1
102
RTVSPost2010Prop56
140
1.0
102
RTVSPost2010PropOp56
 70
     1
102
RTVSPost2010Prop57
140
1.0
102
RTVSPost2010PropOp57
 70
     1
  0
XRECORD
  5
131
102
{ACAD_REACTORS
330
130
102
}
330
130
100
AcDbXrecord
280
     1
102
RTVSPost2010Prop28
280
     0
102
RTVSPost2010PropOp28
 70
     1
102
RTVSPost2010Prop29
280
     1
102
RTVSPost2010PropOp29
 70
     1
102
RTVSPost2010Prop30
280
     1
102
RTVSPost2010PropOp30
 70
     1
102
RTVSPost2010Prop31
280
     0
102
RTVSPost2010PropOp31
 70
     1
102
RTVSPost2010Prop32
280
     0
102
RTVSPost2010PropOp32
 70
     1
102
RTVSPost2010Prop33
280
     0
102
RTVSPost2010PropOp33
 70
     1
102
RTVSPost2010Prop34
280
     0
102
RTVSPost2010PropOp34
 70
     1
102
RTVSPost2010Prop35
280
     0
102
RTVSPost2010PropOp35
 70
     1
102
RTVSPost2010Prop36
280
     0
102
RTVSPost2010PropOp36
 70
     1
102
RTVSPost2010Prop37
 90
       50
102
RTVSPost2010PropOp37
 70
     1
102
RTVSPost2010Prop38
140
0.0
102
RTVSPost2010PropOp38
 70
     1
102
RTVSPost2010Prop39
140
1.0
102
RTVSPost2010PropOp39
 70
     1
102
RTVSPost2010Prop40
 90
        0
102
RTVSPost2010PropOp40
 70
     1
102
RTVSPost2010Prop41ColorIndex
 90
       18
102
RTVSPost2010Prop41ColorRGB
 90
        0
102
RTVSPost2010PropOp41
 70
     1
102
RTVSPost2010Prop42
 90
       50
102
RTVSPost2010PropOp42
 70
     1
102
RTVSPost2010Prop43
 90
        3
102
RTVSPost2010PropOp43
 70
     1
102
RTVSPost2010Prop44ColorIndex
 90
        5
102
RTVSPost2010Prop44ColorRGB
 90
      255
102
RTVSPost2010PropOp44
 70
     1
102
RTVSPost2010Prop45
280
     0
102
RTVSPost2010PropOp45
 70
     1
102
RTVSPost2010Prop46
 90
       50
102
RTVSPost2010PropOp46
 70
     1
102
RTVSPost2010Prop47
 90
       50
102
RTVSPost2010PropOp47
 70
     1
102
RTVSPost2010Prop48
 90
       50
102
RTVSPost2010PropOp48
 70
     1
102
RTVSPost2010Prop49
280
     0
102
RTVSPost2010PropOp49
 70
     1
102
RTVSPost2010Prop50
 90
       50
102
RTVSPost2010PropOp50
 70
     1
102
RTVSPost2010Prop51ColorIndex
 90
      256
102
RTVSPost2010Prop51ColorRGB
 90
-16777216
102
RTVSPost2010PropOp51
 70
     0
102
RTVSPost2010Prop52
140
1.0
102
RTVSPost2010PropOp52
 70
     0
102
RTVSPost2010Prop53
 90
        2
102
RTVSPost2010PropOp53
 70
     1
102
RTVSPost2010Prop54
  1
strokes_ogs.tif
102
RTVSPost2010PropOp54
 70
     1
102
RTVSPost2010Prop55
280
     0
102
RTVSPost2010PropOp55
 70
     1
102
RTVSPost2010Prop56
140
1.0
102
RTVSPost2010PropOp56
 70
     1
102
RTVSPost2010Prop57
140
1.0
102
RTVSPost2010PropOp57
 70
     1
  0
XRECORD
  5
123
102
{ACAD_REACTORS
330
122
102
}
330
122
100
AcDbXrecord
280
     1
102
RTVSPost2010Prop28
280
     0
102
RTVSPost2010PropOp28
 70
     1
102
RTVSPost2010Prop29
280
     1
102
RTVSPost2010PropOp29
 70
     1
102
RTVSPost2010Prop30
280
     1
102
RTVSPost2010PropOp30
 70
     1
102
RTVSPost2010Prop31
280
     0
102
RTVSPost2010PropOp31
 70
     1
102
RTVSPost2010Prop32
280
     0
102
RTVSPost2010PropOp32
 70
     1
102
RTVSPost2010Prop33
280
     0
102
RTVSPost2010PropOp33
 70
     1
102
RTVSPost2010Prop34
280
     0
102
RTVSPost2010PropOp34
 70
     1
102
RTVSPost2010Prop35
280
     0
102
RTVSPost2010PropOp35
 70
     1
102
RTVSPost2010Prop36
280
     0
102
RTVSPost2010PropOp36
 70
     1
102
RTVSPost2010Prop37
 90
       50
102
RTVSPost2010PropOp37
 70
     1
102
RTVSPost2010Prop38
140
0.0
102
RTVSPost2010PropOp38
 70
     1
102
RTVSPost2010Prop39
140
1.0
102
RTVSPost2010PropOp39
 70
     1
102
RTVSPost2010Prop40
 90
        0
102
RTVSPost2010PropOp40
 70
     1
102
RTVSPost2010Prop41ColorIndex
 90
       18
102
RTVSPost2010Prop41ColorRGB
 90
        0
102
RTVSPost2010PropOp41
 70
     1
102
RTVSPost2010Prop42
 90
       50
102
RTVSPost2010PropOp42
 70
     1
102
RTVSPost2010Prop43
 90
        3
102
RTVSPost2010PropOp43
 70
     1
102
RTVSPost2010Prop44ColorIndex
 90
        5
102
RTVSPost2010Prop44ColorRGB
 90
      255
102
RTVSPost2010PropOp44
 70
     1
102
RTVSPost2010Prop45
280
     0
102
RTVSPost2010PropOp45
 70
     1
102
RTVSPost2010Prop46
 90
       50
102
RTVSPost2010PropOp46
 70
     1
102
RTVSPost2010Prop47
 90
       50
102
RTVSPost2010PropOp47
 70
     1
102
RTVSPost2010Prop48
 90
       50
102
RTVSPost2010PropOp48
 70
     1
102
RTVSPost2010Prop49
280
     0
102
RTVSPost2010PropOp49
 70
     1
102
RTVSPost2010Prop50
 90
       50
102
RTVSPost2010PropOp50
 70
     1
102
RTVSPost2010Prop51ColorIndex
 90
      256
102
RTVSPost2010Prop51ColorRGB
 90
-16777216
102
RTVSPost2010PropOp51
 70
     0
102
RTVSPost2010Prop52
140
1.0
102
RTVSPost2010PropOp52
 70
     0
102
RTVSPost2010Prop53
 90
        2
102
RTVSPost2010PropOp53
 70
     1
102
RTVSPost2010Prop54
  1
strokes_ogs.tif
102
RTVSPost2010PropOp54
 70
     1
102
RTVSPost2010Prop55
280
     0
102
RTVSPost2010PropOp55
 70
     1
102
RTVSPost2010Prop56
140
1.0
102
RTVSPost2010PropOp56
 70
     1
102
RTVSPost2010Prop57
140
1.0
102
RTVSPost2010PropOp57
 70
     1
  0
XRECORD
  5
127
102
{ACAD_REACTORS
330
126
102
}
330
126
100
AcDbXrecord
280
     1
102
RTVSPost2010Prop28
280
     0
102
RTVSPost2010PropOp28
 70
     1
102
RTVSPost2010Prop29
280
     1
102
RTVSPost2010PropOp29
 70
     1
102
RTVSPost2010Prop30
280
     1
102
RTVSPost2010PropOp30
 70
     1
102
RTVSPost2010Prop31
280
     0
102
RTVSPost2010PropOp31
 70
     1
102
RTVSPost2010Prop32
280
     0
102
RTVSPost2010PropOp32
 70
     1
102
RTVSPost2010Prop33
280
     0
102
RTVSPost2010PropOp33
 70
     1
102
RTVSPost2010Prop34
280
     0
102
RTVSPost2010PropOp34
 70
     1
102
RTVSPost2010Prop35
280
     0
102
RTVSPost2010PropOp35
 70
     1
102
RTVSPost2010Prop36
280
     0
102
RTVSPost2010PropOp36
 70
     1
102
RTVSPost2010Prop37
 90
       50
102
RTVSPost2010PropOp37
 70
     1
102
RTVSPost2010Prop38
140
0.0
102
RTVSPost2010PropOp38
 70
     1
102
RTVSPost2010Prop39
140
1.0
102
RTVSPost2010PropOp39
 70
     1
102
RTVSPost2010Prop40
 90
        0
102
RTVSPost2010PropOp40
 70
     1
102
RTVSPost2010Prop41ColorIndex
 90
       18
102
RTVSPost2010Prop41ColorRGB
 90
        0
102
RTVSPost2010PropOp41
 70
     1
102
RTVSPost2010Prop42
 90
       50
102
RTVSPost2010PropOp42
 70
     1
102
RTVSPost2010Prop43
 90
        3
102
RTVSPost2010PropOp43
 70
     1
102
RTVSPost2010Prop44ColorIndex
 90
        5
102
RTVSPost2010Prop44ColorRGB
 90
      255
102
RTVSPost2010PropOp44
 70
     1
102
RTVSPost2010Prop45
280
     0
102
RTVSPost2010PropOp45
 70
     1
102
RTVSPost2010Prop46
 90
       50
102
RTVSPost2010PropOp46
 70
     1
102
RTVSPost2010Prop47
 90
       50
102
RTVSPost2010PropOp47
 70
     1
102
RTVSPost2010Prop48
 90
       50
102
RTVSPost2010PropOp48
 70
     1
102
RTVSPost2010Prop49
280
     0
102
RTVSPost2010PropOp49
 70
     1
102
RTVSPost2010Prop50
 90
       50
102
RTVSPost2010PropOp50
 70
     1
102
RTVSPost2010Prop51ColorIndex
 90
      256
102
RTVSPost2010Prop51ColorRGB
 90
-16777216
102
RTVSPost2010PropOp51
 70
     0
102
RTVSPost2010Prop52
140
1.0
102
RTVSPost2010PropOp52
 70
     0
102
RTVSPost2010Prop53
 90
        2
102
RTVSPost2010PropOp53
 70
     1
102
RTVSPost2010Prop54
  1
strokes_ogs.tif
102
RTVSPost2010PropOp54
 70
     1
102
RTVSPost2010Prop55
280
     0
102
RTVSPost2010PropOp55
 70
     1
102
RTVSPost2010Prop56
140
1.0
102
RTVSPost2010PropOp56
 70
     1
102
RTVSPost2010Prop57
140
1.0
102
RTVSPost2010PropOp57
 70
     1
  0
XRECORD
  5
141
102
{ACAD_REACTORS
330
140
102
}
330
140
100
AcDbXrecord
280
     1
102
RTVSPost2010Prop28
280
     0
102
RTVSPost2010PropOp28
 70
     0
102
RTVSPost2010Prop29
280
     1
102
RTVSPost2010PropOp29
 70
     0
102
RTVSPost2010Prop30
280
     1
102
RTVSPost2010PropOp30
 70
     0
102
RTVSPost2010Prop31
280
     0
102
RTVSPost2010PropOp31
 70
     0
102
RTVSPost2010Prop32
280
     0
102
RTVSPost2010PropOp32
 70
     0
102
RTVSPost2010Prop33
280
     0
102
RTVSPost2010PropOp33
 70
     0
102
RTVSPost2010Prop34
280
     0
102
RTVSPost2010PropOp34
 70
     0
102
RTVSPost2010Prop35
280
     0
102
RTVSPost2010PropOp35
 70
     0
102
RTVSPost2010Prop36
280
     0
102
RTVSPost2010PropOp36
 70
     0
102
RTVSPost2010Prop37
 90
       50
102
RTVSPost2010PropOp37
 70
     0
102
RTVSPost2010Prop38
140
0.0
102
RTVSPost2010PropOp38
 70
     0
102
RTVSPost2010Prop39
140
1.0
102
RTVSPost2010PropOp39
 70
     0
102
RTVSPost2010Prop40
 90
        0
102
RTVSPost2010PropOp40
 70
     0
102
RTVSPost2010Prop41ColorIndex
 90
       18
102
RTVSPost2010Prop41ColorRGB
 90
        0
102
RTVSPost2010PropOp41
 70
     0
102
RTVSPost2010Prop42
 90
       50
102
RTVSPost2010PropOp42
 70
     0
102
RTVSPost2010Prop43
 90
        3
102
RTVSPost2010PropOp43
 70
     0
102
RTVSPost2010Prop44ColorIndex
 90
        5
102
RTVSPost2010Prop44ColorRGB
 90
      255
102
RTVSPost2010PropOp44
 70
     0
102
RTVSPost2010Prop45
280
     0
102
RTVSPost2010PropOp45
 70
     0
102
RTVSPost2010Prop46
 90
       50
102
RTVSPost2010PropOp46
 70
     0
102
RTVSPost2010Prop47
 90
       50
102
RTVSPost2010PropOp47
 70
     0
102
RTVSPost2010Prop48
 90
       50
102
RTVSPost2010PropOp48
 70
     0
102
RTVSPost2010Prop49
280
     0
102
RTVSPost2010PropOp49
 70
     0
102
RTVSPost2010Prop50
 90
       50
102
RTVSPost2010PropOp50
 70
     0
102
RTVSPost2010Prop51ColorIndex
 90
      256
102
RTVSPost2010Prop51ColorRGB
 90
-16777216
102
RTVSPost2010PropOp51
 70
     0
102
RTVSPost2010Prop52
140
1.0
102
RTVSPost2010PropOp52
 70
     0
102
RTVSPost2010Prop53
 90
        2
102
RTVSPost2010PropOp53
 70
     0
102
RTVSPost2010Prop54
  1
strokes_ogs.tif
102
RTVSPost2010PropOp54
 70
     0
102
RTVSPost2010Prop55
280
     0
102
RTVSPost2010PropOp55
 70
     0
102
RTVSPost2010Prop56
140
1.0
102
RTVSPost2010PropOp56
 70
     0
102
RTVSPost2010Prop57
140
1.0
102
RTVSPost2010PropOp57
 70
     0
  0
XRECORD
  5
12F
102
{ACAD_REACTORS
330
12E
102
}
330
12E
100
AcDbXrecord
280
     1
102
RTVSPost2010Prop28
280
     0
102
RTVSPost2010PropOp28
 70
     1
102
RTVSPost2010Prop29
280
     1
102
RTVSPost2010PropOp29
 70
     1
102
RTVSPost2010Prop30
280
     1
102
RTVSPost2010PropOp30
 70
     1
102
RTVSPost2010Prop31
280
     0
102
RTVSPost2010PropOp31
 70
     1
102
RTVSPost2010Prop32
280
     0
102
RTVSPost2010PropOp32
 70
     1
102
RTVSPost2010Prop33
280
     0
102
RTVSPost2010PropOp33
 70
     1
102
RTVSPost2010Prop34
280
     0
102
RTVSPost2010PropOp34
 70
     1
102
RTVSPost2010Prop35
280
     0
102
RTVSPost2010PropOp35
 70
     1
102
RTVSPost2010Prop36
280
     0
102
RTVSPost2010PropOp36
 70
     1
102
RTVSPost2010Prop37
 90
       50
102
RTVSPost2010PropOp37
 70
     1
102
RTVSPost2010Prop38
140
0.0
102
RTVSPost2010PropOp38
 70
     1
102
RTVSPost2010Prop39
140
1.0
102
RTVSPost2010PropOp39
 70
     1
102
RTVSPost2010Prop40
 90
        0
102
RTVSPost2010PropOp40
 70
     1
102
RTVSPost2010Prop41ColorIndex
 90
       18
102
RTVSPost2010Prop41ColorRGB
 90
        0
102
RTVSPost2010PropOp41
 70
     1
102
RTVSPost2010Prop42
 90
       50
102
RTVSPost2010PropOp42
 70
     1
102
RTVSPost2010Prop43
 90
        3
102
RTVSPost2010PropOp43
 70
     1
102
RTVSPost2010Prop44ColorIndex
 90
        5
102
RTVSPost2010Prop44ColorRGB
 90
      255
102
RTVSPost2010PropOp44
 70
     1
102
RTVSPost2010Prop45
280
     0
102
RTVSPost2010PropOp45
 70
     1
102
RTVSPost2010Prop46
 90
       50
102
RTVSPost2010PropOp46
 70
     1
102
RTVSPost2010Prop47
 90
       50
102
RTVSPost2010PropOp47
 70
     1
102
RTVSPost2010Prop48
 90
       50
102
RTVSPost2010PropOp48
 70
     1
102
RTVSPost2010Prop49
280
     0
102
RTVSPost2010PropOp49
 70
     1
102
RTVSPost2010Prop50
 90
       50
102
RTVSPost2010PropOp50
 70
     1
102
RTVSPost2010Prop51ColorIndex
 90
      256
102
RTVSPost2010Prop51ColorRGB
 90
-16777216
102
RTVSPost2010PropOp51
 70
     0
102
RTVSPost2010Prop52
140
1.0
102
RTVSPost2010PropOp52
 70
     0
102
RTVSPost2010Prop53
 90
        2
102
RTVSPost2010PropOp53
 70
     1
102
RTVSPost2010Prop54
  1
strokes_ogs.tif
102
RTVSPost2010PropOp54
 70
     1
102
RTVSPost2010Prop55
280
     0
102
RTVSPost2010PropOp55
 70
     1
102
RTVSPost2010Prop56
140
1.0
102
RTVSPost2010PropOp56
 70
     1
102
RTVSPost2010Prop57
140
1.0
102
RTVSPost2010PropOp57
 70
     1
  0
XRECORD
  5
113
102
{ACAD_REACTORS
330
112
102
}
330
112
100
AcDbXrecord
280
     1
102
RTVSPost2010Prop28
280
     0
102
RTVSPost2010PropOp28
 70
     1
102
RTVSPost2010Prop29
280
     1
102
RTVSPost2010PropOp29
 70
     1
102
RTVSPost2010Prop30
280
     1
102
RTVSPost2010PropOp30
 70
     1
102
RTVSPost2010Prop31
280
     0
102
RTVSPost2010PropOp31
 70
     1
102
RTVSPost2010Prop32
280
     0
102
RTVSPost2010PropOp32
 70
     1
102
RTVSPost2010Prop33
280
     0
102
RTVSPost2010PropOp33
 70
     1
102
RTVSPost2010Prop34
280
     0
102
RTVSPost2010PropOp34
 70
     1
102
RTVSPost2010Prop35
280
     0
102
RTVSPost2010PropOp35
 70
     1
102
RTVSPost2010Prop36
280
     0
102
RTVSPost2010PropOp36
 70
     1
102
RTVSPost2010Prop37
 90
       50
102
RTVSPost2010PropOp37
 70
     1
102
RTVSPost2010Prop38
140
0.0
102
RTVSPost2010PropOp38
 70
     1
102
RTVSPost2010Prop39
140
1.0
102
RTVSPost2010PropOp39
 70
     1
102
RTVSPost2010Prop40
 90
        0
102
RTVSPost2010PropOp40
 70
     1
102
RTVSPost2010Prop41ColorIndex
 90
       18
102
RTVSPost2010Prop41ColorRGB
 90
        0
102
RTVSPost2010PropOp41
 70
     1
102
RTVSPost2010Prop42
 90
       50
102
RTVSPost2010PropOp42
 70
     1
102
RTVSPost2010Prop43
 90
        3
102
RTVSPost2010PropOp43
 70
     1
102
RTVSPost2010Prop44ColorIndex
 90
        5
102
RTVSPost2010Prop44ColorRGB
 90
      255
102
RTVSPost2010PropOp44
 70
     1
102
RTVSPost2010Prop45
280
     0
102
RTVSPost2010PropOp45
 70
     1
102
RTVSPost2010Prop46
 90
       50
102
RTVSPost2010PropOp46
 70
     1
102
RTVSPost2010Prop47
 90
       50
102
RTVSPost2010PropOp47
 70
     1
102
RTVSPost2010Prop48
 90
       50
102
RTVSPost2010PropOp48
 70
     1
102
RTVSPost2010Prop49
280
     0
102
RTVSPost2010PropOp49
 70
     1
102
RTVSPost2010Prop50
 90
       50
102
RTVSPost2010PropOp50
 70
     1
102
RTVSPost2010Prop51ColorIndex
 90
      256
102
RTVSPost2010Prop51ColorRGB
 90
-16777216
102
RTVSPost2010PropOp51
 70
     0
102
RTVSPost2010Prop52
140
1.0
102
RTVSPost2010PropOp52
 70
     0
102
RTVSPost2010Prop53
 90
        2
102
RTVSPost2010PropOp53
 70
     1
102
RTVSPost2010Prop54
  1
strokes_ogs.tif
102
RTVSPost2010PropOp54
 70
     1
102
RTVSPost2010Prop55
280
     0
102
RTVSPost2010PropOp55
 70
     1
102
RTVSPost2010Prop56
140
1.0
102
RTVSPost2010PropOp56
 70
     1
102
RTVSPost2010Prop57
140
1.0
102
RTVSPost2010PropOp57
 70
     1
  0
XRECORD
  5
115
102
{ACAD_REACTORS
330
114
102
}
330
114
100
AcDbXrecord
280
     1
102
RTVSPost2010Prop28
280
     0
102
RTVSPost2010PropOp28
 70
     1
102
RTVSPost2010Prop29
280
     1
102
RTVSPost2010PropOp29
 70
     1
102
RTVSPost2010Prop30
280
     1
102
RTVSPost2010PropOp30
 70
     1
102
RTVSPost2010Prop31
280
     0
102
RTVSPost2010PropOp31
 70
     1
102
RTVSPost2010Prop32
280
     0
102
RTVSPost2010PropOp32
 70
     1
102
RTVSPost2010Prop33
280
     0
102
RTVSPost2010PropOp33
 70
     1
102
RTVSPost2010Prop34
280
     0
102
RTVSPost2010PropOp34
 70
     1
102
RTVSPost2010Prop35
280
     0
102
RTVSPost2010PropOp35
 70
     1
102
RTVSPost2010Prop36
280
     0
102
RTVSPost2010PropOp36
 70
     1
102
RTVSPost2010Prop37
 90
       50
102
RTVSPost2010PropOp37
 70
     1
102
RTVSPost2010Prop38
140
0.0
102
RTVSPost2010PropOp38
 70
     1
102
RTVSPost2010Prop39
140
1.0
102
RTVSPost2010PropOp39
 70
     1
102
RTVSPost2010Prop40
 90
        0
102
RTVSPost2010PropOp40
 70
     1
102
RTVSPost2010Prop41ColorIndex
 90
       18
102
RTVSPost2010Prop41ColorRGB
 90
        0
102
RTVSPost2010PropOp41
 70
     1
102
RTVSPost2010Prop42
 90
       50
102
RTVSPost2010PropOp42
 70
     1
102
RTVSPost2010Prop43
 90
        3
102
RTVSPost2010PropOp43
 70
     1
102
RTVSPost2010Prop44ColorIndex
 90
        5
102
RTVSPost2010Prop44ColorRGB
 90
      255
102
RTVSPost2010PropOp44
 70
     1
102
RTVSPost2010Prop45
280
     0
102
RTVSPost2010PropOp45
 70
     1
102
RTVSPost2010Prop46
 90
       50
102
RTVSPost2010PropOp46
 70
     1
102
RTVSPost2010Prop47
 90
       50
102
RTVSPost2010PropOp47
 70
     1
102
RTVSPost2010Prop48
 90
       50
102
RTVSPost2010PropOp48
 70
     1
102
RTVSPost2010Prop49
280
     0
102
RTVSPost2010PropOp49
 70
     1
102
RTVSPost2010Prop50
 90
       50
102
RTVSPost2010PropOp50
 70
     1
102
RTVSPost2010Prop51ColorIndex
 90
      256
102
RTVSPost2010Prop51ColorRGB
 90
-16777216
102
RTVSPost2010PropOp51
 70
     0
102
RTVSPost2010Prop52
140
1.0
102
RTVSPost2010PropOp52
 70
     0
102
RTVSPost2010Prop53
 90
        2
102
RTVSPost2010PropOp53
 70
     1
102
RTVSPost2010Prop54
  1
strokes_ogs.tif
102
RTVSPost2010PropOp54
 70
     1
102
RTVSPost2010Prop55
280
     0
102
RTVSPost2010PropOp55
 70
     1
102
RTVSPost2010Prop56
140
1.0
102
RTVSPost2010PropOp56
 70
     1
102
RTVSPost2010Prop57
140
1.0
102
RTVSPost2010PropOp57
 70
     1
  0
XRECORD
  5
117
102
{ACAD_REACTORS
330
116
102
}
330
116
100
AcDbXrecord
280
     1
102
RTVSPost2010Prop28
280
     0
102
RTVSPost2010PropOp28
 70
     1
102
RTVSPost2010Prop29
280
     1
102
RTVSPost2010PropOp29
 70
     1
102
RTVSPost2010Prop30
280
     1
102
RTVSPost2010PropOp30
 70
     1
102
RTVSPost2010Prop31
280
     0
102
RTVSPost2010PropOp31
 70
     1
102
RTVSPost2010Prop32
280
     0
102
RTVSPost2010PropOp32
 70
     1
102
RTVSPost2010Prop33
280
     0
102
RTVSPost2010PropOp33
 70
     1
102
RTVSPost2010Prop34
280
     0
102
RTVSPost2010PropOp34
 70
     1
102
RTVSPost2010Prop35
280
     0
102
RTVSPost2010PropOp35
 70
     1
102
RTVSPost2010Prop36
280
     0
102
RTVSPost2010PropOp36
 70
     1
102
RTVSPost2010Prop37
 90
       50
102
RTVSPost2010PropOp37
 70
     1
102
RTVSPost2010Prop38
140
0.0
102
RTVSPost2010PropOp38
 70
     1
102
RTVSPost2010Prop39
140
1.0
102
RTVSPost2010PropOp39
 70
     1
102
RTVSPost2010Prop40
 90
        0
102
RTVSPost2010PropOp40
 70
     1
102
RTVSPost2010Prop41ColorIndex
 90
       18
102
RTVSPost2010Prop41ColorRGB
 90
        0
102
RTVSPost2010PropOp41
 70
     1
102
RTVSPost2010Prop42
 90
       50
102
RTVSPost2010PropOp42
 70
     1
102
RTVSPost2010Prop43
 90
        3
102
RTVSPost2010PropOp43
 70
     1
102
RTVSPost2010Prop44ColorIndex
 90
        5
102
RTVSPost2010Prop44ColorRGB
 90
      255
102
RTVSPost2010PropOp44
 70
     1
102
RTVSPost2010Prop45
280
     0
102
RTVSPost2010PropOp45
 70
     1
102
RTVSPost2010Prop46
 90
       50
102
RTVSPost2010PropOp46
 70
     1
102
RTVSPost2010Prop47
 90
       50
102
RTVSPost2010PropOp47
 70
     1
102
RTVSPost2010Prop48
 90
       50
102
RTVSPost2010PropOp48
 70
     1
102
RTVSPost2010Prop49
280
     0
102
RTVSPost2010PropOp49
 70
     1
102
RTVSPost2010Prop50
 90
       50
102
RTVSPost2010PropOp50
 70
     1
102
RTVSPost2010Prop51ColorIndex
 90
      256
102
RTVSPost2010Prop51ColorRGB
 90
-16777216
102
RTVSPost2010PropOp51
 70
     0
102
RTVSPost2010Prop52
140
1.0
102
RTVSPost2010PropOp52
 70
     0
102
RTVSPost2010Prop53
 90
        2
102
RTVSPost2010PropOp53
 70
     1
102
RTVSPost2010Prop54
  1
strokes_ogs.tif
102
RTVSPost2010PropOp54
 70
     1
102
RTVSPost2010Prop55
280
     0
102
RTVSPost2010PropOp55
 70
     1
102
RTVSPost2010Prop56
140
1.0
102
RTVSPost2010PropOp56
 70
     1
102
RTVSPost2010Prop57
140
1.0
102
RTVSPost2010PropOp57
 70
     1
  0
XRECORD
  5
119
102
{ACAD_REACTORS
330
118
102
}
330
118
100
AcDbXrecord
280
     1
102
RTVSPost2010Prop28
280
     0
102
RTVSPost2010PropOp28
 70
     1
102
RTVSPost2010Prop29
280
     1
102
RTVSPost2010PropOp29
 70
     1
102
RTVSPost2010Prop30
280
     1
102
RTVSPost2010PropOp30
 70
     1
102
RTVSPost2010Prop31
280
     0
102
RTVSPost2010PropOp31
 70
     1
102
RTVSPost2010Prop32
280
     0
102
RTVSPost2010PropOp32
 70
     1
102
RTVSPost2010Prop33
280
     0
102
RTVSPost2010PropOp33
 70
     1
102
RTVSPost2010Prop34
280
     0
102
RTVSPost2010PropOp34
 70
     1
102
RTVSPost2010Prop35
280
     0
102
RTVSPost2010PropOp35
 70
     1
102
RTVSPost2010Prop36
280
     0
102
RTVSPost2010PropOp36
 70
     1
102
RTVSPost2010Prop37
 90
       50
102
RTVSPost2010PropOp37
 70
     1
102
RTVSPost2010Prop38
140
0.0
102
RTVSPost2010PropOp38
 70
     1
102
RTVSPost2010Prop39
140
1.0
102
RTVSPost2010PropOp39
 70
     1
102
RTVSPost2010Prop40
 90
        0
102
RTVSPost2010PropOp40
 70
     1
102
RTVSPost2010Prop41ColorIndex
 90
       18
102
RTVSPost2010Prop41ColorRGB
 90
        0
102
RTVSPost2010PropOp41
 70
     1
102
RTVSPost2010Prop42
 90
       50
102
RTVSPost2010PropOp42
 70
     1
102
RTVSPost2010Prop43
 90
        3
102
RTVSPost2010PropOp43
 70
     1
102
RTVSPost2010Prop44ColorIndex
 90
        5
102
RTVSPost2010Prop44ColorRGB
 90
      255
102
RTVSPost2010PropOp44
 70
     1
102
RTVSPost2010Prop45
280
     0
102
RTVSPost2010PropOp45
 70
     1
102
RTVSPost2010Prop46
 90
       50
102
RTVSPost2010PropOp46
 70
     1
102
RTVSPost2010Prop47
 90
       50
102
RTVSPost2010PropOp47
 70
     1
102
RTVSPost2010Prop48
 90
       50
102
RTVSPost2010PropOp48
 70
     1
102
RTVSPost2010Prop49
280
     0
102
RTVSPost2010PropOp49
 70
     1
102
RTVSPost2010Prop50
 90
       50
102
RTVSPost2010PropOp50
 70
     1
102
RTVSPost2010Prop51ColorIndex
 90
      256
102
RTVSPost2010Prop51ColorRGB
 90
-16777216
102
RTVSPost2010PropOp51
 70
     0
102
RTVSPost2010Prop52
140
1.0
102
RTVSPost2010PropOp52
 70
     0
102
RTVSPost2010Prop53
 90
        2
102
RTVSPost2010PropOp53
 70
     1
102
RTVSPost2010Prop54
  1
strokes_ogs.tif
102
RTVSPost2010PropOp54
 70
     1
102
RTVSPost2010Prop55
280
     0
102
RTVSPost2010PropOp55
 70
     1
102
RTVSPost2010Prop56
140
1.0
102
RTVSPost2010PropOp56
 70
     1
102
RTVSPost2010Prop57
140
1.0
102
RTVSPost2010PropOp57
 70
     1
  0
XRECORD
  5
121
102
{ACAD_REACTORS
330
120
102
}
330
120
100
AcDbXrecord
280
     1
102
RTVSPost2010Prop28
280
     0
102
RTVSPost2010PropOp28
 70
     1
102
RTVSPost2010Prop29
280
     1
102
RTVSPost2010PropOp29
 70
     1
102
RTVSPost2010Prop30
280
     1
102
RTVSPost2010PropOp30
 70
     1
102
RTVSPost2010Prop31
280
     0
102
RTVSPost2010PropOp31
 70
     1
102
RTVSPost2010Prop32
280
     0
102
RTVSPost2010PropOp32
 70
     1
102
RTVSPost2010Prop33
280
     0
102
RTVSPost2010PropOp33
 70
     1
102
RTVSPost2010Prop34
280
     0
102
RTVSPost2010PropOp34
 70
     1
102
RTVSPost2010Prop35
280
     0
102
RTVSPost2010PropOp35
 70
     1
102
RTVSPost2010Prop36
280
     0
102
RTVSPost2010PropOp36
 70
     1
102
RTVSPost2010Prop37
 90
       50
102
RTVSPost2010PropOp37
 70
     1
102
RTVSPost2010Prop38
140
0.0
102
RTVSPost2010PropOp38
 70
     1
102
RTVSPost2010Prop39
140
1.0
102
RTVSPost2010PropOp39
 70
     1
102
RTVSPost2010Prop40
 90
        0
102
RTVSPost2010PropOp40
 70
     1
102
RTVSPost2010Prop41ColorIndex
 90
       18
102
RTVSPost2010Prop41ColorRGB
 90
        0
102
RTVSPost2010PropOp41
 70
     1
102
RTVSPost2010Prop42
 90
       50
102
RTVSPost2010PropOp42
 70
     1
102
RTVSPost2010Prop43
 90
        3
102
RTVSPost2010PropOp43
 70
     1
102
RTVSPost2010Prop44ColorIndex
 90
        5
102
RTVSPost2010Prop44ColorRGB
 90
      255
102
RTVSPost2010PropOp44
 70
     1
102
RTVSPost2010Prop45
280
     0
102
RTVSPost2010PropOp45
 70
     1
102
RTVSPost2010Prop46
 90
       50
102
RTVSPost2010PropOp46
 70
     1
102
RTVSPost2010Prop47
 90
       50
102
RTVSPost2010PropOp47
 70
     1
102
RTVSPost2010Prop48
 90
       50
102
RTVSPost2010PropOp48
 70
     1
102
RTVSPost2010Prop49
280
     0
102
RTVSPost2010PropOp49
 70
     1
102
RTVSPost2010Prop50
 90
       50
102
RTVSPost2010PropOp50
 70
     1
102
RTVSPost2010Prop51ColorIndex
 90
      256
102
RTVSPost2010Prop51ColorRGB
 90
-16777216
102
RTVSPost2010PropOp51
 70
     0
102
RTVSPost2010Prop52
140
1.0
102
RTVSPost2010PropOp52
 70
     0
102
RTVSPost2010Prop53
 90
        2
102
RTVSPost2010PropOp53
 70
     1
102
RTVSPost2010Prop54
  1
strokes_ogs.tif
102
RTVSPost2010PropOp54
 70
     1
102
RTVSPost2010Prop55
280
     0
102
RTVSPost2010PropOp55
 70
     1
102
RTVSPost2010Prop56
140
1.0
102
RTVSPost2010PropOp56
 70
     1
102
RTVSPost2010Prop57
140
1.0
102
RTVSPost2010PropOp57
 70
     1
  0
XRECORD
  5
13D
102
{ACAD_REACTORS
330
13C
102
}
330
13C
100
AcDbXrecord
280
     1
102
RTVSPost2010Prop28
280
     0
102
RTVSPost2010PropOp28
 70
     0
102
RTVSPost2010Prop29
280
     1
102
RTVSPost2010PropOp29
 70
     0
102
RTVSPost2010Prop30
280
     1
102
RTVSPost2010PropOp30
 70
     0
102
RTVSPost2010Prop31
280
     0
102
RTVSPost2010PropOp31
 70
     0
102
RTVSPost2010Prop32
280
     0
102
RTVSPost2010PropOp32
 70
     0
102
RTVSPost2010Prop33
280
     0
102
RTVSPost2010PropOp33
 70
     0
102
RTVSPost2010Prop34
280
     0
102
RTVSPost2010PropOp34
 70
     0
102
RTVSPost2010Prop35
280
     0
102
RTVSPost2010PropOp35
 70
     0
102
RTVSPost2010Prop36
280
     0
102
RTVSPost2010PropOp36
 70
     0
102
RTVSPost2010Prop37
 90
       50
102
RTVSPost2010PropOp37
 70
     0
102
RTVSPost2010Prop38
140
0.0
102
RTVSPost2010PropOp38
 70
     0
102
RTVSPost2010Prop39
140
1.0
102
RTVSPost2010PropOp39
 70
     0
102
RTVSPost2010Prop40
 90
        0
102
RTVSPost2010PropOp40
 70
     0
102
RTVSPost2010Prop41ColorIndex
 90
       18
102
RTVSPost2010Prop41ColorRGB
 90
        0
102
RTVSPost2010PropOp41
 70
     0
102
RTVSPost2010Prop42
 90
       50
102
RTVSPost2010PropOp42
 70
     0
102
RTVSPost2010Prop43
 90
        3
102
RTVSPost2010PropOp43
 70
     0
102
RTVSPost2010Prop44ColorIndex
 90
        5
102
RTVSPost2010Prop44ColorRGB
 90
      255
102
RTVSPost2010PropOp44
 70
     0
102
RTVSPost2010Prop45
280
     0
102
RTVSPost2010PropOp45
 70
     0
102
RTVSPost2010Prop46
 90
       50
102
RTVSPost2010PropOp46
 70
     0
102
RTVSPost2010Prop47
 90
       50
102
RTVSPost2010PropOp47
 70
     0
102
RTVSPost2010Prop48
 90
       50
102
RTVSPost2010PropOp48
 70
     0
102
RTVSPost2010Prop49
280
     0
102
RTVSPost2010PropOp49
 70
     0
102
RTVSPost2010Prop50
 90
       50
102
RTVSPost2010PropOp50
 70
     0
102
RTVSPost2010Prop51ColorIndex
 90
      256
102
RTVSPost2010Prop51ColorRGB
 90
-16777216
102
RTVSPost2010PropOp51
 70
     0
102
RTVSPost2010Prop52
140
1.0
102
RTVSPost2010PropOp52
 70
     0
102
RTVSPost2010Prop53
 90
        2
102
RTVSPost2010PropOp53
 70
     0
102
RTVSPost2010Prop54
  1
strokes_ogs.tif
102
RTVSPost2010PropOp54
 70
     0
102
RTVSPost2010Prop55
280
     0
102
RTVSPost2010PropOp55
 70
     0
102
RTVSPost2010Prop56
140
1.0
102
RTVSPost2010PropOp56
 70
     0
102
RTVSPost2010Prop57
140
1.0
102
RTVSPost2010PropOp57
 70
     0
  0
XRECORD
  5
12D
102
{ACAD_REACTORS
330
12C
102
}
330
12C
100
AcDbXrecord
280
     1
102
RTVSPost2010Prop28
280
     0
102
RTVSPost2010PropOp28
 70
     1
102
RTVSPost2010Prop29
280
     1
102
RTVSPost2010PropOp29
 70
     1
102
RTVSPost2010Prop30
280
     1
102
RTVSPost2010PropOp30
 70
     1
102
RTVSPost2010Prop31
280
     0
102
RTVSPost2010PropOp31
 70
     1
102
RTVSPost2010Prop32
280
     0
102
RTVSPost2010PropOp32
 70
     1
102
RTVSPost2010Prop33
280
     0
102
RTVSPost2010PropOp33
 70
     1
102
RTVSPost2010Prop34
280
     0
102
RTVSPost2010PropOp34
 70
     1
102
RTVSPost2010Prop35
280
     0
102
RTVSPost2010PropOp35
 70
     1
102
RTVSPost2010Prop36
280
     0
102
RTVSPost2010PropOp36
 70
     1
102
RTVSPost2010Prop37
 90
       50
102
RTVSPost2010PropOp37
 70
     1
102
RTVSPost2010Prop38
140
0.0
102
RTVSPost2010PropOp38
 70
     1
102
RTVSPost2010Prop39
140
1.0
102
RTVSPost2010PropOp39
 70
     1
102
RTVSPost2010Prop40
 90
        0
102
RTVSPost2010PropOp40
 70
     1
102
RTVSPost2010Prop41ColorIndex
 90
       18
102
RTVSPost2010Prop41ColorRGB
 90
        0
102
RTVSPost2010PropOp41
 70
     1
102
RTVSPost2010Prop42
 90
       50
102
RTVSPost2010PropOp42
 70
     1
102
RTVSPost2010Prop43
 90
        3
102
RTVSPost2010PropOp43
 70
     1
102
RTVSPost2010Prop44ColorIndex
 90
        5
102
RTVSPost2010Prop44ColorRGB
 90
      255
102
RTVSPost2010PropOp44
 70
     1
102
RTVSPost2010Prop45
280
     0
102
RTVSPost2010PropOp45
 70
     1
102
RTVSPost2010Prop46
 90
       50
102
RTVSPost2010PropOp46
 70
     1
102
RTVSPost2010Prop47
 90
       50
102
RTVSPost2010PropOp47
 70
     1
102
RTVSPost2010Prop48
 90
       50
102
RTVSPost2010PropOp48
 70
     1
102
RTVSPost2010Prop49
280
     0
102
RTVSPost2010PropOp49
 70
     1
102
RTVSPost2010Prop50
 90
       50
102
RTVSPost2010PropOp50
 70
     1
102
RTVSPost2010Prop51ColorIndex
 90
      256
102
RTVSPost2010Prop51ColorRGB
 90
-16777216
102
RTVSPost2010PropOp51
 70
     0
102
RTVSPost2010Prop52
140
1.0
102
RTVSPost2010PropOp52
 70
     0
102
RTVSPost2010Prop53
 90
        2
102
RTVSPost2010PropOp53
 70
     1
102
RTVSPost2010Prop54
  1
strokes_ogs.tif
102
RTVSPost2010PropOp54
 70
     1
102
RTVSPost2010Prop55
280
     0
102
RTVSPost2010PropOp55
 70
     1
102
RTVSPost2010Prop56
140
1.0
102
RTVSPost2010PropOp56
 70
     1
102
RTVSPost2010Prop57
140
1.0
102
RTVSPost2010PropOp57
 70
     1
  0
XRECORD
  5
13F
102
{ACAD_REACTORS
330
13E
102
}
330
13E
100
AcDbXrecord
280
     1
102
RTVSPost2010Prop28
280
     0
102
RTVSPost2010PropOp28
 70
     0
102
RTVSPost2010Prop29
280
     1
102
RTVSPost2010PropOp29
 70
     0
102
RTVSPost2010Prop30
280
     1
102
RTVSPost2010PropOp30
 70
     0
102
RTVSPost2010Prop31
280
     0
102
RTVSPost2010PropOp31
 70
     0
102
RTVSPost2010Prop32
280
     0
102
RTVSPost2010PropOp32
 70
     0
102
RTVSPost2010Prop33
280
     0
102
RTVSPost2010PropOp33
 70
     0
102
RTVSPost2010Prop34
280
     0
102
RTVSPost2010PropOp34
 70
     0
102
RTVSPost2010Prop35
280
     0
102
RTVSPost2010PropOp35
 70
     0
102
RTVSPost2010Prop36
280
     0
102
RTVSPost2010PropOp36
 70
     0
102
RTVSPost2010Prop37
 90
       50
102
RTVSPost2010PropOp37
 70
     0
102
RTVSPost2010Prop38
140
0.0
102
RTVSPost2010PropOp38
 70
     0
102
RTVSPost2010Prop39
140
1.0
102
RTVSPost2010PropOp39
 70
     0
102
RTVSPost2010Prop40
 90
        0
102
RTVSPost2010PropOp40
 70
     0
102
RTVSPost2010Prop41ColorIndex
 90
       18
102
RTVSPost2010Prop41ColorRGB
 90
        0
102
RTVSPost2010PropOp41
 70
     0
102
RTVSPost2010Prop42
 90
       50
102
RTVSPost2010PropOp42
 70
     0
102
RTVSPost2010Prop43
 90
        3
102
RTVSPost2010PropOp43
 70
     0
102
RTVSPost2010Prop44ColorIndex
 90
        5
102
RTVSPost2010Prop44ColorRGB
 90
      255
102
RTVSPost2010PropOp44
 70
     0
102
RTVSPost2010Prop45
280
     0
102
RTVSPost2010PropOp45
 70
     0
102
RTVSPost2010Prop46
 90
       50
102
RTVSPost2010PropOp46
 70
     0
102
RTVSPost2010Prop47
 90
       50
102
RTVSPost2010PropOp47
 70
     0
102
RTVSPost2010Prop48
 90
       50
102
RTVSPost2010PropOp48
 70
     0
102
RTVSPost2010Prop49
280
     0
102
RTVSPost2010PropOp49
 70
     0
102
RTVSPost2010Prop50
 90
       50
102
RTVSPost2010PropOp50
 70
     0
102
RTVSPost2010Prop51ColorIndex
 90
      256
102
RTVSPost2010Prop51ColorRGB
 90
-16777216
102
RTVSPost2010PropOp51
 70
     0
102
RTVSPost2010Prop52
140
1.0
102
RTVSPost2010PropOp52
 70
     0
102
RTVSPost2010Prop53
 90
        2
102
RTVSPost2010PropOp53
 70
     0
102
RTVSPost2010Prop54
  1
strokes_ogs.tif
102
RTVSPost2010PropOp54
 70
     0
102
RTVSPost2010Prop55
280
     0
102
RTVSPost2010PropOp55
 70
     0
102
RTVSPost2010Prop56
140
1.0
102
RTVSPost2010PropOp56
 70
     0
102
RTVSPost2010Prop57
140
1.0
102
RTVSPost2010PropOp57
 70
     0
  0
XRECORD
  5
125
102
{ACAD_REACTORS
330
124
102
}
330
124
100
AcDbXrecord
280
     1
102
RTVSPost2010Prop28
280
     0
102
RTVSPost2010PropOp28
 70
     1
102
RTVSPost2010Prop29
280
     1
102
RTVSPost2010PropOp29
 70
     1
102
RTVSPost2010Prop30
280
     1
102
RTVSPost2010PropOp30
 70
     1
102
RTVSPost2010Prop31
280
     0
102
RTVSPost2010PropOp31
 70
     1
102
RTVSPost2010Prop32
280
     0
102
RTVSPost2010PropOp32
 70
     1
102
RTVSPost2010Prop33
280
     0
102
RTVSPost2010PropOp33
 70
     1
102
RTVSPost2010Prop34
280
     0
102
RTVSPost2010PropOp34
 70
     1
102
RTVSPost2010Prop35
280
     0
102
RTVSPost2010PropOp35
 70
     1
102
RTVSPost2010Prop36
280
     0
102
RTVSPost2010PropOp36
 70
     1
102
RTVSPost2010Prop37
 90
       50
102
RTVSPost2010PropOp37
 70
     1
102
RTVSPost2010Prop38
140
0.0
102
RTVSPost2010PropOp38
 70
     1
102
RTVSPost2010Prop39
140
1.0
102
RTVSPost2010PropOp39
 70
     1
102
RTVSPost2010Prop40
 90
        0
102
RTVSPost2010PropOp40
 70
     1
102
RTVSPost2010Prop41ColorIndex
 90
       18
102
RTVSPost2010Prop41ColorRGB
 90
        0
102
RTVSPost2010PropOp41
 70
     1
102
RTVSPost2010Prop42
 90
       50
102
RTVSPost2010PropOp42
 70
     1
102
RTVSPost2010Prop43
 90
        3
102
RTVSPost2010PropOp43
 70
     1
102
RTVSPost2010Prop44ColorIndex
 90
        5
102
RTVSPost2010Prop44ColorRGB
 90
      255
102
RTVSPost2010PropOp44
 70
     1
102
RTVSPost2010Prop45
280
     0
102
RTVSPost2010PropOp45
 70
     1
102
RTVSPost2010Prop46
 90
       50
102
RTVSPost2010PropOp46
 70
     1
102
RTVSPost2010Prop47
 90
       50
102
RTVSPost2010PropOp47
 70
     1
102
RTVSPost2010Prop48
 90
       50
102
RTVSPost2010PropOp48
 70
     1
102
RTVSPost2010Prop49
280
     0
102
RTVSPost2010PropOp49
 70
     1
102
RTVSPost2010Prop50
 90
       50
102
RTVSPost2010PropOp50
 70
     1
102
RTVSPost2010Prop51ColorIndex
 90
      256
102
RTVSPost2010Prop51ColorRGB
 90
-16777216
102
RTVSPost2010PropOp51
 70
     0
102
RTVSPost2010Prop52
140
1.0
102
RTVSPost2010PropOp52
 70
     0
102
RTVSPost2010Prop53
 90
        2
102
RTVSPost2010PropOp53
 70
     1
102
RTVSPost2010Prop54
  1
strokes_ogs.tif
102
RTVSPost2010PropOp54
 70
     1
102
RTVSPost2010Prop55
280
     0
102
RTVSPost2010PropOp55
 70
     1
102
RTVSPost2010Prop56
140
1.0
102
RTVSPost2010PropOp56
 70
     1
102
RTVSPost2010Prop57
140
1.0
102
RTVSPost2010PropOp57
 70
     1
  0
XRECORD
  5
13B
102
{ACAD_REACTORS
330
13A
102
}
330
13A
100
AcDbXrecord
280
     1
102
RTVSPost2010Prop28
280
     0
102
RTVSPost2010PropOp28
 70
     1
102
RTVSPost2010Prop29
280
     1
102
RTVSPost2010PropOp29
 70
     1
102
RTVSPost2010Prop30
280
     1
102
RTVSPost2010PropOp30
 70
     1
102
RTVSPost2010Prop31
280
     0
102
RTVSPost2010PropOp31
 70
     1
102
RTVSPost2010Prop32
280
     0
102
RTVSPost2010PropOp32
 70
     1
102
RTVSPost2010Prop33
280
     0
102
RTVSPost2010PropOp33
 70
     1
102
RTVSPost2010Prop34
280
     0
102
RTVSPost2010PropOp34
 70
     1
102
RTVSPost2010Prop35
280
     0
102
RTVSPost2010PropOp35
 70
     1
102
RTVSPost2010Prop36
280
     0
102
RTVSPost2010PropOp36
 70
     1
102
RTVSPost2010Prop37
 90
       50
102
RTVSPost2010PropOp37
 70
     1
102
RTVSPost2010Prop38
140
0.0
102
RTVSPost2010PropOp38
 70
     1
102
RTVSPost2010Prop39
140
1.0
102
RTVSPost2010PropOp39
 70
     1
102
RTVSPost2010Prop40
 90
        0
102
RTVSPost2010PropOp40
 70
     1
102
RTVSPost2010Prop41ColorIndex
 90
       18
102
RTVSPost2010Prop41ColorRGB
 90
        0
102
RTVSPost2010PropOp41
 70
     1
102
RTVSPost2010Prop42
 90
       50
102
RTVSPost2010PropOp42
 70
     1
102
RTVSPost2010Prop43
 90
        3
102
RTVSPost2010PropOp43
 70
     1
102
RTVSPost2010Prop44ColorIndex
 90
        5
102
RTVSPost2010Prop44ColorRGB
 90
      255
102
RTVSPost2010PropOp44
 70
     1
102
RTVSPost2010Prop45
280
     0
102
RTVSPost2010PropOp45
 70
     1
102
RTVSPost2010Prop46
 90
       50
102
RTVSPost2010PropOp46
 70
     1
102
RTVSPost2010Prop47
 90
       50
102
RTVSPost2010PropOp47
 70
     1
102
RTVSPost2010Prop48
 90
       50
102
RTVSPost2010PropOp48
 70
     1
102
RTVSPost2010Prop49
280
     0
102
RTVSPost2010PropOp49
 70
     1
102
RTVSPost2010Prop50
 90
       50
102
RTVSPost2010PropOp50
 70
     1
102
RTVSPost2010Prop51ColorIndex
 90
      256
102
RTVSPost2010Prop51ColorRGB
 90
-16777216
102
RTVSPost2010PropOp51
 70
     0
102
RTVSPost2010Prop52
140
1.0
102
RTVSPost2010PropOp52
 70
     0
102
RTVSPost2010Prop53
 90
        2
102
RTVSPost2010PropOp53
 70
     1
102
RTVSPost2010Prop54
  1
strokes_ogs.tif
102
RTVSPost2010PropOp54
 70
     1
102
RTVSPost2010Prop55
280
     0
102
RTVSPost2010PropOp55
 70
     1
102
RTVSPost2010Prop56
140
1.0
102
RTVSPost2010PropOp56
 70
     1
102
RTVSPost2010Prop57
140
1.0
102
RTVSPost2010PropOp57
 70
     1
  0
XRECORD
  5
139
102
{ACAD_REACTORS
330
138
102
}
330
138
100
AcDbXrecord
280
     1
102
RTVSPost2010Prop28
280
     0
102
RTVSPost2010PropOp28
 70
     1
102
RTVSPost2010Prop29
280
     1
102
RTVSPost2010PropOp29
 70
     1
102
RTVSPost2010Prop30
280
     1
102
RTVSPost2010PropOp30
 70
     1
102
RTVSPost2010Prop31
280
     0
102
RTVSPost2010PropOp31
 70
     1
102
RTVSPost2010Prop32
280
     0
102
RTVSPost2010PropOp32
 70
     1
102
RTVSPost2010Prop33
280
     0
102
RTVSPost2010PropOp33
 70
     1
102
RTVSPost2010Prop34
280
     0
102
RTVSPost2010PropOp34
 70
     1
102
RTVSPost2010Prop35
280
     0
102
RTVSPost2010PropOp35
 70
     1
102
RTVSPost2010Prop36
280
     0
102
RTVSPost2010PropOp36
 70
     1
102
RTVSPost2010Prop37
 90
       50
102
RTVSPost2010PropOp37
 70
     1
102
RTVSPost2010Prop38
140
0.0
102
RTVSPost2010PropOp38
 70
     1
102
RTVSPost2010Prop39
140
1.0
102
RTVSPost2010PropOp39
 70
     1
102
RTVSPost2010Prop40
 90
        0
102
RTVSPost2010PropOp40
 70
     1
102
RTVSPost2010Prop41ColorIndex
 90
       18
102
RTVSPost2010Prop41ColorRGB
 90
        0
102
RTVSPost2010PropOp41
 70
     1
102
RTVSPost2010Prop42
 90
       50
102
RTVSPost2010PropOp42
 70
     1
102
RTVSPost2010Prop43
 90
        3
102
RTVSPost2010PropOp43
 70
     1
102
RTVSPost2010Prop44ColorIndex
 90
        5
102
RTVSPost2010Prop44ColorRGB
 90
      255
102
RTVSPost2010PropOp44
 70
     1
102
RTVSPost2010Prop45
280
     0
102
RTVSPost2010PropOp45
 70
     1
102
RTVSPost2010Prop46
 90
       50
102
RTVSPost2010PropOp46
 70
     1
102
RTVSPost2010Prop47
 90
       50
102
RTVSPost2010PropOp47
 70
     1
102
RTVSPost2010Prop48
 90
       50
102
RTVSPost2010PropOp48
 70
     1
102
RTVSPost2010Prop49
280
     0
102
RTVSPost2010PropOp49
 70
     1
102
RTVSPost2010Prop50
 90
       50
102
RTVSPost2010PropOp50
 70
     1
102
RTVSPost2010Prop51ColorIndex
 90
      256
102
RTVSPost2010Prop51ColorRGB
 90
-16777216
102
RTVSPost2010PropOp51
 70
     0
102
RTVSPost2010Prop52
140
1.0
102
RTVSPost2010PropOp52
 70
     0
102
RTVSPost2010Prop53
 90
        2
102
RTVSPost2010PropOp53
 70
     1
102
RTVSPost2010Prop54
  1
strokes_ogs.tif
102
RTVSPost2010PropOp54
 70
     1
102
RTVSPost2010Prop55
280
     0
102
RTVSPost2010PropOp55
 70
     1
102
RTVSPost2010Prop56
140
1.0
102
RTVSPost2010PropOp56
 70
     1
102
RTVSPost2010Prop57
140
1.0
102
RTVSPost2010PropOp57
 70
     1
  0
XRECORD
  5
133
102
{ACAD_REACTORS
330
132
102
}
330
132
100
AcDbXrecord
280
     1
102
RTVSPost2010Prop28
280
     0
102
RTVSPost2010PropOp28
 70
     1
102
RTVSPost2010Prop29
280
     1
102
RTVSPost2010PropOp29
 70
     1
102
RTVSPost2010Prop30
280
     1
102
RTVSPost2010PropOp30
 70
     1
102
RTVSPost2010Prop31
280
     0
102
RTVSPost2010PropOp31
 70
     1
102
RTVSPost2010Prop32
280
     0
102
RTVSPost2010PropOp32
 70
     1
102
RTVSPost2010Prop33
280
     0
102
RTVSPost2010PropOp33
 70
     1
102
RTVSPost2010Prop34
280
     0
102
RTVSPost2010PropOp34
 70
     1
102
RTVSPost2010Prop35
280
     0
102
RTVSPost2010PropOp35
 70
     1
102
RTVSPost2010Prop36
280
     0
102
RTVSPost2010PropOp36
 70
     1
102
RTVSPost2010Prop37
 90
       50
102
RTVSPost2010PropOp37
 70
     1
102
RTVSPost2010Prop38
140
0.0
102
RTVSPost2010PropOp38
 70
     1
102
RTVSPost2010Prop39
140
1.0
102
RTVSPost2010PropOp39
 70
     1
102
RTVSPost2010Prop40
 90
        0
102
RTVSPost2010PropOp40
 70
     1
102
RTVSPost2010Prop41ColorIndex
 90
       18
102
RTVSPost2010Prop41ColorRGB
 90
        0
102
RTVSPost2010PropOp41
 70
     1
102
RTVSPost2010Prop42
 90
       50
102
RTVSPost2010PropOp42
 70
     1
102
RTVSPost2010Prop43
 90
        3
102
RTVSPost2010PropOp43
 70
     1
102
RTVSPost2010Prop44ColorIndex
 90
        5
102
RTVSPost2010Prop44ColorRGB
 90
      255
102
RTVSPost2010PropOp44
 70
     1
102
RTVSPost2010Prop45
280
     0
102
RTVSPost2010PropOp45
 70
     1
102
RTVSPost2010Prop46
 90
       50
102
RTVSPost2010PropOp46
 70
     1
102
RTVSPost2010Prop47
 90
       50
102
RTVSPost2010PropOp47
 70
     1
102
RTVSPost2010Prop48
 90
       50
102
RTVSPost2010PropOp48
 70
     1
102
RTVSPost2010Prop49
280
     0
102
RTVSPost2010PropOp49
 70
     1
102
RTVSPost2010Prop50
 90
       50
102
RTVSPost2010PropOp50
 70
     1
102
RTVSPost2010Prop51ColorIndex
 90
      256
102
RTVSPost2010Prop51ColorRGB
 90
-16777216
102
RTVSPost2010PropOp51
 70
     0
102
RTVSPost2010Prop52
140
1.0
102
RTVSPost2010PropOp52
 70
     0
102
RTVSPost2010Prop53
 90
        2
102
RTVSPost2010PropOp53
 70
     1
102
RTVSPost2010Prop54
  1
strokes_ogs.tif
102
RTVSPost2010PropOp54
 70
     1
102
RTVSPost2010Prop55
280
     0
102
RTVSPost2010PropOp55
 70
     1
102
RTVSPost2010Prop56
140
1.0
102
RTVSPost2010PropOp56
 70
     1
102
RTVSPost2010Prop57
140
1.0
102
RTVSPost2010PropOp57
 70
     1
  0
XRECORD
  5
135
102
{ACAD_REACTORS
330
134
102
}
330
134
100
AcDbXrecord
280
     1
102
RTVSPost2010Prop28
280
     0
102
RTVSPost2010PropOp28
 70
     1
102
RTVSPost2010Prop29
280
     1
102
RTVSPost2010PropOp29
 70
     1
102
RTVSPost2010Prop30
280
     1
102
RTVSPost2010PropOp30
 70
     1
102
RTVSPost2010Prop31
280
     0
102
RTVSPost2010PropOp31
 70
     1
102
RTVSPost2010Prop32
280
     0
102
RTVSPost2010PropOp32
 70
     1
102
RTVSPost2010Prop33
280
     0
102
RTVSPost2010PropOp33
 70
     1
102
RTVSPost2010Prop34
280
     0
102
RTVSPost2010PropOp34
 70
     1
102
RTVSPost2010Prop35
280
     0
102
RTVSPost2010PropOp35
 70
     1
102
RTVSPost2010Prop36
280
     0
102
RTVSPost2010PropOp36
 70
     1
102
RTVSPost2010Prop37
 90
       50
102
RTVSPost2010PropOp37
 70
     1
102
RTVSPost2010Prop38
140
0.0
102
RTVSPost2010PropOp38
 70
     1
102
RTVSPost2010Prop39
140
1.0
102
RTVSPost2010PropOp39
 70
     1
102
RTVSPost2010Prop40
 90
        0
102
RTVSPost2010PropOp40
 70
     1
102
RTVSPost2010Prop41ColorIndex
 90
       18
102
RTVSPost2010Prop41ColorRGB
 90
        0
102
RTVSPost2010PropOp41
 70
     1
102
RTVSPost2010Prop42
 90
       50
102
RTVSPost2010PropOp42
 70
     1
102
RTVSPost2010Prop43
 90
        3
102
RTVSPost2010PropOp43
 70
     1
102
RTVSPost2010Prop44ColorIndex
 90
        5
102
RTVSPost2010Prop44ColorRGB
 90
      255
102
RTVSPost2010PropOp44
 70
     1
102
RTVSPost2010Prop45
280
     0
102
RTVSPost2010PropOp45
 70
     1
102
RTVSPost2010Prop46
 90
       50
102
RTVSPost2010PropOp46
 70
     1
102
RTVSPost2010Prop47
 90
       50
102
RTVSPost2010PropOp47
 70
     1
102
RTVSPost2010Prop48
 90
       50
102
RTVSPost2010PropOp48
 70
     1
102
RTVSPost2010Prop49
280
     0
102
RTVSPost2010PropOp49
 70
     1
102
RTVSPost2010Prop50
 90
       50
102
RTVSPost2010PropOp50
 70
     1
102
RTVSPost2010Prop51ColorIndex
 90
      256
102
RTVSPost2010Prop51ColorRGB
 90
-16777216
102
RTVSPost2010PropOp51
 70
     0
102
RTVSPost2010Prop52
140
1.0
102
RTVSPost2010PropOp52
 70
     0
102
RTVSPost2010Prop53
 90
        2
102
RTVSPost2010PropOp53
 70
     1
102
RTVSPost2010Prop54
  1
strokes_ogs.tif
102
RTVSPost2010PropOp54
 70
     1
102
RTVSPost2010Prop55
280
     0
102
RTVSPost2010PropOp55
 70
     1
102
RTVSPost2010Prop56
140
1.0
102
RTVSPost2010PropOp56
 70
     1
102
RTVSPost2010Prop57
140
1.0
102
RTVSPost2010PropOp57
 70
     1
  0
XRECORD
  5
12B
102
{ACAD_REACTORS
330
12A
102
}
330
12A
100
AcDbXrecord
280
     1
102
RTVSPost2010Prop28
280
     0
102
RTVSPost2010PropOp28
 70
     1
102
RTVSPost2010Prop29
280
     1
102
RTVSPost2010PropOp29
 70
     1
102
RTVSPost2010Prop30
280
     1
102
RTVSPost2010PropOp30
 70
     1
102
RTVSPost2010Prop31
280
     0
102
RTVSPost2010PropOp31
 70
     1
102
RTVSPost2010Prop32
280
     0
102
RTVSPost2010PropOp32
 70
     1
102
RTVSPost2010Prop33
280
     0
102
RTVSPost2010PropOp33
 70
     1
102
RTVSPost2010Prop34
280
     0
102
RTVSPost2010PropOp34
 70
     1
102
RTVSPost2010Prop35
280
     0
102
RTVSPost2010PropOp35
 70
     1
102
RTVSPost2010Prop36
280
     0
102
RTVSPost2010PropOp36
 70
     1
102
RTVSPost2010Prop37
 90
       50
102
RTVSPost2010PropOp37
 70
     1
102
RTVSPost2010Prop38
140
0.0
102
RTVSPost2010PropOp38
 70
     1
102
RTVSPost2010Prop39
140
1.0
102
RTVSPost2010PropOp39
 70
     1
102
RTVSPost2010Prop40
 90
        0
102
RTVSPost2010PropOp40
 70
     1
102
RTVSPost2010Prop41ColorIndex
 90
       18
102
RTVSPost2010Prop41ColorRGB
 90
        0
102
RTVSPost2010PropOp41
 70
     1
102
RTVSPost2010Prop42
 90
       50
102
RTVSPost2010PropOp42
 70
     1
102
RTVSPost2010Prop43
 90
        3
102
RTVSPost2010PropOp43
 70
     1
102
RTVSPost2010Prop44ColorIndex
 90
        5
102
RTVSPost2010Prop44ColorRGB
 90
      255
102
RTVSPost2010PropOp44
 70
     1
102
RTVSPost2010Prop45
280
     0
102
RTVSPost2010PropOp45
 70
     1
102
RTVSPost2010Prop46
 90
       50
102
RTVSPost2010PropOp46
 70
     1
102
RTVSPost2010Prop47
 90
       50
102
RTVSPost2010PropOp47
 70
     1
102
RTVSPost2010Prop48
 90
       50
102
RTVSPost2010PropOp48
 70
     1
102
RTVSPost2010Prop49
280
     0
102
RTVSPost2010PropOp49
 70
     1
102
RTVSPost2010Prop50
 90
       50
102
RTVSPost2010PropOp50
 70
     1
102
RTVSPost2010Prop51ColorIndex
 90
      256
102
RTVSPost2010Prop51ColorRGB
 90
-16777216
102
RTVSPost2010PropOp51
 70
     0
102
RTVSPost2010Prop52
140
1.0
102
RTVSPost2010PropOp52
 70
     0
102
RTVSPost2010Prop53
 90
        2
102
RTVSPost2010PropOp53
 70
     1
102
RTVSPost2010Prop54
  1
strokes_ogs.tif
102
RTVSPost2010PropOp54
 70
     1
102
RTVSPost2010Prop55
280
     0
102
RTVSPost2010PropOp55
 70
     1
102
RTVSPost2010Prop56
140
1.0
102
RTVSPost2010PropOp56
 70
     1
102
RTVSPost2010Prop57
140
1.0
102
RTVSPost2010PropOp57
 70
     1
  0
XRECORD
  5
11F
102
{ACAD_REACTORS
330
11E
102
}
330
11E
100
AcDbXrecord
280
     1
102
RTVSPost2010Prop28
280
     0
102
RTVSPost2010PropOp28
 70
     1
102
RTVSPost2010Prop29
280
     1
102
RTVSPost2010PropOp29
 70
     1
102
RTVSPost2010Prop30
280
     1
102
RTVSPost2010PropOp30
 70
     1
102
RTVSPost2010Prop31
280
     0
102
RTVSPost2010PropOp31
 70
     1
102
RTVSPost2010Prop32
280
     0
102
RTVSPost2010PropOp32
 70
     1
102
RTVSPost2010Prop33
280
     0
102
RTVSPost2010PropOp33
 70
     1
102
RTVSPost2010Prop34
280
     0
102
RTVSPost2010PropOp34
 70
     1
102
RTVSPost2010Prop35
280
     0
102
RTVSPost2010PropOp35
 70
     1
102
RTVSPost2010Prop36
280
     0
102
RTVSPost2010PropOp36
 70
     1
102
RTVSPost2010Prop37
 90
       50
102
RTVSPost2010PropOp37
 70
     1
102
RTVSPost2010Prop38
140
0.0
102
RTVSPost2010PropOp38
 70
     1
102
RTVSPost2010Prop39
140
1.0
102
RTVSPost2010PropOp39
 70
     1
102
RTVSPost2010Prop40
 90
        0
102
RTVSPost2010PropOp40
 70
     1
102
RTVSPost2010Prop41ColorIndex
 90
       18
102
RTVSPost2010Prop41ColorRGB
 90
        0
102
RTVSPost2010PropOp41
 70
     1
102
RTVSPost2010Prop42
 90
       50
102
RTVSPost2010PropOp42
 70
     1
102
RTVSPost2010Prop43
 90
        3
102
RTVSPost2010PropOp43
 70
     1
102
RTVSPost2010Prop44ColorIndex
 90
        5
102
RTVSPost2010Prop44ColorRGB
 90
      255
102
RTVSPost2010PropOp44
 70
     1
102
RTVSPost2010Prop45
280
     0
102
RTVSPost2010PropOp45
 70
     1
102
RTVSPost2010Prop46
 90
       50
102
RTVSPost2010PropOp46
 70
     1
102
RTVSPost2010Prop47
 90
       50
102
RTVSPost2010PropOp47
 70
     1
102
RTVSPost2010Prop48
 90
       50
102
RTVSPost2010PropOp48
 70
     1
102
RTVSPost2010Prop49
280
     0
102
RTVSPost2010PropOp49
 70
     1
102
RTVSPost2010Prop50
 90
       50
102
RTVSPost2010PropOp50
 70
     1
102
RTVSPost2010Prop51ColorIndex
 90
      256
102
RTVSPost2010Prop51ColorRGB
 90
-16777216
102
RTVSPost2010PropOp51
 70
     0
102
RTVSPost2010Prop52
140
1.0
102
RTVSPost2010PropOp52
 70
     0
102
RTVSPost2010Prop53
 90
        2
102
RTVSPost2010PropOp53
 70
     1
102
RTVSPost2010Prop54
  1
strokes_ogs.tif
102
RTVSPost2010PropOp54
 70
     1
102
RTVSPost2010Prop55
280
     0
102
RTVSPost2010PropOp55
 70
     1
102
RTVSPost2010Prop56
140
1.0
102
RTVSPost2010PropOp56
 70
     1
102
RTVSPost2010Prop57
140
1.0
102
RTVSPost2010PropOp57
 70
     1
  0
XRECORD
  5
137
102
{ACAD_REACTORS
330
136
102
}
330
136
100
AcDbXrecord
280
     1
102
RTVSPost2010Prop28
280
     0
102
RTVSPost2010PropOp28
 70
     1
102
RTVSPost2010Prop29
280
     1
102
RTVSPost2010PropOp29
 70
     1
102
RTVSPost2010Prop30
280
     1
102
RTVSPost2010PropOp30
 70
     1
102
RTVSPost2010Prop31
280
     0
102
RTVSPost2010PropOp31
 70
     1
102
RTVSPost2010Prop32
280
     0
102
RTVSPost2010PropOp32
 70
     1
102
RTVSPost2010Prop33
280
     0
102
RTVSPost2010PropOp33
 70
     1
102
RTVSPost2010Prop34
280
     0
102
RTVSPost2010PropOp34
 70
     1
102
RTVSPost2010Prop35
280
     0
102
RTVSPost2010PropOp35
 70
     1
102
RTVSPost2010Prop36
280
     0
102
RTVSPost2010PropOp36
 70
     1
102
RTVSPost2010Prop37
 90
       50
102
RTVSPost2010PropOp37
 70
     1
102
RTVSPost2010Prop38
140
0.0
102
RTVSPost2010PropOp38
 70
     1
102
RTVSPost2010Prop39
140
1.0
102
RTVSPost2010PropOp39
 70
     1
102
RTVSPost2010Prop40
 90
        0
102
RTVSPost2010PropOp40
 70
     1
102
RTVSPost2010Prop41ColorIndex
 90
       18
102
RTVSPost2010Prop41ColorRGB
 90
        0
102
RTVSPost2010PropOp41
 70
     1
102
RTVSPost2010Prop42
 90
       50
102
RTVSPost2010PropOp42
 70
     1
102
RTVSPost2010Prop43
 90
        3
102
RTVSPost2010PropOp43
 70
     1
102
RTVSPost2010Prop44ColorIndex
 90
        5
102
RTVSPost2010Prop44ColorRGB
 90
      255
102
RTVSPost2010PropOp44
 70
     1
102
RTVSPost2010Prop45
280
     0
102
RTVSPost2010PropOp45
 70
     1
102
RTVSPost2010Prop46
 90
       50
102
RTVSPost2010PropOp46
 70
     1
102
RTVSPost2010Prop47
 90
       50
102
RTVSPost2010PropOp47
 70
     1
102
RTVSPost2010Prop48
 90
       50
102
RTVSPost2010PropOp48
 70
     1
102
RTVSPost2010Prop49
280
     0
102
RTVSPost2010PropOp49
 70
     1
102
RTVSPost2010Prop50
 90
       50
102
RTVSPost2010PropOp50
 70
     1
102
RTVSPost2010Prop51ColorIndex
 90
      256
102
RTVSPost2010Prop51ColorRGB
 90
-16777216
102
RTVSPost2010PropOp51
 70
     0
102
RTVSPost2010Prop52
140
1.0
102
RTVSPost2010PropOp52
 70
     0
102
RTVSPost2010Prop53
 90
        2
102
RTVSPost2010PropOp53
 70
     1
102
RTVSPost2010Prop54
  1
strokes_ogs.tif
102
RTVSPost2010PropOp54
 70
     1
102
RTVSPost2010Prop55
280
     0
102
RTVSPost2010PropOp55
 70
     1
102
RTVSPost2010Prop56
140
1.0
102
RTVSPost2010PropOp56
 70
     1
102
RTVSPost2010Prop57
140
1.0
102
RTVSPost2010PropOp57
 70
     1
  0
ENDSEC
  0
EOF
