  0
SECTION
  2
HEADER
  9
$ACADVER
  1
AC1024
  9
$ACADMAINTVER
 70
     6
  9
$DWGCODEPAGE
  3
UNDEFINED
  9
$INSBASE
 10
0.0
 20
0.0
 30
0.0
  9
$EXTMIN
 10
1.000000000000000E+20
 20
1.000000000000000E+20
 30
1.000000000000000E+20
  9
$EXTMAX
 10
-1.000000000000000E+20
 20
-1.000000000000000E+20
 30
-1.000000000000000E+20
  9
$LIMMIN
 10
0.0
 20
0.0
  9
$LIMMAX
 10
12.0
 20
9.0
  9
$ORTHOMODE
 70
     0
  9
$REGENMODE
 70
     1
  9
$FILLMODE
 70
     1
  9
$QTEXTMODE
 70
     0
  9
$MIRRTEXT
 70
     1
  9
$LTSCALE
 40
1.0
  9
$ATTMODE
 70
     1
  9
$TEXTSIZE
 40
0.2
  9
$TRACEWID
 40
0.05
  9
$TEXTSTYLE
  7
Standard
  9
$CLAYER
  8
0
  9
$CELTYPE
  6
ByLayer
  9
$CECOLOR
 62
   256
  9
$CELTSCALE
 40
1.0
  9
$DISPSILH
 70
     0
  9
$DIMSCALE
 40
1.0
  9
$DIMASZ
 40
0.18
  9
$DIMEXO
 40
0.0625
  9
$DIMDLI
 40
0.38
  9
$DIMRND
 40
0.0
  9
$DIMDLE
 40
0.0
  9
$DIMEXE
 40
0.18
  9
$DIMTP
 40
0.0
  9
$DIMTM
 40
0.0
  9
$DIMTXT
 40
0.18
  9
$DIMCEN
 40
0.09
  9
$DIMTSZ
 40
0.0
  9
$DIMTOL
 70
     0
  9
$DIMLIM
 70
     0
  9
$DIMTIH
 70
     1
  9
$DIMTOH
 70
     1
  9
$DIMSE1
 70
     0
  9
$DIMSE2
 70
     0
  9
$DIMTAD
 70
     0
  9
$DIMZIN
 70
     0
  9
$DIMBLK
  1

  9
$DIMASO
 70
     1
  9
$DIMSHO
 70
     1
  9
$DIMPOST
  1

  9
$DIMAPOST
  1

  9
$DIMALT
 70
     0
  9
$DIMALTD
 70
     2
  9
$DIMALTF
 40
25.4
  9
$DIMLFAC
 40
1.0
  9
$DIMTOFL
 70
     0
  9
$DIMTVP
 40
0.0
  9
$DIMTIX
 70
     0
  9
$DIMSOXD
 70
     0
  9
$DIMSAH
 70
     0
  9
$DIMBLK1
  1

  9
$DIMBLK2
  1

  9
$DIMSTYLE
  2
Standard
  9
$DIMCLRD
 70
     0
  9
$DIMCLRE
 70
     0
  9
$DIMCLRT
 70
     0
  9
$DIMTFAC
 40
1.0
  9
$DIMGAP
 40
0.09
  9
$DIMJUST
 70
     0
  9
$DIMSD1
 70
     0
  9
$DIMSD2
 70
     0
  9
$DIMTOLJ
 70
     1
  9
$DIMTZIN
 70
     0
  9
$DIMALTZ
 70
     0
  9
$DIMALTTZ
 70
     0
  9
$DIMUPT
 70
     0
  9
$DIMDEC
 70
     4
  9
$DIMTDEC
 70
     4
  9
$DIMALTU
 70
     2
  9
$DIMALTTD
 70
     2
  9
$DIMTXSTY
  7
Standard
  9
$DIMAUNIT
 70
     0
  9
$DIMADEC
 70
     0
  9
$DIMALTRND
 40
0.0
  9
$DIMAZIN
 70
     0
  9
$DIMDSEP
 70
    46
  9
$DIMATFIT
 70
     3
  9
$DIMFRAC
 70
     0
  9
$DIMLDRBLK
  1

  9
$DIMLUNIT
 70
     2
  9
$DIMLWD
 70
    -2
  9
$DIMLWE
 70
    -2
  9
$DIMTMOVE
 70
     0
  9
$DIMFXL
 40
1.0
  9
$DIMFXLON
 70
     0
  9
$DIMJOGANG
 40
0.7853981633974483
  9
$DIMTFILL
 70
     0
  9
$DIMTFILLCLR
 70
     0
  9
$DIMARCSYM
 70
     0
  9
$DIMLTYPE
  6

  9
$DIMLTEX1
  6

  9
$DIMLTEX2
  6

  9
$DIMTXTDIRECTION
 70
     0
  9
$LUNITS
 70
     2
  9
$LUPREC
 70
     4
  9
$SKETCHINC
 40
0.1
  9
$FILLETRAD
 40
0.5
  9
$AUNITS
 70
     0
  9
$AUPREC
 70
     0
  9
$MENU
  1
.
  9
$ELEVATION
 40
0.0
  9
$PELEVATION
 40
0.0
  9
$THICKNESS
 40
0.0
  9
$LIMCHECK
 70
     0
  9
$CHAMFERA
 40
0.5
  9
$CHAMFERB
 40
0.5
  9
$CHAMFERC
 40
1.0
  9
$CHAMFERD
 40
0.0
  9
$SKPOLY
 70
     0
  9
$TDCREATE
 40
2457917.586817118
  9
$TDUCREATE
 40
2457917.21181713
  9
$TDUPDATE
 40
2457917.586817118
  9
$TDUUPDATE
 40
2457917.21181713
  9
$TDINDWG
 40
0.0000000116
  9
$TDUSRTIMER
 40
0.0000000116
  9
$USRTIMER
 70
     1
  9
$ANGBASE
 50
0.0
  9
$ANGDIR
 70
     0
  9
$PDMODE
 70
     0
  9
$PDSIZE
 40
0.0
  9
$PLINEWID
 40
0.0
  9
$SPLFRAME
 70
     0
  9
$SPLINETYPE
 70
     6
  9
$SPLINESEGS
 70
     8
  9
$HANDSEED
  5
FC
  9
$SURFTAB1
 70
     6
  9
$SURFTAB2
 70
     6
  9
$SURFTYPE
 70
     6
  9
$SURFU
 70
     6
  9
$SURFV
 70
     6
  9
$UCSBASE
  2

  9
$UCSNAME
  2

  9
$UCSORG
 10
0.0
 20
0.0
 30
0.0
  9
$UCSXDIR
 10
1.0
 20
0.0
 30
0.0
  9
$UCSYDIR
 10
0.0
 20
1.0
 30
0.0
  9
$UCSORTHOREF
  2

  9
$UCSORTHOVIEW
 70
     0
  9
$UCSORGTOP
 10
0.0
 20
0.0
 30
0.0
  9
$UCSORGBOTTOM
 10
0.0
 20
0.0
 30
0.0
  9
$UCSORGLEFT
 10
0.0
 20
0.0
 30
0.0
  9
$UCSORGRIGHT
 10
0.0
 20
0.0
 30
0.0
  9
$UCSORGFRONT
 10
0.0
 20
0.0
 30
0.0
  9
$UCSORGBACK
 10
0.0
 20
0.0
 30
0.0
  9
$PUCSBASE
  2

  9
$PUCSNAME
  2

  9
$PUCSORG
 10
0.0
 20
0.0
 30
0.0
  9
$PUCSXDIR
 10
1.0
 20
0.0
 30
0.0
  9
$PUCSYDIR
 10
0.0
 20
1.0
 30
0.0
  9
$PUCSORTHOREF
  2

  9
$PUCSORTHOVIEW
 70
     0
  9
$PUCSORGTOP
 10
0.0
 20
0.0
 30
0.0
  9
$PUCSORGBOTTOM
 10
0.0
 20
0.0
 30
0.0
  9
$PUCSORGLEFT
 10
0.0
 20
0.0
 30
0.0
  9
$PUCSORGRIGHT
 10
0.0
 20
0.0
 30
0.0
  9
$PUCSORGFRONT
 10
0.0
 20
0.0
 30
0.0
  9
$PUCSORGBACK
 10
0.0
 20
0.0
 30
0.0
  9
$USERI1
 70
     0
  9
$USERI2
 70
     0
  9
$USERI3
 70
     0
  9
$USERI4
 70
     0
  9
$USERI5
 70
     0
  9
$USERR1
 40
0.0
  9
$USERR2
 40
0.0
  9
$USERR3
 40
0.0
  9
$USERR4
 40
0.0
  9
$USERR5
 40
0.0
  9
$WORLDVIEW
 70
     1
  9
$SHADEDGE
 70
     3
  9
$SHADEDIF
 70
    70
  9
$TILEMODE
 70
     1
  9
$MAXACTVP
 70
    64
  9
$PINSBASE
 10
0.0
 20
0.0
 30
0.0
  9
$PLIMCHECK
 70
     0
  9
$PEXTMIN
 10
1.000000000000000E+20
 20
1.000000000000000E+20
 30
1.000000000000000E+20
  9
$PEXTMAX
 10
-1.000000000000000E+20
 20
-1.000000000000000E+20
 30
-1.000000000000000E+20
  9
$PLIMMIN
 10
0.0
 20
0.0
  9
$PLIMMAX
 10
12.0
 20
9.0
  9
$UNITMODE
 70
     0
  9
$VISRETAIN
 70
     1
  9
$PLINEGEN
 70
     0
  9
$PSLTSCALE
 70
     1
  9
$TREEDEPTH
 70
  3020
  9
$CMLSTYLE
  2
Standard
  9
$CMLJUST
 70
     0
  9
$CMLSCALE
 40
1.0
  9
$PROXYGRAPHICS
 70
     1
  9
$MEASUREMENT
 70
     0
  9
$CELWEIGHT
370
    -1
  9
$ENDCAPS
280
     0
  9
$JOINSTYLE
280
     0
  9
$LWDISPLAY
290
     1
  9
$INSUNITS
 70
     1
  9
$HYPERLINKBASE
  1

  9
$STYLESHEET
  1

  9
$XEDIT
290
     1
  9
$CEPSNTYPE
380
     0
  9
$PSTYLEMODE
290
     1
  9
$FINGERPRINTGUID
  2
{FBD7B88F-EBFA-F398-3F2D-6D4A6C3DF815}
  9
$VERSIONGUID
  2
{FAEB1C32-E019-11D5-929B-00C0DF256EC4}
  9
$EXTNAMES
290
     1
  9
$PSVPSCALE
 40
0.0
  9
$OLESTARTUP
290
     0
  9
$SORTENTS
280
   127
  9
$INDEXCTL
280
     0
  9
$HIDETEXT
280
     1
  9
$XCLIPFRAME
280
     2
  9
$HALOGAP
280
     0
  9
$OBSCOLOR
 70
   257
  9
$OBSLTYPE
280
     0
  9
$INTERSECTIONDISPLAY
280
     0
  9
$INTERSECTIONCOLOR
 70
   257
  9
$DIMASSOC
280
     2
  9
$PROJECTNAME
  1

  9
$CAMERADISPLAY
290
     0
  9
$LENSLENGTH
 40
50.0
  9
$CAMERAHEIGHT
 40
0.0
  9
$STEPSPERSEC
 40
2.0
  9
$STEPSIZE
 40
6.0
  9
$3DDWFPREC
 40
2.0
  9
$PSOLWIDTH
 40
0.25
  9
$PSOLHEIGHT
 40
4.0
  9
$LOFTANG1
 40
1.570796326794897
  9
$LOFTANG2
 40
1.570796326794897
  9
$LOFTMAG1
 40
0.0
  9
$LOFTMAG2
 40
0.0
  9
$LOFTPARAM
 70
     7
  9
$LOFTNORMALS
280
     1
  9
$LATITUDE
 40
37.795
  9
$LONGITUDE
 40
-122.394
  9
$NORTHDIRECTION
 40
0.0
  9
$TIMEZONE
 70
 -8000
  9
$LIGHTGLYPHDISPLAY
280
     1
  9
$TILEMODELIGHTSYNCH
280
     1
  9
$CMATERIAL
347
3C
  9
$SOLIDHIST
280
     1
  9
$SHOWHIST
280
     1
  9
$DWFFRAME
280
     2
  9
$DGNFRAME
280
     2
  9
$REALWORLDSCALE
290
     1
  9
$INTERFERECOLOR
 62
   256
  9
$CSHADOW
280
     0
  9
$SHADOWPLANELOCATION
 40
0.0
  0
ENDSEC
  0
SECTION
  2
CLASSES
  0
CLASS
  1
ACDBDICTIONARYWDFLT
  2
AcDbDictionaryWithDefault
  3
ObjectDBX Classes
 90
        0
 91
        4
280
     0
281
     0
  0
CLASS
  1
VISUALSTYLE
  2
AcDbVisualStyle
  3
ObjectDBX Classes
 90
     4095
 91
        4
280
     0
281
     0
  0
CLASS
  1
MATERIAL
  2
AcDbMaterial
  3
ObjectDBX Classes
 90
     1153
 91
        4
280
     0
281
     0
  0
CLASS
  1
SUN
  2
AcDbSun
  3
SCENEOE
 90
     1024
 91
        4
280
     0
281
     0
  0
ENDSEC
  0
SECTION
  2
TABLES
  0
TABLE
  2
VPORT
  5
8
330
0
100
AcDbSymbolTable
 70
     1
  0
VPORT
  5
29
330
8
100
AcDbSymbolTableRecord
100
AcDbViewportTableRecord
  2
*Active
 70
     0
 10
0.0
 20
0.0
 11
1.0
 21
1.0
 12
0.0
 22
0.0
 13
0.0
 23
0.0
 14
0.5
 24
0.5
 15
0.5
 25
0.5
 16
0.0
 26
0.0
 36
1.0
 17
105.0008280156501
 27
-148.4999710739862
 37
0.0
 40
296.9999421479724
 41
0.7070764206636528
 42
50.0
 43
0.0
 44
0.0
 50
0.0
 51
0.0
 71
     0
 72
   100
 73
     1
 74
     3
 75
     0
 76
     0
 77
     0
 78
     0
281
     0
 65
     1
110
0.0
120
0.0
130
0.0
111
1.0
121
0.0
131
0.0
112
0.0
122
1.0
132
0.0
 79
     0
146
0.0
 60
     3
 61
     5
292
     1
282
     1
141
0.0
142
0.0
 63
   250
361
3F
  0
ENDTAB
  0
TABLE
  2
LTYPE
  5
5
330
0
100
AcDbSymbolTable
 70
     1
  0
LTYPE
  5
14
330
5
100
AcDbSymbolTableRecord
100
AcDbLinetypeTableRecord
  2
ByBlock
 70
     0
  3

 72
    65
 73
     0
 40
0.0
  0
LTYPE
  5
15
330
5
100
AcDbSymbolTableRecord
100
AcDbLinetypeTableRecord
  2
ByLayer
 70
     0
  3

 72
    65
 73
     0
 40
0.0
  0
LTYPE
  5
16
330
5
100
AcDbSymbolTableRecord
100
AcDbLinetypeTableRecord
  2
Continuous
 70
     0
  3
Solid line
 72
    65
 73
     0
 40
0.0
  0
ENDTAB
  0
TABLE
  2
LAYER
  5
2
330
0
100
AcDbSymbolTable
 70
     2
  0
LAYER
  5
10
330
2
100
AcDbSymbolTableRecord
100
AcDbLayerTableRecord
  2
0
 70
     0
 62
     7
  6
Continuous
370
    -3
390
F
347
3E
  0
LAYER
  5
40
330
2
100
AcDbSymbolTableRecord
100
AcDbLayerTableRecord
  2
_U+30EC_U+30A4_U+30E4_U+30FC 1
 70
     0
 62
     7
  6
Continuous
370
    -3
390
F
347
3E
  0
ENDTAB
  0
TABLE
  2
STYLE
  5
3
330
0
100
AcDbSymbolTable
 70
     1
  0
STYLE
  5
11
330
3
100
AcDbSymbolTableRecord
100
AcDbTextStyleTableRecord
  2
Standard
 70
     0
 40
0.0
 41
1.0
 50
0.0
 71
     0
 42
0.2
  3
txt
  4

  0
ENDTAB
  0
TABLE
  2
VIEW
  5
6
330
0
100
AcDbSymbolTable
 70
     0
  0
ENDTAB
  0
TABLE
  2
UCS
  5
7
330
0
100
AcDbSymbolTable
 70
     0
  0
ENDTAB
  0
TABLE
  2
APPID
  5
9
330
0
100
AcDbSymbolTable
 70
     1
  0
APPID
  5
12
330
9
100
AcDbSymbolTableRecord
100
AcDbRegAppTableRecord
  2
ACAD
 70
     0
  0
ENDTAB
  0
TABLE
  2
DIMSTYLE
  5
A
330
0
100
AcDbSymbolTable
 70
     1
100
AcDbDimStyleTable
  0
DIMSTYLE
105
27
330
A
100
AcDbSymbolTableRecord
100
AcDbDimStyleTableRecord
  2
Standard
 70
     0
178
     0
340
11
  0
ENDTAB
  0
TABLE
  2
BLOCK_RECORD
  5
1
330
0
100
AcDbSymbolTable
 70
     6
  0
BLOCK_RECORD
  5
1F
330
1
100
AcDbSymbolTableRecord
100
AcDbBlockTableRecord
  2
*Model_Space
340
22
 70
     0
280
     1
281
     0
  0
BLOCK_RECORD
  5
1B
330
1
100
AcDbSymbolTableRecord
100
AcDbBlockTableRecord
  2
*Paper_Space
340
1E
 70
     0
280
     1
281
     0
  0
BLOCK_RECORD
  5
23
330
1
100
AcDbSymbolTableRecord
100
AcDbBlockTableRecord
  2
*Paper_Space0
340
26
 70
     0
280
     1
281
     0
  0
BLOCK_RECORD
  5
71
330
1
100
AcDbSymbolTableRecord
100
AcDbBlockTableRecord
  2
block 2
340
0
102
{BLKREFS
331
72
102
}
 70
     0
280
     1
281
     0
  0
BLOCK_RECORD
  5
89
330
1
100
AcDbSymbolTableRecord
100
AcDbBlockTableRecord
  2
block 3
340
0
102
{BLKREFS
331
8A
102
}
 70
     0
280
     1
281
     0
  0
BLOCK_RECORD
  5
A9
330
1
100
AcDbSymbolTableRecord
100
AcDbBlockTableRecord
  2
block 4
340
0
102
{BLKREFS
331
AA
102
}
 70
     0
280
     1
281
     0
  0
BLOCK_RECORD
  5
D9
330
1
100
AcDbSymbolTableRecord
100
AcDbBlockTableRecord
  2
block 5
340
0
102
{BLKREFS
331
DA
102
}
 70
     0
280
     1
281
     0
  0
BLOCK_RECORD
  5
E9
330
1
100
AcDbSymbolTableRecord
100
AcDbBlockTableRecord
  2
block 6
340
0
102
{BLKREFS
331
EA
102
}
 70
     0
280
     1
281
     0
  0
ENDTAB
  0
ENDSEC
  0
SECTION
  2
BLOCKS
  0
BLOCK
  5
20
330
1F
100
AcDbEntity
  8
0
100
AcDbBlockBegin
  2
*Model_Space
 70
     0
 10
0.0
 20
0.0
 30
0.0
  3
*Model_Space
  1

  0
ENDBLK
  5
21
330
1F
100
AcDbEntity
  8
0
100
AcDbBlockEnd
  0
BLOCK
  5
1C
330
1B
100
AcDbEntity
 67
     1
  8
0
100
AcDbBlockBegin
  2
*Paper_Space
 70
     0
 10
0.0
 20
0.0
 30
0.0
  3
*Paper_Space
  1

  0
ENDBLK
  5
1D
330
1B
100
AcDbEntity
 67
     1
  8
0
100
AcDbBlockEnd
  0
BLOCK
  5
24
330
23
100
AcDbEntity
  8
0
100
AcDbBlockBegin
  2
*Paper_Space0
 70
     0
 10
0.0
 20
0.0
 30
0.0
  3
*Paper_Space0
  1

  0
ENDBLK
  5
25
330
23
100
AcDbEntity
  8
0
100
AcDbBlockEnd
  0
BLOCK
  5
73
330
71
100
AcDbEntity
  8
0
100
AcDbBlockBegin
  2
block 2
 70
     0
 10
0.0
 20
0.0
 30
0.0
  3
block 2
  1

  0
SPLINE
  5
75
330
71
100
AcDbEntity
  8
_U+30EC_U+30A4_U+30E4_U+30FC 1
370
     0
100
AcDbSpline
210
0.0
220
0.0
230
1.0
 70
    11
 71
     3
 72
    26
 73
    22
 74
     0
 42
0.0000000001
 43
0.0000000001
 12
1.0
 22
0.0
 32
0.0
 13
1.0
 23
0.0
 33
0.0
 40
0.0
 40
0.0
 40
0.0
 40
0.0
 40
1.0
 40
1.0
 40
1.0
 40
2.0
 40
2.0
 40
2.0
 40
3.0
 40
3.0
 40
3.0
 40
4.0
 40
4.0
 40
4.0
 40
5.0
 40
5.0
 40
5.0
 40
6.0
 40
6.0
 40
6.0
 40
7.0
 40
7.0
 40
7.0
 40
7.0
 10
109.605368353675
 20
-157.2355359849967
 30
0.0
 10
109.605368353675
 20
-157.2355359849967
 30
0.0
 10
109.605368353675
 20
-156.1313828819741
 30
0.0
 10
109.605368353675
 20
-156.1313828819741
 30
0.0
 10
109.605368353675
 20
-156.1313828819741
 30
0.0
 10
109.3239040525301
 20
-156.1313828819741
 30
0.0
 10
109.3239040525301
 20
-156.1313828819741
 30
0.0
 10
109.3239040525301
 20
-156.1313828819741
 30
0.0
 10
109.3239040525301
 20
-155.9832437761084
 30
0.0
 10
109.3239040525301
 20
-155.9832437761084
 30
0.0
 10
109.6070909014177
 20
-155.9684298655218
 30
0.0
 10
109.646709499498
 20
-155.8054768490695
 30
0.0
 10
109.6718586965404
 20
-155.6910996789592
 30
0.0
 10
109.6718586965404
 20
-155.6910996789592
 30
0.0
 10
109.7965711531064
 20
-155.6910996789592
 30
0.0
 10
109.7965711531064
 20
-155.6910996789592
 30
0.0
 10
109.7965711531064
 20
-155.6910996789592
 30
0.0
 10
109.7965711531064
 20
-157.2355359849967
 30
0.0
 10
109.7965711531064
 20
-157.2355359849967
 30
0.0
 10
109.7965711531064
 20
-157.2355359849967
 30
0.0
 10
109.605368353675
 20
-157.2355359849967
 30
0.0
 10
109.605368353675
 20
-157.2355359849967
 30
0.0
  0
HATCH
  5
76
330
71
100
AcDbEntity
  8
_U+30EC_U+30A4_U+30E4_U+30FC 1
 62
   179
420
  2234388
100
AcDbHatch
 10
0.0
 20
0.0
 30
0.0
210
0.0
220
0.0
230
1.0
  2
SOLID
 70
     1
 71
     0
 91
        1
 92
        1
 93
        1
 72
     4
 94
        3
 73
     0
 74
     1
 95
       26
 96
       22
 40
0.0
 40
0.0
 40
0.0
 40
0.0
 40
1.0
 40
1.0
 40
1.0
 40
2.0
 40
2.0
 40
2.0
 40
3.0
 40
3.0
 40
3.0
 40
4.0
 40
4.0
 40
4.0
 40
5.0
 40
5.0
 40
5.0
 40
6.0
 40
6.0
 40
6.0
 40
7.0
 40
7.0
 40
7.0
 40
7.0
 10
109.605368353675
 20
-157.2355359849967
 10
109.605368353675
 20
-157.2355359849967
 10
109.605368353675
 20
-156.1313828819741
 10
109.605368353675
 20
-156.1313828819741
 10
109.605368353675
 20
-156.1313828819741
 10
109.3239040525301
 20
-156.1313828819741
 10
109.3239040525301
 20
-156.1313828819741
 10
109.3239040525301
 20
-156.1313828819741
 10
109.3239040525301
 20
-155.9832437761084
 10
109.3239040525301
 20
-155.9832437761084
 10
109.6070909014177
 20
-155.9684298655218
 10
109.646709499498
 20
-155.8054768490695
 10
109.6718586965404
 20
-155.6910996789592
 10
109.6718586965404
 20
-155.6910996789592
 10
109.7965711531064
 20
-155.6910996789592
 10
109.7965711531064
 20
-155.6910996789592
 10
109.7965711531064
 20
-155.6910996789592
 10
109.7965711531064
 20
-157.2355359849967
 10
109.7965711531064
 20
-157.2355359849967
 10
109.7965711531064
 20
-157.2355359849967
 10
109.605368353675
 20
-157.2355359849967
 10
109.605368353675
 20
-157.2355359849967
 97
        0
 97
        0
 75
     2
 76
     1
 98
        0
  0
SPLINE
  5
77
330
71
100
AcDbEntity
  8
_U+30EC_U+30A4_U+30E4_U+30FC 1
370
     0
100
AcDbSpline
210
0.0
220
0.0
230
1.0
 70
    11
 71
     3
 72
    26
 73
    22
 74
     0
 42
0.0000000001
 43
0.0000000001
 12
1.0
 22
0.0
 32
0.0
 13
1.0
 23
0.0
 33
0.0
 40
0.0
 40
0.0
 40
0.0
 40
0.0
 40
1.0
 40
1.0
 40
1.0
 40
2.0
 40
2.0
 40
2.0
 40
3.0
 40
3.0
 40
3.0
 40
4.0
 40
4.0
 40
4.0
 40
5.0
 40
5.0
 40
5.0
 40
6.0
 40
6.0
 40
6.0
 40
7.0
 40
7.0
 40
7.0
 40
7.0
 10
110.5727511659332
 20
-157.2355359849967
 30
0.0
 10
110.5727511659332
 20
-157.2355359849967
 30
0.0
 10
110.3708685704976
 20
-157.2355359849967
 30
0.0
 10
110.3708685704976
 20
-157.2355359849967
 30
0.0
 10
110.3925726720546
 20
-156.9265109199698
 30
0.0
 10
110.5565592171525
 20
-156.4083685589882
 30
0.0
 10
110.9027913134201
 20
-155.9026285417535
 30
0.0
 10
110.9027913134201
 20
-155.9026285417535
 30
0.0
 10
110.1886230193278
 20
-155.9026285417535
 30
0.0
 10
110.1886230193278
 20
-155.9026285417535
 30
0.0
 10
110.1886230193278
 20
-155.9026285417535
 30
0.0
 10
110.1886230193278
 20
-155.6910996789592
 30
0.0
 10
110.1886230193278
 20
-155.6910996789592
 30
0.0
 10
110.1886230193278
 20
-155.6910996789592
 30
0.0
 10
111.1046739088558
 20
-155.6910996789592
 30
0.0
 10
111.1046739088558
 20
-155.6910996789592
 30
0.0
 10
111.1046739088558
 20
-155.6910996789592
 30
0.0
 10
111.1046739088558
 20
-155.9026285417535
 30
0.0
 10
111.1046739088558
 20
-155.9026285417535
 30
0.0
 10
110.8290662700358
 20
-156.1927055816116
 30
0.0
 10
110.6016899680093
 20
-156.784917495526
 30
0.0
 10
110.5727511659332
 20
-157.2355359849967
 30
0.0
  0
HATCH
  5
78
330
71
100
AcDbEntity
  8
_U+30EC_U+30A4_U+30E4_U+30FC 1
 62
   179
420
  2234388
100
AcDbHatch
 10
0.0
 20
0.0
 30
0.0
210
0.0
220
0.0
230
1.0
  2
SOLID
 70
     1
 71
     0
 91
        1
 92
        1
 93
        1
 72
     4
 94
        3
 73
     0
 74
     1
 95
       26
 96
       22
 40
0.0
 40
0.0
 40
0.0
 40
0.0
 40
1.0
 40
1.0
 40
1.0
 40
2.0
 40
2.0
 40
2.0
 40
3.0
 40
3.0
 40
3.0
 40
4.0
 40
4.0
 40
4.0
 40
5.0
 40
5.0
 40
5.0
 40
6.0
 40
6.0
 40
6.0
 40
7.0
 40
7.0
 40
7.0
 40
7.0
 10
110.5727511659332
 20
-157.2355359849967
 10
110.5727511659332
 20
-157.2355359849967
 10
110.3708685704976
 20
-157.2355359849967
 10
110.3708685704976
 20
-157.2355359849967
 10
110.3925726720546
 20
-156.9265109199698
 10
110.5565592171525
 20
-156.4083685589882
 10
110.9027913134201
 20
-155.9026285417535
 10
110.9027913134201
 20
-155.9026285417535
 10
110.1886230193278
 20
-155.9026285417535
 10
110.1886230193278
 20
-155.9026285417535
 10
110.1886230193278
 20
-155.9026285417535
 10
110.1886230193278
 20
-155.6910996789592
 10
110.1886230193278
 20
-155.6910996789592
 10
110.1886230193278
 20
-155.6910996789592
 10
111.1046739088558
 20
-155.6910996789592
 10
111.1046739088558
 20
-155.6910996789592
 10
111.1046739088558
 20
-155.6910996789592
 10
111.1046739088558
 20
-155.9026285417535
 10
111.1046739088558
 20
-155.9026285417535
 10
110.8290662700358
 20
-156.1927055816116
 10
110.6016899680093
 20
-156.784917495526
 10
110.5727511659332
 20
-157.2355359849967
 97
        0
 97
        0
 75
     2
 76
     1
 98
        0
  0
ENDBLK
  5
74
330
71
100
AcDbEntity
  8
0
100
AcDbBlockEnd
  0
BLOCK
  5
8B
330
89
100
AcDbEntity
  8
0
100
AcDbBlockBegin
  2
block 3
 70
     0
 10
0.0
 20
0.0
 30
0.0
  3
block 3
  1

  0
SPLINE
  5
8D
330
89
100
AcDbEntity
  8
_U+30EC_U+30A4_U+30E4_U+30FC 1
370
     0
100
AcDbSpline
210
0.0
220
0.0
230
1.0
 70
    11
 71
     3
 72
    26
 73
    22
 74
     0
 42
0.0000000001
 43
0.0000000001
 12
1.0
 22
0.0
 32
0.0
 13
1.0
 23
0.0
 33
0.0
 40
0.0
 40
0.0
 40
0.0
 40
0.0
 40
1.0
 40
1.0
 40
1.0
 40
2.0
 40
2.0
 40
2.0
 40
3.0
 40
3.0
 40
3.0
 40
4.0
 40
4.0
 40
4.0
 40
5.0
 40
5.0
 40
5.0
 40
6.0
 40
6.0
 40
6.0
 40
7.0
 40
7.0
 40
7.0
 40
7.0
 10
85.38927542353116
 20
-141.1748453423104
 30
0.0
 10
85.38927542353116
 20
-141.1748453423104
 30
0.0
 10
84.28495006573432
 20
-141.1748453423104
 30
0.0
 10
84.28495006573432
 20
-141.1748453423104
 30
0.0
 10
84.28495006573432
 20
-141.1748453423104
 30
0.0
 10
84.28495006573432
 20
-141.4563096434554
 30
0.0
 10
84.28495006573432
 20
-141.4563096434554
 30
0.0
 10
84.28495006573432
 20
-141.4563096434554
 30
0.0
 10
84.13681095986858
 20
-141.4563096434554
 30
0.0
 10
84.13681095986858
 20
-141.4563096434554
 30
0.0
 10
84.12216930405627
 20
-141.1731227945678
 30
0.0
 10
83.95921628760395
 20
-141.1335041964875
 30
0.0
 10
83.84501137226792
 20
-141.1083549994451
 30
0.0
 10
83.84501137226792
 20
-141.1083549994451
 30
0.0
 10
83.84501137226792
 20
-140.9836425428791
 30
0.0
 10
83.84501137226792
 20
-140.9836425428791
 30
0.0
 10
83.84501137226792
 20
-140.9836425428791
 30
0.0
 10
85.38927542353116
 20
-140.9836425428791
 30
0.0
 10
85.38927542353116
 20
-140.9836425428791
 30
0.0
 10
85.38927542353116
 20
-140.9836425428791
 30
0.0
 10
85.38927542353116
 20
-141.1748453423104
 30
0.0
 10
85.38927542353116
 20
-141.1748453423104
 30
0.0
  0
HATCH
  5
8E
330
89
100
AcDbEntity
  8
_U+30EC_U+30A4_U+30E4_U+30FC 1
 62
   179
420
  2234388
100
AcDbHatch
 10
0.0
 20
0.0
 30
0.0
210
0.0
220
0.0
230
1.0
  2
SOLID
 70
     1
 71
     0
 91
        1
 92
        1
 93
        1
 72
     4
 94
        3
 73
     0
 74
     1
 95
       26
 96
       22
 40
0.0
 40
0.0
 40
0.0
 40
0.0
 40
1.0
 40
1.0
 40
1.0
 40
2.0
 40
2.0
 40
2.0
 40
3.0
 40
3.0
 40
3.0
 40
4.0
 40
4.0
 40
4.0
 40
5.0
 40
5.0
 40
5.0
 40
6.0
 40
6.0
 40
6.0
 40
7.0
 40
7.0
 40
7.0
 40
7.0
 10
85.38927542353116
 20
-141.1748453423104
 10
85.38927542353116
 20
-141.1748453423104
 10
84.28495006573432
 20
-141.1748453423104
 10
84.28495006573432
 20
-141.1748453423104
 10
84.28495006573432
 20
-141.1748453423104
 10
84.28495006573432
 20
-141.4563096434554
 10
84.28495006573432
 20
-141.4563096434554
 10
84.28495006573432
 20
-141.4563096434554
 10
84.13681095986858
 20
-141.4563096434554
 10
84.13681095986858
 20
-141.4563096434554
 10
84.12216930405627
 20
-141.1731227945678
 10
83.95921628760395
 20
-141.1335041964875
 10
83.84501137226792
 20
-141.1083549994451
 10
83.84501137226792
 20
-141.1083549994451
 10
83.84501137226792
 20
-140.9836425428791
 10
83.84501137226792
 20
-140.9836425428791
 10
83.84501137226792
 20
-140.9836425428791
 10
85.38927542353116
 20
-140.9836425428791
 10
85.38927542353116
 20
-140.9836425428791
 10
85.38927542353116
 20
-140.9836425428791
 10
85.38927542353116
 20
-141.1748453423104
 10
85.38927542353116
 20
-141.1748453423104
 97
        0
 97
        0
 75
     2
 76
     1
 98
        0
  0
POLYLINE
  5
8F
330
89
100
AcDbEntity
  8
_U+30EC_U+30A4_U+30E4_U+30FC 1
370
     0
100
AcDb2dPolyline
 66
     1
 10
0.0
 20
0.0
 30
0.0
  0
VERTEX
  5
90
330
8F
100
AcDbEntity
  8
_U+30EC_U+30A4_U+30E4_U+30FC 1
370
     0
100
AcDbVertex
100
AcDb2dVertex
 10
85.38927542353116
 20
-140.5068413277205
 30
0.0
  0
VERTEX
  5
91
330
8F
100
AcDbEntity
  8
_U+30EC_U+30A4_U+30E4_U+30FC 1
370
     0
100
AcDbVertex
100
AcDb2dVertex
 10
85.13761119833366
 20
-140.5068413277205
 30
0.0
  0
VERTEX
  5
92
330
8F
100
AcDbEntity
  8
_U+30EC_U+30A4_U+30E4_U+30FC 1
370
     0
100
AcDbVertex
100
AcDb2dVertex
 10
85.13761119833366
 20
-140.2922118789895
 30
0.0
  0
VERTEX
  5
93
330
8F
100
AcDbEntity
  8
_U+30EC_U+30A4_U+30E4_U+30FC 1
370
     0
100
AcDbVertex
100
AcDb2dVertex
 10
85.38927542353116
 20
-140.2922118789895
 30
0.0
  0
VERTEX
  5
94
330
8F
100
AcDbEntity
  8
_U+30EC_U+30A4_U+30E4_U+30FC 1
370
     0
100
AcDbVertex
100
AcDb2dVertex
 10
85.38927542353116
 20
-140.5068413277205
 30
0.0
  0
SEQEND
  5
95
330
8F
100
AcDbEntity
  8
_U+30EC_U+30A4_U+30E4_U+30FC 1
370
     0
  0
HATCH
  5
96
330
89
100
AcDbEntity
  8
_U+30EC_U+30A4_U+30E4_U+30FC 1
 62
   179
420
  2234388
100
AcDbHatch
 10
0.0
 20
0.0
 30
0.0
210
0.0
220
0.0
230
1.0
  2
SOLID
 70
     1
 71
     0
 91
        1
 92
        1
 93
        4
 72
     1
 10
85.38927542353116
 20
-140.5068413277205
 11
85.13761119833366
 21
-140.5068413277205
 72
     1
 10
85.13761119833366
 20
-140.5068413277205
 11
85.13761119833366
 21
-140.2922118789895
 72
     1
 10
85.13761119833366
 20
-140.2922118789895
 11
85.38927542353116
 21
-140.2922118789895
 72
     1
 10
85.38927542353116
 20
-140.2922118789895
 11
85.38927542353116
 21
-140.5068413277205
 97
        0
 75
     2
 76
     1
 98
        0
  0
SPLINE
  5
97
330
89
100
AcDbEntity
  8
_U+30EC_U+30A4_U+30E4_U+30FC 1
370
     0
100
AcDbSpline
210
0.0
220
0.0
230
1.0
 70
    11
 71
     3
 72
    26
 73
    22
 74
     0
 42
0.0000000001
 43
0.0000000001
 12
1.0
 22
0.0
 32
0.0
 13
1.0
 23
0.0
 33
0.0
 40
0.0
 40
0.0
 40
0.0
 40
0.0
 40
1.0
 40
1.0
 40
1.0
 40
2.0
 40
2.0
 40
2.0
 40
3.0
 40
3.0
 40
3.0
 40
4.0
 40
4.0
 40
4.0
 40
5.0
 40
5.0
 40
5.0
 40
6.0
 40
6.0
 40
6.0
 40
7.0
 40
7.0
 40
7.0
 40
7.0
 10
85.38927542353116
 20
-139.7062011369485
 30
0.0
 10
85.38927542353116
 20
-139.7062011369485
 30
0.0
 10
84.28495006573432
 20
-139.7062011369485
 30
0.0
 10
84.28495006573432
 20
-139.7062011369485
 30
0.0
 10
84.28495006573432
 20
-139.7062011369485
 30
0.0
 10
84.28495006573432
 20
-139.9876654380934
 30
0.0
 10
84.28495006573432
 20
-139.9876654380934
 30
0.0
 10
84.28495006573432
 20
-139.9876654380934
 30
0.0
 10
84.13681095986858
 20
-139.9876654380934
 30
0.0
 10
84.13681095986858
 20
-139.9876654380934
 30
0.0
 10
84.12216930405627
 20
-139.7044785892058
 30
0.0
 10
83.95921628760395
 20
-139.6648599911255
 30
0.0
 10
83.84501137226792
 20
-139.6397107940831
 30
0.0
 10
83.84501137226792
 20
-139.6397107940831
 30
0.0
 10
83.84501137226792
 20
-139.5149983375171
 30
0.0
 10
83.84501137226792
 20
-139.5149983375171
 30
0.0
 10
83.84501137226792
 20
-139.5149983375171
 30
0.0
 10
85.38927542353116
 20
-139.5149983375171
 30
0.0
 10
85.38927542353116
 20
-139.5149983375171
 30
0.0
 10
85.38927542353116
 20
-139.5149983375171
 30
0.0
 10
85.38927542353116
 20
-139.7062011369485
 30
0.0
 10
85.38927542353116
 20
-139.7062011369485
 30
0.0
  0
HATCH
  5
98
330
89
100
AcDbEntity
  8
_U+30EC_U+30A4_U+30E4_U+30FC 1
 62
   179
420
  2234388
100
AcDbHatch
 10
0.0
 20
0.0
 30
0.0
210
0.0
220
0.0
230
1.0
  2
SOLID
 70
     1
 71
     0
 91
        1
 92
        1
 93
        1
 72
     4
 94
        3
 73
     0
 74
     1
 95
       26
 96
       22
 40
0.0
 40
0.0
 40
0.0
 40
0.0
 40
1.0
 40
1.0
 40
1.0
 40
2.0
 40
2.0
 40
2.0
 40
3.0
 40
3.0
 40
3.0
 40
4.0
 40
4.0
 40
4.0
 40
5.0
 40
5.0
 40
5.0
 40
6.0
 40
6.0
 40
6.0
 40
7.0
 40
7.0
 40
7.0
 40
7.0
 10
85.38927542353116
 20
-139.7062011369485
 10
85.38927542353116
 20
-139.7062011369485
 10
84.28495006573432
 20
-139.7062011369485
 10
84.28495006573432
 20
-139.7062011369485
 10
84.28495006573432
 20
-139.7062011369485
 10
84.28495006573432
 20
-139.9876654380934
 10
84.28495006573432
 20
-139.9876654380934
 10
84.28495006573432
 20
-139.9876654380934
 10
84.13681095986858
 20
-139.9876654380934
 10
84.13681095986858
 20
-139.9876654380934
 10
84.12216930405627
 20
-139.7044785892058
 10
83.95921628760395
 20
-139.6648599911255
 10
83.84501137226792
 20
-139.6397107940831
 10
83.84501137226792
 20
-139.6397107940831
 10
83.84501137226792
 20
-139.5149983375171
 10
83.84501137226792
 20
-139.5149983375171
 10
83.84501137226792
 20
-139.5149983375171
 10
85.38927542353116
 20
-139.5149983375171
 10
85.38927542353116
 20
-139.5149983375171
 10
85.38927542353116
 20
-139.5149983375171
 10
85.38927542353116
 20
-139.7062011369485
 10
85.38927542353116
 20
-139.7062011369485
 97
        0
 97
        0
 75
     2
 76
     1
 98
        0
  0
ENDBLK
  5
8C
330
89
100
AcDbEntity
  8
0
100
AcDbBlockEnd
  0
BLOCK
  5
AB
330
A9
100
AcDbEntity
  8
0
100
AcDbBlockBegin
  2
block 4
 70
     0
 10
0.0
 20
0.0
 30
0.0
  3
block 4
  1

  0
SPLINE
  5
AD
330
A9
100
AcDbEntity
  8
_U+30EC_U+30A4_U+30E4_U+30FC 1
370
     0
100
AcDbSpline
210
0.0
220
0.0
230
1.0
 70
    11
 71
     3
 72
    29
 73
    25
 74
     0
 42
0.0000000001
 43
0.0000000001
 12
1.0
 22
0.0
 32
0.0
 13
1.0
 23
0.0
 33
0.0
 40
0.0
 40
0.0
 40
0.0
 40
0.0
 40
1.0
 40
1.0
 40
1.0
 40
2.0
 40
2.0
 40
2.0
 40
3.0
 40
3.0
 40
3.0
 40
4.0
 40
4.0
 40
4.0
 40
5.0
 40
5.0
 40
5.0
 40
6.0
 40
6.0
 40
6.0
 40
7.0
 40
7.0
 40
7.0
 40
8.0
 40
8.0
 40
8.0
 40
8.0
 10
126.0932508365322
 20
-153.2988253740017
 30
0.0
 10
126.3027126420354
 20
-153.3908094234579
 30
0.0
 10
126.3216606672043
 20
-153.5386040197751
 30
0.0
 10
126.3216606672043
 20
-153.6378227697503
 30
0.0
 10
126.3216606672043
 20
-153.7749375700632
 30
0.0
 10
126.2751518781534
 20
-153.895515912047
 30
0.0
 10
126.0932508365322
 20
-153.9768201654989
 30
0.0
 10
125.8986029416156
 20
-154.0650146099213
 30
0.0
 10
125.6615803722304
 20
-154.0812065587019
 30
0.0
 10
125.4989718653267
 20
-154.0812065587019
 30
0.0
 10
125.3549668740432
 20
-154.0812065587019
 30
0.0
 10
125.1031303940714
 20
-154.0670816672124
 30
0.0
 10
124.9043483845725
 20
-153.9768201654989
 30
0.0
 10
124.7014322604913
 20
-153.8848361160427
 30
0.0
 10
124.6780056111916
 20
-153.7477213157297
 30
0.0
 10
124.6780056111916
 20
-153.6378227697503
 30
0.0
 10
124.6780056111916
 20
-153.50243051718
 30
0.0
 10
124.7224473429513
 20
-153.3797851179051
 30
0.0
 10
124.9043483845725
 20
-153.2988253740017
 30
0.0
 10
125.096929222198
 20
-153.2140760250645
 30
0.0
 10
125.3253390528701
 20
-153.1940944712501
 30
0.0
 10
125.4989718653267
 20
-153.1940944712501
 30
0.0
 10
125.6701931109436
 20
-153.1940944712501
 30
0.0
 10
125.9006699989068
 20
-153.2123534773219
 30
0.0
 10
126.0932508365322
 20
-153.2988253740017
 30
0.0
  0
SPLINE
  5
AE
330
A9
100
AcDbEntity
  8
_U+30EC_U+30A4_U+30E4_U+30FC 1
370
     0
100
AcDbSpline
210
0.0
220
0.0
230
1.0
 70
    11
 71
     3
 72
    17
 73
    13
 74
     0
 42
0.0000000001
 43
0.0000000001
 12
1.0
 22
0.0
 32
0.0
 13
1.0
 23
0.0
 33
0.0
 40
0.0
 40
0.0
 40
0.0
 40
0.0
 40
1.0
 40
1.0
 40
1.0
 40
2.0
 40
2.0
 40
2.0
 40
3.0
 40
3.0
 40
3.0
 40
4.0
 40
4.0
 40
4.0
 40
4.0
 10
124.8705864488171
 20
-153.6378227697503
 30
0.0
 10
124.8705864488171
 20
-153.8503851611902
 30
0.0
 10
125.1541178072531
 20
-153.8903482688191
 30
0.0
 10
125.4989718653267
 20
-153.8903482688191
 30
0.0
 10
125.8183322168093
 20
-153.8903482688191
 30
0.0
 10
126.1270127722877
 20
-153.8596869190004
 30
0.0
 10
126.1270127722877
 20
-153.6378227697503
 30
0.0
 10
126.1270127722877
 20
-153.4266384165045
 30
0.0
 10
125.8458929806913
 20
-153.3852972706815
 30
0.0
 10
125.4989718653267
 20
-153.3852972706815
 30
0.0
 10
125.1792670042955
 20
-153.3852972706815
 30
0.0
 10
124.8705864488171
 20
-153.4176811682428
 30
0.0
 10
124.8705864488171
 20
-153.6378227697503
 30
0.0
  0
HATCH
  5
AF
330
A9
100
AcDbEntity
  8
_U+30EC_U+30A4_U+30E4_U+30FC 1
 62
   179
420
  2234388
100
AcDbHatch
 10
0.0
 20
0.0
 30
0.0
210
0.0
220
0.0
230
1.0
  2
SOLID
 70
     1
 71
     0
 91
        2
 92
        1
 93
        1
 72
     4
 94
        3
 73
     0
 74
     1
 95
       29
 96
       25
 40
0.0
 40
0.0
 40
0.0
 40
0.0
 40
1.0
 40
1.0
 40
1.0
 40
2.0
 40
2.0
 40
2.0
 40
3.0
 40
3.0
 40
3.0
 40
4.0
 40
4.0
 40
4.0
 40
5.0
 40
5.0
 40
5.0
 40
6.0
 40
6.0
 40
6.0
 40
7.0
 40
7.0
 40
7.0
 40
8.0
 40
8.0
 40
8.0
 40
8.0
 10
126.0932508365322
 20
-153.2988253740017
 10
126.3027126420354
 20
-153.3908094234579
 10
126.3216606672043
 20
-153.5386040197751
 10
126.3216606672043
 20
-153.6378227697503
 10
126.3216606672043
 20
-153.7749375700632
 10
126.2751518781534
 20
-153.895515912047
 10
126.0932508365322
 20
-153.9768201654989
 10
125.8986029416156
 20
-154.0650146099213
 10
125.6615803722304
 20
-154.0812065587019
 10
125.4989718653267
 20
-154.0812065587019
 10
125.3549668740432
 20
-154.0812065587019
 10
125.1031303940714
 20
-154.0670816672124
 10
124.9043483845725
 20
-153.9768201654989
 10
124.7014322604913
 20
-153.8848361160427
 10
124.6780056111916
 20
-153.7477213157297
 10
124.6780056111916
 20
-153.6378227697503
 10
124.6780056111916
 20
-153.50243051718
 10
124.7224473429513
 20
-153.3797851179051
 10
124.9043483845725
 20
-153.2988253740017
 10
125.096929222198
 20
-153.2140760250645
 10
125.3253390528701
 20
-153.1940944712501
 10
125.4989718653267
 20
-153.1940944712501
 10
125.6701931109436
 20
-153.1940944712501
 10
125.9006699989068
 20
-153.2123534773219
 10
126.0932508365322
 20
-153.2988253740017
 97
        0
 97
        0
 92
        1
 93
        1
 72
     4
 94
        3
 73
     0
 74
     1
 95
       17
 96
       13
 40
0.0
 40
0.0
 40
0.0
 40
0.0
 40
1.0
 40
1.0
 40
1.0
 40
2.0
 40
2.0
 40
2.0
 40
3.0
 40
3.0
 40
3.0
 40
4.0
 40
4.0
 40
4.0
 40
4.0
 10
124.8705864488171
 20
-153.6378227697503
 10
124.8705864488171
 20
-153.8503851611902
 10
125.1541178072531
 20
-153.8903482688191
 10
125.4989718653267
 20
-153.8903482688191
 10
125.8183322168093
 20
-153.8903482688191
 10
126.1270127722877
 20
-153.8596869190004
 10
126.1270127722877
 20
-153.6378227697503
 10
126.1270127722877
 20
-153.4266384165045
 10
125.8458929806913
 20
-153.3852972706815
 10
125.4989718653267
 20
-153.3852972706815
 10
125.1792670042955
 20
-153.3852972706815
 10
124.8705864488171
 20
-153.4176811682428
 10
124.8705864488171
 20
-153.6378227697503
 97
        0
 97
        0
 75
     2
 76
     1
 98
        0
  0
POLYLINE
  5
B0
330
A9
100
AcDbEntity
  8
_U+30EC_U+30A4_U+30E4_U+30FC 1
370
     0
100
AcDb2dPolyline
 66
     1
 10
0.0
 20
0.0
 30
0.0
  0
VERTEX
  5
B1
330
B0
100
AcDbEntity
  8
_U+30EC_U+30A4_U+30E4_U+30FC 1
370
     0
100
AcDbVertex
100
AcDb2dVertex
 10
126.2710177635711
 20
-153.0111599009833
 30
0.0
  0
VERTEX
  5
B2
330
B0
100
AcDbEntity
  8
_U+30EC_U+30A4_U+30E4_U+30FC 1
370
     0
100
AcDbVertex
100
AcDb2dVertex
 10
126.0191812835994
 20
-153.0111599009833
 30
0.0
  0
VERTEX
  5
B3
330
B0
100
AcDbEntity
  8
_U+30EC_U+30A4_U+30E4_U+30FC 1
370
     0
100
AcDbVertex
100
AcDb2dVertex
 10
126.0191812835994
 20
-152.7965304522523
 30
0.0
  0
VERTEX
  5
B4
330
B0
100
AcDbEntity
  8
_U+30EC_U+30A4_U+30E4_U+30FC 1
370
     0
100
AcDbVertex
100
AcDb2dVertex
 10
126.2710177635711
 20
-152.7965304522523
 30
0.0
  0
VERTEX
  5
B5
330
B0
100
AcDbEntity
  8
_U+30EC_U+30A4_U+30E4_U+30FC 1
370
     0
100
AcDbVertex
100
AcDb2dVertex
 10
126.2710177635711
 20
-153.0111599009833
 30
0.0
  0
SEQEND
  5
B6
330
B0
100
AcDbEntity
  8
_U+30EC_U+30A4_U+30E4_U+30FC 1
370
     0
  0
HATCH
  5
B7
330
A9
100
AcDbEntity
  8
_U+30EC_U+30A4_U+30E4_U+30FC 1
 62
   179
420
  2234388
100
AcDbHatch
 10
0.0
 20
0.0
 30
0.0
210
0.0
220
0.0
230
1.0
  2
SOLID
 70
     1
 71
     0
 91
        1
 92
        1
 93
        4
 72
     1
 10
126.2710177635711
 20
-153.0111599009833
 11
126.0191812835994
 21
-153.0111599009833
 72
     1
 10
126.0191812835994
 20
-153.0111599009833
 11
126.0191812835994
 21
-152.7965304522523
 72
     1
 10
126.0191812835994
 20
-152.7965304522523
 11
126.2710177635711
 21
-152.7965304522523
 72
     1
 10
126.2710177635711
 20
-152.7965304522523
 11
126.2710177635711
 21
-153.0111599009833
 97
        0
 75
     2
 76
     1
 98
        0
  0
POLYLINE
  5
B8
330
A9
100
AcDbEntity
  8
_U+30EC_U+30A4_U+30E4_U+30FC 1
370
     0
100
AcDb2dPolyline
 66
     1
 10
0.0
 20
0.0
 30
0.0
  0
VERTEX
  5
B9
330
B8
100
AcDbEntity
  8
_U+30EC_U+30A4_U+30E4_U+30FC 1
370
     0
100
AcDbVertex
100
AcDb2dVertex
 10
125.9240966482065
 20
-151.8859917155007
 30
0.0
  0
VERTEX
  5
BA
330
B8
100
AcDbEntity
  8
_U+30EC_U+30A4_U+30E4_U+30FC 1
370
     0
100
AcDbVertex
100
AcDb2dVertex
 10
126.2710177635711
 20
-151.8859917155007
 30
0.0
  0
VERTEX
  5
BB
330
B8
100
AcDbEntity
  8
_U+30EC_U+30A4_U+30E4_U+30FC 1
370
     0
100
AcDbVertex
100
AcDb2dVertex
 10
126.2710177635711
 20
-152.0716823621557
 30
0.0
  0
VERTEX
  5
BC
330
B8
100
AcDbEntity
  8
_U+30EC_U+30A4_U+30E4_U+30FC 1
370
     0
100
AcDbVertex
100
AcDb2dVertex
 10
125.9240966482065
 20
-152.0716823621557
 30
0.0
  0
VERTEX
  5
BD
330
B8
100
AcDbEntity
  8
_U+30EC_U+30A4_U+30E4_U+30FC 1
370
     0
100
AcDbVertex
100
AcDb2dVertex
 10
125.9240966482065
 20
-152.6308213594118
 30
0.0
  0
VERTEX
  5
BE
330
B8
100
AcDbEntity
  8
_U+30EC_U+30A4_U+30E4_U+30FC 1
370
     0
100
AcDbVertex
100
AcDb2dVertex
 10
125.6998209321167
 20
-152.6308213594118
 30
0.0
  0
VERTEX
  5
BF
330
B8
100
AcDbEntity
  8
_U+30EC_U+30A4_U+30E4_U+30FC 1
370
     0
100
AcDbVertex
100
AcDb2dVertex
 10
124.7265814575336
 20
-152.0520453178898
 30
0.0
  0
VERTEX
  5
C0
330
B8
100
AcDbEntity
  8
_U+30EC_U+30A4_U+30E4_U+30FC 1
370
     0
100
AcDbVertex
100
AcDb2dVertex
 10
124.7265814575336
 20
-151.8859917155007
 30
0.0
  0
VERTEX
  5
C1
330
B8
100
AcDbEntity
  8
_U+30EC_U+30A4_U+30E4_U+30FC 1
370
     0
100
AcDbVertex
100
AcDb2dVertex
 10
125.7253146387076
 20
-151.8859917155007
 30
0.0
  0
VERTEX
  5
C2
330
B8
100
AcDbEntity
  8
_U+30EC_U+30A4_U+30E4_U+30FC 1
370
     0
100
AcDbVertex
100
AcDb2dVertex
 10
125.7253146387076
 20
-151.7092583171074
 30
0.0
  0
VERTEX
  5
C3
330
B8
100
AcDbEntity
  8
_U+30EC_U+30A4_U+30E4_U+30FC 1
370
     0
100
AcDbVertex
100
AcDb2dVertex
 10
125.9240966482065
 20
-151.7092583171074
 30
0.0
  0
VERTEX
  5
C4
330
B8
100
AcDbEntity
  8
_U+30EC_U+30A4_U+30E4_U+30FC 1
370
     0
100
AcDbVertex
100
AcDb2dVertex
 10
125.9240966482065
 20
-151.8859917155007
 30
0.0
  0
SEQEND
  5
C5
330
B8
100
AcDbEntity
  8
_U+30EC_U+30A4_U+30E4_U+30FC 1
370
     0
  0
POLYLINE
  5
C6
330
A9
100
AcDbEntity
  8
_U+30EC_U+30A4_U+30E4_U+30FC 1
370
     0
100
AcDb2dPolyline
 66
     1
 10
0.0
 20
0.0
 30
0.0
  0
VERTEX
  5
C7
330
C6
100
AcDbEntity
  8
_U+30EC_U+30A4_U+30E4_U+30FC 1
370
     0
100
AcDbVertex
100
AcDb2dVertex
 10
125.069368458316
 20
-152.0716823621557
 30
0.0
  0
VERTEX
  5
C8
330
C6
100
AcDbEntity
  8
_U+30EC_U+30A4_U+30E4_U+30FC 1
370
     0
100
AcDbVertex
100
AcDb2dVertex
 10
125.7253146387076
 20
-152.4613226615375
 30
0.0
  0
VERTEX
  5
C9
330
C6
100
AcDbEntity
  8
_U+30EC_U+30A4_U+30E4_U+30FC 1
370
     0
100
AcDbVertex
100
AcDb2dVertex
 10
125.7253146387076
 20
-152.0716823621557
 30
0.0
  0
VERTEX
  5
CA
330
C6
100
AcDbEntity
  8
_U+30EC_U+30A4_U+30E4_U+30FC 1
370
     0
100
AcDbVertex
100
AcDb2dVertex
 10
125.069368458316
 20
-152.0716823621557
 30
0.0
  0
SEQEND
  5
CB
330
C6
100
AcDbEntity
  8
_U+30EC_U+30A4_U+30E4_U+30FC 1
370
     0
  0
HATCH
  5
CC
330
A9
100
AcDbEntity
  8
_U+30EC_U+30A4_U+30E4_U+30FC 1
 62
   179
420
  2234388
100
AcDbHatch
 10
0.0
 20
0.0
 30
0.0
210
0.0
220
0.0
230
1.0
  2
SOLID
 70
     1
 71
     0
 91
        2
 92
        1
 93
       11
 72
     1
 10
125.9240966482065
 20
-151.8859917155007
 11
126.2710177635711
 21
-151.8859917155007
 72
     1
 10
126.2710177635711
 20
-151.8859917155007
 11
126.2710177635711
 21
-152.0716823621557
 72
     1
 10
126.2710177635711
 20
-152.0716823621557
 11
125.9240966482065
 21
-152.0716823621557
 72
     1
 10
125.9240966482065
 20
-152.0716823621557
 11
125.9240966482065
 21
-152.6308213594118
 72
     1
 10
125.9240966482065
 20
-152.6308213594118
 11
125.6998209321167
 21
-152.6308213594118
 72
     1
 10
125.6998209321167
 20
-152.6308213594118
 11
124.7265814575336
 21
-152.0520453178898
 72
     1
 10
124.7265814575336
 20
-152.0520453178898
 11
124.7265814575336
 21
-151.8859917155007
 72
     1
 10
124.7265814575336
 20
-151.8859917155007
 11
125.7253146387076
 21
-151.8859917155007
 72
     1
 10
125.7253146387076
 20
-151.8859917155007
 11
125.7253146387076
 21
-151.7092583171074
 72
     1
 10
125.7253146387076
 20
-151.7092583171074
 11
125.9240966482065
 21
-151.7092583171074
 72
     1
 10
125.9240966482065
 20
-151.7092583171074
 11
125.9240966482065
 21
-151.8859917155007
 97
        0
 92
        1
 93
        3
 72
     1
 10
125.069368458316
 20
-152.0716823621557
 11
125.7253146387076
 21
-152.4613226615375
 72
     1
 10
125.7253146387076
 20
-152.4613226615375
 11
125.7253146387076
 21
-152.0716823621557
 72
     1
 10
125.7253146387076
 20
-152.0716823621557
 11
125.069368458316
 21
-152.0716823621557
 97
        0
 75
     2
 76
     1
 98
        0
  0
ENDBLK
  5
AC
330
A9
100
AcDbEntity
  8
0
100
AcDbBlockEnd
  0
BLOCK
  5
DB
330
D9
100
AcDbEntity
  8
0
100
AcDbBlockBegin
  2
block 5
 70
     0
 10
0.0
 20
0.0
 30
0.0
  3
block 5
  1

  0
SPLINE
  5
DD
330
D9
100
AcDbEntity
  8
_U+30EC_U+30A4_U+30E4_U+30FC 1
370
     0
100
AcDbSpline
210
0.0
220
0.0
230
1.0
 70
    11
 71
     3
 72
    26
 73
    22
 74
     0
 42
0.0000000001
 43
0.0000000001
 12
1.0
 22
0.0
 32
0.0
 13
1.0
 23
0.0
 33
0.0
 40
0.0
 40
0.0
 40
0.0
 40
0.0
 40
1.0
 40
1.0
 40
1.0
 40
2.0
 40
2.0
 40
2.0
 40
3.0
 40
3.0
 40
3.0
 40
4.0
 40
4.0
 40
4.0
 40
5.0
 40
5.0
 40
5.0
 40
6.0
 40
6.0
 40
6.0
 40
7.0
 40
7.0
 40
7.0
 40
7.0
 10
95.1935004102294
 20
-157.2355359849967
 30
0.0
 10
95.1935004102294
 20
-157.2355359849967
 30
0.0
 10
95.1935004102294
 20
-156.1313828819741
 30
0.0
 10
95.1935004102294
 20
-156.1313828819741
 30
0.0
 10
95.1935004102294
 20
-156.1313828819741
 30
0.0
 10
94.9120361090845
 20
-156.1313828819741
 30
0.0
 10
94.9120361090845
 20
-156.1313828819741
 30
0.0
 10
94.9120361090845
 20
-156.1313828819741
 30
0.0
 10
94.9120361090845
 20
-155.9832437761084
 30
0.0
 10
94.9120361090845
 20
-155.9832437761084
 30
0.0
 10
95.19522295797204
 20
-155.9684298655218
 30
0.0
 10
95.2348415560524
 20
-155.8054768490695
 30
0.0
 10
95.25999075309473
 20
-155.6910996789592
 30
0.0
 10
95.25999075309473
 20
-155.6910996789592
 30
0.0
 10
95.38470320966077
 20
-155.6910996789592
 30
0.0
 10
95.38470320966077
 20
-155.6910996789592
 30
0.0
 10
95.38470320966077
 20
-155.6910996789592
 30
0.0
 10
95.38470320966077
 20
-157.2355359849967
 30
0.0
 10
95.38470320966077
 20
-157.2355359849967
 30
0.0
 10
95.38470320966077
 20
-157.2355359849967
 30
0.0
 10
95.1935004102294
 20
-157.2355359849967
 30
0.0
 10
95.1935004102294
 20
-157.2355359849967
 30
0.0
  0
HATCH
  5
DE
330
D9
100
AcDbEntity
  8
_U+30EC_U+30A4_U+30E4_U+30FC 1
 62
   179
420
  2234388
100
AcDbHatch
 10
0.0
 20
0.0
 30
0.0
210
0.0
220
0.0
230
1.0
  2
SOLID
 70
     1
 71
     0
 91
        1
 92
        1
 93
        1
 72
     4
 94
        3
 73
     0
 74
     1
 95
       26
 96
       22
 40
0.0
 40
0.0
 40
0.0
 40
0.0
 40
1.0
 40
1.0
 40
1.0
 40
2.0
 40
2.0
 40
2.0
 40
3.0
 40
3.0
 40
3.0
 40
4.0
 40
4.0
 40
4.0
 40
5.0
 40
5.0
 40
5.0
 40
6.0
 40
6.0
 40
6.0
 40
7.0
 40
7.0
 40
7.0
 40
7.0
 10
95.1935004102294
 20
-157.2355359849967
 10
95.1935004102294
 20
-157.2355359849967
 10
95.1935004102294
 20
-156.1313828819741
 10
95.1935004102294
 20
-156.1313828819741
 10
95.1935004102294
 20
-156.1313828819741
 10
94.9120361090845
 20
-156.1313828819741
 10
94.9120361090845
 20
-156.1313828819741
 10
94.9120361090845
 20
-156.1313828819741
 10
94.9120361090845
 20
-155.9832437761084
 10
94.9120361090845
 20
-155.9832437761084
 10
95.19522295797204
 20
-155.9684298655218
 10
95.2348415560524
 20
-155.8054768490695
 10
95.25999075309473
 20
-155.6910996789592
 10
95.25999075309473
 20
-155.6910996789592
 10
95.38470320966077
 20
-155.6910996789592
 10
95.38470320966077
 20
-155.6910996789592
 10
95.38470320966077
 20
-155.6910996789592
 10
95.38470320966077
 20
-157.2355359849967
 10
95.38470320966077
 20
-157.2355359849967
 10
95.38470320966077
 20
-157.2355359849967
 10
95.1935004102294
 20
-157.2355359849967
 10
95.1935004102294
 20
-157.2355359849967
 97
        0
 97
        0
 75
     2
 76
     1
 98
        0
  0
SPLINE
  5
DF
330
D9
100
AcDbEntity
  8
_U+30EC_U+30A4_U+30E4_U+30FC 1
370
     0
100
AcDbSpline
210
0.0
220
0.0
230
1.0
 70
    11
 71
     3
 72
    44
 73
    40
 74
     0
 42
0.0000000001
 43
0.0000000001
 12
1.0
 22
0.0
 32
0.0
 13
1.0
 23
0.0
 33
0.0
 40
0.0
 40
0.0
 40
0.0
 40
0.0
 40
1.0
 40
1.0
 40
1.0
 40
2.0
 40
2.0
 40
2.0
 40
3.0
 40
3.0
 40
3.0
 40
4.0
 40
4.0
 40
4.0
 40
5.0
 40
5.0
 40
5.0
 40
6.0
 40
6.0
 40
6.0
 40
7.0
 40
7.0
 40
7.0
 40
8.0
 40
8.0
 40
8.0
 40
9.0
 40
9.0
 40
9.0
 40
10.0
 40
10.0
 40
10.0
 40
11.0
 40
11.0
 40
11.0
 40
12.0
 40
12.0
 40
12.0
 40
13.0
 40
13.0
 40
13.0
 40
13.0
 10
96.3159125193238
 20
-156.653659357538
 30
0.0
 10
96.13022187266884
 20
-156.812478259408
 30
0.0
 10
96.0509846765081
 20
-156.8865478123409
 30
0.0
 10
96.0096435306851
 20
-157.0302082940758
 30
0.0
 10
96.0096435306851
 20
-157.0302082940758
 30
0.0
 10
96.67316892114421
 20
-157.0302082940758
 30
0.0
 10
96.67316892114421
 20
-157.0302082940758
 30
0.0
 10
96.67316892114421
 20
-157.0302082940758
 30
0.0
 10
96.67316892114421
 20
-157.2355359849967
 30
0.0
 10
96.67316892114421
 20
-157.2355359849967
 30
0.0
 10
96.67316892114421
 20
-157.2355359849967
 30
0.0
 10
95.79673662969665
 20
-157.2355359849967
 30
0.0
 10
95.79673662969665
 20
-157.2355359849967
 30
0.0
 10
95.82360837448161
 20
-156.8779350736278
 30
0.0
 10
95.87976343089117
 20
-156.7997314061126
 30
0.0
 10
96.20773652108696
 20
-156.50138613709
 30
0.0
 10
96.4261555748518
 20
-156.302604127591
 30
0.0
 10
96.48196612171284
 20
-156.2347357465316
 30
0.0
 10
96.48196612171284
 20
-156.0972764366701
 30
0.0
 10
96.48196612171284
 20
-155.9787651519775
 30
0.0
 10
96.4206434220754
 20
-155.8478515235381
 30
0.0
 10
96.25286727194373
 20
-155.8478515235381
 30
0.0
 10
96.03100312269365
 20
-155.8478515235381
 30
0.0
 10
96.02376842217461
 20
-156.0783284115012
 30
0.0
 10
96.02032332668936
 20
-156.1947726389027
 30
0.0
 10
96.02032332668936
 20
-156.1947726389027
 30
0.0
 10
95.829120527258
 20
-156.1947726389027
 30
0.0
 10
95.829120527258
 20
-156.1947726389027
 30
0.0
 10
95.83635522777702
 20
-156.067648615497
 30
0.0
 10
95.84531247603867
 20
-155.9556830122264
 30
0.0
 10
95.91386987619515
 20
-155.8371717275338
 30
0.0
 10
96.00757647339394
 20
-155.6762857683726
 30
0.0
 10
96.16639537526396
 20
-155.6425238326171
 30
0.0
 10
96.26561412523915
 20
-155.6425238326171
 30
0.0
 10
96.50194767552729
 20
-155.6425238326171
 30
0.0
 10
96.67868107392061
 20
-155.8264919315295
 30
0.0
 10
96.67868107392061
 20
-156.0993434939613
 30
0.0
 10
96.67868107392061
 20
-156.3280978341819
 30
0.0
 10
96.57946232394542
 20
-156.4273165841571
 30
0.0
 10
96.3159125193238
 20
-156.653659357538
 30
0.0
  0
HATCH
  5
E0
330
D9
100
AcDbEntity
  8
_U+30EC_U+30A4_U+30E4_U+30FC 1
 62
   179
420
  2234388
100
AcDbHatch
 10
0.0
 20
0.0
 30
0.0
210
0.0
220
0.0
230
1.0
  2
SOLID
 70
     1
 71
     0
 91
        1
 92
        1
 93
        1
 72
     4
 94
        3
 73
     0
 74
     1
 95
       44
 96
       40
 40
0.0
 40
0.0
 40
0.0
 40
0.0
 40
1.0
 40
1.0
 40
1.0
 40
2.0
 40
2.0
 40
2.0
 40
3.0
 40
3.0
 40
3.0
 40
4.0
 40
4.0
 40
4.0
 40
5.0
 40
5.0
 40
5.0
 40
6.0
 40
6.0
 40
6.0
 40
7.0
 40
7.0
 40
7.0
 40
8.0
 40
8.0
 40
8.0
 40
9.0
 40
9.0
 40
9.0
 40
10.0
 40
10.0
 40
10.0
 40
11.0
 40
11.0
 40
11.0
 40
12.0
 40
12.0
 40
12.0
 40
13.0
 40
13.0
 40
13.0
 40
13.0
 10
96.3159125193238
 20
-156.653659357538
 10
96.13022187266884
 20
-156.812478259408
 10
96.0509846765081
 20
-156.8865478123409
 10
96.0096435306851
 20
-157.0302082940758
 10
96.0096435306851
 20
-157.0302082940758
 10
96.67316892114421
 20
-157.0302082940758
 10
96.67316892114421
 20
-157.0302082940758
 10
96.67316892114421
 20
-157.0302082940758
 10
96.67316892114421
 20
-157.2355359849967
 10
96.67316892114421
 20
-157.2355359849967
 10
96.67316892114421
 20
-157.2355359849967
 10
95.79673662969665
 20
-157.2355359849967
 10
95.79673662969665
 20
-157.2355359849967
 10
95.82360837448161
 20
-156.8779350736278
 10
95.87976343089117
 20
-156.7997314061126
 10
96.20773652108696
 20
-156.50138613709
 10
96.4261555748518
 20
-156.302604127591
 10
96.48196612171284
 20
-156.2347357465316
 10
96.48196612171284
 20
-156.0972764366701
 10
96.48196612171284
 20
-155.9787651519775
 10
96.4206434220754
 20
-155.8478515235381
 10
96.25286727194373
 20
-155.8478515235381
 10
96.03100312269365
 20
-155.8478515235381
 10
96.02376842217461
 20
-156.0783284115012
 10
96.02032332668936
 20
-156.1947726389027
 10
96.02032332668936
 20
-156.1947726389027
 10
95.829120527258
 20
-156.1947726389027
 10
95.829120527258
 20
-156.1947726389027
 10
95.83635522777702
 20
-156.067648615497
 10
95.84531247603867
 20
-155.9556830122264
 10
95.91386987619515
 20
-155.8371717275338
 10
96.00757647339394
 20
-155.6762857683726
 10
96.16639537526396
 20
-155.6425238326171
 10
96.26561412523915
 20
-155.6425238326171
 10
96.50194767552729
 20
-155.6425238326171
 10
96.67868107392061
 20
-155.8264919315295
 10
96.67868107392061
 20
-156.0993434939613
 10
96.67868107392061
 20
-156.3280978341819
 10
96.57946232394542
 20
-156.4273165841571
 10
96.3159125193238
 20
-156.653659357538
 97
        0
 97
        0
 75
     2
 76
     1
 98
        0
  0
ENDBLK
  5
DC
330
D9
100
AcDbEntity
  8
0
100
AcDbBlockEnd
  0
BLOCK
  5
EB
330
E9
100
AcDbEntity
  8
0
100
AcDbBlockBegin
  2
block 6
 70
     0
 10
0.0
 20
0.0
 30
0.0
  3
block 6
  1

  0
SPLINE
  5
ED
330
E9
100
AcDbEntity
  8
_U+30EC_U+30A4_U+30E4_U+30FC 1
370
     0
100
AcDbSpline
210
0.0
220
0.0
230
1.0
 70
    11
 71
     3
 72
    32
 73
    28
 74
     0
 42
0.0000000001
 43
0.0000000001
 12
1.0
 22
0.0
 32
0.0
 13
1.0
 23
0.0
 33
0.0
 40
0.0
 40
0.0
 40
0.0
 40
0.0
 40
1.0
 40
1.0
 40
1.0
 40
2.0
 40
2.0
 40
2.0
 40
3.0
 40
3.0
 40
3.0
 40
4.0
 40
4.0
 40
4.0
 40
5.0
 40
5.0
 40
5.0
 40
6.0
 40
6.0
 40
6.0
 40
7.0
 40
7.0
 40
7.0
 40
8.0
 40
8.0
 40
8.0
 40
9.0
 40
9.0
 40
9.0
 40
9.0
 10
122.4407606030704
 20
-148.9197645027006
 30
0.0
 10
122.4407606030704
 20
-149.0675590990178
 30
0.0
 10
122.3711696742683
 20
-149.2766763949725
 30
0.0
 10
122.0390624694902
 20
-149.3090602925338
 30
0.0
 10
122.0390624694902
 20
-149.3090602925338
 30
0.0
 10
122.0390624694902
 20
-149.1268147413641
 30
0.0
 10
122.0390624694902
 20
-149.1268147413641
 30
0.0
 10
122.0983181118365
 20
-149.1178574931025
 30
0.0
 10
122.2461127081538
 20
-149.0909857483175
 30
0.0
 10
122.2461127081538
 20
-148.9176974454095
 30
0.0
 10
122.2461127081538
 20
-148.6689615513744
 30
0.0
 10
121.9164170702153
 20
-148.6365776538131
 30
0.0
 10
121.7110893792944
 20
-148.6255533482603
 30
0.0
 10
121.7913601041008
 20
-148.7030679966784
 30
0.0
 10
121.8485486891559
 20
-148.7609456008306
 30
0.0
 10
121.8485486891559
 20
-148.9159748976668
 30
0.0
 10
121.8485486891559
 20
-149.0692816467605
 30
0.0
 10
121.7427842577588
 20
-149.3269747890571
 30
0.0
 10
121.3366075000478
 20
-149.3269747890571
 30
0.0
 10
121.0172471485651
 20
-149.3269747890571
 30
0.0
 10
120.7971055470577
 20
-149.1574760911829
 30
0.0
 10
120.7971055470577
 20
-148.8870360955908
 30
0.0
 10
120.7971055470577
 20
-148.448819949867
 30
0.0
 10
121.3514214106344
 20
-148.4398627016053
 30
0.0
 10
121.5650173307199
 20
-148.4398627016053
 30
0.0
 10
121.7954942186831
 20
-148.4398627016053
 30
0.0
 10
122.4407606030704
 20
-148.456054650386
 30
0.0
 10
122.4407606030704
 20
-148.9197645027006
 30
0.0
  0
SPLINE
  5
EE
330
E9
100
AcDbEntity
  8
_U+30EC_U+30A4_U+30E4_U+30FC 1
370
     0
100
AcDbSpline
210
0.0
220
0.0
230
1.0
 70
    11
 71
     3
 72
    17
 73
    13
 74
     0
 42
0.0000000001
 43
0.0000000001
 12
1.0
 22
0.0
 32
0.0
 13
1.0
 23
0.0
 33
0.0
 40
0.0
 40
0.0
 40
0.0
 40
0.0
 40
1.0
 40
1.0
 40
1.0
 40
2.0
 40
2.0
 40
2.0
 40
3.0
 40
3.0
 40
3.0
 40
4.0
 40
4.0
 40
4.0
 40
4.0
 10
120.9896863846831
 20
-148.8853135478481
 30
0.0
 10
120.9896863846831
 20
-148.986254845566
 30
0.0
 10
121.0468749697383
 20
-149.1361164991743
 30
0.0
 10
121.3324733854655
 20
-149.1361164991743
 30
0.0
 10
121.5588161588464
 20
-149.1361164991743
 30
0.0
 10
121.6539007942393
 20
-149.0169161953847
 30
0.0
 10
121.6539007942393
 20
-148.9015054966288
 30
0.0
 10
121.6539007942393
 20
-148.6779187996361
 30
0.0
 10
121.4444389887361
 20
-148.6455349020747
 30
0.0
 10
121.3279947613347
 20
-148.6455349020747
 30
0.0
 10
121.1526394011355
 20
-148.6455349020747
 30
0.0
 10
120.9896863846831
 20
-148.7264946459781
 30
0.0
 10
120.9896863846831
 20
-148.8853135478481
 30
0.0
  0
HATCH
  5
EF
330
E9
100
AcDbEntity
  8
_U+30EC_U+30A4_U+30E4_U+30FC 1
 62
   179
420
  2234388
100
AcDbHatch
 10
0.0
 20
0.0
 30
0.0
210
0.0
220
0.0
230
1.0
  2
SOLID
 70
     1
 71
     0
 91
        2
 92
        1
 93
        1
 72
     4
 94
        3
 73
     0
 74
     1
 95
       32
 96
       28
 40
0.0
 40
0.0
 40
0.0
 40
0.0
 40
1.0
 40
1.0
 40
1.0
 40
2.0
 40
2.0
 40
2.0
 40
3.0
 40
3.0
 40
3.0
 40
4.0
 40
4.0
 40
4.0
 40
5.0
 40
5.0
 40
5.0
 40
6.0
 40
6.0
 40
6.0
 40
7.0
 40
7.0
 40
7.0
 40
8.0
 40
8.0
 40
8.0
 40
9.0
 40
9.0
 40
9.0
 40
9.0
 10
122.4407606030704
 20
-148.9197645027006
 10
122.4407606030704
 20
-149.0675590990178
 10
122.3711696742683
 20
-149.2766763949725
 10
122.0390624694902
 20
-149.3090602925338
 10
122.0390624694902
 20
-149.3090602925338
 10
122.0390624694902
 20
-149.1268147413641
 10
122.0390624694902
 20
-149.1268147413641
 10
122.0983181118365
 20
-149.1178574931025
 10
122.2461127081538
 20
-149.0909857483175
 10
122.2461127081538
 20
-148.9176974454095
 10
122.2461127081538
 20
-148.6689615513744
 10
121.9164170702153
 20
-148.6365776538131
 10
121.7110893792944
 20
-148.6255533482603
 10
121.7913601041008
 20
-148.7030679966784
 10
121.8485486891559
 20
-148.7609456008306
 10
121.8485486891559
 20
-148.9159748976668
 10
121.8485486891559
 20
-149.0692816467605
 10
121.7427842577588
 20
-149.3269747890571
 10
121.3366075000478
 20
-149.3269747890571
 10
121.0172471485651
 20
-149.3269747890571
 10
120.7971055470577
 20
-149.1574760911829
 10
120.7971055470577
 20
-148.8870360955908
 10
120.7971055470577
 20
-148.448819949867
 10
121.3514214106344
 20
-148.4398627016053
 10
121.5650173307199
 20
-148.4398627016053
 10
121.7954942186831
 20
-148.4398627016053
 10
122.4407606030704
 20
-148.456054650386
 10
122.4407606030704
 20
-148.9197645027006
 97
        0
 97
        0
 92
        1
 93
        1
 72
     4
 94
        3
 73
     0
 74
     1
 95
       17
 96
       13
 40
0.0
 40
0.0
 40
0.0
 40
0.0
 40
1.0
 40
1.0
 40
1.0
 40
2.0
 40
2.0
 40
2.0
 40
3.0
 40
3.0
 40
3.0
 40
4.0
 40
4.0
 40
4.0
 40
4.0
 10
120.9896863846831
 20
-148.8853135478481
 10
120.9896863846831
 20
-148.986254845566
 10
121.0468749697383
 20
-149.1361164991743
 10
121.3324733854655
 20
-149.1361164991743
 10
121.5588161588464
 20
-149.1361164991743
 10
121.6539007942393
 20
-149.0169161953847
 10
121.6539007942393
 20
-148.9015054966288
 10
121.6539007942393
 20
-148.6779187996361
 10
121.4444389887361
 20
-148.6455349020747
 10
121.3279947613347
 20
-148.6455349020747
 10
121.1526394011355
 20
-148.6455349020747
 10
120.9896863846831
 20
-148.7264946459781
 10
120.9896863846831
 20
-148.8853135478481
 97
        0
 97
        0
 75
     2
 76
     1
 98
        0
  0
POLYLINE
  5
F0
330
E9
100
AcDbEntity
  8
_U+30EC_U+30A4_U+30E4_U+30FC 1
370
     0
100
AcDb2dPolyline
 66
     1
 10
0.0
 20
0.0
 30
0.0
  0
VERTEX
  5
F1
330
F0
100
AcDbEntity
  8
_U+30EC_U+30A4_U+30E4_U+30FC 1
370
     0
100
AcDbVertex
100
AcDb2dVertex
 10
122.3901176994372
 20
-148.2569281313386
 30
0.0
  0
VERTEX
  5
F2
330
F0
100
AcDbEntity
  8
_U+30EC_U+30A4_U+30E4_U+30FC 1
370
     0
100
AcDbVertex
100
AcDb2dVertex
 10
122.1382812194654
 20
-148.2569281313386
 30
0.0
  0
VERTEX
  5
F3
330
F0
100
AcDbEntity
  8
_U+30EC_U+30A4_U+30E4_U+30FC 1
370
     0
100
AcDbVertex
100
AcDb2dVertex
 10
122.1382812194654
 20
-148.0422986826075
 30
0.0
  0
VERTEX
  5
F4
330
F0
100
AcDbEntity
  8
_U+30EC_U+30A4_U+30E4_U+30FC 1
370
     0
100
AcDbVertex
100
AcDb2dVertex
 10
122.3901176994372
 20
-148.0422986826075
 30
0.0
  0
VERTEX
  5
F5
330
F0
100
AcDbEntity
  8
_U+30EC_U+30A4_U+30E4_U+30FC 1
370
     0
100
AcDbVertex
100
AcDb2dVertex
 10
122.3901176994372
 20
-148.2569281313386
 30
0.0
  0
SEQEND
  5
F6
330
F0
100
AcDbEntity
  8
_U+30EC_U+30A4_U+30E4_U+30FC 1
370
     0
  0
HATCH
  5
F7
330
E9
100
AcDbEntity
  8
_U+30EC_U+30A4_U+30E4_U+30FC 1
 62
   179
420
  2234388
100
AcDbHatch
 10
0.0
 20
0.0
 30
0.0
210
0.0
220
0.0
230
1.0
  2
SOLID
 70
     1
 71
     0
 91
        1
 92
        1
 93
        4
 72
     1
 10
122.3901176994372
 20
-148.2569281313386
 11
122.1382812194654
 21
-148.2569281313386
 72
     1
 10
122.1382812194654
 20
-148.2569281313386
 11
122.1382812194654
 21
-148.0422986826075
 72
     1
 10
122.1382812194654
 20
-148.0422986826075
 11
122.3901176994372
 21
-148.0422986826075
 72
     1
 10
122.3901176994372
 20
-148.0422986826075
 11
122.3901176994372
 21
-148.2569281313386
 97
        0
 75
     2
 76
     1
 98
        0
  0
SPLINE
  5
F8
330
E9
100
AcDbEntity
  8
_U+30EC_U+30A4_U+30E4_U+30FC 1
370
     0
100
AcDbSpline
210
0.0
220
0.0
230
1.0
 70
    11
 71
     3
 72
    53
 73
    49
 74
     0
 42
0.0000000001
 43
0.0000000001
 12
1.0
 22
0.0
 32
0.0
 13
1.0
 23
0.0
 33
0.0
 40
0.0
 40
0.0
 40
0.0
 40
0.0
 40
1.0
 40
1.0
 40
1.0
 40
2.0
 40
2.0
 40
2.0
 40
3.0
 40
3.0
 40
3.0
 40
4.0
 40
4.0
 40
4.0
 40
5.0
 40
5.0
 40
5.0
 40
6.0
 40
6.0
 40
6.0
 40
7.0
 40
7.0
 40
7.0
 40
8.0
 40
8.0
 40
8.0
 40
9.0
 40
9.0
 40
9.0
 40
10.0
 40
10.0
 40
10.0
 40
11.0
 40
11.0
 40
11.0
 40
12.0
 40
12.0
 40
12.0
 40
13.0
 40
13.0
 40
13.0
 40
14.0
 40
14.0
 40
14.0
 40
15.0
 40
15.0
 40
15.0
 40
16.0
 40
16.0
 40
16.0
 40
16.0
 10
122.4407606030704
 20
-147.4311387435242
 30
0.0
 10
122.4407606030704
 20
-147.497973595938
 30
0.0
 10
122.4238796351926
 20
-147.5844454926178
 30
0.0
 10
122.360489878264
 20
-147.6709173892976
 30
0.0
 10
122.2505913322846
 20
-147.8187119856148
 30
0.0
 10
122.1193331942966
 20
-147.8369709916866
 30
0.0
 10
122.0115017056082
 20
-147.8531629404673
 30
0.0
 10
122.0115017056082
 20
-147.8531629404673
 30
0.0
 10
122.0115017056082
 20
-147.6636826887785
 30
0.0
 10
122.0115017056082
 20
-147.6636826887785
 30
0.0
 10
122.2102837151072
 20
-147.6168293901791
 30
0.0
 10
122.2399115362803
 20
-147.5086533919423
 30
0.0
 10
122.2399115362803
 20
-147.4294161957815
 30
0.0
 10
122.2399115362803
 20
-147.3102158919919
 30
0.0
 10
122.1403482767566
 20
-147.180335792198
 30
0.0
 10
121.9078043315022
 20
-147.180335792198
 30
0.0
 10
121.6518337369482
 20
-147.180335792198
 30
0.0
 10
121.5818982985976
 20
-147.3336425412916
 30
0.0
 10
121.5818982985976
 20
-147.4366508963006
 30
0.0
 10
121.5818982985976
 20
-147.4635226410855
 30
0.0
 10
121.5818982985976
 20
-147.5844454926178
 30
0.0
 10
121.7110893792944
 20
-147.6602375932933
 30
0.0
 10
121.7110893792944
 20
-147.6602375932933
 30
0.0
 10
121.6921413541256
 20
-147.8097547373531
 30
0.0
 10
121.6921413541256
 20
-147.8097547373531
 30
0.0
 10
121.6921413541256
 20
-147.8097547373531
 30
0.0
 10
120.8456813933997
 20
-147.7070908918927
 30
0.0
 10
120.8456813933997
 20
-147.7070908918927
 30
0.0
 10
120.8456813933997
 20
-147.7070908918927
 30
0.0
 10
120.8456813933997
 20
-147.0435655014336
 30
0.0
 10
120.8456813933997
 20
-147.0435655014336
 30
0.0
 10
120.8456813933997
 20
-147.0435655014336
 30
0.0
 10
121.0403292883163
 20
-147.0435655014336
 30
0.0
 10
121.0403292883163
 20
-147.0435655014336
 30
0.0
 10
121.0403292883163
 20
-147.0435655014336
 30
0.0
 10
121.0403292883163
 20
-147.5682535438371
 30
0.0
 10
121.0403292883163
 20
-147.5682535438371
 30
0.0
 10
121.0403292883163
 20
-147.5682535438371
 30
0.0
 10
121.463387013905
 20
-147.6240640906982
 30
0.0
 10
121.463387013905
 20
-147.6240640906982
 30
0.0
 10
121.4296250781495
 20
-147.5716986393224
 30
0.0
 10
121.3893174609721
 20
-147.5014186914233
 30
0.0
 10
121.3893174609721
 20
-147.4004773937054
 30
0.0
 10
121.3893174609721
 20
-147.1841253972318
 30
0.0
 10
121.5756971267241
 20
-146.9822428017961
 30
0.0
 10
121.8888563063334
 20
-146.9822428017961
 30
0.0
 10
122.2061496005249
 20
-146.9822428017961
 30
0.0
 10
122.4407606030704
 20
-147.1731010916789
 30
0.0
 10
122.4407606030704
 20
-147.4311387435242
 30
0.0
  0
HATCH
  5
F9
330
E9
100
AcDbEntity
  8
_U+30EC_U+30A4_U+30E4_U+30FC 1
 62
   179
420
  2234388
100
AcDbHatch
 10
0.0
 20
0.0
 30
0.0
210
0.0
220
0.0
230
1.0
  2
SOLID
 70
     1
 71
     0
 91
        1
 92
        1
 93
        1
 72
     4
 94
        3
 73
     0
 74
     1
 95
       53
 96
       49
 40
0.0
 40
0.0
 40
0.0
 40
0.0
 40
1.0
 40
1.0
 40
1.0
 40
2.0
 40
2.0
 40
2.0
 40
3.0
 40
3.0
 40
3.0
 40
4.0
 40
4.0
 40
4.0
 40
5.0
 40
5.0
 40
5.0
 40
6.0
 40
6.0
 40
6.0
 40
7.0
 40
7.0
 40
7.0
 40
8.0
 40
8.0
 40
8.0
 40
9.0
 40
9.0
 40
9.0
 40
10.0
 40
10.0
 40
10.0
 40
11.0
 40
11.0
 40
11.0
 40
12.0
 40
12.0
 40
12.0
 40
13.0
 40
13.0
 40
13.0
 40
14.0
 40
14.0
 40
14.0
 40
15.0
 40
15.0
 40
15.0
 40
16.0
 40
16.0
 40
16.0
 40
16.0
 10
122.4407606030704
 20
-147.4311387435242
 10
122.4407606030704
 20
-147.497973595938
 10
122.4238796351926
 20
-147.5844454926178
 10
122.360489878264
 20
-147.6709173892976
 10
122.2505913322846
 20
-147.8187119856148
 10
122.1193331942966
 20
-147.8369709916866
 10
122.0115017056082
 20
-147.8531629404673
 10
122.0115017056082
 20
-147.8531629404673
 10
122.0115017056082
 20
-147.6636826887785
 10
122.0115017056082
 20
-147.6636826887785
 10
122.2102837151072
 20
-147.6168293901791
 10
122.2399115362803
 20
-147.5086533919423
 10
122.2399115362803
 20
-147.4294161957815
 10
122.2399115362803
 20
-147.3102158919919
 10
122.1403482767566
 20
-147.180335792198
 10
121.9078043315022
 20
-147.180335792198
 10
121.6518337369482
 20
-147.180335792198
 10
121.5818982985976
 20
-147.3336425412916
 10
121.5818982985976
 20
-147.4366508963006
 10
121.5818982985976
 20
-147.4635226410855
 10
121.5818982985976
 20
-147.5844454926178
 10
121.7110893792944
 20
-147.6602375932933
 10
121.7110893792944
 20
-147.6602375932933
 10
121.6921413541256
 20
-147.8097547373531
 10
121.6921413541256
 20
-147.8097547373531
 10
121.6921413541256
 20
-147.8097547373531
 10
120.8456813933997
 20
-147.7070908918927
 10
120.8456813933997
 20
-147.7070908918927
 10
120.8456813933997
 20
-147.7070908918927
 10
120.8456813933997
 20
-147.0435655014336
 10
120.8456813933997
 20
-147.0435655014336
 10
120.8456813933997
 20
-147.0435655014336
 10
121.0403292883163
 20
-147.0435655014336
 10
121.0403292883163
 20
-147.0435655014336
 10
121.0403292883163
 20
-147.0435655014336
 10
121.0403292883163
 20
-147.5682535438371
 10
121.0403292883163
 20
-147.5682535438371
 10
121.0403292883163
 20
-147.5682535438371
 10
121.463387013905
 20
-147.6240640906982
 10
121.463387013905
 20
-147.6240640906982
 10
121.4296250781495
 20
-147.5716986393224
 10
121.3893174609721
 20
-147.5014186914233
 10
121.3893174609721
 20
-147.4004773937054
 10
121.3893174609721
 20
-147.1841253972318
 10
121.5756971267241
 20
-146.9822428017961
 10
121.8888563063334
 20
-146.9822428017961
 10
122.2061496005249
 20
-146.9822428017961
 10
122.4407606030704
 20
-147.1731010916789
 10
122.4407606030704
 20
-147.4311387435242
 97
        0
 97
        0
 75
     2
 76
     1
 98
        0
  0
ENDBLK
  5
EC
330
E9
100
AcDbEntity
  8
0
100
AcDbBlockEnd
  0
ENDSEC
  0
SECTION
  2
ENTITIES
  0
POLYLINE
  5
41
330
1F
100
AcDbEntity
  8
_U+30EC_U+30A4_U+30E4_U+30FC 1
 62
   179
420
  2234388
370
    25
100
AcDb2dPolyline
 66
     1
 10
0.0
 20
0.0
 30
0.0
  0
VERTEX
  5
42
330
41
100
AcDbEntity
  8
_U+30EC_U+30A4_U+30E4_U+30FC 1
 62
   179
420
  2234388
370
    25
100
AcDbVertex
100
AcDb2dVertex
 10
89.9865885375842
 20
-143.2320816308587
 30
0.0
  0
VERTEX
  5
43
330
41
100
AcDbEntity
  8
_U+30EC_U+30A4_U+30E4_U+30FC 1
 62
   179
420
  2234388
370
    25
100
AcDbVertex
100
AcDb2dVertex
 10
103.0862148700515
 20
-143.2320816308587
 30
0.0
  0
SEQEND
  5
44
330
41
100
AcDbEntity
  8
_U+30EC_U+30A4_U+30E4_U+30FC 1
 62
   179
420
  2234388
370
    25
  0
POLYLINE
  5
45
330
1F
100
AcDbEntity
  8
_U+30EC_U+30A4_U+30E4_U+30FC 1
 62
   179
420
  2234388
370
    25
100
AcDb2dPolyline
 66
     1
 10
0.0
 20
0.0
 30
0.0
  0
VERTEX
  5
46
330
45
100
AcDbEntity
  8
_U+30EC_U+30A4_U+30E4_U+30FC 1
 62
   179
420
  2234388
370
    25
100
AcDbVertex
100
AcDb2dVertex
 10
101.9865360092178
 20
-144.3324307972502
 30
0.0
  0
VERTEX
  5
47
330
45
100
AcDbEntity
  8
_U+30EC_U+30A4_U+30E4_U+30FC 1
 62
   179
420
  2234388
370
    25
100
AcDbVertex
100
AcDb2dVertex
 10
101.9865360092178
 20
-153.8321366282088
 30
0.0
  0
SEQEND
  5
48
330
45
100
AcDbEntity
  8
_U+30EC_U+30A4_U+30E4_U+30FC 1
 62
   179
420
  2234388
370
    25
  0
POLYLINE
  5
49
330
1F
100
AcDbEntity
  8
_U+30EC_U+30A4_U+30E4_U+30FC 1
 62
   179
420
  2234388
370
    25
100
AcDb2dPolyline
 66
     1
 10
0.0
 20
0.0
 30
0.0
  0
VERTEX
  5
4A
330
49
100
AcDbEntity
  8
_U+30EC_U+30A4_U+30E4_U+30FC 1
 62
   179
420
  2234388
370
    25
100
AcDbVertex
100
AcDb2dVertex
 10
89.9865885375842
 20
-144.3324307972502
 30
0.0
  0
VERTEX
  5
4B
330
49
100
AcDbEntity
  8
_U+30EC_U+30A4_U+30E4_U+30FC 1
 62
   179
420
  2234388
370
    25
100
AcDbVertex
100
AcDb2dVertex
 10
101.9865360092178
 20
-144.3324307972502
 30
0.0
  0
SEQEND
  5
4C
330
49
100
AcDbEntity
  8
_U+30EC_U+30A4_U+30E4_U+30FC 1
 62
   179
420
  2234388
370
    25
  0
POLYLINE
  5
4D
330
1F
100
AcDbEntity
  8
_U+30EC_U+30A4_U+30E4_U+30FC 1
 62
   179
420
  2234388
370
    25
100
AcDb2dPolyline
 66
     1
 10
0.0
 20
0.0
 30
0.0
  0
VERTEX
  5
4E
330
4D
100
AcDbEntity
  8
_U+30EC_U+30A4_U+30E4_U+30FC 1
 62
   179
420
  2234388
370
    25
100
AcDbVertex
100
AcDb2dVertex
 10
89.9865885375842
 20
-143.2320816308587
 30
0.0
  0
VERTEX
  5
4F
330
4D
100
AcDbEntity
  8
_U+30EC_U+30A4_U+30E4_U+30FC 1
 62
   179
420
  2234388
370
    25
100
AcDbVertex
100
AcDb2dVertex
 10
89.9865885375842
 20
-144.3324307972502
 30
0.0
  0
SEQEND
  5
50
330
4D
100
AcDbEntity
  8
_U+30EC_U+30A4_U+30E4_U+30FC 1
 62
   179
420
  2234388
370
    25
  0
POLYLINE
  5
51
330
1F
100
AcDbEntity
  8
_U+30EC_U+30A4_U+30E4_U+30FC 1
 62
   179
420
  2234388
370
    25
100
AcDb2dPolyline
 66
     1
 10
0.0
 20
0.0
 30
0.0
  0
VERTEX
  5
52
330
51
100
AcDbEntity
  8
_U+30EC_U+30A4_U+30E4_U+30FC 1
 62
   179
420
  2234388
370
    25
100
AcDbVertex
100
AcDb2dVertex
 10
103.0862148700515
 20
-143.2320816308587
 30
0.0
  0
VERTEX
  5
53
330
51
100
AcDbEntity
  8
_U+30EC_U+30A4_U+30E4_U+30FC 1
 62
   179
420
  2234388
370
    25
100
AcDbVertex
100
AcDb2dVertex
 10
103.0862148700515
 20
-152.7324577395947
 30
0.0
  0
SEQEND
  5
54
330
51
100
AcDbEntity
  8
_U+30EC_U+30A4_U+30E4_U+30FC 1
 62
   179
420
  2234388
370
    25
  0
POLYLINE
  5
55
330
1F
100
AcDbEntity
  8
_U+30EC_U+30A4_U+30E4_U+30FC 1
 62
   179
420
  2234388
370
    25
100
AcDb2dPolyline
 66
     1
 10
0.0
 20
0.0
 30
0.0
  0
VERTEX
  5
56
330
55
100
AcDbEntity
  8
_U+30EC_U+30A4_U+30E4_U+30FC 1
 62
   179
420
  2234388
370
    25
100
AcDbVertex
100
AcDb2dVertex
 10
118.9867202977292
 20
-152.7324577395947
 30
0.0
  0
VERTEX
  5
57
330
55
100
AcDbEntity
  8
_U+30EC_U+30A4_U+30E4_U+30FC 1
 62
   179
420
  2234388
370
    25
100
AcDbVertex
100
AcDb2dVertex
 10
118.9867202977292
 20
-153.1327546839392
 30
0.0
  0
SEQEND
  5
58
330
55
100
AcDbEntity
  8
_U+30EC_U+30A4_U+30E4_U+30FC 1
 62
   179
420
  2234388
370
    25
  0
POLYLINE
  5
59
330
1F
100
AcDbEntity
  8
_U+30EC_U+30A4_U+30E4_U+30FC 1
 62
   179
420
  2234388
370
    25
100
AcDb2dPolyline
 66
     1
 10
0.0
 20
0.0
 30
0.0
  0
VERTEX
  5
5A
330
59
100
AcDbEntity
  8
_U+30EC_U+30A4_U+30E4_U+30FC 1
 62
   179
420
  2234388
370
    25
100
AcDbVertex
100
AcDb2dVertex
 10
103.0862148700515
 20
-152.7324577395947
 30
0.0
  0
VERTEX
  5
5B
330
59
100
AcDbEntity
  8
_U+30EC_U+30A4_U+30E4_U+30FC 1
 62
   179
420
  2234388
370
    25
100
AcDbVertex
100
AcDb2dVertex
 10
118.9867202977292
 20
-152.7324577395947
 30
0.0
  0
SEQEND
  5
5C
330
59
100
AcDbEntity
  8
_U+30EC_U+30A4_U+30E4_U+30FC 1
 62
   179
420
  2234388
370
    25
  0
POLYLINE
  5
5D
330
1F
100
AcDbEntity
  8
_U+30EC_U+30A4_U+30E4_U+30FC 1
 62
   179
420
  2234388
370
    25
100
AcDb2dPolyline
 66
     1
 10
0.0
 20
0.0
 30
0.0
  0
VERTEX
  5
5E
330
5D
100
AcDbEntity
  8
_U+30EC_U+30A4_U+30E4_U+30FC 1
 62
   179
420
  2234388
370
    25
100
AcDbVertex
100
AcDb2dVertex
 10
118.9867202977292
 20
-153.1327546839392
 30
0.0
  0
VERTEX
  5
5F
330
5D
100
AcDbEntity
  8
_U+30EC_U+30A4_U+30E4_U+30FC 1
 62
   179
420
  2234388
370
    25
100
AcDbVertex
100
AcDb2dVertex
 10
101.9865360092178
 20
-153.8321366282088
 30
0.0
  0
SEQEND
  5
60
330
5D
100
AcDbEntity
  8
_U+30EC_U+30A4_U+30E4_U+30FC 1
 62
   179
420
  2234388
370
    25
  0
SPLINE
  5
61
330
1F
100
AcDbEntity
  8
_U+30EC_U+30A4_U+30E4_U+30FC 1
 62
   179
420
  2234388
370
     9
100
AcDbSpline
210
0.0
220
0.0
230
1.0
 70
    11
 71
     3
 72
    17
 73
    13
 74
     0
 42
0.0000000001
 43
0.0000000001
 12
1.0
 22
0.0
 32
0.0
 13
1.0
 23
0.0
 33
0.0
 40
0.0
 40
0.0
 40
0.0
 40
0.0
 40
1.0
 40
1.0
 40
1.0
 40
2.0
 40
2.0
 40
2.0
 40
3.0
 40
3.0
 40
3.0
 40
4.0
 40
4.0
 40
4.0
 40
4.0
 10
123.0863860264713
 20
-143.2320816308587
 30
0.0
 10
123.0863860264713
 20
-143.1769777419834
 30
0.0
 10
123.0415832498366
 20
-143.1321749642171
 30
0.0
 10
122.9864471914755
 20
-143.1321749642171
 30
0.0
 10
122.9313401970936
 20
-143.1321749642171
 30
0.0
 10
122.8865374204588
 20
-143.1769777419834
 30
0.0
 10
122.8865374204588
 20
-143.2320816308587
 30
0.0
 10
122.8865374204588
 20
-143.2872207975115
 30
0.0
 10
122.9313401970936
 20
-143.3319882975003
 30
0.0
 10
122.9864471914755
 20
-143.3319882975003
 30
0.0
 10
123.0415832498366
 20
-143.3319882975003
 30
0.0
 10
123.0863860264713
 20
-143.2872207975115
 30
0.0
 10
123.0863860264713
 20
-143.2320816308587
 30
0.0
  0
SPLINE
  5
62
330
1F
100
AcDbEntity
  8
_U+30EC_U+30A4_U+30E4_U+30FC 1
 62
   179
420
  2234388
370
     9
100
AcDbSpline
210
0.0
220
0.0
230
1.0
 70
    11
 71
     3
 72
    17
 73
    13
 74
     0
 42
0.0000000001
 43
0.0000000001
 12
1.0
 22
0.0
 32
0.0
 13
1.0
 23
0.0
 33
0.0
 40
0.0
 40
0.0
 40
0.0
 40
0.0
 40
1.0
 40
1.0
 40
1.0
 40
2.0
 40
2.0
 40
2.0
 40
3.0
 40
3.0
 40
3.0
 40
4.0
 40
4.0
 40
4.0
 40
4.0
 10
123.0863860264713
 20
-152.7324577395947
 30
0.0
 10
123.0863860264713
 20
-152.6773185729416
 30
0.0
 10
123.0415832498366
 20
-152.632551072953
 30
0.0
 10
122.9864471914755
 20
-152.632551072953
 30
0.0
 10
122.9313401970936
 20
-152.632551072953
 30
0.0
 10
122.8865374204588
 20
-152.6773185729416
 30
0.0
 10
122.8865374204588
 20
-152.7324577395947
 30
0.0
 10
122.8865374204588
 20
-152.7875616284695
 30
0.0
 10
122.9313401970936
 20
-152.8323644062363
 30
0.0
 10
122.9864471914755
 20
-152.8323644062363
 30
0.0
 10
123.0415832498366
 20
-152.8323644062363
 30
0.0
 10
123.0863860264713
 20
-152.7875616284695
 30
0.0
 10
123.0863860264713
 20
-152.7324577395947
 30
0.0
  0
SPLINE
  5
63
330
1F
100
AcDbEntity
  8
_U+30EC_U+30A4_U+30E4_U+30FC 1
 62
   179
420
  2234388
370
     9
100
AcDbSpline
210
0.0
220
0.0
230
1.0
 70
    11
 71
     3
 72
    17
 73
    13
 74
     0
 42
0.0000000001
 43
0.0000000001
 12
1.0
 22
0.0
 32
0.0
 13
1.0
 23
0.0
 33
0.0
 40
0.0
 40
0.0
 40
0.0
 40
0.0
 40
1.0
 40
1.0
 40
1.0
 40
2.0
 40
2.0
 40
2.0
 40
3.0
 40
3.0
 40
3.0
 40
4.0
 40
4.0
 40
4.0
 40
4.0
 10
123.0863860264713
 20
-153.1327546839392
 30
0.0
 10
123.0863860264713
 20
-153.0769452395087
 30
0.0
 10
123.0415832498366
 20
-153.0321777395195
 30
0.0
 10
122.9864471914755
 20
-153.0321777395195
 30
0.0
 10
122.9313401970936
 20
-153.0321777395195
 30
0.0
 10
122.8865374204588
 20
-153.0769452395087
 30
0.0
 10
122.8865374204588
 20
-153.1327546839392
 30
0.0
 10
122.8865374204588
 20
-153.1878938505916
 30
0.0
 10
122.9313401970936
 20
-153.2326966283584
 30
0.0
 10
122.9864471914755
 20
-153.2326966283584
 30
0.0
 10
123.0415832498366
 20
-153.2326966283584
 30
0.0
 10
123.0863860264713
 20
-153.1878938505916
 30
0.0
 10
123.0863860264713
 20
-153.1327546839392
 30
0.0
  0
SPLINE
  5
64
330
1F
100
AcDbEntity
  8
_U+30EC_U+30A4_U+30E4_U+30FC 1
 62
   179
420
  2234388
370
     9
100
AcDbSpline
210
0.0
220
0.0
230
1.0
 70
    11
 71
     3
 72
    17
 73
    13
 74
     0
 42
0.0000000001
 43
0.0000000001
 12
1.0
 22
0.0
 32
0.0
 13
1.0
 23
0.0
 33
0.0
 40
0.0
 40
0.0
 40
0.0
 40
0.0
 40
1.0
 40
1.0
 40
1.0
 40
2.0
 40
2.0
 40
2.0
 40
3.0
 40
3.0
 40
3.0
 40
4.0
 40
4.0
 40
4.0
 40
4.0
 10
119.086626961847
 20
-157.832566071653
 30
0.0
 10
119.086626961847
 20
-157.7774621827782
 30
0.0
 10
119.0418241852123
 20
-157.7326594050114
 30
0.0
 10
118.9867202977292
 20
-157.7326594050114
 30
0.0
 10
118.9309138591563
 20
-157.7326594050114
 30
0.0
 10
118.8861110813896
 20
-157.7774621827782
 30
0.0
 10
118.8861110813896
 20
-157.832566071653
 30
0.0
 10
118.8861110813896
 20
-157.8877052383062
 30
0.0
 10
118.9309138591563
 20
-157.9324727382947
 30
0.0
 10
118.9867202977292
 20
-157.9324727382947
 30
0.0
 10
119.0418241852123
 20
-157.9324727382947
 30
0.0
 10
119.086626961847
 20
-157.8877052383062
 30
0.0
 10
119.086626961847
 20
-157.832566071653
 30
0.0
  0
SPLINE
  5
65
330
1F
100
AcDbEntity
  8
_U+30EC_U+30A4_U+30E4_U+30FC 1
 62
   179
420
  2234388
370
     9
100
AcDbSpline
210
0.0
220
0.0
230
1.0
 70
    11
 71
     3
 72
    17
 73
    13
 74
     0
 42
0.0000000001
 43
0.0000000001
 12
1.0
 22
0.0
 32
0.0
 13
1.0
 23
0.0
 33
0.0
 40
0.0
 40
0.0
 40
0.0
 40
0.0
 40
1.0
 40
1.0
 40
1.0
 40
2.0
 40
2.0
 40
2.0
 40
3.0
 40
3.0
 40
3.0
 40
4.0
 40
4.0
 40
4.0
 40
4.0
 10
90.08649520170204
 20
-157.832566071653
 30
0.0
 10
90.08649520170204
 20
-157.7774621827782
 30
0.0
 10
90.04169242506727
 20
-157.7326594050114
 30
0.0
 10
89.9865885375842
 20
-157.7326594050114
 30
0.0
 10
89.93077909456358
 20
-157.7326594050114
 30
0.0
 10
89.88597631792881
 20
-157.7774621827782
 30
0.0
 10
89.88597631792881
 20
-157.832566071653
 30
0.0
 10
89.88597631792881
 20
-157.8877052383062
 30
0.0
 10
89.93077909456358
 20
-157.9324727382947
 30
0.0
 10
89.9865885375842
 20
-157.9324727382947
 30
0.0
 10
90.04169242506727
 20
-157.9324727382947
 30
0.0
 10
90.08649520170204
 20
-157.8877052383062
 30
0.0
 10
90.08649520170204
 20
-157.832566071653
 30
0.0
  0
SPLINE
  5
66
330
1F
100
AcDbEntity
  8
_U+30EC_U+30A4_U+30E4_U+30FC 1
 62
   179
420
  2234388
370
     9
100
AcDbSpline
210
0.0
220
0.0
230
1.0
 70
    11
 71
     3
 72
    17
 73
    13
 74
     0
 42
0.0000000001
 43
0.0000000001
 12
1.0
 22
0.0
 32
0.0
 13
1.0
 23
0.0
 33
0.0
 40
0.0
 40
0.0
 40
0.0
 40
0.0
 40
1.0
 40
1.0
 40
1.0
 40
2.0
 40
2.0
 40
2.0
 40
3.0
 40
3.0
 40
3.0
 40
4.0
 40
4.0
 40
4.0
 40
4.0
 10
86.08603058154017
 20
-143.2320816308587
 30
0.0
 10
86.08603058154017
 20
-143.1769777419834
 30
0.0
 10
86.04126308268228
 20
-143.1321749642171
 30
0.0
 10
85.98612391742233
 20
-143.1321749642171
 30
0.0
 10
85.9310222007394
 20
-143.1321749642171
 30
0.0
 10
85.88621942297301
 20
-143.1769777419834
 30
0.0
 10
85.88621942297301
 20
-143.2320816308587
 30
0.0
 10
85.88621942297301
 20
-143.2872207975115
 30
0.0
 10
85.9310222007394
 20
-143.3319882975003
 30
0.0
 10
85.98612391742233
 20
-143.3319882975003
 30
0.0
 10
86.04126308268228
 20
-143.3319882975003
 30
0.0
 10
86.08603058154017
 20
-143.2872207975115
 30
0.0
 10
86.08603058154017
 20
-143.2320816308587
 30
0.0
  0
SPLINE
  5
67
330
1F
100
AcDbEntity
  8
_U+30EC_U+30A4_U+30E4_U+30FC 1
 62
   179
420
  2234388
370
     9
100
AcDbSpline
210
0.0
220
0.0
230
1.0
 70
    11
 71
     3
 72
    17
 73
    13
 74
     0
 42
0.0000000001
 43
0.0000000001
 12
1.0
 22
0.0
 32
0.0
 13
1.0
 23
0.0
 33
0.0
 40
0.0
 40
0.0
 40
0.0
 40
0.0
 40
1.0
 40
1.0
 40
1.0
 40
2.0
 40
2.0
 40
2.0
 40
3.0
 40
3.0
 40
3.0
 40
4.0
 40
4.0
 40
4.0
 40
4.0
 10
86.08603058154017
 20
-144.3324307972502
 30
0.0
 10
86.08603058154017
 20
-144.2766213528198
 30
0.0
 10
86.04126308268228
 20
-144.2325241306086
 30
0.0
 10
85.98612391742233
 20
-144.2325241306086
 30
0.0
 10
85.9310222007394
 20
-144.2325241306086
 30
0.0
 10
85.88621942297301
 20
-144.2766213528198
 30
0.0
 10
85.88621942297301
 20
-144.3324307972502
 30
0.0
 10
85.88621942297301
 20
-144.387569963903
 30
0.0
 10
85.9310222007394
 20
-144.4323727416697
 30
0.0
 10
85.98612391742233
 20
-144.4323727416697
 30
0.0
 10
86.04126308268228
 20
-144.4323727416697
 30
0.0
 10
86.08603058154017
 20
-144.387569963903
 30
0.0
 10
86.08603058154017
 20
-144.3324307972502
 30
0.0
  0
SPLINE
  5
68
330
1F
100
AcDbEntity
  8
_U+30EC_U+30A4_U+30E4_U+30FC 1
 62
   179
420
  2234388
370
     9
100
AcDbSpline
210
0.0
220
0.0
230
1.0
 70
    11
 71
     3
 72
    17
 73
    13
 74
     0
 42
0.0000000001
 43
0.0000000001
 12
1.0
 22
0.0
 32
0.0
 13
1.0
 23
0.0
 33
0.0
 40
0.0
 40
0.0
 40
0.0
 40
0.0
 40
1.0
 40
1.0
 40
1.0
 40
2.0
 40
2.0
 40
2.0
 40
3.0
 40
3.0
 40
3.0
 40
4.0
 40
4.0
 40
4.0
 40
4.0
 10
102.0864426733357
 20
-157.832566071653
 30
0.0
 10
102.0864426733357
 20
-157.7774621827782
 30
0.0
 10
102.0416777522675
 20
-157.7326594050114
 30
0.0
 10
101.9865360092178
 20
-157.7326594050114
 30
0.0
 10
101.9314321217347
 20
-157.7326594050114
 30
0.0
 10
101.8866293451
 20
-157.7774621827782
 30
0.0
 10
101.8866293451
 20
-157.832566071653
 30
0.0
 10
101.8866293451
 20
-157.8877052383062
 30
0.0
 10
101.9314321217347
 20
-157.9324727382947
 30
0.0
 10
101.9865360092178
 20
-157.9324727382947
 30
0.0
 10
102.0416777522675
 20
-157.9324727382947
 30
0.0
 10
102.0864426733357
 20
-157.8877052383062
 30
0.0
 10
102.0864426733357
 20
-157.832566071653
 30
0.0
  0
POLYLINE
  5
69
330
1F
100
AcDbEntity
  8
_U+30EC_U+30A4_U+30E4_U+30FC 1
 62
   179
420
  2234388
370
     9
100
AcDb2dPolyline
 66
     1
 10
0.0
 20
0.0
 30
0.0
  0
VERTEX
  5
6A
330
69
100
AcDbEntity
  8
_U+30EC_U+30A4_U+30E4_U+30FC 1
 62
   179
420
  2234388
370
     9
100
AcDbVertex
100
AcDb2dVertex
 10
101.9865360092178
 20
-157.832566071653
 30
0.0
  0
VERTEX
  5
6B
330
69
100
AcDbEntity
  8
_U+30EC_U+30A4_U+30E4_U+30FC 1
 62
   179
420
  2234388
370
     9
100
AcDbVertex
100
AcDb2dVertex
 10
118.9867202977292
 20
-157.832566071653
 30
0.0
  0
SEQEND
  5
6C
330
69
100
AcDbEntity
  8
_U+30EC_U+30A4_U+30E4_U+30FC 1
 62
   179
420
  2234388
370
     9
  0
POLYLINE
  5
6D
330
1F
100
AcDbEntity
  8
_U+30EC_U+30A4_U+30E4_U+30FC 1
 62
   179
420
  2234388
370
     9
100
AcDb2dPolyline
 66
     1
 10
0.0
 20
0.0
 30
0.0
  0
VERTEX
  5
6E
330
6D
100
AcDbEntity
  8
_U+30EC_U+30A4_U+30E4_U+30FC 1
 62
   179
420
  2234388
370
     9
100
AcDbVertex
100
AcDb2dVertex
 10
118.9867202977292
 20
-155.6725077388599
 30
0.0
  0
VERTEX
  5
6F
330
6D
100
AcDbEntity
  8
_U+30EC_U+30A4_U+30E4_U+30FC 1
 62
   179
420
  2234388
370
     9
100
AcDbVertex
100
AcDb2dVertex
 10
118.9867202977292
 20
-158.832338293625
 30
0.0
  0
SEQEND
  5
70
330
6D
100
AcDbEntity
  8
_U+30EC_U+30A4_U+30E4_U+30FC 1
 62
   179
420
  2234388
370
     9
  0
INSERT
  5
72
330
1F
100
AcDbEntity
  8
_U+30EC_U+30A4_U+30E4_U+30FC 1
100
AcDbBlockReference
  2
block 2
 10
0.0
 20
0.0
 30
0.0
  0
POLYLINE
  5
79
330
1F
100
AcDbEntity
  8
_U+30EC_U+30A4_U+30E4_U+30FC 1
 62
   179
420
  2234388
370
     9
100
AcDb2dPolyline
 66
     1
 10
0.0
 20
0.0
 30
0.0
  0
VERTEX
  5
7A
330
79
100
AcDbEntity
  8
_U+30EC_U+30A4_U+30E4_U+30FC 1
 62
   179
420
  2234388
370
     9
100
AcDbVertex
100
AcDb2dVertex
 10
85.98612391742233
 20
-143.2320816308587
 30
0.0
  0
VERTEX
  5
7B
330
79
100
AcDbEntity
  8
_U+30EC_U+30A4_U+30E4_U+30FC 1
 62
   179
420
  2234388
370
     9
100
AcDbVertex
100
AcDb2dVertex
 10
85.98612391742233
 20
-142.2323094088865
 30
0.0
  0
SEQEND
  5
7C
330
79
100
AcDbEntity
  8
_U+30EC_U+30A4_U+30E4_U+30FC 1
 62
   179
420
  2234388
370
     9
  0
POLYLINE
  5
7D
330
1F
100
AcDbEntity
  8
_U+30EC_U+30A4_U+30E4_U+30FC 1
 62
   179
420
  2234388
370
     9
100
AcDb2dPolyline
 66
     1
 10
0.0
 20
0.0
 30
0.0
  0
VERTEX
  5
7E
330
7D
100
AcDbEntity
  8
_U+30EC_U+30A4_U+30E4_U+30FC 1
 62
   179
420
  2234388
370
     9
100
AcDbVertex
100
AcDb2dVertex
 10
85.98612391742233
 20
-143.2320816308587
 30
0.0
  0
VERTEX
  5
7F
330
7D
100
AcDbEntity
  8
_U+30EC_U+30A4_U+30E4_U+30FC 1
 62
   179
420
  2234388
370
     9
100
AcDbVertex
100
AcDb2dVertex
 10
85.98612391742233
 20
-145.3322030192224
 30
0.0
  0
SEQEND
  5
80
330
7D
100
AcDbEntity
  8
_U+30EC_U+30A4_U+30E4_U+30FC 1
 62
   179
420
  2234388
370
     9
  0
POLYLINE
  5
81
330
1F
100
AcDbEntity
  8
_U+30EC_U+30A4_U+30E4_U+30FC 1
 62
   179
420
  2234388
370
     9
100
AcDb2dPolyline
 66
     1
 10
0.0
 20
0.0
 30
0.0
  0
VERTEX
  5
82
330
81
100
AcDbEntity
  8
_U+30EC_U+30A4_U+30E4_U+30FC 1
 62
   179
420
  2234388
370
     9
100
AcDbVertex
100
AcDb2dVertex
 10
87.44616526906246
 20
-143.2320816308587
 30
0.0
  0
VERTEX
  5
83
330
81
100
AcDbEntity
  8
_U+30EC_U+30A4_U+30E4_U+30FC 1
 62
   179
420
  2234388
370
     9
100
AcDbVertex
100
AcDb2dVertex
 10
84.9863869984833
 20
-143.2320816308587
 30
0.0
  0
SEQEND
  5
84
330
81
100
AcDbEntity
  8
_U+30EC_U+30A4_U+30E4_U+30FC 1
 62
   179
420
  2234388
370
     9
  0
POLYLINE
  5
85
330
1F
100
AcDbEntity
  8
_U+30EC_U+30A4_U+30E4_U+30FC 1
 62
   179
420
  2234388
370
     9
100
AcDb2dPolyline
 66
     1
 10
0.0
 20
0.0
 30
0.0
  0
VERTEX
  5
86
330
85
100
AcDbEntity
  8
_U+30EC_U+30A4_U+30E4_U+30FC 1
 62
   179
420
  2234388
370
     9
100
AcDbVertex
100
AcDb2dVertex
 10
87.44616526906246
 20
-144.3324307972502
 30
0.0
  0
VERTEX
  5
87
330
85
100
AcDbEntity
  8
_U+30EC_U+30A4_U+30E4_U+30FC 1
 62
   179
420
  2234388
370
     9
100
AcDbVertex
100
AcDb2dVertex
 10
84.9863869984833
 20
-144.3324307972502
 30
0.0
  0
SEQEND
  5
88
330
85
100
AcDbEntity
  8
_U+30EC_U+30A4_U+30E4_U+30FC 1
 62
   179
420
  2234388
370
     9
  0
INSERT
  5
8A
330
1F
100
AcDbEntity
  8
_U+30EC_U+30A4_U+30E4_U+30FC 1
100
AcDbBlockReference
  2
block 3
 10
0.0
 20
0.0
 30
0.0
  0
POLYLINE
  5
99
330
1F
100
AcDbEntity
  8
_U+30EC_U+30A4_U+30E4_U+30FC 1
 62
   179
420
  2234388
370
     9
100
AcDb2dPolyline
 66
     1
 10
0.0
 20
0.0
 30
0.0
  0
VERTEX
  5
9A
330
99
100
AcDbEntity
  8
_U+30EC_U+30A4_U+30E4_U+30FC 1
 62
   179
420
  2234388
370
     9
100
AcDbVertex
100
AcDb2dVertex
 10
122.9864471914755
 20
-153.1327546839392
 30
0.0
  0
VERTEX
  5
9B
330
99
100
AcDbEntity
  8
_U+30EC_U+30A4_U+30E4_U+30FC 1
 62
   179
420
  2234388
370
     9
100
AcDbVertex
100
AcDb2dVertex
 10
122.9864471914755
 20
-154.1325269059111
 30
0.0
  0
SEQEND
  5
9C
330
99
100
AcDbEntity
  8
_U+30EC_U+30A4_U+30E4_U+30FC 1
 62
   179
420
  2234388
370
     9
  0
POLYLINE
  5
9D
330
1F
100
AcDbEntity
  8
_U+30EC_U+30A4_U+30E4_U+30FC 1
 62
   179
420
  2234388
370
     9
100
AcDb2dPolyline
 66
     1
 10
0.0
 20
0.0
 30
0.0
  0
VERTEX
  5
9E
330
9D
100
AcDbEntity
  8
_U+30EC_U+30A4_U+30E4_U+30FC 1
 62
   179
420
  2234388
370
     9
100
AcDbVertex
100
AcDb2dVertex
 10
122.9864471914755
 20
-152.7324577395947
 30
0.0
  0
VERTEX
  5
9F
330
9D
100
AcDbEntity
  8
_U+30EC_U+30A4_U+30E4_U+30FC 1
 62
   179
420
  2234388
370
     9
100
AcDbVertex
100
AcDb2dVertex
 10
122.9864471914755
 20
-153.1327546839392
 30
0.0
  0
SEQEND
  5
A0
330
9D
100
AcDbEntity
  8
_U+30EC_U+30A4_U+30E4_U+30FC 1
 62
   179
420
  2234388
370
     9
  0
POLYLINE
  5
A1
330
1F
100
AcDbEntity
  8
_U+30EC_U+30A4_U+30E4_U+30FC 1
 62
   179
420
  2234388
370
     9
100
AcDb2dPolyline
 66
     1
 10
0.0
 20
0.0
 30
0.0
  0
VERTEX
  5
A2
330
A1
100
AcDbEntity
  8
_U+30EC_U+30A4_U+30E4_U+30FC 1
 62
   179
420
  2234388
370
     9
100
AcDbVertex
100
AcDb2dVertex
 10
121.5264380107134
 20
-152.7324577395947
 30
0.0
  0
VERTEX
  5
A3
330
A1
100
AcDbEntity
  8
_U+30EC_U+30A4_U+30E4_U+30FC 1
 62
   179
420
  2234388
370
     9
100
AcDbVertex
100
AcDb2dVertex
 10
123.986219413448
 20
-152.7324577395947
 30
0.0
  0
SEQEND
  5
A4
330
A1
100
AcDbEntity
  8
_U+30EC_U+30A4_U+30E4_U+30FC 1
 62
   179
420
  2234388
370
     9
  0
POLYLINE
  5
A5
330
1F
100
AcDbEntity
  8
_U+30EC_U+30A4_U+30E4_U+30FC 1
 62
   179
420
  2234388
370
     9
100
AcDb2dPolyline
 66
     1
 10
0.0
 20
0.0
 30
0.0
  0
VERTEX
  5
A6
330
A5
100
AcDbEntity
  8
_U+30EC_U+30A4_U+30E4_U+30FC 1
 62
   179
420
  2234388
370
     9
100
AcDbVertex
100
AcDb2dVertex
 10
121.5264380107134
 20
-153.1327546839392
 30
0.0
  0
VERTEX
  5
A7
330
A5
100
AcDbEntity
  8
_U+30EC_U+30A4_U+30E4_U+30FC 1
 62
   179
420
  2234388
370
     9
100
AcDbVertex
100
AcDb2dVertex
 10
123.986219413448
 20
-153.1327546839392
 30
0.0
  0
SEQEND
  5
A8
330
A5
100
AcDbEntity
  8
_U+30EC_U+30A4_U+30E4_U+30FC 1
 62
   179
420
  2234388
370
     9
  0
INSERT
  5
AA
330
1F
100
AcDbEntity
  8
_U+30EC_U+30A4_U+30E4_U+30FC 1
100
AcDbBlockReference
  2
block 4
 10
0.0
 20
0.0
 30
0.0
  0
POLYLINE
  5
CD
330
1F
100
AcDbEntity
  8
_U+30EC_U+30A4_U+30E4_U+30FC 1
 62
   179
420
  2234388
370
     9
100
AcDb2dPolyline
 66
     1
 10
0.0
 20
0.0
 30
0.0
  0
VERTEX
  5
CE
330
CD
100
AcDbEntity
  8
_U+30EC_U+30A4_U+30E4_U+30FC 1
 62
   179
420
  2234388
370
     9
100
AcDbVertex
100
AcDb2dVertex
 10
89.9865885375842
 20
-157.832566071653
 30
0.0
  0
VERTEX
  5
CF
330
CD
100
AcDbEntity
  8
_U+30EC_U+30A4_U+30E4_U+30FC 1
 62
   179
420
  2234388
370
     9
100
AcDbVertex
100
AcDb2dVertex
 10
101.9865360092178
 20
-157.832566071653
 30
0.0
  0
SEQEND
  5
D0
330
CD
100
AcDbEntity
  8
_U+30EC_U+30A4_U+30E4_U+30FC 1
 62
   179
420
  2234388
370
     9
  0
POLYLINE
  5
D1
330
1F
100
AcDbEntity
  8
_U+30EC_U+30A4_U+30E4_U+30FC 1
 62
   179
420
  2234388
370
     9
100
AcDb2dPolyline
 66
     1
 10
0.0
 20
0.0
 30
0.0
  0
VERTEX
  5
D2
330
D1
100
AcDbEntity
  8
_U+30EC_U+30A4_U+30E4_U+30FC 1
 62
   179
420
  2234388
370
     9
100
AcDbVertex
100
AcDb2dVertex
 10
89.9865885375842
 20
-146.8723602410598
 30
0.0
  0
VERTEX
  5
D3
330
D1
100
AcDbEntity
  8
_U+30EC_U+30A4_U+30E4_U+30FC 1
 62
   179
420
  2234388
370
     9
100
AcDbVertex
100
AcDb2dVertex
 10
89.9865885375842
 20
-158.832338293625
 30
0.0
  0
SEQEND
  5
D4
330
D1
100
AcDbEntity
  8
_U+30EC_U+30A4_U+30E4_U+30FC 1
 62
   179
420
  2234388
370
     9
  0
POLYLINE
  5
D5
330
1F
100
AcDbEntity
  8
_U+30EC_U+30A4_U+30E4_U+30FC 1
 62
   179
420
  2234388
370
     9
100
AcDb2dPolyline
 66
     1
 10
0.0
 20
0.0
 30
0.0
  0
VERTEX
  5
D6
330
D5
100
AcDbEntity
  8
_U+30EC_U+30A4_U+30E4_U+30FC 1
 62
   179
420
  2234388
370
     9
100
AcDbVertex
100
AcDb2dVertex
 10
101.9865360092178
 20
-156.3725246831293
 30
0.0
  0
VERTEX
  5
D7
330
D5
100
AcDbEntity
  8
_U+30EC_U+30A4_U+30E4_U+30FC 1
 62
   179
420
  2234388
370
     9
100
AcDbVertex
100
AcDb2dVertex
 10
101.9865360092178
 20
-158.832338293625
 30
0.0
  0
SEQEND
  5
D8
330
D5
100
AcDbEntity
  8
_U+30EC_U+30A4_U+30E4_U+30FC 1
 62
   179
420
  2234388
370
     9
  0
INSERT
  5
DA
330
1F
100
AcDbEntity
  8
_U+30EC_U+30A4_U+30E4_U+30FC 1
100
AcDbBlockReference
  2
block 5
 10
0.0
 20
0.0
 30
0.0
  0
POLYLINE
  5
E1
330
1F
100
AcDbEntity
  8
_U+30EC_U+30A4_U+30E4_U+30FC 1
 62
   179
420
  2234388
370
     9
100
AcDb2dPolyline
 66
     1
 10
0.0
 20
0.0
 30
0.0
  0
VERTEX
  5
E2
330
E1
100
AcDbEntity
  8
_U+30EC_U+30A4_U+30E4_U+30FC 1
 62
   179
420
  2234388
370
     9
100
AcDbVertex
100
AcDb2dVertex
 10
122.9864471914755
 20
-143.2320816308587
 30
0.0
  0
VERTEX
  5
E3
330
E1
100
AcDbEntity
  8
_U+30EC_U+30A4_U+30E4_U+30FC 1
 62
   179
420
  2234388
370
     9
100
AcDbVertex
100
AcDb2dVertex
 10
122.9864471914755
 20
-152.7324577395947
 30
0.0
  0
SEQEND
  5
E4
330
E1
100
AcDbEntity
  8
_U+30EC_U+30A4_U+30E4_U+30FC 1
 62
   179
420
  2234388
370
     9
  0
POLYLINE
  5
E5
330
1F
100
AcDbEntity
  8
_U+30EC_U+30A4_U+30E4_U+30FC 1
 62
   179
420
  2234388
370
     9
100
AcDb2dPolyline
 66
     1
 10
0.0
 20
0.0
 30
0.0
  0
VERTEX
  5
E6
330
E5
100
AcDbEntity
  8
_U+30EC_U+30A4_U+30E4_U+30FC 1
 62
   179
420
  2234388
370
     9
100
AcDbVertex
100
AcDb2dVertex
 10
105.6266381385733
 20
-143.2320816308587
 30
0.0
  0
VERTEX
  5
E7
330
E5
100
AcDbEntity
  8
_U+30EC_U+30A4_U+30E4_U+30FC 1
 62
   179
420
  2234388
370
     9
100
AcDbVertex
100
AcDb2dVertex
 10
123.986219413448
 20
-143.2320816308587
 30
0.0
  0
SEQEND
  5
E8
330
E5
100
AcDbEntity
  8
_U+30EC_U+30A4_U+30E4_U+30FC 1
 62
   179
420
  2234388
370
     9
  0
INSERT
  5
EA
330
1F
100
AcDbEntity
  8
_U+30EC_U+30A4_U+30E4_U+30FC 1
100
AcDbBlockReference
  2
block 6
 10
0.0
 20
0.0
 30
0.0
  0
ENDSEC
  0
SECTION
  2
OBJECTS
  0
DICTIONARY
  5
C
330
0
100
AcDbDictionary
281
     1
  3
ACAD_GROUP
350
D
  3
ACAD_LAYOUT
350
1A
  3
ACAD_MATERIAL
350
3B
  3
ACAD_MLEADERSTYLE
350
FB
  3
ACAD_MLINESTYLE
350
17
  3
ACAD_PLOTSETTINGS
350
19
  3
ACAD_PLOTSTYLENAME
350
E
  3
ACAD_TABLESTYLE
350
FA
  3
ACAD_VISUALSTYLE
350
2A
  0
SUN
  5
3F
330
29
100
AcDbSun
 90
        1
290
     0
 63
     7
421
 16777215
 40
1.0
291
     1
 91
  2455826
 92
 54000000
292
     0
 70
     2
 71
   256
280
     1
  0
DICTIONARY
  5
D
102
{ACAD_REACTORS
330
C
102
}
330
C
100
AcDbDictionary
281
     1
  0
DICTIONARY
  5
1A
102
{ACAD_REACTORS
330
C
102
}
330
C
100
AcDbDictionary
281
     1
  3
Layout1
350
1E
  3
Layout2
350
26
  3
Model
350
22
  0
DICTIONARY
  5
3B
102
{ACAD_REACTORS
330
C
102
}
330
C
100
AcDbDictionary
281
     1
  3
ByBlock
350
3D
  3
ByLayer
350
3C
  3
Global
350
3E
  0
DICTIONARY
  5
FB
102
{ACAD_REACTORS
330
C
102
}
330
C
100
AcDbDictionary
281
     1
  0
DICTIONARY
  5
17
102
{ACAD_REACTORS
330
C
102
}
330
C
100
AcDbDictionary
281
     1
  3
Standard
350
18
  0
DICTIONARY
  5
19
102
{ACAD_REACTORS
330
C
102
}
330
C
100
AcDbDictionary
281
     1
  0
ACDBDICTIONARYWDFLT
  5
E
102
{ACAD_REACTORS
330
C
102
}
330
C
100
AcDbDictionary
281
     1
  3
Normal
350
F
100
AcDbDictionaryWithDefault
340
F
  0
DICTIONARY
  5
FA
102
{ACAD_REACTORS
330
C
102
}
330
C
100
AcDbDictionary
281
     1
  0
DICTIONARY
  5
2A
102
{ACAD_REACTORS
330
C
102
}
330
C
100
AcDbDictionary
281
     1
  3
2dWireframe
350
2F
  3
3D Hidden
350
31
  3
3dWireframe
350
30
  3
Basic
350
32
  3
Brighten
350
36
  3
ColorChange
350
3A
  3
Conceptual
350
34
  3
Dim
350
35
  3
Facepattern
350
39
  3
Flat
350
2B
  3
FlatWithEdges
350
2C
  3
Gouraud
350
2D
  3
GouraudWithEdges
350
2E
  3
Linepattern
350
38
  3
Realistic
350
33
  3
Thicken
350
37
  0
LAYOUT
  5
1E
102
{ACAD_REACTORS
330
1A
102
}
330
1A
100
AcDbPlotSettings
  1

  2
none_device
  4

  6

 40
0.0
 41
0.0
 42
0.0
 43
0.0
 44
0.0
 45
0.0
 46
0.0
 47
0.0
 48
0.0
 49
0.0
140
0.0
141
0.0
142
1.0
143
1.0
 70
   688
 72
     0
 73
     0
 74
     5
  7

 75
    16
 76
     0
 77
     2
 78
   300
147
1.0
148
0.0
149
0.0
100
AcDbLayout
  1
Layout1
 70
     1
 71
     1
 10
0.0
 20
0.0
 11
12.0
 21
9.0
 12
0.0
 22
0.0
 32
0.0
 14
1.000000000000000E+20
 24
1.000000000000000E+20
 34
1.000000000000000E+20
 15
-1.000000000000000E+20
 25
-1.000000000000000E+20
 35
-1.000000000000000E+20
146
0.0
 13
0.0
 23
0.0
 33
0.0
 16
1.0
 26
0.0
 36
0.0
 17
0.0
 27
1.0
 37
0.0
 76
     0
330
1B
  0
LAYOUT
  5
26
102
{ACAD_REACTORS
330
1A
102
}
330
1A
100
AcDbPlotSettings
  1

  2
none_device
  4

  6

 40
0.0
 41
0.0
 42
0.0
 43
0.0
 44
0.0
 45
0.0
 46
0.0
 47
0.0
 48
0.0
 49
0.0
140
0.0
141
0.0
142
1.0
143
1.0
 70
   688
 72
     0
 73
     0
 74
     5
  7

 75
    16
 76
     0
 77
     2
 78
   300
147
1.0
148
0.0
149
0.0
100
AcDbLayout
  1
Layout2
 70
     1
 71
     2
 10
0.0
 20
0.0
 11
0.0
 21
0.0
 12
0.0
 22
0.0
 32
0.0
 14
0.0
 24
0.0
 34
0.0
 15
0.0
 25
0.0
 35
0.0
146
0.0
 13
0.0
 23
0.0
 33
0.0
 16
1.0
 26
0.0
 36
0.0
 17
0.0
 27
1.0
 37
0.0
 76
     0
330
23
  0
LAYOUT
  5
22
102
{ACAD_REACTORS
330
1A
102
}
330
1A
100
AcDbPlotSettings
  1

  2
none_device
  4

  6

 40
0.0
 41
0.0
 42
0.0
 43
0.0
 44
0.0
 45
0.0
 46
0.0
 47
0.0
 48
0.0
 49
0.0
140
0.0
141
0.0
142
1.0
143
1.0
 70
  1712
 72
     0
 73
     0
 74
     0
  7

 75
     0
 76
     0
 77
     2
 78
   300
147
1.0
148
0.0
149
0.0
100
AcDbLayout
  1
Model
 70
     1
 71
     0
 10
0.0
 20
0.0
 11
12.0
 21
9.0
 12
0.0
 22
0.0
 32
0.0
 14
1.000000000000000E+20
 24
1.000000000000000E+20
 34
1.000000000000000E+20
 15
-1.000000000000000E+20
 25
-1.000000000000000E+20
 35
-1.000000000000000E+20
146
0.0
 13
0.0
 23
0.0
 33
0.0
 16
1.0
 26
0.0
 36
0.0
 17
0.0
 27
1.0
 37
0.0
 76
     0
330
1F
331
29
  0
MATERIAL
  5
3D
102
{ACAD_REACTORS
330
3B
102
}
330
3B
100
AcDbMaterial
  1
ByBlock
 72
     1
 94
      127
  0
MATERIAL
  5
3C
102
{ACAD_REACTORS
330
3B
102
}
330
3B
100
AcDbMaterial
  1
ByLayer
 72
     1
 94
      127
  0
MATERIAL
  5
3E
102
{ACAD_REACTORS
330
3B
102
}
330
3B
100
AcDbMaterial
  1
Global
 72
     1
 94
      127
  0
MLINESTYLE
  5
18
102
{ACAD_REACTORS
330
17
102
}
330
17
100
AcDbMlineStyle
  2
Standard
 70
     0
  3

 62
   256
 51
90.0
 52
90.0
 71
     2
 49
0.5
 62
   256
  6
BYLAYER
 49
-0.5
 62
   256
  6
BYLAYER
  0
ACDBPLACEHOLDER
  5
F
102
{ACAD_REACTORS
330
E
102
}
330
E
  0
VISUALSTYLE
  5
2F
102
{ACAD_REACTORS
330
2A
102
}
330
2A
100
AcDbVisualStyle
  2
2dWireframe
 70
     4
177
     2
291
     0
 71
     0
176
     1
 72
     2
176
     1
 73
     0
176
     1
 90
        0
176
     1
 40
-0.6
176
     1
 41
-30.0
176
     1
 62
     5
 63
     7
421
 16777215
176
     1
 74
     1
176
     1
 91
        4
176
     1
 64
     7
176
     1
 65
   257
176
     1
 75
     1
176
     1
175
     1
176
     1
 42
1.0
176
     1
 92
        0
176
     1
 66
   257
176
     1
 43
1.0
176
     1
 76
     1
176
     1
 77
     6
176
     1
 78
     2
176
     1
 67
     7
176
     1
 79
     5
176
     1
170
     0
176
     1
171
     0
176
     1
290
     0
176
     1
 93
        1
176
     1
 44
0.0
176
     1
173
     0
176
     1
  0
VISUALSTYLE
  5
31
102
{ACAD_REACTORS
330
2A
102
}
330
2A
100
AcDbVisualStyle
  2
3D Hidden
 70
     6
177
     2
291
     0
 71
     1
176
     1
 72
     2
176
     1
 73
     2
176
     1
 90
        0
176
     1
 40
-0.6
176
     1
 41
-30.0
176
     1
 62
     5
 63
     7
421
 16777215
176
     1
 74
     2
176
     1
 91
        2
176
     1
 64
     7
176
     1
 65
   257
176
     1
 75
     2
176
     1
175
     1
176
     1
 42
40.0
176
     1
 92
        0
176
     1
 66
   257
176
     1
 43
1.0
176
     1
 76
     1
176
     1
 77
     6
176
     1
 78
     2
176
     1
 67
     7
176
     1
 79
     3
176
     1
170
     0
176
     1
171
     0
176
     1
290
     0
176
     1
 93
        1
176
     1
 44
0.0
176
     1
173
     0
176
     1
  0
VISUALSTYLE
  5
30
102
{ACAD_REACTORS
330
2A
102
}
330
2A
100
AcDbVisualStyle
  2
3dWireframe
 70
     5
177
     2
291
     0
 71
     0
176
     1
 72
     2
176
     1
 73
     0
176
     1
 90
        0
176
     1
 40
-0.6
176
     1
 41
-30.0
176
     1
 62
     5
 63
     7
421
 16777215
176
     1
 74
     1
176
     1
 91
        4
176
     1
 64
     7
176
     1
 65
   257
176
     1
 75
     1
176
     1
175
     1
176
     1
 42
1.0
176
     1
 92
        0
176
     1
 66
   257
176
     1
 43
1.0
176
     1
 76
     1
176
     1
 77
     6
176
     1
 78
     2
176
     1
 67
     7
176
     1
 79
     5
176
     1
170
     0
176
     1
171
     0
176
     1
290
     0
176
     1
 93
        1
176
     1
 44
0.0
176
     1
173
     0
176
     1
  0
VISUALSTYLE
  5
32
102
{ACAD_REACTORS
330
2A
102
}
330
2A
100
AcDbVisualStyle
  2
Basic
 70
     7
177
     2
291
     1
 71
     1
176
     1
 72
     0
176
     1
 73
     1
176
     1
 90
        0
176
     1
 40
-0.6
176
     1
 41
-30.0
176
     1
 62
     5
 63
     7
421
 16777215
176
     1
 74
     0
176
     1
 91
        4
176
     1
 64
     7
176
     1
 65
   257
176
     1
 75
     1
176
     1
175
     1
176
     1
 42
1.0
176
     1
 92
        8
176
     1
 66
     7
176
     1
 43
1.0
176
     1
 76
     1
176
     1
 77
     6
176
     1
 78
     2
176
     1
 67
     7
176
     1
 79
     5
176
     1
170
     0
176
     1
171
     0
176
     1
290
     0
176
     1
 93
        1
176
     1
 44
0.0
176
     1
173
     0
176
     1
  0
VISUALSTYLE
  5
36
102
{ACAD_REACTORS
330
2A
102
}
330
2A
100
AcDbVisualStyle
  2
Brighten
 70
    12
177
     2
291
     1
 71
     2
176
     1
 72
     2
176
     1
 73
     0
176
     1
 90
        0
176
     1
 40
-0.6
176
     1
 41
-30.0
176
     1
 62
     5
 63
     7
421
 16777215
176
     1
 74
     1
176
     1
 91
        4
176
     1
 64
     7
176
     1
 65
   257
176
     1
 75
     1
176
     1
175
     1
176
     1
 42
1.0
176
     1
 92
        8
176
     1
 66
     7
176
     1
 43
1.0
176
     1
 76
     1
176
     1
 77
     6
176
     1
 78
     2
176
     1
 67
     7
176
     1
 79
     5
176
     1
170
     0
176
     1
171
     0
176
     1
290
     0
176
     1
 93
        1
176
     1
 44
50.0
176
     1
173
     0
176
     1
  0
VISUALSTYLE
  5
3A
102
{ACAD_REACTORS
330
2A
102
}
330
2A
100
AcDbVisualStyle
  2
ColorChange
 70
    16
177
     2
291
     1
 71
     2
176
     1
 72
     2
176
     1
 73
     3
176
     1
 90
        0
176
     1
 40
-0.6
176
     1
 41
-30.0
176
     1
 62
     5
 63
     8
421
  8421504
176
     1
 74
     1
176
     1
 91
        4
176
     1
 64
     7
176
     1
 65
   257
176
     1
 75
     1
176
     1
175
     1
176
     1
 42
1.0
176
     1
 92
        8
176
     1
 66
     8
424
  8421504
176
     1
 43
1.0
176
     1
 76
     1
176
     1
 77
     6
176
     1
 78
     2
176
     1
 67
     7
176
     1
 79
     5
176
     1
170
     0
176
     1
171
     0
176
     1
290
     0
176
     1
 93
        1
176
     1
 44
0.0
176
     1
173
     0
176
     1
  0
VISUALSTYLE
  5
34
102
{ACAD_REACTORS
330
2A
102
}
330
2A
100
AcDbVisualStyle
  2
Conceptual
 70
     9
177
     2
291
     0
 71
     3
176
     1
 72
     2
176
     1
 73
     0
176
     1
 90
        0
176
     1
 40
-0.6
176
     1
 41
-30.0
176
     1
 62
     5
 63
     7
421
 16777215
176
     1
 74
     2
176
     1
 91
        2
176
     1
 64
     7
176
     1
 65
   257
176
     1
 75
     1
176
     1
175
     1
176
     1
 42
40.0
176
     1
 92
        8
176
     1
 66
     7
176
     1
 43
1.0
176
     1
 76
     1
176
     1
 77
     6
176
     1
 78
     2
176
     1
 67
     7
176
     1
 79
     3
176
     1
170
     0
176
     1
171
     0
176
     1
290
     0
176
     1
 93
        1
176
     1
 44
0.0
176
     1
173
     0
176
     1
  0
VISUALSTYLE
  5
35
102
{ACAD_REACTORS
330
2A
102
}
330
2A
100
AcDbVisualStyle
  2
Dim
 70
    11
177
     2
291
     1
 71
     2
176
     1
 72
     2
176
     1
 73
     0
176
     1
 90
        0
176
     1
 40
-0.6
176
     1
 41
-30.0
176
     1
 62
     5
 63
     7
421
 16777215
176
     1
 74
     1
176
     1
 91
        4
176
     1
 64
     7
176
     1
 65
   257
176
     1
 75
     1
176
     1
175
     1
176
     1
 42
1.0
176
     1
 92
        8
176
     1
 66
     7
176
     1
 43
1.0
176
     1
 76
     1
176
     1
 77
     6
176
     1
 78
     2
176
     1
 67
     7
176
     1
 79
     5
176
     1
170
     0
176
     1
171
     0
176
     1
290
     0
176
     1
 93
        1
176
     1
 44
-50.0
176
     1
173
     0
176
     1
  0
VISUALSTYLE
  5
39
102
{ACAD_REACTORS
330
2A
102
}
330
2A
100
AcDbVisualStyle
  2
Facepattern
 70
    15
177
     2
291
     1
 71
     2
176
     1
 72
     2
176
     1
 73
     0
176
     1
 90
        0
176
     1
 40
-0.6
176
     1
 41
-30.0
176
     1
 62
     5
 63
     7
421
 16777215
176
     1
 74
     1
176
     1
 91
        4
176
     1
 64
     7
176
     1
 65
   257
176
     1
 75
     1
176
     1
175
     1
176
     1
 42
1.0
176
     1
 92
        8
176
     1
 66
     7
176
     1
 43
1.0
176
     1
 76
     1
176
     1
 77
     6
176
     1
 78
     2
176
     1
 67
     7
176
     1
 79
     5
176
     1
170
     0
176
     1
171
     0
176
     1
290
     0
176
     1
 93
        1
176
     1
 44
0.0
176
     1
173
     0
176
     1
  0
VISUALSTYLE
  5
2B
102
{ACAD_REACTORS
330
2A
102
}
330
2A
100
AcDbVisualStyle
  2
Flat
 70
     0
177
     2
291
     1
 71
     2
176
     1
 72
     1
176
     1
 73
     1
176
     1
 90
        2
176
     1
 40
-0.6
176
     1
 41
30.0
176
     1
 62
     5
 63
     7
421
 16777215
176
     1
 74
     0
176
     1
 91
        4
176
     1
 64
     7
176
     1
 65
   257
176
     1
 75
     1
176
     1
175
     1
176
     1
 42
1.0
176
     1
 92
        8
176
     1
 66
     7
176
     1
 43
1.0
176
     1
 76
     1
176
     1
 77
     6
176
     1
 78
     2
176
     1
 67
     7
176
     1
 79
     5
176
     1
170
     0
176
     1
171
     0
176
     1
290
     0
176
     1
 93
       13
176
     1
 44
0.0
176
     1
173
     0
176
     1
  0
VISUALSTYLE
  5
2C
102
{ACAD_REACTORS
330
2A
102
}
330
2A
100
AcDbVisualStyle
  2
FlatWithEdges
 70
     1
177
     2
291
     1
 71
     2
176
     1
 72
     1
176
     1
 73
     1
176
     1
 90
        2
176
     1
 40
-0.6
176
     1
 41
30.0
176
     1
 62
     5
 63
     7
421
 16777215
176
     1
 74
     1
176
     1
 91
        4
176
     1
 64
     7
176
     1
 65
   257
176
     1
 75
     1
176
     1
175
     1
176
     1
 42
1.0
176
     1
 92
        0
176
     1
 66
   257
176
     1
 43
1.0
176
     1
 76
     1
176
     1
 77
     6
176
     1
 78
     2
176
     1
 67
     7
176
     1
 79
     5
176
     1
170
     0
176
     1
171
     0
176
     1
290
     0
176
     1
 93
       13
176
     1
 44
0.0
176
     1
173
     0
176
     1
  0
VISUALSTYLE
  5
2D
102
{ACAD_REACTORS
330
2A
102
}
330
2A
100
AcDbVisualStyle
  2
Gouraud
 70
     2
177
     2
291
     1
 71
     2
176
     1
 72
     2
176
     1
 73
     1
176
     1
 90
        2
176
     1
 40
-0.6
176
     1
 41
30.0
176
     1
 62
     5
 63
     7
421
 16777215
176
     1
 74
     0
176
     1
 91
        4
176
     1
 64
     7
176
     1
 65
   257
176
     1
 75
     1
176
     1
175
     1
176
     1
 42
1.0
176
     1
 92
        0
176
     1
 66
     7
176
     1
 43
1.0
176
     1
 76
     1
176
     1
 77
     6
176
     1
 78
     2
176
     1
 67
     7
176
     1
 79
     5
176
     1
170
     0
176
     1
171
     0
176
     1
290
     0
176
     1
 93
       13
176
     1
 44
0.0
176
     1
173
     0
176
     1
  0
VISUALSTYLE
  5
2E
102
{ACAD_REACTORS
330
2A
102
}
330
2A
100
AcDbVisualStyle
  2
GouraudWithEdges
 70
     3
177
     2
291
     1
 71
     2
176
     1
 72
     2
176
     1
 73
     1
176
     1
 90
        2
176
     1
 40
-0.6
176
     1
 41
30.0
176
     1
 62
     5
 63
     7
421
 16777215
176
     1
 74
     1
176
     1
 91
        4
176
     1
 64
     7
176
     1
 65
   257
176
     1
 75
     1
176
     1
175
     1
176
     1
 42
1.0
176
     1
 92
        0
176
     1
 66
   257
176
     1
 43
1.0
176
     1
 76
     1
176
     1
 77
     6
176
     1
 78
     2
176
     1
 67
     7
176
     1
 79
     5
176
     1
170
     0
176
     1
171
     0
176
     1
290
     0
176
     1
 93
       13
176
     1
 44
0.0
176
     1
173
     0
176
     1
  0
VISUALSTYLE
  5
38
102
{ACAD_REACTORS
330
2A
102
}
330
2A
100
AcDbVisualStyle
  2
Linepattern
 70
    14
177
     2
291
     1
 71
     2
176
     1
 72
     2
176
     1
 73
     0
176
     1
 90
        0
176
     1
 40
-0.6
176
     1
 41
-30.0
176
     1
 62
     5
 63
     7
421
 16777215
176
     1
 74
     1
176
     1
 91
        4
176
     1
 64
     7
176
     1
 65
   257
176
     1
 75
     7
176
     1
175
     7
176
     1
 42
1.0
176
     1
 92
        8
176
     1
 66
     7
176
     1
 43
1.0
176
     1
 76
     1
176
     1
 77
     6
176
     1
 78
     2
176
     1
 67
     7
176
     1
 79
     5
176
     1
170
     0
176
     1
171
     0
176
     1
290
     0
176
     1
 93
        1
176
     1
 44
0.0
176
     1
173
     0
176
     1
  0
VISUALSTYLE
  5
33
102
{ACAD_REACTORS
330
2A
102
}
330
2A
100
AcDbVisualStyle
  2
Realistic
 70
     8
177
     2
291
     0
 71
     2
176
     1
 72
     2
176
     1
 73
     0
176
     1
 90
        0
176
     1
 40
-0.6
176
     1
 41
-30.0
176
     1
 62
     5
 63
     7
421
 16777215
176
     1
 74
     1
176
     1
 91
        0
176
     1
 64
     7
176
     1
 65
   257
176
     1
 75
     1
176
     1
175
     1
176
     1
 42
1.0
176
     1
 92
        8
176
     1
 66
     8
424
  7895160
176
     1
 43
1.0
176
     1
 76
     1
176
     1
 77
     6
176
     1
 78
     2
176
     1
 67
     7
176
     1
 79
     5
176
     1
170
     0
176
     1
171
     0
176
     1
290
     0
176
     1
 93
       13
176
     1
 44
0.0
176
     1
173
     0
176
     1
  0
VISUALSTYLE
  5
37
102
{ACAD_REACTORS
330
2A
102
}
330
2A
100
AcDbVisualStyle
  2
Thicken
 70
    13
177
     2
291
     1
 71
     2
176
     1
 72
     2
176
     1
 73
     0
176
     1
 90
        0
176
     1
 40
-0.6
176
     1
 41
-30.0
176
     1
 62
     5
 63
     7
421
 16777215
176
     1
 74
     1
176
     1
 91
        4
176
     1
 64
     7
176
     1
 65
   257
176
     1
 75
     1
176
     1
175
     1
176
     1
 42
1.0
176
     1
 92
       12
176
     1
 66
     7
176
     1
 43
1.0
176
     1
 76
     1
176
     1
 77
     6
176
     1
 78
     2
176
     1
 67
     7
176
     1
 79
     5
176
     1
170
     0
176
     1
171
     0
176
     1
290
     0
176
     1
 93
        1
176
     1
 44
0.0
176
     1
173
     0
176
     1
  0
ENDSEC
  0
EOF
