  0
SECTION
  2
HEADER
  9
$ACADVER
  1
AC1024
  9
$ACADMAINTVER
 70
   226
  9
$DWGCODEPAGE
  3
ANSI_932
  9
$INSBASE
 10
0.0
 20
0.0
 30
0.0
  9
$EXTMIN
 10
1.000000000000000E+20
 20
1.000000000000000E+20
 30
1.000000000000000E+20
  9
$EXTMAX
 10
-1.000000000000000E+20
 20
-1.000000000000000E+20
 30
-1.000000000000000E+20
  9
$LIMMIN
 10
0.0
 20
0.0
  9
$LIMMAX
 10
12.0
 20
9.0
  9
$ORTHOMODE
 70
     0
  9
$REGENMODE
 70
     1
  9
$FILLMODE
 70
     1
  9
$QTEXTMODE
 70
     0
  9
$MIRRTEXT
 70
     0
  9
$LTSCALE
 40
1.0
  9
$ATTMODE
 70
     1
  9
$TEXTSIZE
 40
0.2
  9
$TRACEWID
 40
0.05
  9
$TEXTSTYLE
  7
Standard
  9
$CLAYER
  8
0
  9
$CELTYPE
  6
ByLayer
  9
$CECOLOR
 62
   256
  9
$CELTSCALE
 40
1.0
  9
$DISPSILH
 70
     0
  9
$DIMSCALE
 40
1.0
  9
$DIMASZ
 40
0.18
  9
$DIMEXO
 40
0.0625
  9
$DIMDLI
 40
0.38
  9
$DIMRND
 40
0.0
  9
$DIMDLE
 40
0.0
  9
$DIMEXE
 40
0.18
  9
$DIMTP
 40
0.0
  9
$DIMTM
 40
0.0
  9
$DIMTXT
 40
0.18
  9
$DIMCEN
 40
0.09
  9
$DIMTSZ
 40
0.0
  9
$DIMTOL
 70
     0
  9
$DIMLIM
 70
     0
  9
$DIMTIH
 70
     1
  9
$DIMTOH
 70
     1
  9
$DIMSE1
 70
     0
  9
$DIMSE2
 70
     0
  9
$DIMTAD
 70
     0
  9
$DIMZIN
 70
     0
  9
$DIMBLK
  1

  9
$DIMASO
 70
     1
  9
$DIMSHO
 70
     1
  9
$DIMPOST
  1

  9
$DIMAPOST
  1

  9
$DIMALT
 70
     0
  9
$DIMALTD
 70
     2
  9
$DIMALTF
 40
25.4
  9
$DIMLFAC
 40
1.0
  9
$DIMTOFL
 70
     0
  9
$DIMTVP
 40
0.0
  9
$DIMTIX
 70
     0
  9
$DIMSOXD
 70
     0
  9
$DIMSAH
 70
     0
  9
$DIMBLK1
  1

  9
$DIMBLK2
  1

  9
$DIMSTYLE
  2
Standard
  9
$DIMCLRD
 70
     0
  9
$DIMCLRE
 70
     0
  9
$DIMCLRT
 70
     0
  9
$DIMTFAC
 40
1.0
  9
$DIMGAP
 40
0.09
  9
$DIMJUST
 70
     0
  9
$DIMSD1
 70
     0
  9
$DIMSD2
 70
     0
  9
$DIMTOLJ
 70
     1
  9
$DIMTZIN
 70
     0
  9
$DIMALTZ
 70
     0
  9
$DIMALTTZ
 70
     0
  9
$DIMUPT
 70
     0
  9
$DIMDEC
 70
     4
  9
$DIMTDEC
 70
     4
  9
$DIMALTU
 70
     2
  9
$DIMALTTD
 70
     2
  9
$DIMTXSTY
  7
Standard
  9
$DIMAUNIT
 70
     0
  9
$DIMADEC
 70
     0
  9
$DIMALTRND
 40
0.0
  9
$DIMAZIN
 70
     0
  9
$DIMDSEP
 70
    46
  9
$DIMATFIT
 70
     3
  9
$DIMFRAC
 70
     0
  9
$DIMLDRBLK
  1

  9
$DIMLUNIT
 70
     2
  9
$DIMLWD
 70
    -2
  9
$DIMLWE
 70
    -2
  9
$DIMTMOVE
 70
     0
  9
$DIMFXL
 40
1.0
  9
$DIMFXLON
 70
     0
  9
$DIMJOGANG
 40
0.7853981633974483
  9
$DIMTFILL
 70
     0
  9
$DIMTFILLCLR
 70
     0
  9
$DIMARCSYM
 70
     0
  9
$DIMLTYPE
  6

  9
$DIMLTEX1
  6

  9
$DIMLTEX2
  6

  9
$DIMTXTDIRECTION
 70
     0
  9
$LUNITS
 70
     2
  9
$LUPREC
 70
     4
  9
$SKETCHINC
 40
0.1
  9
$FILLETRAD
 40
0.0
  9
$AUNITS
 70
     0
  9
$AUPREC
 70
     0
  9
$MENU
  1
.
  9
$ELEVATION
 40
0.0
  9
$PELEVATION
 40
0.0
  9
$THICKNESS
 40
0.0
  9
$LIMCHECK
 70
     0
  9
$CHAMFERA
 40
0.0
  9
$CHAMFERB
 40
0.0
  9
$CHAMFERC
 40
0.0
  9
$CHAMFERD
 40
0.0
  9
$SKPOLY
 70
     0
  9
$TDCREATE
 40
2459676.424062500
  9
$TDUCREATE
 40
2459676.049062500
  9
$TDUPDATE
 40
2459676.424062500
  9
$TDUUPDATE
 40
2459676.049062500
  9
$TDINDWG
 40
0.0000000000
  9
$TDUSRTIMER
 40
0.0000000000
  9
$USRTIMER
 70
     1
  9
$ANGBASE
 50
0.0
  9
$ANGDIR
 70
     0
  9
$PDMODE
 70
     0
  9
$PDSIZE
 40
0.0
  9
$PLINEWID
 40
0.0
  9
$SPLFRAME
 70
     0
  9
$SPLINETYPE
 70
     6
  9
$SPLINESEGS
 70
     8
  9
$HANDSEED
  5
140
  9
$SURFTAB1
 70
     6
  9
$SURFTAB2
 70
     6
  9
$SURFTYPE
 70
     6
  9
$SURFU
 70
     6
  9
$SURFV
 70
     6
  9
$UCSBASE
  2

  9
$UCSNAME
  2

  9
$UCSORG
 10
0.0
 20
0.0
 30
0.0
  9
$UCSXDIR
 10
1.0
 20
0.0
 30
0.0
  9
$UCSYDIR
 10
0.0
 20
1.0
 30
0.0
  9
$UCSORTHOREF
  2

  9
$UCSORTHOVIEW
 70
     0
  9
$UCSORGTOP
 10
0.0
 20
0.0
 30
0.0
  9
$UCSORGBOTTOM
 10
0.0
 20
0.0
 30
0.0
  9
$UCSORGLEFT
 10
0.0
 20
0.0
 30
0.0
  9
$UCSORGRIGHT
 10
0.0
 20
0.0
 30
0.0
  9
$UCSORGFRONT
 10
0.0
 20
0.0
 30
0.0
  9
$UCSORGBACK
 10
0.0
 20
0.0
 30
0.0
  9
$PUCSBASE
  2

  9
$PUCSNAME
  2

  9
$PUCSORG
 10
0.0
 20
0.0
 30
0.0
  9
$PUCSXDIR
 10
1.0
 20
0.0
 30
0.0
  9
$PUCSYDIR
 10
0.0
 20
1.0
 30
0.0
  9
$PUCSORTHOREF
  2

  9
$PUCSORTHOVIEW
 70
     0
  9
$PUCSORGTOP
 10
0.0
 20
0.0
 30
0.0
  9
$PUCSORGBOTTOM
 10
0.0
 20
0.0
 30
0.0
  9
$PUCSORGLEFT
 10
0.0
 20
0.0
 30
0.0
  9
$PUCSORGRIGHT
 10
0.0
 20
0.0
 30
0.0
  9
$PUCSORGFRONT
 10
0.0
 20
0.0
 30
0.0
  9
$PUCSORGBACK
 10
0.0
 20
0.0
 30
0.0
  9
$USERI1
 70
     0
  9
$USERI2
 70
     0
  9
$USERI3
 70
     0
  9
$USERI4
 70
     0
  9
$USERI5
 70
     0
  9
$USERR1
 40
0.0
  9
$USERR2
 40
0.0
  9
$USERR3
 40
0.0
  9
$USERR4
 40
0.0
  9
$USERR5
 40
0.0
  9
$WORLDVIEW
 70
     1
  9
$SHADEDGE
 70
     3
  9
$SHADEDIF
 70
    70
  9
$TILEMODE
 70
     1
  9
$MAXACTVP
 70
    64
  9
$PINSBASE
 10
0.0
 20
0.0
 30
0.0
  9
$PLIMCHECK
 70
     0
  9
$PEXTMIN
 10
1.000000000000000E+20
 20
1.000000000000000E+20
 30
1.000000000000000E+20
  9
$PEXTMAX
 10
-1.000000000000000E+20
 20
-1.000000000000000E+20
 30
-1.000000000000000E+20
  9
$PLIMMIN
 10
0.0
 20
0.0
  9
$PLIMMAX
 10
12.0
 20
9.0
  9
$UNITMODE
 70
     0
  9
$VISRETAIN
 70
     1
  9
$PLINEGEN
 70
     0
  9
$PSLTSCALE
 70
     1
  9
$TREEDEPTH
 70
  3020
  9
$CMLSTYLE
  2
Standard
  9
$CMLJUST
 70
     0
  9
$CMLSCALE
 40
1.0
  9
$PROXYGRAPHICS
 70
     1
  9
$MEASUREMENT
 70
     0
  9
$CELWEIGHT
370
    -1
  9
$ENDCAPS
280
     0
  9
$JOINSTYLE
280
     0
  9
$LWDISPLAY
290
     1
  9
$INSUNITS
 70
     4
  9
$HYPERLINKBASE
  1

  9
$STYLESHEET
  1

  9
$XEDIT
290
     1
  9
$CEPSNTYPE
380
     0
  9
$PSTYLEMODE
290
     1
  9
$FINGERPRINTGUID
  2
{9085FC72-40E2-EA4B-AAA5-7F1B5B9B3C07}
  9
$VERSIONGUID
  2
{EA62F56F-7E44-154E-ACE1-1961BE9A294C}
  9
$EXTNAMES
290
     1
  9
$PSVPSCALE
 40
0.0
  9
$OLESTARTUP
290
     0
  9
$SORTENTS
280
   127
  9
$INDEXCTL
280
     0
  9
$HIDETEXT
280
     1
  9
$XCLIPFRAME
280
     2
  9
$HALOGAP
280
     0
  9
$OBSCOLOR
 70
   257
  9
$OBSLTYPE
280
     0
  9
$INTERSECTIONDISPLAY
280
     0
  9
$INTERSECTIONCOLOR
 70
   257
  9
$DIMASSOC
280
     2
  9
$PROJECTNAME
  1

  9
$CAMERADISPLAY
290
     0
  9
$LENSLENGTH
 40
50.0
  9
$CAMERAHEIGHT
 40
0.0
  9
$STEPSPERSEC
 40
2.0
  9
$STEPSIZE
 40
6.0
  9
$3DDWFPREC
 40
2.0
  9
$PSOLWIDTH
 40
0.25
  9
$PSOLHEIGHT
 40
4.0
  9
$LOFTANG1
 40
1.570796326794896
  9
$LOFTANG2
 40
1.570796326794896
  9
$LOFTMAG1
 40
0.0
  9
$LOFTMAG2
 40
0.0
  9
$LOFTPARAM
 70
     7
  9
$LOFTNORMALS
280
     1
  9
$LATITUDE
 40
37.795
  9
$LONGITUDE
 40
-122.394
  9
$NORTHDIRECTION
 40
0.0
  9
$TIMEZONE
 70
 -8000
  9
$LIGHTGLYPHDISPLAY
280
     1
  9
$TILEMODELIGHTSYNCH
280
     1
  9
$CMATERIAL
347
11
  9
$SOLIDHIST
280
     0
  9
$SHOWHIST
280
     1
  9
$DWFFRAME
280
     2
  9
$DGNFRAME
280
     0
  9
$REALWORLDSCALE
290
     1
  9
$INTERFERECOLOR
 62
     1
  9
$INTERFEREOBJVS
345
33
  9
$INTERFEREVPVS
346
30
  9
$CSHADOW
280
     0
  9
$SHADOWPLANELOCATION
 40
0.0
  0
ENDSEC
  0
SECTION
  2
CLASSES
  0
CLASS
  1
ACDBDICTIONARYWDFLT
  2
AcDbDictionaryWithDefault
  3
ObjectDBX Classes
 90
        0
 91
        1
280
     0
281
     0
  0
CLASS
  1
MATERIAL
  2
AcDbMaterial
  3
ObjectDBX Classes
 90
     1153
 91
        3
280
     0
281
     0
  0
CLASS
  1
VISUALSTYLE
  2
AcDbVisualStyle
  3
ObjectDBX Classes
 90
     4095
 91
       24
280
     0
281
     0
  0
CLASS
  1
SCALE
  2
AcDbScale
  3
ObjectDBX Classes
 90
     1153
 91
       17
280
     0
281
     0
  0
CLASS
  1
TABLESTYLE
  2
AcDbTableStyle
  3
ObjectDBX Classes
 90
     4095
 91
        1
280
     0
281
     0
  0
CLASS
  1
MLEADERSTYLE
  2
AcDbMLeaderStyle
  3
ACDB_MLEADERSTYLE_CLASS
 90
     4095
 91
        1
280
     0
281
     0
  0
CLASS
  1
ACDBSECTIONVIEWSTYLE
  2
AcDbSectionViewStyle
  3
ObjectDBX Classes
 90
     1025
 91
        1
280
     0
281
     0
  0
CLASS
  1
ACDBDETAILVIEWSTYLE
  2
AcDbDetailViewStyle
  3
ObjectDBX Classes
 90
     1025
 91
        1
280
     0
281
     0
  0
CLASS
  1
DICTIONARYVAR
  2
AcDbDictionaryVar
  3
ObjectDBX Classes
 90
        0
 91
        5
280
     0
281
     0
  0
CLASS
  1
CELLSTYLEMAP
  2
AcDbCellStyleMap
  3
ObjectDBX Classes
 90
     1152
 91
        1
280
     0
281
     0
  0
ENDSEC
  0
SECTION
  2
TABLES
  0
TABLE
  2
VPORT
  5
8
330
0
100
AcDbSymbolTable
 70
     1
  0
VPORT
  5
57
330
8
100
AcDbSymbolTableRecord
100
AcDbViewportTableRecord
  2
*Active
 70
     0
 10
0.0
 20
0.0
 11
1.0
 21
1.0
 12
0.0
 22
0.0
 13
0.0
 23
0.0
 14
1.0
 24
1.0
 15
0.0
 25
0.0
 16
0.0
 26
0.0
 36
1.0
 17
104.9999999737534
 27
-148.4999999628701
 37
0.0
 40
302.939999924255
 41
0.7070707070707534
 42
50.0
 43
0.0
 44
0.0
 50
0.0
 51
0.0
 71
     0
 72
   100
 73
     1
 74
     0
 75
     1
 76
     0
 77
     0
 78
     0
281
     0
 65
     1
110
0.0
120
0.0
130
0.0
111
1.0
121
0.0
131
0.0
112
0.0
122
1.0
132
0.0
 79
     0
146
0.0
 60
     3
 61
     5
292
     1
282
     1
141
0.0
142
0.0
 63
   250
421
  3355443
  0
ENDTAB
  0
TABLE
  2
LTYPE
  5
5
330
0
100
AcDbSymbolTable
 70
     2
  0
LTYPE
  5
5B
330
5
100
AcDbSymbolTableRecord
100
AcDbLinetypeTableRecord
  2
ByBlock
 70
     0
  3

 72
    65
 73
     0
 40
0.0
  0
LTYPE
  5
5C
330
5
100
AcDbSymbolTableRecord
100
AcDbLinetypeTableRecord
  2
ByLayer
 70
     0
  3

 72
    65
 73
     0
 40
0.0
  0
LTYPE
  5
5D
330
5
100
AcDbSymbolTableRecord
100
AcDbLinetypeTableRecord
  2
Continuous
 70
     0
  3
Solid line
 72
    65
 73
     0
 40
0.0
  0
LTYPE
  5
7E
330
5
100
AcDbSymbolTableRecord
100
AcDbLinetypeTableRecord
  2
AI-Linetype-0
 70
     0
  3
Adobe Illustrator Linetype No. 0
 72
    65
 73
     2
 40
1.411111110758333
 49
0.7055555553791667
 74
     0
 49
-0.7055555553791667
 74
     0
  0
ENDTAB
  0
TABLE
  2
LAYER
  5
2
330
0
100
AcDbSymbolTable
 70
     2
  0
LAYER
  5
54
330
2
100
AcDbSymbolTableRecord
100
AcDbLayerTableRecord
  2
0
 70
     0
 62
     7
  6
Continuous
370
    -3
390
F
347
21
  0
LAYER
  5
78
330
2
100
AcDbSymbolTableRecord
100
AcDbLayerTableRecord
  2
レイヤー 1
 70
     0
 62
     7
  6
Continuous
370
     0
390
F
347
21
  0
ENDTAB
  0
TABLE
  2
STYLE
  5
3
330
0
100
AcDbSymbolTable
 70
     2
  0
STYLE
  5
55
330
3
100
AcDbSymbolTableRecord
100
AcDbTextStyleTableRecord
  2
Standard
 70
     0
 40
0.0
 41
1.0
 50
0.0
 71
     0
 42
0.2
  3
txt
  4

  0
STYLE
  5
5A
330
3
100
AcDbSymbolTableRecord
100
AcDbTextStyleTableRecord
  2
Annotative
 70
     0
 40
0.0
 41
1.0
 50
0.0
 71
     0
 42
0.2
  3
txt
  4

1001
AcadAnnotative
1000
AnnotativeData
1002
{
1070
     1
1070
     1
1002
}
  0
ENDTAB
  0
TABLE
  2
VIEW
  5
6
330
0
100
AcDbSymbolTable
 70
     0
  0
ENDTAB
  0
TABLE
  2
UCS
  5
7
330
0
100
AcDbSymbolTable
 70
     0
  0
ENDTAB
  0
TABLE
  2
APPID
  5
9
330
0
100
AcDbSymbolTable
 70
     2
  0
APPID
  5
56
330
9
100
AcDbSymbolTableRecord
100
AcDbRegAppTableRecord
  2
ACAD
 70
     0
  0
APPID
  5
5E
330
9
100
AcDbSymbolTableRecord
100
AcDbRegAppTableRecord
  2
AcadAnnotative
 70
     0
  0
ENDTAB
  0
TABLE
  2
DIMSTYLE
  5
A
330
0
100
AcDbSymbolTable
 70
     2
100
AcDbDimStyleTable
 71
     0
  0
DIMSTYLE
105
58
330
A
100
AcDbSymbolTableRecord
100
AcDbDimStyleTableRecord
  2
Standard
 70
     0
340
55
  0
DIMSTYLE
105
59
330
A
100
AcDbSymbolTableRecord
100
AcDbDimStyleTableRecord
  2
Annotative
 70
     0
340
55
1001
AcadAnnotative
1000
AnnotativeData
1002
{
1070
     1
1070
     1
1002
}
  0
ENDTAB
  0
TABLE
  2
BLOCK_RECORD
  5
1
330
0
100
AcDbSymbolTable
 70
    15
  0
BLOCK_RECORD
  5
70
330
1
100
AcDbSymbolTableRecord
100
AcDbBlockTableRecord
  2
*Model_Space
340
73
 70
     0
280
     1
281
     0
  0
BLOCK_RECORD
  5
6C
330
1
100
AcDbSymbolTableRecord
100
AcDbBlockTableRecord
  2
*Paper_Space
340
6F
 70
     0
280
     1
281
     0
  0
BLOCK_RECORD
  5
74
330
1
100
AcDbSymbolTableRecord
100
AcDbBlockTableRecord
  2
*Paper_Space0
340
77
 70
     0
280
     1
281
     0
  0
BLOCK_RECORD
  5
79
330
1
100
AcDbSymbolTableRecord
100
AcDbBlockTableRecord
  2
Block_0
340
0
102
{BLKREFS
331
7A
102
}
 70
     0
280
     1
281
     0
  0
BLOCK_RECORD
  5
7F
330
1
100
AcDbSymbolTableRecord
100
AcDbBlockTableRecord
  2
Block_1
340
0
102
{BLKREFS
331
80
102
}
 70
     0
280
     1
281
     0
  0
BLOCK_RECORD
  5
86
330
1
100
AcDbSymbolTableRecord
100
AcDbBlockTableRecord
  2
Block_2
340
0
102
{BLKREFS
331
87
102
}
 70
     0
280
     1
281
     0
  0
BLOCK_RECORD
  5
8A
330
1
100
AcDbSymbolTableRecord
100
AcDbBlockTableRecord
  2
Block_3
340
0
102
{BLKREFS
331
8B
102
}
 70
     0
280
     1
281
     0
  0
BLOCK_RECORD
  5
A1
330
1
100
AcDbSymbolTableRecord
100
AcDbBlockTableRecord
  2
Block_4
340
0
102
{BLKREFS
331
A2
102
}
 70
     0
280
     1
281
     0
  0
BLOCK_RECORD
  5
B7
330
1
100
AcDbSymbolTableRecord
100
AcDbBlockTableRecord
  2
Block_5
340
0
102
{BLKREFS
331
B8
102
}
 70
     0
280
     1
281
     0
  0
BLOCK_RECORD
  5
BB
330
1
100
AcDbSymbolTableRecord
100
AcDbBlockTableRecord
  2
Block_6
340
0
102
{BLKREFS
331
BC
102
}
 70
     0
280
     1
281
     0
  0
BLOCK_RECORD
  5
C5
330
1
100
AcDbSymbolTableRecord
100
AcDbBlockTableRecord
  2
Block_7
340
0
102
{BLKREFS
331
C6
102
}
 70
     0
280
     1
281
     0
  0
BLOCK_RECORD
  5
D0
330
1
100
AcDbSymbolTableRecord
100
AcDbBlockTableRecord
  2
Block_8
340
0
102
{BLKREFS
331
D1
102
}
 70
     0
280
     1
281
     0
  0
BLOCK_RECORD
  5
D4
330
1
100
AcDbSymbolTableRecord
100
AcDbBlockTableRecord
  2
Block_9
340
0
102
{BLKREFS
331
D5
102
}
 70
     0
280
     1
281
     0
  0
BLOCK_RECORD
  5
E1
330
1
100
AcDbSymbolTableRecord
100
AcDbBlockTableRecord
  2
Block_10
340
0
102
{BLKREFS
331
E2
102
}
 70
     0
280
     1
281
     0
  0
BLOCK_RECORD
  5
E5
330
1
100
AcDbSymbolTableRecord
100
AcDbBlockTableRecord
  2
Block_11
340
0
102
{BLKREFS
331
E6
102
}
 70
     0
280
     1
281
     0
  0
BLOCK_RECORD
  5
F1
330
1
100
AcDbSymbolTableRecord
100
AcDbBlockTableRecord
  2
Block_12
340
0
102
{BLKREFS
331
F2
102
}
 70
     0
280
     1
281
     0
  0
BLOCK_RECORD
  5
F5
330
1
100
AcDbSymbolTableRecord
100
AcDbBlockTableRecord
  2
Block_13
340
0
102
{BLKREFS
331
F6
102
}
 70
     0
280
     1
281
     0
  0
ENDTAB
  0
ENDSEC
  0
SECTION
  2
BLOCKS
  0
BLOCK
  5
71
330
70
100
AcDbEntity
  8
0
100
AcDbBlockBegin
  2
*Model_Space
 70
     0
 10
0.0
 20
0.0
 30
0.0
  3
*Model_Space
  1

  0
ENDBLK
  5
72
330
70
100
AcDbEntity
  8
0
100
AcDbBlockEnd
  0
BLOCK
  5
6D
330
6C
100
AcDbEntity
 67
     1
  8
0
100
AcDbBlockBegin
  2
*Paper_Space
 70
     0
 10
0.0
 20
0.0
 30
0.0
  3
*Paper_Space
  1

  0
ENDBLK
  5
6E
330
6C
100
AcDbEntity
 67
     1
  8
0
100
AcDbBlockEnd
  0
BLOCK
  5
75
330
74
100
AcDbEntity
 67
     1
  8
0
100
AcDbBlockBegin
  2
*Paper_Space0
 70
     0
 10
0.0
 20
0.0
 30
0.0
  3
*Paper_Space0
  1

  0
ENDBLK
  5
76
330
74
100
AcDbEntity
 67
     1
  8
0
100
AcDbBlockEnd
  0
BLOCK
  5
7B
330
79
100
AcDbEntity
  8
0
100
AcDbBlockBegin
  2
Block_0
 70
     0
 10
0.0
 20
0.0
 30
0.0
  3
Block_0
  1

  0
LINE
  5
7D
330
79
100
AcDbEntity
  8
レイヤー 1
  6
AI-Linetype-0
 62
   154
420
    23468
370
    25
100
AcDbLine
 10
107.9531653889818
 20
-150.7357914724698
 30
0.0
 11
117.9990197647917
 21
-150.7357914724698
 31
0.0
  0
INSERT
  5
80
330
79
100
AcDbEntity
  8
レイヤー 1
100
AcDbBlockReference
  2
Block_1
 10
0.0
 20
0.0
 30
0.0
  0
INSERT
  5
87
330
79
100
AcDbEntity
  8
レイヤー 1
100
AcDbBlockReference
  2
Block_2
 10
0.0
 20
0.0
 30
0.0
  0
ENDBLK
  5
7C
330
79
100
AcDbEntity
  8
0
100
AcDbBlockEnd
  0
BLOCK
  5
81
330
7F
100
AcDbEntity
  8
0
100
AcDbBlockBegin
  2
Block_1
 70
     0
 10
0.0
 20
0.0
 30
0.0
  3
Block_1
  1

  0
LINE
  5
83
330
7F
100
AcDbEntity
  8
レイヤー 1
 62
    18
420
        0
370
     9
100
AcDbLine
 10
112.7601429392971
 20
-150.5297138089424
 30
0.0
 11
112.4932980814368
 21
-149.5659415756714
 31
0.0
  0
LINE
  5
84
330
7F
100
AcDbEntity
  8
レイヤー 1
 62
    18
420
        0
370
     9
100
AcDbLine
 10
112.7601429392971
 20
-150.5297138089424
 30
0.0
 11
112.7257087319201
 21
-148.9157532461377
 31
0.0
  0
LINE
  5
85
330
7F
100
AcDbEntity
  8
レイヤー 1
 62
    18
420
        0
370
     9
100
AcDbLine
 10
112.7601429392971
 20
-150.5297138089424
 30
0.0
 11
113.0109910168031
 21
-149.561533353555
 31
0.0
  0
ENDBLK
  5
82
330
7F
100
AcDbEntity
  8
0
100
AcDbBlockEnd
  0
BLOCK
  5
88
330
86
100
AcDbEntity
  8
0
100
AcDbBlockBegin
  2
Block_2
 70
     0
 10
0.0
 20
0.0
 30
0.0
  3
Block_2
  1

  0
INSERT
  5
8B
330
86
100
AcDbEntity
  8
レイヤー 1
100
AcDbBlockReference
  2
Block_3
 10
0.0
 20
0.0
 30
0.0
  0
ENDBLK
  5
89
330
86
100
AcDbEntity
  8
0
100
AcDbBlockEnd
  0
BLOCK
  5
8C
330
8A
100
AcDbEntity
  8
0
100
AcDbBlockBegin
  2
Block_3
 70
     0
 10
0.0
 20
0.0
 30
0.0
  3
Block_3
  1

  0
SPLINE
  5
8E
330
8A
100
AcDbEntity
  8
レイヤー 1
100
AcDbSpline
210
0.0
220
0.0
230
1.0
 70
     9
 71
     3
 72
    17
 73
    13
 74
     0
 42
0.0000000001
 43
0.0000000001
 40
0.0
 40
0.0
 40
0.0
 40
0.0
 40
1.0
 40
1.0
 40
1.0
 40
2.0
 40
2.0
 40
2.0
 40
3.0
 40
3.0
 40
3.0
 40
4.0
 40
4.0
 40
4.0
 40
4.0
 10
108.7740668130842
 20
-147.8493733354335
 30
0.0
 10
108.756841335658
 20
-147.8788289018323
 30
0.0
 10
108.7061984320248
 20
-147.9720187347084
 30
0.0
 10
108.6955186360205
 20
-147.9909667598772
 30
0.0
 10
108.8860324163549
 20
-148.0502224022235
 30
0.0
 10
108.9070474988149
 20
-148.0565958288712
 30
0.0
 10
108.9790499944566
 20
-148.0841565927532
 30
0.0
 10
109.0341715222206
 20
-147.9973401865249
 30
0.0
 10
109.0572536619718
 20
-147.9232706335921
 30
0.0
 10
109.0720675725584
 20
-147.8493733354335
 30
0.0
 10
109.0720675725584
 20
-147.8493733354335
 30
0.0
 10
108.7740668130842
 20
-147.8493733354335
 30
0.0
 10
108.7740668130842
 20
-147.8493733354335
 30
0.0
  0
SPLINE
  5
8F
330
8A
100
AcDbEntity
  8
レイヤー 1
100
AcDbSpline
210
0.0
220
0.0
230
1.0
 70
    11
 71
     3
 72
    20
 73
    16
 74
     0
 42
0.0000000001
 43
0.0000000001
 40
0.0
 40
0.0
 40
0.0
 40
0.0
 40
1.0
 40
1.0
 40
1.0
 40
2.0
 40
2.0
 40
2.0
 40
3.0
 40
3.0
 40
3.0
 40
4.0
 40
4.0
 40
4.0
 40
5.0
 40
5.0
 40
5.0
 40
5.0
 10
108.7103325466071
 20
-146.9989515148995
 30
0.0
 10
108.7103325466071
 20
-146.9989515148995
 30
0.0
 10
108.6786376681428
 20
-146.9989515148995
 30
0.0
 10
108.6786376681428
 20
-146.9989515148995
 30
0.0
 10
108.7251464571937
 20
-147.098342519649
 30
0.0
 10
108.756841335658
 20
-147.1786132444553
 30
0.0
 10
108.790947780962
 20
-147.3055650130868
 30
0.0
 10
108.790947780962
 20
-147.3055650130868
 30
0.0
 10
108.9979980196255
 20
-147.3055650130868
 30
0.0
 10
108.9979980196255
 20
-147.3055650130868
 30
0.0
 10
109.0300374076383
 20
-147.212547434985
 30
0.0
 10
109.0531195473895
 20
-147.1279703408221
 30
0.0
 10
109.0765461966892
 20
-146.9989515148995
 30
0.0
 10
109.0765461966892
 20
-146.9989515148995
 30
0.0
 10
108.7103325466071
 20
-146.9989515148995
 30
0.0
 10
108.7103325466071
 20
-146.9989515148995
 30
0.0
  0
SPLINE
  5
90
330
8A
100
AcDbEntity
  8
レイヤー 1
100
AcDbSpline
210
0.0
220
0.0
230
1.0
 70
     9
 71
     3
 72
   242
 73
   238
 74
     0
 42
0.0000000001
 43
0.0000000001
 40
0.0
 40
0.0
 40
0.0
 40
0.0
 40
1.0
 40
1.0
 40
1.0
 40
2.0
 40
2.0
 40
2.0
 40
3.0
 40
3.0
 40
3.0
 40
4.0
 40
4.0
 40
4.0
 40
5.0
 40
5.0
 40
5.0
 40
6.0
 40
6.0
 40
6.0
 40
7.0
 40
7.0
 40
7.0
 40
8.0
 40
8.0
 40
8.0
 40
9.0
 40
9.0
 40
9.0
 40
10.0
 40
10.0
 40
10.0
 40
11.0
 40
11.0
 40
11.0
 40
12.0
 40
12.0
 40
12.0
 40
13.0
 40
13.0
 40
13.0
 40
14.0
 40
14.0
 40
14.0
 40
15.0
 40
15.0
 40
15.0
 40
16.0
 40
16.0
 40
16.0
 40
17.0
 40
17.0
 40
17.0
 40
18.0
 40
18.0
 40
18.0
 40
19.0
 40
19.0
 40
19.0
 40
20.0
 40
20.0
 40
20.0
 40
21.0
 40
21.0
 40
21.0
 40
22.0
 40
22.0
 40
22.0
 40
23.0
 40
23.0
 40
23.0
 40
24.0
 40
24.0
 40
24.0
 40
25.0
 40
25.0
 40
25.0
 40
26.0
 40
26.0
 40
26.0
 40
27.0
 40
27.0
 40
27.0
 40
28.0
 40
28.0
 40
28.0
 40
29.0
 40
29.0
 40
29.0
 40
30.0
 40
30.0
 40
30.0
 40
31.0
 40
31.0
 40
31.0
 40
32.0
 40
32.0
 40
32.0
 40
33.0
 40
33.0
 40
33.0
 40
34.0
 40
34.0
 40
34.0
 40
35.0
 40
35.0
 40
35.0
 40
36.0
 40
36.0
 40
36.0
 40
37.0
 40
37.0
 40
37.0
 40
38.0
 40
38.0
 40
38.0
 40
39.0
 40
39.0
 40
39.0
 40
40.0
 40
40.0
 40
40.0
 40
41.0
 40
41.0
 40
41.0
 40
42.0
 40
42.0
 40
42.0
 40
43.0
 40
43.0
 40
43.0
 40
44.0
 40
44.0
 40
44.0
 40
45.0
 40
45.0
 40
45.0
 40
46.0
 40
46.0
 40
46.0
 40
47.0
 40
47.0
 40
47.0
 40
48.0
 40
48.0
 40
48.0
 40
49.0
 40
49.0
 40
49.0
 40
50.0
 40
50.0
 40
50.0
 40
51.0
 40
51.0
 40
51.0
 40
52.0
 40
52.0
 40
52.0
 40
53.0
 40
53.0
 40
53.0
 40
54.0
 40
54.0
 40
54.0
 40
55.0
 40
55.0
 40
55.0
 40
56.0
 40
56.0
 40
56.0
 40
57.0
 40
57.0
 40
57.0
 40
58.0
 40
58.0
 40
58.0
 40
59.0
 40
59.0
 40
59.0
 40
60.0
 40
60.0
 40
60.0
 40
61.0
 40
61.0
 40
61.0
 40
62.0
 40
62.0
 40
62.0
 40
63.0
 40
63.0
 40
63.0
 40
64.0
 40
64.0
 40
64.0
 40
65.0
 40
65.0
 40
65.0
 40
66.0
 40
66.0
 40
66.0
 40
67.0
 40
67.0
 40
67.0
 40
68.0
 40
68.0
 40
68.0
 40
69.0
 40
69.0
 40
69.0
 40
70.0
 40
70.0
 40
70.0
 40
71.0
 40
71.0
 40
71.0
 40
72.0
 40
72.0
 40
72.0
 40
73.0
 40
73.0
 40
73.0
 40
74.0
 40
74.0
 40
74.0
 40
75.0
 40
75.0
 40
75.0
 40
76.0
 40
76.0
 40
76.0
 40
77.0
 40
77.0
 40
77.0
 40
78.0
 40
78.0
 40
78.0
 40
79.0
 40
79.0
 40
79.0
 40
79.0
 10
109.3387179631167
 20
-147.4642116601826
 30
0.0
 10
109.3387179631167
 20
-147.4642116601826
 30
0.0
 10
109.0848144258538
 20
-147.4642116601826
 30
0.0
 10
109.0848144258538
 20
-147.4642116601826
 30
0.0
 10
109.0848144258538
 20
-147.4642116601826
 30
0.0
 10
108.8078287488397
 20
-147.4642116601826
 30
0.0
 10
108.8078287488397
 20
-147.4642116601826
 30
0.0
 10
108.8078287488397
 20
-147.4642116601826
 30
0.0
 10
108.9346082626969
 20
-147.5065863346511
 30
0.0
 10
108.9346082626969
 20
-147.5065863346511
 30
0.0
 10
108.9452880587012
 20
-147.5108927040077
 30
0.0
 10
108.9580349119966
 20
-147.5170938758811
 30
0.0
 10
108.9580349119966
 20
-147.5298407291766
 30
0.0
 10
108.9580349119966
 20
-147.5510280664108
 30
0.0
 10
108.9263400335323
 20
-147.5574014930585
 30
0.0
 10
108.9049804415237
 20
-147.5615356076408
 30
0.0
 10
108.894645155068
 20
-147.5847900021663
 30
0.0
 10
108.8650173338948
 20
-147.6504190711603
 30
0.0
 10
108.8457247991774
 20
-147.69486080292
 30
0.0
 10
108.8457247991774
 20
-147.69486080292
 30
0.0
 10
109.1165093043181
 20
-147.69486080292
 30
0.0
 10
109.1165093043181
 20
-147.69486080292
 30
0.0
 10
109.2074598251287
 20
-147.69486080292
 30
0.0
 10
109.4041747773364
 20
-147.6905544335634
 30
0.0
 10
109.5461127113287
 20
-147.6821139496246
 30
0.0
 10
109.5461127113287
 20
-147.6821139496246
 30
0.0
 10
109.5461127113287
 20
-147.8598808766635
 30
0.0
 10
109.5461127113287
 20
-147.8598808766635
 30
0.0
 10
109.4634304196827
 20
-147.8555745073069
 30
0.0
 10
109.4424153372227
 20
-147.8555745073069
 30
0.0
 10
109.2625813528927
 20
-147.8514403927246
 30
0.0
 10
109.2308864744284
 20
-148.0057806704638
 30
0.0
 10
109.1864447426686
 20
-148.0862236500444
 30
0.0
 10
109.1420030109089
 20
-148.1559868336207
 30
0.0
 10
109.2625813528927
 20
-148.215242475967
 30
0.0
 10
109.3683457842898
 20
-148.2829386022522
 30
0.0
 10
109.4720431583958
 20
-148.3654486391239
 30
0.0
 10
109.4720431583958
 20
-148.3654486391239
 30
0.0
 10
109.3535318737033
 20
-148.5325357701585
 30
0.0
 10
109.3535318737033
 20
-148.5325357701585
 30
0.0
 10
109.3304497339521
 20
-148.5135877449897
 30
0.0
 10
109.3177028806567
 20
-148.5051472610508
 30
0.0
 10
109.2053927678375
 20
-148.4203979121136
 30
0.0
 10
109.1568169214955
 20
-148.3823296070016
 30
0.0
 10
109.0975612791492
 20
-148.346500613955
 30
0.0
 10
109.0172905543429
 20
-148.3020588821953
 30
0.0
 10
108.8057616915485
 20
-148.488266293173
 30
0.0
 10
108.6004340006276
 20
-148.5115206876985
 30
0.0
 10
108.3107014703181
 20
-148.5411485088716
 30
0.0
 10
108.3107014703181
 20
-148.5411485088716
 30
0.0
 10
108.2070040962121
 20
-148.3613145245416
 30
0.0
 10
108.2070040962121
 20
-148.3613145245416
 30
0.0
 10
108.5242973904036
 20
-148.357008155185
 30
0.0
 10
108.6999972601514
 20
-148.3316867033684
 30
0.0
 10
108.8522704805994
 20
-148.2216159026147
 30
0.0
 10
108.7337591959068
 20
-148.1708007442073
 30
0.0
 10
108.6448757323874
 20
-148.1434122350995
 30
0.0
 10
108.6090467393408
 20
-148.1306653818041
 30
0.0
 10
108.5897542046234
 20
-148.1582261456861
 30
0.0
 10
108.5749402940368
 20
-148.177174170855
 30
0.0
 10
108.5473795301548
 20
-148.2111083613847
 30
0.0
 10
108.5473795301548
 20
-148.2111083613847
 30
0.0
 10
108.350664577947
 20
-148.128598324513
 30
0.0
 10
108.350664577947
 20
-148.128598324513
 30
0.0
 10
108.433346869593
 20
-148.0481553449324
 30
0.0
 10
108.4946695692305
 20
-147.9528984547652
 30
0.0
 10
108.5518581542856
 20
-147.8514403927246
 30
0.0
 10
108.3613443739513
 20
-147.8555745073069
 30
0.0
 10
108.3403292914913
 20
-147.8555745073069
 30
0.0
 10
108.2576469998453
 20
-147.8598808766635
 30
0.0
 10
108.2576469998453
 20
-147.8598808766635
 30
0.0
 10
108.2576469998453
 20
-147.6821139496246
 30
0.0
 10
108.2576469998453
 20
-147.6821139496246
 30
0.0
 10
108.3971733669979
 20
-147.6884873762723
 30
0.0
 10
108.6066351725011
 20
-147.6927937456289
 30
0.0
 10
108.6321288790919
 20
-147.6927937456289
 30
0.0
 10
108.6490098469697
 20
-147.6588595550992
 30
0.0
 10
108.7041313747337
 20
-147.5382812131154
 30
0.0
 10
108.7230793999026
 20
-147.4642116601826
 30
0.0
 10
108.7041313747337
 20
-147.4642116601826
 30
0.0
 10
108.5263644476948
 20
-147.4705850868303
 30
0.0
 10
108.3317165527782
 20
-147.4833319401257
 30
0.0
 10
108.3317165527782
 20
-147.4833319401257
 30
0.0
 10
108.3317165527782
 20
-147.6166571354048
 30
0.0
 10
108.3317165527782
 20
-147.6166571354048
 30
0.0
 10
108.2831407064361
 20
-147.6419785872214
 30
0.0
 10
108.2238850640898
 20
-147.6736734656857
 30
0.0
 10
108.0905598688107
 20
-147.7393025346797
 30
0.0
 10
108.0905598688107
 20
-147.7393025346797
 30
0.0
 10
108.0905598688107
 20
-147.8852023284801
 30
0.0
 10
108.0905598688107
 20
-147.8852023284801
 30
0.0
 10
108.0905598688107
 20
-147.8852023284801
 30
0.0
 10
108.0905598688107
 20
-148.3528740406027
 30
0.0
 10
108.0905598688107
 20
-148.3528740406027
 30
0.0
 10
108.0905598688107
 20
-148.4796535544599
 30
0.0
 10
108.0547308757641
 20
-148.5389091968062
 30
0.0
 10
107.771199517328
 20
-148.5304687128674
 30
0.0
 10
107.771199517328
 20
-148.5304687128674
 30
0.0
 10
107.667502143222
 20
-148.3232462194296
 30
0.0
 10
107.667502143222
 20
-148.3232462194296
 30
0.0
 10
107.7308919001506
 20
-148.3358208179508
 30
0.0
 10
107.7794677464926
 20
-148.3401271873073
 30
0.0
 10
107.81977536367
 20
-148.3401271873073
 30
0.0
 10
107.8959119738941
 20
-148.3401271873073
 30
0.0
 10
107.9065917698983
 20
-148.3168727927819
 30
0.0
 10
107.9065917698983
 20
-148.2512437237879
 30
0.0
 10
107.9065917698983
 20
-148.2512437237879
 30
0.0
 10
107.9065917698983
 20
-147.8218125715515
 30
0.0
 10
107.9065917698983
 20
-147.8218125715515
 30
0.0
 10
107.8090955676658
 20
-147.8619479339546
 30
0.0
 10
107.792214599788
 20
-147.8683213606023
 30
0.0
 10
107.7457058107372
 20
-147.8874416405455
 30
0.0
 10
107.7415716961549
 20
-147.9084567230055
 30
0.0
 10
107.7374375815726
 20
-147.9380845441786
 30
0.0
 10
107.7181450468552
 20
-147.9380845441786
 30
0.0
 10
107.7098768176906
 20
-147.9380845441786
 30
0.0
 10
107.6991970216863
 20
-147.9339504295964
 30
0.0
 10
107.6929958498128
 20
-147.9106960350709
 30
0.0
 10
107.6929958498128
 20
-147.9106960350709
 30
0.0
 10
107.63994137934
 20
-147.7181151974455
 30
0.0
 10
107.63994137934
 20
-147.7181151974455
 30
0.0
 10
107.7860134279146
 20
-147.6716064083946
 30
0.0
 10
107.8514702421343
 20
-147.6483520138691
 30
0.0
 10
107.9065917698983
 20
-147.6271646766349
 30
0.0
 10
107.9065917698983
 20
-147.6271646766349
 30
0.0
 10
107.9065917698983
 20
-147.2146144922762
 30
0.0
 10
107.9065917698983
 20
-147.2146144922762
 30
0.0
 10
107.9065917698983
 20
-147.2146144922762
 30
0.0
 10
107.8535372994255
 20
-147.2146144922762
 30
0.0
 10
107.8535372994255
 20
-147.2146144922762
 30
0.0
 10
107.8535372994255
 20
-147.2146144922762
 30
0.0
 10
107.7753336319103
 20
-147.2146144922762
 30
0.0
 10
107.7753336319103
 20
-147.2146144922762
 30
0.0
 10
107.7078097603994
 20
-147.2146144922762
 30
0.0
 10
107.6991970216863
 20
-147.2146144922762
 30
0.0
 10
107.6633680286397
 20
-147.2209879189239
 30
0.0
 10
107.6633680286397
 20
-147.2209879189239
 30
0.0
 10
107.6633680286397
 20
-147.0263400240073
 30
0.0
 10
107.6633680286397
 20
-147.0263400240073
 30
0.0
 10
107.6909287925217
 20
-147.032713450655
 30
0.0
 10
107.6991970216863
 20
-147.032713450655
 30
0.0
 10
107.7691324600369
 20
-147.032713450655
 30
0.0
 10
107.7691324600369
 20
-147.032713450655
 30
0.0
 10
107.902457655316
 20
-147.032713450655
 30
0.0
 10
107.902457655316
 20
-147.032713450655
 30
0.0
 10
107.902457655316
 20
-146.9629502670787
 30
0.0
 10
107.902457655316
 20
-146.8804402302069
 30
0.0
 10
107.9000460884764
 20
-146.8761338608504
 30
0.0
 10
107.8917778593118
 20
-146.6962998765204
 30
0.0
 10
107.8917778593118
 20
-146.6773518513515
 30
0.0
 10
107.8897108020206
 20
-146.6308430623006
 30
0.0
 10
107.8897108020206
 20
-146.6308430623006
 30
0.0
 10
108.1053737793972
 20
-146.6392835462395
 30
0.0
 10
108.1053737793972
 20
-146.6392835462395
 30
0.0
 10
108.1160535754015
 20
-146.6392835462395
 30
0.0
 10
108.1370686578615
 20
-146.6413506035306
 30
0.0
 10
108.1370686578615
 20
-146.6582315714084
 30
0.0
 10
108.1370686578615
 20
-146.6773518513515
 30
0.0
 10
108.122254747275
 20
-146.6878593925815
 30
0.0
 10
108.0971055502326
 20
-146.7069796725246
 30
0.0
 10
108.0971055502326
 20
-146.7576225761578
 30
0.0
 10
108.0905598688107
 20
-146.9862046616041
 30
0.0
 10
108.0926269261018
 20
-147.032713450655
 30
0.0
 10
108.2218180067987
 20
-147.032713450655
 30
0.0
 10
108.2345648600941
 20
-147.032713450655
 30
0.0
 10
108.3317165527782
 20
-147.0242729667161
 30
0.0
 10
108.3317165527782
 20
-147.0242729667161
 30
0.0
 10
108.3317165527782
 20
-147.2189208616327
 30
0.0
 10
108.3317165527782
 20
-147.2189208616327
 30
0.0
 10
108.2938205024404
 20
-147.2166815495674
 30
0.0
 10
108.225952121381
 20
-147.212547434985
 30
0.0
 10
108.0905598688107
 20
-147.2146144922762
 30
0.0
 10
108.0905598688107
 20
-147.2146144922762
 30
0.0
 10
108.0905598688107
 20
-147.553095123702
 30
0.0
 10
108.0905598688107
 20
-147.553095123702
 30
0.0
 10
108.1456813965747
 20
-147.5298407291766
 30
0.0
 10
108.2111382107944
 20
-147.5022799652945
 30
0.0
 10
108.2597140571364
 20
-147.4790255707691
 30
0.0
 10
108.2597140571364
 20
-147.4790255707691
 30
0.0
 10
108.2597140571364
 20
-147.3014308985045
 30
0.0
 10
108.2597140571364
 20
-147.3014308985045
 30
0.0
 10
108.3740912272467
 20
-147.3140054970256
 30
0.0
 10
108.4926025119393
 20
-147.3140054970256
 30
0.0
 10
108.6090467393408
 20
-147.3140054970256
 30
0.0
 10
108.5856200900411
 20
-147.2189208616327
 30
0.0
 10
108.5580593261591
 20
-147.136410824761
 30
0.0
 10
108.4946695692305
 20
-147.0030856294819
 30
0.0
 10
108.4502278374708
 20
-147.005152686773
 30
0.0
 10
108.3678900553733
 20
-147.0094590561296
 30
0.0
 10
108.329649495487
 20
-147.0115261134207
 30
0.0
 10
108.329649495487
 20
-147.0115261134207
 30
0.0
 10
108.329649495487
 20
-146.8316921290907
 30
0.0
 10
108.329649495487
 20
-146.8316921290907
 30
0.0
 10
108.454361952053
 20
-146.8401326130295
 30
0.0
 10
108.6279947645097
 20
-146.8444389823861
 30
0.0
 10
108.7103325466071
 20
-146.8444389823861
 30
0.0
 10
108.7103325466071
 20
-146.8444389823861
 30
0.0
 10
108.7930148382531
 20
-146.8444389823861
 30
0.0
 10
108.7930148382531
 20
-146.8444389823861
 30
0.0
 10
108.7930148382531
 20
-146.6814859659338
 30
0.0
 10
108.7930148382531
 20
-146.6709784247037
 30
0.0
 10
108.790947780962
 20
-146.616029151714
 30
0.0
 10
108.790947780962
 20
-146.616029151714
 30
0.0
 10
109.0152234970517
 20
-146.6413506035306
 30
0.0
 10
109.0152234970517
 20
-146.6413506035306
 30
0.0
 10
109.019357611634
 20
-146.6413506035306
 30
0.0
 10
109.0403726940941
 20
-146.6434176608218
 30
0.0
 10
109.0403726940941
 20
-146.6602986286995
 30
0.0
 10
109.0403726940941
 20
-146.6751125392861
 30
0.0
 10
109.0300374076383
 20
-146.6837252779992
 30
0.0
 10
109.0024766437563
 20
-146.6985391885858
 30
0.0
 10
108.9959309623343
 20
-146.7639960028055
 30
0.0
 10
108.9938639050432
 20
-146.7851833400398
 30
0.0
 10
108.9938639050432
 20
-146.8444389823861
 30
0.0
 10
108.9938639050432
 20
-146.8444389823861
 30
0.0
 10
109.0889485404361
 20
-146.8444389823861
 30
0.0
 10
109.0889485404361
 20
-146.8444389823861
 30
0.0
 10
109.1716308320821
 20
-146.8444389823861
 30
0.0
 10
109.3449191349901
 20
-146.8401326130295
 30
0.0
 10
109.4699761011047
 20
-146.8316921290907
 30
0.0
 10
109.4699761011047
 20
-146.8316921290907
 30
0.0
 10
109.4699761011047
 20
-147.0115261134207
 30
0.0
 10
109.4699761011047
 20
-147.0115261134207
 30
0.0
 10
109.4403482799316
 20
-147.0094590561296
 30
0.0
 10
109.321836995239
 20
-147.005152686773
 30
0.0
 10
109.2815293780615
 20
-147.0030856294819
 30
0.0
 10
109.266715467475
 20
-147.0539007878893
 30
0.0
 10
109.2329535317195
 20
-147.1660386459342
 30
0.0
 10
109.1674967174998
 20
-147.3055650130868
 30
0.0
 10
109.2095268824198
 20
-147.3055650130868
 30
0.0
 10
109.4868570689824
 20
-147.2866169879179
 30
0.0
 10
109.5481797686199
 20
-147.2843776758525
 30
0.0
 10
109.5481797686199
 20
-147.2843776758525
 30
0.0
 10
109.5481797686199
 20
-147.4685180295391
 30
0.0
 10
109.5481797686199
 20
-147.4685180295391
 30
0.0
 10
109.5185519474467
 20
-147.4685180295391
 30
0.0
 10
109.501670979569
 20
-147.4642116601826
 30
0.0
 10
109.3387179631167
 20
-147.4642116601826
 30
0.0
  0
HATCH
  5
91
330
8A
100
AcDbEntity
  8
レイヤー 1
 62
    18
420
        0
440
 33554687
100
AcDbHatch
 10
0.0
 20
0.0
 30
0.0
210
0.0
220
0.0
230
1.0
  2
SOLID
 70
     1
 71
     1
 91
        3
 92
        1
 93
        1
 72
     4
 94
        3
 73
     0
 74
     0
 95
       17
 96
       13
 40
0.0
 40
0.0
 40
0.0
 40
0.0
 40
1.0
 40
1.0
 40
1.0
 40
2.0
 40
2.0
 40
2.0
 40
3.0
 40
3.0
 40
3.0
 40
4.0
 40
4.0
 40
4.0
 40
4.0
 10
108.7740668130842
 20
-147.8493733354335
 10
108.756841335658
 20
-147.8788289018323
 10
108.7061984320248
 20
-147.9720187347084
 10
108.6955186360205
 20
-147.9909667598772
 10
108.8860324163549
 20
-148.0502224022235
 10
108.9070474988149
 20
-148.0565958288712
 10
108.9790499944566
 20
-148.0841565927532
 10
109.0341715222206
 20
-147.9973401865249
 10
109.0572536619718
 20
-147.9232706335921
 10
109.0720675725584
 20
-147.8493733354335
 10
109.0720675725584
 20
-147.8493733354335
 10
108.7740668130842
 20
-147.8493733354335
 10
108.7740668130842
 20
-147.8493733354335
 97
        0
 97
        1
330
8E
 92
        1
 93
        1
 72
     4
 94
        3
 73
     0
 74
     0
 95
       20
 96
       16
 40
0.0
 40
0.0
 40
0.0
 40
0.0
 40
1.0
 40
1.0
 40
1.0
 40
2.0
 40
2.0
 40
2.0
 40
3.0
 40
3.0
 40
3.0
 40
4.0
 40
4.0
 40
4.0
 40
5.0
 40
5.0
 40
5.0
 40
5.0
 10
108.7103325466071
 20
-146.9989515148995
 10
108.7103325466071
 20
-146.9989515148995
 10
108.6786376681428
 20
-146.9989515148995
 10
108.6786376681428
 20
-146.9989515148995
 10
108.7251464571937
 20
-147.098342519649
 10
108.756841335658
 20
-147.1786132444553
 10
108.790947780962
 20
-147.3055650130868
 10
108.790947780962
 20
-147.3055650130868
 10
108.9979980196255
 20
-147.3055650130868
 10
108.9979980196255
 20
-147.3055650130868
 10
109.0300374076383
 20
-147.212547434985
 10
109.0531195473895
 20
-147.1279703408221
 10
109.0765461966892
 20
-146.9989515148995
 10
109.0765461966892
 20
-146.9989515148995
 10
108.7103325466071
 20
-146.9989515148995
 10
108.7103325466071
 20
-146.9989515148995
 97
        0
 97
        1
330
8F
 92
        1
 93
        1
 72
     4
 94
        3
 73
     0
 74
     0
 95
      242
 96
      238
 40
0.0
 40
0.0
 40
0.0
 40
0.0
 40
1.0
 40
1.0
 40
1.0
 40
2.0
 40
2.0
 40
2.0
 40
3.0
 40
3.0
 40
3.0
 40
4.0
 40
4.0
 40
4.0
 40
5.0
 40
5.0
 40
5.0
 40
6.0
 40
6.0
 40
6.0
 40
7.0
 40
7.0
 40
7.0
 40
8.0
 40
8.0
 40
8.0
 40
9.0
 40
9.0
 40
9.0
 40
10.0
 40
10.0
 40
10.0
 40
11.0
 40
11.0
 40
11.0
 40
12.0
 40
12.0
 40
12.0
 40
13.0
 40
13.0
 40
13.0
 40
14.0
 40
14.0
 40
14.0
 40
15.0
 40
15.0
 40
15.0
 40
16.0
 40
16.0
 40
16.0
 40
17.0
 40
17.0
 40
17.0
 40
18.0
 40
18.0
 40
18.0
 40
19.0
 40
19.0
 40
19.0
 40
20.0
 40
20.0
 40
20.0
 40
21.0
 40
21.0
 40
21.0
 40
22.0
 40
22.0
 40
22.0
 40
23.0
 40
23.0
 40
23.0
 40
24.0
 40
24.0
 40
24.0
 40
25.0
 40
25.0
 40
25.0
 40
26.0
 40
26.0
 40
26.0
 40
27.0
 40
27.0
 40
27.0
 40
28.0
 40
28.0
 40
28.0
 40
29.0
 40
29.0
 40
29.0
 40
30.0
 40
30.0
 40
30.0
 40
31.0
 40
31.0
 40
31.0
 40
32.0
 40
32.0
 40
32.0
 40
33.0
 40
33.0
 40
33.0
 40
34.0
 40
34.0
 40
34.0
 40
35.0
 40
35.0
 40
35.0
 40
36.0
 40
36.0
 40
36.0
 40
37.0
 40
37.0
 40
37.0
 40
38.0
 40
38.0
 40
38.0
 40
39.0
 40
39.0
 40
39.0
 40
40.0
 40
40.0
 40
40.0
 40
41.0
 40
41.0
 40
41.0
 40
42.0
 40
42.0
 40
42.0
 40
43.0
 40
43.0
 40
43.0
 40
44.0
 40
44.0
 40
44.0
 40
45.0
 40
45.0
 40
45.0
 40
46.0
 40
46.0
 40
46.0
 40
47.0
 40
47.0
 40
47.0
 40
48.0
 40
48.0
 40
48.0
 40
49.0
 40
49.0
 40
49.0
 40
50.0
 40
50.0
 40
50.0
 40
51.0
 40
51.0
 40
51.0
 40
52.0
 40
52.0
 40
52.0
 40
53.0
 40
53.0
 40
53.0
 40
54.0
 40
54.0
 40
54.0
 40
55.0
 40
55.0
 40
55.0
 40
56.0
 40
56.0
 40
56.0
 40
57.0
 40
57.0
 40
57.0
 40
58.0
 40
58.0
 40
58.0
 40
59.0
 40
59.0
 40
59.0
 40
60.0
 40
60.0
 40
60.0
 40
61.0
 40
61.0
 40
61.0
 40
62.0
 40
62.0
 40
62.0
 40
63.0
 40
63.0
 40
63.0
 40
64.0
 40
64.0
 40
64.0
 40
65.0
 40
65.0
 40
65.0
 40
66.0
 40
66.0
 40
66.0
 40
67.0
 40
67.0
 40
67.0
 40
68.0
 40
68.0
 40
68.0
 40
69.0
 40
69.0
 40
69.0
 40
70.0
 40
70.0
 40
70.0
 40
71.0
 40
71.0
 40
71.0
 40
72.0
 40
72.0
 40
72.0
 40
73.0
 40
73.0
 40
73.0
 40
74.0
 40
74.0
 40
74.0
 40
75.0
 40
75.0
 40
75.0
 40
76.0
 40
76.0
 40
76.0
 40
77.0
 40
77.0
 40
77.0
 40
78.0
 40
78.0
 40
78.0
 40
79.0
 40
79.0
 40
79.0
 40
79.0
 10
109.3387179631167
 20
-147.4642116601826
 10
109.3387179631167
 20
-147.4642116601826
 10
109.0848144258538
 20
-147.4642116601826
 10
109.0848144258538
 20
-147.4642116601826
 10
109.0848144258538
 20
-147.4642116601826
 10
108.8078287488397
 20
-147.4642116601826
 10
108.8078287488397
 20
-147.4642116601826
 10
108.8078287488397
 20
-147.4642116601826
 10
108.9346082626969
 20
-147.5065863346511
 10
108.9346082626969
 20
-147.5065863346511
 10
108.9452880587012
 20
-147.5108927040077
 10
108.9580349119966
 20
-147.5170938758811
 10
108.9580349119966
 20
-147.5298407291766
 10
108.9580349119966
 20
-147.5510280664108
 10
108.9263400335323
 20
-147.5574014930585
 10
108.9049804415237
 20
-147.5615356076408
 10
108.894645155068
 20
-147.5847900021663
 10
108.8650173338948
 20
-147.6504190711603
 10
108.8457247991774
 20
-147.69486080292
 10
108.8457247991774
 20
-147.69486080292
 10
109.1165093043181
 20
-147.69486080292
 10
109.1165093043181
 20
-147.69486080292
 10
109.2074598251287
 20
-147.69486080292
 10
109.4041747773364
 20
-147.6905544335634
 10
109.5461127113287
 20
-147.6821139496246
 10
109.5461127113287
 20
-147.6821139496246
 10
109.5461127113287
 20
-147.8598808766635
 10
109.5461127113287
 20
-147.8598808766635
 10
109.4634304196827
 20
-147.8555745073069
 10
109.4424153372227
 20
-147.8555745073069
 10
109.2625813528927
 20
-147.8514403927246
 10
109.2308864744284
 20
-148.0057806704638
 10
109.1864447426686
 20
-148.0862236500444
 10
109.1420030109089
 20
-148.1559868336207
 10
109.2625813528927
 20
-148.215242475967
 10
109.3683457842898
 20
-148.2829386022522
 10
109.4720431583958
 20
-148.3654486391239
 10
109.4720431583958
 20
-148.3654486391239
 10
109.3535318737033
 20
-148.5325357701585
 10
109.3535318737033
 20
-148.5325357701585
 10
109.3304497339521
 20
-148.5135877449897
 10
109.3177028806567
 20
-148.5051472610508
 10
109.2053927678375
 20
-148.4203979121136
 10
109.1568169214955
 20
-148.3823296070016
 10
109.0975612791492
 20
-148.346500613955
 10
109.0172905543429
 20
-148.3020588821953
 10
108.8057616915485
 20
-148.488266293173
 10
108.6004340006276
 20
-148.5115206876985
 10
108.3107014703181
 20
-148.5411485088716
 10
108.3107014703181
 20
-148.5411485088716
 10
108.2070040962121
 20
-148.3613145245416
 10
108.2070040962121
 20
-148.3613145245416
 10
108.5242973904036
 20
-148.357008155185
 10
108.6999972601514
 20
-148.3316867033684
 10
108.8522704805994
 20
-148.2216159026147
 10
108.7337591959068
 20
-148.1708007442073
 10
108.6448757323874
 20
-148.1434122350995
 10
108.6090467393408
 20
-148.1306653818041
 10
108.5897542046234
 20
-148.1582261456861
 10
108.5749402940368
 20
-148.177174170855
 10
108.5473795301548
 20
-148.2111083613847
 10
108.5473795301548
 20
-148.2111083613847
 10
108.350664577947
 20
-148.128598324513
 10
108.350664577947
 20
-148.128598324513
 10
108.433346869593
 20
-148.0481553449324
 10
108.4946695692305
 20
-147.9528984547652
 10
108.5518581542856
 20
-147.8514403927246
 10
108.3613443739513
 20
-147.8555745073069
 10
108.3403292914913
 20
-147.8555745073069
 10
108.2576469998453
 20
-147.8598808766635
 10
108.2576469998453
 20
-147.8598808766635
 10
108.2576469998453
 20
-147.6821139496246
 10
108.2576469998453
 20
-147.6821139496246
 10
108.3971733669979
 20
-147.6884873762723
 10
108.6066351725011
 20
-147.6927937456289
 10
108.6321288790919
 20
-147.6927937456289
 10
108.6490098469697
 20
-147.6588595550992
 10
108.7041313747337
 20
-147.5382812131154
 10
108.7230793999026
 20
-147.4642116601826
 10
108.7041313747337
 20
-147.4642116601826
 10
108.5263644476948
 20
-147.4705850868303
 10
108.3317165527782
 20
-147.4833319401257
 10
108.3317165527782
 20
-147.4833319401257
 10
108.3317165527782
 20
-147.6166571354048
 10
108.3317165527782
 20
-147.6166571354048
 10
108.2831407064361
 20
-147.6419785872214
 10
108.2238850640898
 20
-147.6736734656857
 10
108.0905598688107
 20
-147.7393025346797
 10
108.0905598688107
 20
-147.7393025346797
 10
108.0905598688107
 20
-147.8852023284801
 10
108.0905598688107
 20
-147.8852023284801
 10
108.0905598688107
 20
-147.8852023284801
 10
108.0905598688107
 20
-148.3528740406027
 10
108.0905598688107
 20
-148.3528740406027
 10
108.0905598688107
 20
-148.4796535544599
 10
108.0547308757641
 20
-148.5389091968062
 10
107.771199517328
 20
-148.5304687128674
 10
107.771199517328
 20
-148.5304687128674
 10
107.667502143222
 20
-148.3232462194296
 10
107.667502143222
 20
-148.3232462194296
 10
107.7308919001506
 20
-148.3358208179508
 10
107.7794677464926
 20
-148.3401271873073
 10
107.81977536367
 20
-148.3401271873073
 10
107.8959119738941
 20
-148.3401271873073
 10
107.9065917698983
 20
-148.3168727927819
 10
107.9065917698983
 20
-148.2512437237879
 10
107.9065917698983
 20
-148.2512437237879
 10
107.9065917698983
 20
-147.8218125715515
 10
107.9065917698983
 20
-147.8218125715515
 10
107.8090955676658
 20
-147.8619479339546
 10
107.792214599788
 20
-147.8683213606023
 10
107.7457058107372
 20
-147.8874416405455
 10
107.7415716961549
 20
-147.9084567230055
 10
107.7374375815726
 20
-147.9380845441786
 10
107.7181450468552
 20
-147.9380845441786
 10
107.7098768176906
 20
-147.9380845441786
 10
107.6991970216863
 20
-147.9339504295964
 10
107.6929958498128
 20
-147.9106960350709
 10
107.6929958498128
 20
-147.9106960350709
 10
107.63994137934
 20
-147.7181151974455
 10
107.63994137934
 20
-147.7181151974455
 10
107.7860134279146
 20
-147.6716064083946
 10
107.8514702421343
 20
-147.6483520138691
 10
107.9065917698983
 20
-147.6271646766349
 10
107.9065917698983
 20
-147.6271646766349
 10
107.9065917698983
 20
-147.2146144922762
 10
107.9065917698983
 20
-147.2146144922762
 10
107.9065917698983
 20
-147.2146144922762
 10
107.8535372994255
 20
-147.2146144922762
 10
107.8535372994255
 20
-147.2146144922762
 10
107.8535372994255
 20
-147.2146144922762
 10
107.7753336319103
 20
-147.2146144922762
 10
107.7753336319103
 20
-147.2146144922762
 10
107.7078097603994
 20
-147.2146144922762
 10
107.6991970216863
 20
-147.2146144922762
 10
107.6633680286397
 20
-147.2209879189239
 10
107.6633680286397
 20
-147.2209879189239
 10
107.6633680286397
 20
-147.0263400240073
 10
107.6633680286397
 20
-147.0263400240073
 10
107.6909287925217
 20
-147.032713450655
 10
107.6991970216863
 20
-147.032713450655
 10
107.7691324600369
 20
-147.032713450655
 10
107.7691324600369
 20
-147.032713450655
 10
107.902457655316
 20
-147.032713450655
 10
107.902457655316
 20
-147.032713450655
 10
107.902457655316
 20
-146.9629502670787
 10
107.902457655316
 20
-146.8804402302069
 10
107.9000460884764
 20
-146.8761338608504
 10
107.8917778593118
 20
-146.6962998765204
 10
107.8917778593118
 20
-146.6773518513515
 10
107.8897108020206
 20
-146.6308430623006
 10
107.8897108020206
 20
-146.6308430623006
 10
108.1053737793972
 20
-146.6392835462395
 10
108.1053737793972
 20
-146.6392835462395
 10
108.1160535754015
 20
-146.6392835462395
 10
108.1370686578615
 20
-146.6413506035306
 10
108.1370686578615
 20
-146.6582315714084
 10
108.1370686578615
 20
-146.6773518513515
 10
108.122254747275
 20
-146.6878593925815
 10
108.0971055502326
 20
-146.7069796725246
 10
108.0971055502326
 20
-146.7576225761578
 10
108.0905598688107
 20
-146.9862046616041
 10
108.0926269261018
 20
-147.032713450655
 10
108.2218180067987
 20
-147.032713450655
 10
108.2345648600941
 20
-147.032713450655
 10
108.3317165527782
 20
-147.0242729667161
 10
108.3317165527782
 20
-147.0242729667161
 10
108.3317165527782
 20
-147.2189208616327
 10
108.3317165527782
 20
-147.2189208616327
 10
108.2938205024404
 20
-147.2166815495674
 10
108.225952121381
 20
-147.212547434985
 10
108.0905598688107
 20
-147.2146144922762
 10
108.0905598688107
 20
-147.2146144922762
 10
108.0905598688107
 20
-147.553095123702
 10
108.0905598688107
 20
-147.553095123702
 10
108.1456813965747
 20
-147.5298407291766
 10
108.2111382107944
 20
-147.5022799652945
 10
108.2597140571364
 20
-147.4790255707691
 10
108.2597140571364
 20
-147.4790255707691
 10
108.2597140571364
 20
-147.3014308985045
 10
108.2597140571364
 20
-147.3014308985045
 10
108.3740912272467
 20
-147.3140054970256
 10
108.4926025119393
 20
-147.3140054970256
 10
108.6090467393408
 20
-147.3140054970256
 10
108.5856200900411
 20
-147.2189208616327
 10
108.5580593261591
 20
-147.136410824761
 10
108.4946695692305
 20
-147.0030856294819
 10
108.4502278374708
 20
-147.005152686773
 10
108.3678900553733
 20
-147.0094590561296
 10
108.329649495487
 20
-147.0115261134207
 10
108.329649495487
 20
-147.0115261134207
 10
108.329649495487
 20
-146.8316921290907
 10
108.329649495487
 20
-146.8316921290907
 10
108.454361952053
 20
-146.8401326130295
 10
108.6279947645097
 20
-146.8444389823861
 10
108.7103325466071
 20
-146.8444389823861
 10
108.7103325466071
 20
-146.8444389823861
 10
108.7930148382531
 20
-146.8444389823861
 10
108.7930148382531
 20
-146.8444389823861
 10
108.7930148382531
 20
-146.6814859659338
 10
108.7930148382531
 20
-146.6709784247037
 10
108.790947780962
 20
-146.616029151714
 10
108.790947780962
 20
-146.616029151714
 10
109.0152234970517
 20
-146.6413506035306
 10
109.0152234970517
 20
-146.6413506035306
 10
109.019357611634
 20
-146.6413506035306
 10
109.0403726940941
 20
-146.6434176608218
 10
109.0403726940941
 20
-146.6602986286995
 10
109.0403726940941
 20
-146.6751125392861
 10
109.0300374076383
 20
-146.6837252779992
 10
109.0024766437563
 20
-146.6985391885858
 10
108.9959309623343
 20
-146.7639960028055
 10
108.9938639050432
 20
-146.7851833400398
 10
108.9938639050432
 20
-146.8444389823861
 10
108.9938639050432
 20
-146.8444389823861
 10
109.0889485404361
 20
-146.8444389823861
 10
109.0889485404361
 20
-146.8444389823861
 10
109.1716308320821
 20
-146.8444389823861
 10
109.3449191349901
 20
-146.8401326130295
 10
109.4699761011047
 20
-146.8316921290907
 10
109.4699761011047
 20
-146.8316921290907
 10
109.4699761011047
 20
-147.0115261134207
 10
109.4699761011047
 20
-147.0115261134207
 10
109.4403482799316
 20
-147.0094590561296
 10
109.321836995239
 20
-147.005152686773
 10
109.2815293780615
 20
-147.0030856294819
 10
109.266715467475
 20
-147.0539007878893
 10
109.2329535317195
 20
-147.1660386459342
 10
109.1674967174998
 20
-147.3055650130868
 10
109.2095268824198
 20
-147.3055650130868
 10
109.4868570689824
 20
-147.2866169879179
 10
109.5481797686199
 20
-147.2843776758525
 10
109.5481797686199
 20
-147.2843776758525
 10
109.5481797686199
 20
-147.4685180295391
 10
109.5481797686199
 20
-147.4685180295391
 10
109.5185519474467
 20
-147.4685180295391
 10
109.501670979569
 20
-147.4642116601826
 10
109.3387179631167
 20
-147.4642116601826
 97
        0
 97
        1
330
90
 75
     2
 76
     1
 98
        1
 10
0.0
 20
0.0
450
        0
451
        0
460
0.0
461
0.0
452
        0
462
0.0
453
        0
470

  0
SPLINE
  5
92
330
8A
100
AcDbEntity
  8
レイヤー 1
100
AcDbSpline
210
0.0
220
0.0
230
1.0
 70
    11
 71
     3
 72
    17
 73
    13
 74
     0
 42
0.0000000001
 43
0.0000000001
 40
0.0
 40
0.0
 40
0.0
 40
0.0
 40
1.0
 40
1.0
 40
1.0
 40
2.0
 40
2.0
 40
2.0
 40
3.0
 40
3.0
 40
3.0
 40
4.0
 40
4.0
 40
4.0
 40
4.0
 10
111.1952799201178
 20
-148.2639905770833
 30
0.0
 10
111.1952799201178
 20
-148.2639905770833
 30
0.0
 10
110.4886908360931
 20
-148.2639905770833
 30
0.0
 10
110.4886908360931
 20
-148.2639905770833
 30
0.0
 10
110.4886908360931
 20
-148.2639905770833
 30
0.0
 10
110.4886908360931
 20
-148.3781954924193
 30
0.0
 10
110.4886908360931
 20
-148.3781954924193
 30
0.0
 10
110.4886908360931
 20
-148.3781954924193
 30
0.0
 10
111.1952799201178
 20
-148.3781954924193
 30
0.0
 10
111.1952799201178
 20
-148.3781954924193
 30
0.0
 10
111.1952799201178
 20
-148.3781954924193
 30
0.0
 10
111.1952799201178
 20
-148.2639905770833
 30
0.0
 10
111.1952799201178
 20
-148.2639905770833
 30
0.0
  0
SPLINE
  5
93
330
8A
100
AcDbEntity
  8
レイヤー 1
100
AcDbSpline
210
0.0
220
0.0
230
1.0
 70
    11
 71
     3
 72
    17
 73
    13
 74
     0
 42
0.0000000001
 43
0.0000000001
 40
0.0
 40
0.0
 40
0.0
 40
0.0
 40
1.0
 40
1.0
 40
1.0
 40
2.0
 40
2.0
 40
2.0
 40
3.0
 40
3.0
 40
3.0
 40
4.0
 40
4.0
 40
4.0
 40
4.0
 10
111.1952799201178
 20
-148.0205945810504
 30
0.0
 10
111.1952799201178
 20
-148.0205945810504
 30
0.0
 10
110.4886908360931
 20
-148.0205945810504
 30
0.0
 10
110.4886908360931
 20
-148.0205945810504
 30
0.0
 10
110.4886908360931
 20
-148.0205945810504
 30
0.0
 10
110.4886908360931
 20
-148.1349717511607
 30
0.0
 10
110.4886908360931
 20
-148.1349717511607
 30
0.0
 10
110.4886908360931
 20
-148.1349717511607
 30
0.0
 10
111.1952799201178
 20
-148.1349717511607
 30
0.0
 10
111.1952799201178
 20
-148.1349717511607
 30
0.0
 10
111.1952799201178
 20
-148.1349717511607
 30
0.0
 10
111.1952799201178
 20
-148.0205945810504
 30
0.0
 10
111.1952799201178
 20
-148.0205945810504
 30
0.0
  0
SPLINE
  5
94
330
8A
100
AcDbEntity
  8
レイヤー 1
100
AcDbSpline
210
0.0
220
0.0
230
1.0
 70
    11
 71
     3
 72
    17
 73
    13
 74
     0
 42
0.0000000001
 43
0.0000000001
 40
0.0
 40
0.0
 40
0.0
 40
0.0
 40
1.0
 40
1.0
 40
1.0
 40
2.0
 40
2.0
 40
2.0
 40
3.0
 40
3.0
 40
3.0
 40
4.0
 40
4.0
 40
4.0
 40
4.0
 10
111.1952799201178
 20
-147.7878783810218
 30
0.0
 10
111.1952799201178
 20
-147.7878783810218
 30
0.0
 10
110.4886908360931
 20
-147.7878783810218
 30
0.0
 10
110.4886908360931
 20
-147.7878783810218
 30
0.0
 10
110.4886908360931
 20
-147.7878783810218
 30
0.0
 10
110.4886908360931
 20
-147.8958821244843
 30
0.0
 10
110.4886908360931
 20
-147.8958821244843
 30
0.0
 10
110.4886908360931
 20
-147.8958821244843
 30
0.0
 10
111.1952799201178
 20
-147.8958821244843
 30
0.0
 10
111.1952799201178
 20
-147.8958821244843
 30
0.0
 10
111.1952799201178
 20
-147.8958821244843
 30
0.0
 10
111.1952799201178
 20
-147.7878783810218
 30
0.0
 10
111.1952799201178
 20
-147.7878783810218
 30
0.0
  0
SPLINE
  5
95
330
8A
100
AcDbEntity
  8
レイヤー 1
100
AcDbSpline
210
0.0
220
0.0
230
1.0
 70
     9
 71
     3
 72
   203
 73
   199
 74
     0
 42
0.0000000001
 43
0.0000000001
 40
0.0
 40
0.0
 40
0.0
 40
0.0
 40
1.0
 40
1.0
 40
1.0
 40
2.0
 40
2.0
 40
2.0
 40
3.0
 40
3.0
 40
3.0
 40
4.0
 40
4.0
 40
4.0
 40
5.0
 40
5.0
 40
5.0
 40
6.0
 40
6.0
 40
6.0
 40
7.0
 40
7.0
 40
7.0
 40
8.0
 40
8.0
 40
8.0
 40
9.0
 40
9.0
 40
9.0
 40
10.0
 40
10.0
 40
10.0
 40
11.0
 40
11.0
 40
11.0
 40
12.0
 40
12.0
 40
12.0
 40
13.0
 40
13.0
 40
13.0
 40
14.0
 40
14.0
 40
14.0
 40
15.0
 40
15.0
 40
15.0
 40
16.0
 40
16.0
 40
16.0
 40
17.0
 40
17.0
 40
17.0
 40
18.0
 40
18.0
 40
18.0
 40
19.0
 40
19.0
 40
19.0
 40
20.0
 40
20.0
 40
20.0
 40
21.0
 40
21.0
 40
21.0
 40
22.0
 40
22.0
 40
22.0
 40
23.0
 40
23.0
 40
23.0
 40
24.0
 40
24.0
 40
24.0
 40
25.0
 40
25.0
 40
25.0
 40
26.0
 40
26.0
 40
26.0
 40
27.0
 40
27.0
 40
27.0
 40
28.0
 40
28.0
 40
28.0
 40
29.0
 40
29.0
 40
29.0
 40
30.0
 40
30.0
 40
30.0
 40
31.0
 40
31.0
 40
31.0
 40
32.0
 40
32.0
 40
32.0
 40
33.0
 40
33.0
 40
33.0
 40
34.0
 40
34.0
 40
34.0
 40
35.0
 40
35.0
 40
35.0
 40
36.0
 40
36.0
 40
36.0
 40
37.0
 40
37.0
 40
37.0
 40
38.0
 40
38.0
 40
38.0
 40
39.0
 40
39.0
 40
39.0
 40
40.0
 40
40.0
 40
40.0
 40
41.0
 40
41.0
 40
41.0
 40
42.0
 40
42.0
 40
42.0
 40
43.0
 40
43.0
 40
43.0
 40
44.0
 40
44.0
 40
44.0
 40
45.0
 40
45.0
 40
45.0
 40
46.0
 40
46.0
 40
46.0
 40
47.0
 40
47.0
 40
47.0
 40
48.0
 40
48.0
 40
48.0
 40
49.0
 40
49.0
 40
49.0
 40
50.0
 40
50.0
 40
50.0
 40
51.0
 40
51.0
 40
51.0
 40
52.0
 40
52.0
 40
52.0
 40
53.0
 40
53.0
 40
53.0
 40
54.0
 40
54.0
 40
54.0
 40
55.0
 40
55.0
 40
55.0
 40
56.0
 40
56.0
 40
56.0
 40
57.0
 40
57.0
 40
57.0
 40
58.0
 40
58.0
 40
58.0
 40
59.0
 40
59.0
 40
59.0
 40
60.0
 40
60.0
 40
60.0
 40
61.0
 40
61.0
 40
61.0
 40
62.0
 40
62.0
 40
62.0
 40
63.0
 40
63.0
 40
63.0
 40
64.0
 40
64.0
 40
64.0
 40
65.0
 40
65.0
 40
65.0
 40
66.0
 40
66.0
 40
66.0
 40
66.0
 10
111.0302598463744
 20
-147.5319077864677
 30
0.0
 10
111.0302598463744
 20
-147.5319077864677
 30
0.0
 10
110.4718098682154
 20
-147.5319077864677
 30
0.0
 10
110.4718098682154
 20
-147.5319077864677
 30
0.0
 10
110.4611300722111
 20
-147.5763495182274
 30
0.0
 10
110.452517333498
 20
-147.6080443966917
 30
0.0
 10
110.4401149897511
 20
-147.646284956578
 30
0.0
 10
110.4652641867934
 20
-147.646284956578
 30
0.0
 10
110.48007809738
 20
-147.6483520138691
 30
0.0
 10
110.4866237788019
 20
-147.6483520138691
 30
0.0
 10
110.4866237788019
 20
-147.6483520138691
 30
0.0
 10
110.6747259922966
 20
-147.6483520138691
 30
0.0
 10
110.6747259922966
 20
-147.6483520138691
 30
0.0
 10
110.6747259922966
 20
-147.6483520138691
 30
0.0
 10
111.0492078715432
 20
-147.6483520138691
 30
0.0
 10
111.0492078715432
 20
-147.6483520138691
 30
0.0
 10
111.0998507751764
 20
-147.6483520138691
 30
0.0
 10
111.3833821336125
 20
-147.6356051605737
 30
0.0
 10
111.4150770120768
 20
-147.6356051605737
 30
0.0
 10
111.4130099547856
 20
-147.6631659244557
 30
0.0
 10
111.4109428974945
 20
-147.6821139496246
 30
0.0
 10
111.4109428974945
 20
-147.7117417707978
 30
0.0
 10
111.4088758402033
 20
-147.743436649262
 30
0.0
 10
111.4088758402033
 20
-147.8788289018323
 30
0.0
 10
111.4088758402033
 20
-147.9063896657144
 30
0.0
 10
111.4088758402033
 20
-147.9063896657144
 30
0.0
 10
111.4088758402033
 20
-148.1518527190384
 30
0.0
 10
111.4088758402033
 20
-148.1518527190384
 30
0.0
 10
111.4088758402033
 20
-148.1962944507981
 30
0.0
 10
111.4130099547856
 20
-148.3930094030059
 30
0.0
 10
111.4174885789164
 20
-148.5452826234539
 30
0.0
 10
111.4174885789164
 20
-148.5452826234539
 30
0.0
 10
111.190801295987
 20
-148.5452826234539
 30
0.0
 10
111.190801295987
 20
-148.5452826234539
 30
0.0
 10
111.190801295987
 20
-148.5452826234539
 30
0.0
 10
111.1932128628267
 20
-148.5115206876985
 30
0.0
 10
111.1932128628267
 20
-148.5115206876985
 30
0.0
 10
111.1932128628267
 20
-148.5115206876985
 30
0.0
 10
110.4907578933842
 20
-148.5115206876985
 30
0.0
 10
110.4907578933842
 20
-148.5115206876985
 30
0.0
 10
110.4907578933842
 20
-148.5115206876985
 30
0.0
 10
110.4928249506754
 20
-148.5452826234539
 30
0.0
 10
110.4928249506754
 20
-148.5452826234539
 30
0.0
 10
110.4928249506754
 20
-148.5452826234539
 30
0.0
 10
110.2750949160076
 20
-148.5452826234539
 30
0.0
 10
110.2750949160076
 20
-148.5452826234539
 30
0.0
 10
110.2792290305899
 20
-148.4903333504642
 30
0.0
 10
110.2792290305899
 20
-148.4775864971688
 30
0.0
 10
110.2854302024633
 20
-148.3633815818327
 30
0.0
 10
110.2874972597545
 20
-148.3358208179508
 30
0.0
 10
110.2899088265942
 20
-148.2026678774458
 30
0.0
 10
110.2899088265942
 20
-148.1835475975027
 30
0.0
 10
110.2899088265942
 20
-148.1835475975027
 30
0.0
 10
110.2899088265942
 20
-147.9804592186472
 30
0.0
 10
110.2899088265942
 20
-147.9804592186472
 30
0.0
 10
110.150037949893
 20
-148.2300563865536
 30
0.0
 10
109.9808837615673
 20
-148.3613145245416
 30
0.0
 10
109.8751193301701
 20
-148.4267713387613
 30
0.0
 10
109.8751193301701
 20
-148.4267713387613
 30
0.0
 10
109.7014865177135
 20
-148.2872449716087
 30
0.0
 10
109.7014865177135
 20
-148.2872449716087
 30
0.0
 10
109.7903699812329
 20
-148.2364298132013
 30
0.0
 10
109.9343749725164
 20
-148.149613406973
 30
0.0
 10
110.0718342823779
 20
-147.9551377668306
 30
0.0
 10
110.1627848031885
 20
-147.8281859981992
 30
0.0
 10
110.2285861269567
 20
-147.68435326169
 30
0.0
 10
110.2623480627122
 20
-147.5319077864677
 30
0.0
 10
110.0339382320401
 20
-147.5341470985331
 30
0.0
 10
109.8541042477101
 20
-147.5405205251808
 30
0.0
 10
109.7586751027686
 20
-147.542587582472
 30
0.0
 10
109.7586751027686
 20
-147.542587582472
 30
0.0
 10
109.7586751027686
 20
-147.3648206554331
 30
0.0
 10
109.7586751027686
 20
-147.3648206554331
 30
0.0
 10
109.9553900549764
 20
-147.3711940820808
 30
0.0
 10
110.2389214134125
 20
-147.3755004514373
 30
0.0
 10
110.3891275765694
 20
-147.3755004514373
 30
0.0
 10
110.3891275765694
 20
-147.3755004514373
 30
0.0
 10
110.6027234966548
 20
-147.3755004514373
 30
0.0
 10
110.6027234966548
 20
-147.3755004514373
 30
0.0
 10
110.6027234966548
 20
-147.3755004514373
 30
0.0
 10
110.6027234966548
 20
-147.2674967079748
 30
0.0
 10
110.6027234966548
 20
-147.2674967079748
 30
0.0
 10
110.6027234966548
 20
-147.2674967079748
 30
0.0
 10
110.4569959576288
 20
-147.2674967079748
 30
0.0
 10
110.4569959576288
 20
-147.2674967079748
 30
0.0
 10
110.2874972597545
 20
-147.2674967079748
 30
0.0
 10
110.1183430714287
 20
-147.2718030773313
 30
0.0
 10
109.9512559403941
 20
-147.278176503979
 30
0.0
 10
109.9512559403941
 20
-147.278176503979
 30
0.0
 10
109.9512559403941
 20
-147.1067830035879
 30
0.0
 10
109.9512559403941
 20
-147.1067830035879
 30
0.0
 10
110.1055962181333
 20
-147.1172905448179
 30
0.0
 10
110.2919758838853
 20
-147.1172905448179
 30
0.0
 10
110.4569959576288
 20
-147.1172905448179
 30
0.0
 10
110.4569959576288
 20
-147.1172905448179
 30
0.0
 10
110.6027234966548
 20
-147.1172905448179
 30
0.0
 10
110.6027234966548
 20
-147.1172905448179
 30
0.0
 10
110.6027234966548
 20
-147.1172905448179
 30
0.0
 10
110.6027234966548
 20
-146.9989515148995
 30
0.0
 10
110.6027234966548
 20
-146.9989515148995
 30
0.0
 10
110.6027234966548
 20
-146.9989515148995
 30
0.0
 10
110.4718098682154
 20
-146.9989515148995
 30
0.0
 10
110.4718098682154
 20
-146.9989515148995
 30
0.0
 10
110.4253010791645
 20
-146.9989515148995
 30
0.0
 10
110.2220404455348
 20
-147.0073919988384
 30
0.0
 10
110.1796657710662
 20
-147.0073919988384
 30
0.0
 10
109.976749646985
 20
-147.0115261134207
 30
0.0
 10
109.9006130367609
 20
-147.0135931707119
 30
0.0
 10
109.8224093692458
 20
-147.0158324827773
 30
0.0
 10
109.8224093692458
 20
-147.0158324827773
 30
0.0
 10
109.8224093692458
 20
-146.8316921290907
 30
0.0
 10
109.8224093692458
 20
-146.8316921290907
 30
0.0
 10
109.9364420298075
 20
-146.8401326130295
 30
0.0
 10
109.9808837615673
 20
-146.8401326130295
 30
0.0
 10
110.363978379527
 20
-146.8487453517426
 30
0.0
 10
110.3002441130499
 20
-146.7534884615755
 30
0.0
 10
110.2726833491679
 20
-146.7259276976935
 30
0.0
 10
110.2368543561213
 20
-146.6899264498726
 30
0.0
 10
110.2368543561213
 20
-146.6899264498726
 30
0.0
 10
110.4125542258691
 20
-146.6074164130009
 30
0.0
 10
110.4125542258691
 20
-146.6074164130009
 30
0.0
 10
110.452517333498
 20
-146.6434176608218
 30
0.0
 10
110.4969590652577
 20
-146.6857923352903
 30
0.0
 10
110.5710286181906
 20
-146.7956908812698
 30
0.0
 10
110.5710286181906
 20
-146.7956908812698
 30
0.0
 10
110.4569959576288
 20
-146.8508124090338
 30
0.0
 10
110.4569959576288
 20
-146.8508124090338
 30
0.0
 10
110.4569959576288
 20
-146.8508124090338
 30
0.0
 10
110.4673312440845
 20
-146.8508124090338
 30
0.0
 10
110.4673312440845
 20
-146.8508124090338
 30
0.0
 10
110.4673312440845
 20
-146.8508124090338
 30
0.0
 10
110.9899522291969
 20
-146.8508124090338
 30
0.0
 10
110.9899522291969
 20
-146.8508124090338
 30
0.0
 10
110.9899522291969
 20
-146.8508124090338
 30
0.0
 10
110.894867593804
 20
-146.8063706772741
 30
0.0
 10
110.894867593804
 20
-146.8063706772741
 30
0.0
 10
110.922428357686
 20
-146.7683023721621
 30
0.0
 10
110.9792724331927
 20
-146.6878593925815
 30
0.0
 10
110.9940863437792
 20
-146.6137898396486
 30
0.0
 10
110.9940863437792
 20
-146.6137898396486
 30
0.0
 10
111.2080267734133
 20
-146.6773518513515
 30
0.0
 10
111.2080267734133
 20
-146.6773518513515
 30
0.0
 10
111.2162950025779
 20
-146.6794189086426
 30
0.0
 10
111.2376545945864
 20
-146.6899264498726
 30
0.0
 10
111.2376545945864
 20
-146.7111137871069
 30
0.0
 10
111.2376545945864
 20
-146.7491820922189
 30
0.0
 10
111.1718532708181
 20
-146.7491820922189
 30
0.0
 10
111.1529052456493
 20
-146.7491820922189
 30
0.0
 10
111.142225449645
 20
-146.7683023721621
 30
0.0
 10
111.1191433098938
 20
-146.8084377345652
 30
0.0
 10
111.0895154887207
 20
-146.8487453517426
 30
0.0
 10
111.4891465650096
 20
-146.8423719250949
 30
0.0
 10
111.5187743861828
 20
-146.8401326130295
 30
0.0
 10
111.5949109964068
 20
-146.8339314411561
 30
0.0
 10
111.5949109964068
 20
-146.8339314411561
 30
0.0
 10
111.5949109964068
 20
-147.0158324827773
 30
0.0
 10
111.5949109964068
 20
-147.0158324827773
 30
0.0
 10
111.5759629712379
 20
-147.0158324827773
 30
0.0
 10
111.5504692646471
 20
-147.0135931707119
 30
0.0
 10
111.3306721726881
 20
-147.005152686773
 30
0.0
 10
111.2796847595064
 20
-147.0030856294819
 30
0.0
 10
111.0598876675475
 20
-146.9989515148995
 30
0.0
 10
111.0154459357878
 20
-146.9989515148995
 30
0.0
 10
111.0154459357878
 20
-146.9989515148995
 30
0.0
 10
110.7994384488626
 20
-146.9989515148995
 30
0.0
 10
110.7994384488626
 20
-146.9989515148995
 30
0.0
 10
110.7994384488626
 20
-146.9989515148995
 30
0.0
 10
110.7994384488626
 20
-147.1172905448179
 30
0.0
 10
110.7994384488626
 20
-147.1172905448179
 30
0.0
 10
110.7994384488626
 20
-147.1172905448179
 30
0.0
 10
110.9730712613192
 20
-147.1172905448179
 30
0.0
 10
110.9730712613192
 20
-147.1172905448179
 30
0.0
 10
111.1360242777715
 20
-147.1172905448179
 30
0.0
 10
111.3261935485573
 20
-147.1172905448179
 30
0.0
 10
111.4829453931362
 20
-147.1067830035879
 30
0.0
 10
111.4829453931362
 20
-147.1067830035879
 30
0.0
 10
111.4829453931362
 20
-147.278176503979
 30
0.0
 10
111.4829453931362
 20
-147.278176503979
 30
0.0
 10
111.273483587633
 20
-147.2697360200402
 30
0.0
 10
111.0767686354252
 20
-147.2674967079748
 30
0.0
 10
110.9730712613192
 20
-147.2674967079748
 30
0.0
 10
110.9730712613192
 20
-147.2674967079748
 30
0.0
 10
110.7994384488626
 20
-147.2674967079748
 30
0.0
 10
110.7994384488626
 20
-147.2674967079748
 30
0.0
 10
110.7994384488626
 20
-147.2674967079748
 30
0.0
 10
110.7994384488626
 20
-147.3755004514373
 30
0.0
 10
110.7994384488626
 20
-147.3755004514373
 30
0.0
 10
110.7994384488626
 20
-147.3755004514373
 30
0.0
 10
111.0302598463744
 20
-147.3755004514373
 30
0.0
 10
111.0302598463744
 20
-147.3755004514373
 30
0.0
 10
111.1635850416535
 20
-147.3755004514373
 30
0.0
 10
111.4512505146719
 20
-147.3711940820808
 30
0.0
 10
111.6607123201751
 20
-147.3648206554331
 30
0.0
 10
111.6607123201751
 20
-147.3648206554331
 30
0.0
 10
111.6607123201751
 20
-147.542587582472
 30
0.0
 10
111.6607123201751
 20
-147.542587582472
 30
0.0
 10
111.4681314825496
 20
-147.5362141558243
 30
0.0
 10
111.1549723029404
 20
-147.5319077864677
 30
0.0
 10
111.0302598463744
 20
-147.5319077864677
 30
0.0
  0
HATCH
  5
96
330
8A
100
AcDbEntity
  8
レイヤー 1
 62
    18
420
        0
440
 33554687
100
AcDbHatch
 10
0.0
 20
0.0
 30
0.0
210
0.0
220
0.0
230
1.0
  2
SOLID
 70
     1
 71
     1
 91
        4
 92
        1
 93
        1
 72
     4
 94
        3
 73
     0
 74
     0
 95
       17
 96
       13
 40
0.0
 40
0.0
 40
0.0
 40
0.0
 40
1.0
 40
1.0
 40
1.0
 40
2.0
 40
2.0
 40
2.0
 40
3.0
 40
3.0
 40
3.0
 40
4.0
 40
4.0
 40
4.0
 40
4.0
 10
111.1952799201178
 20
-148.2639905770833
 10
111.1952799201178
 20
-148.2639905770833
 10
110.4886908360931
 20
-148.2639905770833
 10
110.4886908360931
 20
-148.2639905770833
 10
110.4886908360931
 20
-148.2639905770833
 10
110.4886908360931
 20
-148.3781954924193
 10
110.4886908360931
 20
-148.3781954924193
 10
110.4886908360931
 20
-148.3781954924193
 10
111.1952799201178
 20
-148.3781954924193
 10
111.1952799201178
 20
-148.3781954924193
 10
111.1952799201178
 20
-148.3781954924193
 10
111.1952799201178
 20
-148.2639905770833
 10
111.1952799201178
 20
-148.2639905770833
 97
        0
 97
        1
330
92
 92
        1
 93
        1
 72
     4
 94
        3
 73
     0
 74
     0
 95
       17
 96
       13
 40
0.0
 40
0.0
 40
0.0
 40
0.0
 40
1.0
 40
1.0
 40
1.0
 40
2.0
 40
2.0
 40
2.0
 40
3.0
 40
3.0
 40
3.0
 40
4.0
 40
4.0
 40
4.0
 40
4.0
 10
111.1952799201178
 20
-148.0205945810504
 10
111.1952799201178
 20
-148.0205945810504
 10
110.4886908360931
 20
-148.0205945810504
 10
110.4886908360931
 20
-148.0205945810504
 10
110.4886908360931
 20
-148.0205945810504
 10
110.4886908360931
 20
-148.1349717511607
 10
110.4886908360931
 20
-148.1349717511607
 10
110.4886908360931
 20
-148.1349717511607
 10
111.1952799201178
 20
-148.1349717511607
 10
111.1952799201178
 20
-148.1349717511607
 10
111.1952799201178
 20
-148.1349717511607
 10
111.1952799201178
 20
-148.0205945810504
 10
111.1952799201178
 20
-148.0205945810504
 97
        0
 97
        1
330
93
 92
        1
 93
        1
 72
     4
 94
        3
 73
     0
 74
     0
 95
       17
 96
       13
 40
0.0
 40
0.0
 40
0.0
 40
0.0
 40
1.0
 40
1.0
 40
1.0
 40
2.0
 40
2.0
 40
2.0
 40
3.0
 40
3.0
 40
3.0
 40
4.0
 40
4.0
 40
4.0
 40
4.0
 10
111.1952799201178
 20
-147.7878783810218
 10
111.1952799201178
 20
-147.7878783810218
 10
110.4886908360931
 20
-147.7878783810218
 10
110.4886908360931
 20
-147.7878783810218
 10
110.4886908360931
 20
-147.7878783810218
 10
110.4886908360931
 20
-147.8958821244843
 10
110.4886908360931
 20
-147.8958821244843
 10
110.4886908360931
 20
-147.8958821244843
 10
111.1952799201178
 20
-147.8958821244843
 10
111.1952799201178
 20
-147.8958821244843
 10
111.1952799201178
 20
-147.8958821244843
 10
111.1952799201178
 20
-147.7878783810218
 10
111.1952799201178
 20
-147.7878783810218
 97
        0
 97
        1
330
94
 92
        1
 93
        1
 72
     4
 94
        3
 73
     0
 74
     0
 95
      203
 96
      199
 40
0.0
 40
0.0
 40
0.0
 40
0.0
 40
1.0
 40
1.0
 40
1.0
 40
2.0
 40
2.0
 40
2.0
 40
3.0
 40
3.0
 40
3.0
 40
4.0
 40
4.0
 40
4.0
 40
5.0
 40
5.0
 40
5.0
 40
6.0
 40
6.0
 40
6.0
 40
7.0
 40
7.0
 40
7.0
 40
8.0
 40
8.0
 40
8.0
 40
9.0
 40
9.0
 40
9.0
 40
10.0
 40
10.0
 40
10.0
 40
11.0
 40
11.0
 40
11.0
 40
12.0
 40
12.0
 40
12.0
 40
13.0
 40
13.0
 40
13.0
 40
14.0
 40
14.0
 40
14.0
 40
15.0
 40
15.0
 40
15.0
 40
16.0
 40
16.0
 40
16.0
 40
17.0
 40
17.0
 40
17.0
 40
18.0
 40
18.0
 40
18.0
 40
19.0
 40
19.0
 40
19.0
 40
20.0
 40
20.0
 40
20.0
 40
21.0
 40
21.0
 40
21.0
 40
22.0
 40
22.0
 40
22.0
 40
23.0
 40
23.0
 40
23.0
 40
24.0
 40
24.0
 40
24.0
 40
25.0
 40
25.0
 40
25.0
 40
26.0
 40
26.0
 40
26.0
 40
27.0
 40
27.0
 40
27.0
 40
28.0
 40
28.0
 40
28.0
 40
29.0
 40
29.0
 40
29.0
 40
30.0
 40
30.0
 40
30.0
 40
31.0
 40
31.0
 40
31.0
 40
32.0
 40
32.0
 40
32.0
 40
33.0
 40
33.0
 40
33.0
 40
34.0
 40
34.0
 40
34.0
 40
35.0
 40
35.0
 40
35.0
 40
36.0
 40
36.0
 40
36.0
 40
37.0
 40
37.0
 40
37.0
 40
38.0
 40
38.0
 40
38.0
 40
39.0
 40
39.0
 40
39.0
 40
40.0
 40
40.0
 40
40.0
 40
41.0
 40
41.0
 40
41.0
 40
42.0
 40
42.0
 40
42.0
 40
43.0
 40
43.0
 40
43.0
 40
44.0
 40
44.0
 40
44.0
 40
45.0
 40
45.0
 40
45.0
 40
46.0
 40
46.0
 40
46.0
 40
47.0
 40
47.0
 40
47.0
 40
48.0
 40
48.0
 40
48.0
 40
49.0
 40
49.0
 40
49.0
 40
50.0
 40
50.0
 40
50.0
 40
51.0
 40
51.0
 40
51.0
 40
52.0
 40
52.0
 40
52.0
 40
53.0
 40
53.0
 40
53.0
 40
54.0
 40
54.0
 40
54.0
 40
55.0
 40
55.0
 40
55.0
 40
56.0
 40
56.0
 40
56.0
 40
57.0
 40
57.0
 40
57.0
 40
58.0
 40
58.0
 40
58.0
 40
59.0
 40
59.0
 40
59.0
 40
60.0
 40
60.0
 40
60.0
 40
61.0
 40
61.0
 40
61.0
 40
62.0
 40
62.0
 40
62.0
 40
63.0
 40
63.0
 40
63.0
 40
64.0
 40
64.0
 40
64.0
 40
65.0
 40
65.0
 40
65.0
 40
66.0
 40
66.0
 40
66.0
 40
66.0
 10
111.0302598463744
 20
-147.5319077864677
 10
111.0302598463744
 20
-147.5319077864677
 10
110.4718098682154
 20
-147.5319077864677
 10
110.4718098682154
 20
-147.5319077864677
 10
110.4611300722111
 20
-147.5763495182274
 10
110.452517333498
 20
-147.6080443966917
 10
110.4401149897511
 20
-147.646284956578
 10
110.4652641867934
 20
-147.646284956578
 10
110.48007809738
 20
-147.6483520138691
 10
110.4866237788019
 20
-147.6483520138691
 10
110.4866237788019
 20
-147.6483520138691
 10
110.6747259922966
 20
-147.6483520138691
 10
110.6747259922966
 20
-147.6483520138691
 10
110.6747259922966
 20
-147.6483520138691
 10
111.0492078715432
 20
-147.6483520138691
 10
111.0492078715432
 20
-147.6483520138691
 10
111.0998507751764
 20
-147.6483520138691
 10
111.3833821336125
 20
-147.6356051605737
 10
111.4150770120768
 20
-147.6356051605737
 10
111.4130099547856
 20
-147.6631659244557
 10
111.4109428974945
 20
-147.6821139496246
 10
111.4109428974945
 20
-147.7117417707978
 10
111.4088758402033
 20
-147.743436649262
 10
111.4088758402033
 20
-147.8788289018323
 10
111.4088758402033
 20
-147.9063896657144
 10
111.4088758402033
 20
-147.9063896657144
 10
111.4088758402033
 20
-148.1518527190384
 10
111.4088758402033
 20
-148.1518527190384
 10
111.4088758402033
 20
-148.1962944507981
 10
111.4130099547856
 20
-148.3930094030059
 10
111.4174885789164
 20
-148.5452826234539
 10
111.4174885789164
 20
-148.5452826234539
 10
111.190801295987
 20
-148.5452826234539
 10
111.190801295987
 20
-148.5452826234539
 10
111.190801295987
 20
-148.5452826234539
 10
111.1932128628267
 20
-148.5115206876985
 10
111.1932128628267
 20
-148.5115206876985
 10
111.1932128628267
 20
-148.5115206876985
 10
110.4907578933842
 20
-148.5115206876985
 10
110.4907578933842
 20
-148.5115206876985
 10
110.4907578933842
 20
-148.5115206876985
 10
110.4928249506754
 20
-148.5452826234539
 10
110.4928249506754
 20
-148.5452826234539
 10
110.4928249506754
 20
-148.5452826234539
 10
110.2750949160076
 20
-148.5452826234539
 10
110.2750949160076
 20
-148.5452826234539
 10
110.2792290305899
 20
-148.4903333504642
 10
110.2792290305899
 20
-148.4775864971688
 10
110.2854302024633
 20
-148.3633815818327
 10
110.2874972597545
 20
-148.3358208179508
 10
110.2899088265942
 20
-148.2026678774458
 10
110.2899088265942
 20
-148.1835475975027
 10
110.2899088265942
 20
-148.1835475975027
 10
110.2899088265942
 20
-147.9804592186472
 10
110.2899088265942
 20
-147.9804592186472
 10
110.150037949893
 20
-148.2300563865536
 10
109.9808837615673
 20
-148.3613145245416
 10
109.8751193301701
 20
-148.4267713387613
 10
109.8751193301701
 20
-148.4267713387613
 10
109.7014865177135
 20
-148.2872449716087
 10
109.7014865177135
 20
-148.2872449716087
 10
109.7903699812329
 20
-148.2364298132013
 10
109.9343749725164
 20
-148.149613406973
 10
110.0718342823779
 20
-147.9551377668306
 10
110.1627848031885
 20
-147.8281859981992
 10
110.2285861269567
 20
-147.68435326169
 10
110.2623480627122
 20
-147.5319077864677
 10
110.0339382320401
 20
-147.5341470985331
 10
109.8541042477101
 20
-147.5405205251808
 10
109.7586751027686
 20
-147.542587582472
 10
109.7586751027686
 20
-147.542587582472
 10
109.7586751027686
 20
-147.3648206554331
 10
109.7586751027686
 20
-147.3648206554331
 10
109.9553900549764
 20
-147.3711940820808
 10
110.2389214134125
 20
-147.3755004514373
 10
110.3891275765694
 20
-147.3755004514373
 10
110.3891275765694
 20
-147.3755004514373
 10
110.6027234966548
 20
-147.3755004514373
 10
110.6027234966548
 20
-147.3755004514373
 10
110.6027234966548
 20
-147.3755004514373
 10
110.6027234966548
 20
-147.2674967079748
 10
110.6027234966548
 20
-147.2674967079748
 10
110.6027234966548
 20
-147.2674967079748
 10
110.4569959576288
 20
-147.2674967079748
 10
110.4569959576288
 20
-147.2674967079748
 10
110.2874972597545
 20
-147.2674967079748
 10
110.1183430714287
 20
-147.2718030773313
 10
109.9512559403941
 20
-147.278176503979
 10
109.9512559403941
 20
-147.278176503979
 10
109.9512559403941
 20
-147.1067830035879
 10
109.9512559403941
 20
-147.1067830035879
 10
110.1055962181333
 20
-147.1172905448179
 10
110.2919758838853
 20
-147.1172905448179
 10
110.4569959576288
 20
-147.1172905448179
 10
110.4569959576288
 20
-147.1172905448179
 10
110.6027234966548
 20
-147.1172905448179
 10
110.6027234966548
 20
-147.1172905448179
 10
110.6027234966548
 20
-147.1172905448179
 10
110.6027234966548
 20
-146.9989515148995
 10
110.6027234966548
 20
-146.9989515148995
 10
110.6027234966548
 20
-146.9989515148995
 10
110.4718098682154
 20
-146.9989515148995
 10
110.4718098682154
 20
-146.9989515148995
 10
110.4253010791645
 20
-146.9989515148995
 10
110.2220404455348
 20
-147.0073919988384
 10
110.1796657710662
 20
-147.0073919988384
 10
109.976749646985
 20
-147.0115261134207
 10
109.9006130367609
 20
-147.0135931707119
 10
109.8224093692458
 20
-147.0158324827773
 10
109.8224093692458
 20
-147.0158324827773
 10
109.8224093692458
 20
-146.8316921290907
 10
109.8224093692458
 20
-146.8316921290907
 10
109.9364420298075
 20
-146.8401326130295
 10
109.9808837615673
 20
-146.8401326130295
 10
110.363978379527
 20
-146.8487453517426
 10
110.3002441130499
 20
-146.7534884615755
 10
110.2726833491679
 20
-146.7259276976935
 10
110.2368543561213
 20
-146.6899264498726
 10
110.2368543561213
 20
-146.6899264498726
 10
110.4125542258691
 20
-146.6074164130009
 10
110.4125542258691
 20
-146.6074164130009
 10
110.452517333498
 20
-146.6434176608218
 10
110.4969590652577
 20
-146.6857923352903
 10
110.5710286181906
 20
-146.7956908812698
 10
110.5710286181906
 20
-146.7956908812698
 10
110.4569959576288
 20
-146.8508124090338
 10
110.4569959576288
 20
-146.8508124090338
 10
110.4569959576288
 20
-146.8508124090338
 10
110.4673312440845
 20
-146.8508124090338
 10
110.4673312440845
 20
-146.8508124090338
 10
110.4673312440845
 20
-146.8508124090338
 10
110.9899522291969
 20
-146.8508124090338
 10
110.9899522291969
 20
-146.8508124090338
 10
110.9899522291969
 20
-146.8508124090338
 10
110.894867593804
 20
-146.8063706772741
 10
110.894867593804
 20
-146.8063706772741
 10
110.922428357686
 20
-146.7683023721621
 10
110.9792724331927
 20
-146.6878593925815
 10
110.9940863437792
 20
-146.6137898396486
 10
110.9940863437792
 20
-146.6137898396486
 10
111.2080267734133
 20
-146.6773518513515
 10
111.2080267734133
 20
-146.6773518513515
 10
111.2162950025779
 20
-146.6794189086426
 10
111.2376545945864
 20
-146.6899264498726
 10
111.2376545945864
 20
-146.7111137871069
 10
111.2376545945864
 20
-146.7491820922189
 10
111.1718532708181
 20
-146.7491820922189
 10
111.1529052456493
 20
-146.7491820922189
 10
111.142225449645
 20
-146.7683023721621
 10
111.1191433098938
 20
-146.8084377345652
 10
111.0895154887207
 20
-146.8487453517426
 10
111.4891465650096
 20
-146.8423719250949
 10
111.5187743861828
 20
-146.8401326130295
 10
111.5949109964068
 20
-146.8339314411561
 10
111.5949109964068
 20
-146.8339314411561
 10
111.5949109964068
 20
-147.0158324827773
 10
111.5949109964068
 20
-147.0158324827773
 10
111.5759629712379
 20
-147.0158324827773
 10
111.5504692646471
 20
-147.0135931707119
 10
111.3306721726881
 20
-147.005152686773
 10
111.2796847595064
 20
-147.0030856294819
 10
111.0598876675475
 20
-146.9989515148995
 10
111.0154459357878
 20
-146.9989515148995
 10
111.0154459357878
 20
-146.9989515148995
 10
110.7994384488626
 20
-146.9989515148995
 10
110.7994384488626
 20
-146.9989515148995
 10
110.7994384488626
 20
-146.9989515148995
 10
110.7994384488626
 20
-147.1172905448179
 10
110.7994384488626
 20
-147.1172905448179
 10
110.7994384488626
 20
-147.1172905448179
 10
110.9730712613192
 20
-147.1172905448179
 10
110.9730712613192
 20
-147.1172905448179
 10
111.1360242777715
 20
-147.1172905448179
 10
111.3261935485573
 20
-147.1172905448179
 10
111.4829453931362
 20
-147.1067830035879
 10
111.4829453931362
 20
-147.1067830035879
 10
111.4829453931362
 20
-147.278176503979
 10
111.4829453931362
 20
-147.278176503979
 10
111.273483587633
 20
-147.2697360200402
 10
111.0767686354252
 20
-147.2674967079748
 10
110.9730712613192
 20
-147.2674967079748
 10
110.9730712613192
 20
-147.2674967079748
 10
110.7994384488626
 20
-147.2674967079748
 10
110.7994384488626
 20
-147.2674967079748
 10
110.7994384488626
 20
-147.2674967079748
 10
110.7994384488626
 20
-147.3755004514373
 10
110.7994384488626
 20
-147.3755004514373
 10
110.7994384488626
 20
-147.3755004514373
 10
111.0302598463744
 20
-147.3755004514373
 10
111.0302598463744
 20
-147.3755004514373
 10
111.1635850416535
 20
-147.3755004514373
 10
111.4512505146719
 20
-147.3711940820808
 10
111.6607123201751
 20
-147.3648206554331
 10
111.6607123201751
 20
-147.3648206554331
 10
111.6607123201751
 20
-147.542587582472
 10
111.6607123201751
 20
-147.542587582472
 10
111.4681314825496
 20
-147.5362141558243
 10
111.1549723029404
 20
-147.5319077864677
 10
111.0302598463744
 20
-147.5319077864677
 97
        0
 97
        1
330
95
 75
     2
 76
     1
 98
        1
 10
0.0
 20
0.0
450
        0
451
        0
460
0.0
461
0.0
452
        0
462
0.0
453
        0
470

  0
SPLINE
  5
97
330
8A
100
AcDbEntity
  8
レイヤー 1
100
AcDbSpline
210
0.0
220
0.0
230
1.0
 70
     9
 71
     3
 72
    29
 73
    25
 74
     0
 42
0.0000000001
 43
0.0000000001
 40
0.0
 40
0.0
 40
0.0
 40
0.0
 40
1.0
 40
1.0
 40
1.0
 40
2.0
 40
2.0
 40
2.0
 40
3.0
 40
3.0
 40
3.0
 40
4.0
 40
4.0
 40
4.0
 40
5.0
 40
5.0
 40
5.0
 40
6.0
 40
6.0
 40
6.0
 40
7.0
 40
7.0
 40
7.0
 40
8.0
 40
8.0
 40
8.0
 40
8.0
 10
112.9057698285444
 20
-146.9798312349564
 30
0.0
 10
112.9057698285444
 20
-146.9798312349564
 30
0.0
 10
112.5523030317577
 20
-146.9798312349564
 30
0.0
 10
112.5523030317577
 20
-146.9798312349564
 30
0.0
 10
112.4403374284871
 20
-146.9798312349564
 30
0.0
 10
112.3008110613345
 20
-146.9862046616041
 30
0.0
 10
112.1926350630977
 20
-146.9989515148995
 30
0.0
 10
112.1926350630977
 20
-146.9989515148995
 30
0.0
 10
112.1926350630977
 20
-146.7639960028055
 30
0.0
 10
112.1926350630977
 20
-146.7639960028055
 30
0.0
 10
112.3111463477902
 20
-146.7788099133921
 30
0.0
 10
112.4951144467026
 20
-146.7831162827486
 30
0.0
 10
112.5523030317577
 20
-146.7831162827486
 30
0.0
 10
112.5523030317577
 20
-146.7831162827486
 30
0.0
 10
112.9057698285444
 20
-146.7831162827486
 30
0.0
 10
112.9057698285444
 20
-146.7831162827486
 30
0.0
 10
112.9247178537132
 20
-146.7831162827486
 30
0.0
 10
113.127978487343
 20
-146.7831162827486
 30
0.0
 10
113.2695719117868
 20
-146.7639960028055
 30
0.0
 10
113.2695719117868
 20
-146.7639960028055
 30
0.0
 10
113.2695719117868
 20
-146.9989515148995
 30
0.0
 10
113.2695719117868
 20
-146.9989515148995
 30
0.0
 10
113.1131645767564
 20
-146.9798312349564
 30
0.0
 10
112.9226507964221
 20
-146.9798312349564
 30
0.0
 10
112.9057698285444
 20
-146.9798312349564
 30
0.0
  0
SPLINE
  5
98
330
8A
100
AcDbEntity
  8
レイヤー 1
100
AcDbSpline
210
0.0
220
0.0
230
1.0
 70
     9
 71
     3
 72
    47
 73
    43
 74
     0
 42
0.0000000001
 43
0.0000000001
 40
0.0
 40
0.0
 40
0.0
 40
0.0
 40
1.0
 40
1.0
 40
1.0
 40
2.0
 40
2.0
 40
2.0
 40
3.0
 40
3.0
 40
3.0
 40
4.0
 40
4.0
 40
4.0
 40
5.0
 40
5.0
 40
5.0
 40
6.0
 40
6.0
 40
6.0
 40
7.0
 40
7.0
 40
7.0
 40
8.0
 40
8.0
 40
8.0
 40
9.0
 40
9.0
 40
9.0
 40
10.0
 40
10.0
 40
10.0
 40
11.0
 40
11.0
 40
11.0
 40
12.0
 40
12.0
 40
12.0
 40
13.0
 40
13.0
 40
13.0
 40
14.0
 40
14.0
 40
14.0
 40
14.0
 10
113.0070556358107
 20
-147.5086533919423
 30
0.0
 10
113.0070556358107
 20
-147.5086533919423
 30
0.0
 10
112.9057698285444
 20
-147.5086533919423
 30
0.0
 10
112.9057698285444
 20
-147.5086533919423
 30
0.0
 10
112.9057698285444
 20
-147.5954697981706
 30
0.0
 10
112.8844102365358
 20
-147.9847655880038
 30
0.0
 10
112.6876952843281
 20
-148.204734934737
 30
0.0
 10
112.53542206388
 20
-148.3738891230627
 30
0.0
 10
112.328027315668
 20
-148.4438245614133
 30
0.0
 10
112.2436224762794
 20
-148.4712130705211
 30
0.0
 10
112.2436224762794
 20
-148.4712130705211
 30
0.0
 10
112.0489745813627
 20
-148.3041259394864
 30
0.0
 10
112.0489745813627
 20
-148.3041259394864
 30
0.0
 10
112.1461262740468
 20
-148.291379086191
 30
0.0
 10
112.3218261437945
 20
-148.2681246916656
 30
0.0
 10
112.5099283572892
 20
-148.0798502233967
 30
0.0
 10
112.583997910222
 20
-148.0080199825292
 30
0.0
 10
112.6876952843281
 20
-147.8683213606023
 30
0.0
 10
112.6876952843281
 20
-147.5086533919423
 30
0.0
 10
112.6876952843281
 20
-147.5086533919423
 30
0.0
 10
112.4572183963648
 20
-147.5086533919423
 30
0.0
 10
112.4572183963648
 20
-147.5086533919423
 30
0.0
 10
112.2711832401614
 20
-147.5086533919423
 30
0.0
 10
112.0848035744093
 20
-147.5129597612988
 30
0.0
 10
111.8987684182058
 20
-147.5277736718854
 30
0.0
 10
111.8987684182058
 20
-147.5277736718854
 30
0.0
 10
111.8987684182058
 20
-147.3078043251522
 30
0.0
 10
111.8987684182058
 20
-147.3078043251522
 30
0.0
 10
112.0868706317005
 20
-147.3226182357388
 30
0.0
 10
112.3724690474277
 20
-147.3267523503211
 30
0.0
 10
112.4572183963648
 20
-147.3267523503211
 30
0.0
 10
112.4572183963648
 20
-147.3267523503211
 30
0.0
 10
113.0070556358107
 20
-147.3267523503211
 30
0.0
 10
113.0070556358107
 20
-147.3267523503211
 30
0.0
 10
113.0263481705281
 20
-147.3267523503211
 30
0.0
 10
113.3436414647196
 20
-147.3267523503211
 30
0.0
 10
113.5720512953917
 20
-147.3078043251522
 30
0.0
 10
113.5720512953917
 20
-147.3078043251522
 30
0.0
 10
113.5720512953917
 20
-147.5277736718854
 30
0.0
 10
113.5720512953917
 20
-147.5277736718854
 30
0.0
 10
113.3839490818971
 20
-147.5129597612988
 30
0.0
 10
113.1955023588539
 20
-147.5086533919423
 30
0.0
 10
113.0070556358107
 20
-147.5086533919423
 30
0.0
  0
HATCH
  5
99
330
8A
100
AcDbEntity
  8
レイヤー 1
 62
    18
420
        0
440
 33554687
100
AcDbHatch
 10
0.0
 20
0.0
 30
0.0
210
0.0
220
0.0
230
1.0
  2
SOLID
 70
     1
 71
     1
 91
        2
 92
        1
 93
        1
 72
     4
 94
        3
 73
     0
 74
     0
 95
       29
 96
       25
 40
0.0
 40
0.0
 40
0.0
 40
0.0
 40
1.0
 40
1.0
 40
1.0
 40
2.0
 40
2.0
 40
2.0
 40
3.0
 40
3.0
 40
3.0
 40
4.0
 40
4.0
 40
4.0
 40
5.0
 40
5.0
 40
5.0
 40
6.0
 40
6.0
 40
6.0
 40
7.0
 40
7.0
 40
7.0
 40
8.0
 40
8.0
 40
8.0
 40
8.0
 10
112.9057698285444
 20
-146.9798312349564
 10
112.9057698285444
 20
-146.9798312349564
 10
112.5523030317577
 20
-146.9798312349564
 10
112.5523030317577
 20
-146.9798312349564
 10
112.4403374284871
 20
-146.9798312349564
 10
112.3008110613345
 20
-146.9862046616041
 10
112.1926350630977
 20
-146.9989515148995
 10
112.1926350630977
 20
-146.9989515148995
 10
112.1926350630977
 20
-146.7639960028055
 10
112.1926350630977
 20
-146.7639960028055
 10
112.3111463477902
 20
-146.7788099133921
 10
112.4951144467026
 20
-146.7831162827486
 10
112.5523030317577
 20
-146.7831162827486
 10
112.5523030317577
 20
-146.7831162827486
 10
112.9057698285444
 20
-146.7831162827486
 10
112.9057698285444
 20
-146.7831162827486
 10
112.9247178537132
 20
-146.7831162827486
 10
113.127978487343
 20
-146.7831162827486
 10
113.2695719117868
 20
-146.7639960028055
 10
113.2695719117868
 20
-146.7639960028055
 10
113.2695719117868
 20
-146.9989515148995
 10
113.2695719117868
 20
-146.9989515148995
 10
113.1131645767564
 20
-146.9798312349564
 10
112.9226507964221
 20
-146.9798312349564
 10
112.9057698285444
 20
-146.9798312349564
 97
        0
 97
        1
330
97
 92
        1
 93
        1
 72
     4
 94
        3
 73
     0
 74
     0
 95
       47
 96
       43
 40
0.0
 40
0.0
 40
0.0
 40
0.0
 40
1.0
 40
1.0
 40
1.0
 40
2.0
 40
2.0
 40
2.0
 40
3.0
 40
3.0
 40
3.0
 40
4.0
 40
4.0
 40
4.0
 40
5.0
 40
5.0
 40
5.0
 40
6.0
 40
6.0
 40
6.0
 40
7.0
 40
7.0
 40
7.0
 40
8.0
 40
8.0
 40
8.0
 40
9.0
 40
9.0
 40
9.0
 40
10.0
 40
10.0
 40
10.0
 40
11.0
 40
11.0
 40
11.0
 40
12.0
 40
12.0
 40
12.0
 40
13.0
 40
13.0
 40
13.0
 40
14.0
 40
14.0
 40
14.0
 40
14.0
 10
113.0070556358107
 20
-147.5086533919423
 10
113.0070556358107
 20
-147.5086533919423
 10
112.9057698285444
 20
-147.5086533919423
 10
112.9057698285444
 20
-147.5086533919423
 10
112.9057698285444
 20
-147.5954697981706
 10
112.8844102365358
 20
-147.9847655880038
 10
112.6876952843281
 20
-148.204734934737
 10
112.53542206388
 20
-148.3738891230627
 10
112.328027315668
 20
-148.4438245614133
 10
112.2436224762794
 20
-148.4712130705211
 10
112.2436224762794
 20
-148.4712130705211
 10
112.0489745813627
 20
-148.3041259394864
 10
112.0489745813627
 20
-148.3041259394864
 10
112.1461262740468
 20
-148.291379086191
 10
112.3218261437945
 20
-148.2681246916656
 10
112.5099283572892
 20
-148.0798502233967
 10
112.583997910222
 20
-148.0080199825292
 10
112.6876952843281
 20
-147.8683213606023
 10
112.6876952843281
 20
-147.5086533919423
 10
112.6876952843281
 20
-147.5086533919423
 10
112.4572183963648
 20
-147.5086533919423
 10
112.4572183963648
 20
-147.5086533919423
 10
112.2711832401614
 20
-147.5086533919423
 10
112.0848035744093
 20
-147.5129597612988
 10
111.8987684182058
 20
-147.5277736718854
 10
111.8987684182058
 20
-147.5277736718854
 10
111.8987684182058
 20
-147.3078043251522
 10
111.8987684182058
 20
-147.3078043251522
 10
112.0868706317005
 20
-147.3226182357388
 10
112.3724690474277
 20
-147.3267523503211
 10
112.4572183963648
 20
-147.3267523503211
 10
112.4572183963648
 20
-147.3267523503211
 10
113.0070556358107
 20
-147.3267523503211
 10
113.0070556358107
 20
-147.3267523503211
 10
113.0263481705281
 20
-147.3267523503211
 10
113.3436414647196
 20
-147.3267523503211
 10
113.5720512953917
 20
-147.3078043251522
 10
113.5720512953917
 20
-147.3078043251522
 10
113.5720512953917
 20
-147.5277736718854
 10
113.5720512953917
 20
-147.5277736718854
 10
113.3839490818971
 20
-147.5129597612988
 10
113.1955023588539
 20
-147.5086533919423
 10
113.0070556358107
 20
-147.5086533919423
 97
        0
 97
        1
330
98
 75
     2
 76
     1
 98
        1
 10
0.0
 20
0.0
450
        0
451
        0
460
0.0
461
0.0
452
        0
462
0.0
453
        0
470

  0
SPLINE
  5
9A
330
8A
100
AcDbEntity
  8
レイヤー 1
100
AcDbSpline
210
0.0
220
0.0
230
1.0
 70
     9
 71
     3
 72
    29
 73
    25
 74
     0
 42
0.0000000001
 43
0.0000000001
 40
0.0
 40
0.0
 40
0.0
 40
0.0
 40
1.0
 40
1.0
 40
1.0
 40
2.0
 40
2.0
 40
2.0
 40
3.0
 40
3.0
 40
3.0
 40
4.0
 40
4.0
 40
4.0
 40
5.0
 40
5.0
 40
5.0
 40
6.0
 40
6.0
 40
6.0
 40
7.0
 40
7.0
 40
7.0
 40
8.0
 40
8.0
 40
8.0
 40
8.0
 10
114.8529377968076
 20
-147.6716064083946
 30
0.0
 10
114.8529377968076
 20
-147.6716064083946
 30
0.0
 10
114.3685573715814
 20
-147.6716064083946
 30
0.0
 10
114.3685573715814
 20
-147.6716064083946
 30
0.0
 10
114.3409966076994
 20
-147.6716064083946
 30
0.0
 10
114.0237033135079
 20
-147.6716064083946
 30
0.0
 10
113.8121744507136
 20
-147.6969278602112
 30
0.0
 10
113.8121744507136
 20
-147.6969278602112
 30
0.0
 10
113.8121744507136
 20
-147.4664509722479
 30
0.0
 10
113.8121744507136
 20
-147.4664509722479
 30
0.0
 10
113.9709933525836
 20
-147.4897053667734
 30
0.0
 10
114.1611626233694
 20
-147.4917724240645
 30
0.0
 10
114.3685573715814
 20
-147.4917724240645
 30
0.0
 10
114.3685573715814
 20
-147.4917724240645
 30
0.0
 10
114.8529377968076
 20
-147.4917724240645
 30
0.0
 10
114.8529377968076
 20
-147.4917724240645
 30
0.0
 10
115.0393174625596
 20
-147.4917724240645
 30
0.0
 10
115.2253526187631
 20
-147.4897053667734
 30
0.0
 10
115.4093207176754
 20
-147.4664509722479
 30
0.0
 10
115.4093207176754
 20
-147.4664509722479
 30
0.0
 10
115.4093207176754
 20
-147.6969278602112
 30
0.0
 10
115.4093207176754
 20
-147.6969278602112
 30
0.0
 10
115.2253526187631
 20
-147.6736734656857
 30
0.0
 10
114.9779947629222
 20
-147.6716064083946
 30
0.0
 10
114.8529377968076
 20
-147.6716064083946
 30
0.0
  0
HATCH
  5
9B
330
8A
100
AcDbEntity
  8
レイヤー 1
 62
    18
420
        0
440
 33554687
100
AcDbHatch
 10
0.0
 20
0.0
 30
0.0
210
0.0
220
0.0
230
1.0
  2
SOLID
 70
     1
 71
     1
 91
        1
 92
        1
 93
        1
 72
     4
 94
        3
 73
     0
 74
     0
 95
       29
 96
       25
 40
0.0
 40
0.0
 40
0.0
 40
0.0
 40
1.0
 40
1.0
 40
1.0
 40
2.0
 40
2.0
 40
2.0
 40
3.0
 40
3.0
 40
3.0
 40
4.0
 40
4.0
 40
4.0
 40
5.0
 40
5.0
 40
5.0
 40
6.0
 40
6.0
 40
6.0
 40
7.0
 40
7.0
 40
7.0
 40
8.0
 40
8.0
 40
8.0
 40
8.0
 10
114.8529377968076
 20
-147.6716064083946
 10
114.8529377968076
 20
-147.6716064083946
 10
114.3685573715814
 20
-147.6716064083946
 10
114.3685573715814
 20
-147.6716064083946
 10
114.3409966076994
 20
-147.6716064083946
 10
114.0237033135079
 20
-147.6716064083946
 10
113.8121744507136
 20
-147.6969278602112
 10
113.8121744507136
 20
-147.6969278602112
 10
113.8121744507136
 20
-147.4664509722479
 10
113.8121744507136
 20
-147.4664509722479
 10
113.9709933525836
 20
-147.4897053667734
 10
114.1611626233694
 20
-147.4917724240645
 10
114.3685573715814
 20
-147.4917724240645
 10
114.3685573715814
 20
-147.4917724240645
 10
114.8529377968076
 20
-147.4917724240645
 10
114.8529377968076
 20
-147.4917724240645
 10
115.0393174625596
 20
-147.4917724240645
 10
115.2253526187631
 20
-147.4897053667734
 10
115.4093207176754
 20
-147.4664509722479
 10
115.4093207176754
 20
-147.4664509722479
 10
115.4093207176754
 20
-147.6969278602112
 10
115.4093207176754
 20
-147.6969278602112
 10
115.2253526187631
 20
-147.6736734656857
 10
114.9779947629222
 20
-147.6716064083946
 10
114.8529377968076
 20
-147.6716064083946
 97
        0
 97
        1
330
9A
 75
     2
 76
     1
 98
        1
 10
0.0
 20
0.0
450
        0
451
        0
460
0.0
461
0.0
452
        0
462
0.0
453
        0
470

  0
SPLINE
  5
9C
330
8A
100
AcDbEntity
  8
レイヤー 1
100
AcDbSpline
210
0.0
220
0.0
230
1.0
 70
     9
 71
     3
 72
    47
 73
    43
 74
     0
 42
0.0000000001
 43
0.0000000001
 40
0.0
 40
0.0
 40
0.0
 40
0.0
 40
1.0
 40
1.0
 40
1.0
 40
2.0
 40
2.0
 40
2.0
 40
3.0
 40
3.0
 40
3.0
 40
4.0
 40
4.0
 40
4.0
 40
5.0
 40
5.0
 40
5.0
 40
6.0
 40
6.0
 40
6.0
 40
7.0
 40
7.0
 40
7.0
 40
8.0
 40
8.0
 40
8.0
 40
9.0
 40
9.0
 40
9.0
 40
10.0
 40
10.0
 40
10.0
 40
11.0
 40
11.0
 40
11.0
 40
12.0
 40
12.0
 40
12.0
 40
13.0
 40
13.0
 40
13.0
 40
14.0
 40
14.0
 40
14.0
 40
14.0
 10
117.0733018370511
 20
-147.0771551824147
 30
0.0
 10
117.0033663987005
 20
-147.3563801714942
 30
0.0
 10
116.9272297884765
 20
-147.6610988671646
 30
0.0
 10
116.6140706088673
 20
-147.9932060719426
 30
0.0
 10
116.3770480394821
 20
-148.242803239849
 30
0.0
 10
116.1317572409323
 20
-148.3421942445985
 30
0.0
 10
116.0259928095351
 20
-148.384568919067
 30
0.0
 10
116.0259928095351
 20
-148.384568919067
 30
0.0
 10
115.8313449146185
 20
-148.2026678774458
 30
0.0
 10
115.8313449146185
 20
-148.2026678774458
 30
0.0
 10
116.017380070822
 20
-148.1559868336207
 30
0.0
 10
116.3794596063218
 20
-148.062969255519
 30
0.0
 10
116.6753933085047
 20
-147.5679090342886
 30
0.0
 10
116.8362792676659
 20
-147.3014308985045
 30
0.0
 10
116.8490261209613
 20
-147.1279703408221
 30
0.0
 10
116.8572943501259
 20
-147.0370198200116
 30
0.0
 10
116.8572943501259
 20
-147.0370198200116
 30
0.0
 10
116.3518988424398
 20
-147.0370198200116
 30
0.0
 10
116.3518988424398
 20
-147.0370198200116
 30
0.0
 10
116.2333875577472
 20
-147.0370198200116
 30
0.0
 10
115.8123968894497
 20
-147.0559678451804
 30
0.0
 10
115.6601236690016
 20
-147.0664753864104
 30
0.0
 10
115.6601236690016
 20
-147.0664753864104
 30
0.0
 10
115.6601236690016
 20
-146.8571858356815
 30
0.0
 10
115.6601236690016
 20
-146.8571858356815
 30
0.0
 10
115.8017170934454
 20
-146.8697604342027
 30
0.0
 10
116.079047280008
 20
-146.8740668035592
 30
0.0
 10
116.1951469978609
 20
-146.8740668035592
 30
0.0
 10
116.1951469978609
 20
-146.8740668035592
 30
0.0
 10
116.5506808519387
 20
-146.8740668035592
 30
0.0
 10
116.5506808519387
 20
-146.8740668035592
 30
0.0
 10
116.5782416158207
 20
-146.8740668035592
 30
0.0
 10
116.7387830654333
 20
-146.8719997462681
 30
0.0
 10
116.8490261209613
 20
-146.8571858356815
 30
0.0
 10
116.9062147060165
 20
-146.8508124090338
 30
0.0
 10
116.9230956738942
 20
-146.8316921290907
 30
0.0
 10
116.9461778136454
 20
-146.8084377345652
 30
0.0
 10
116.9461778136454
 20
-146.8084377345652
 30
0.0
 10
117.1346245366885
 20
-146.9586438977221
 30
0.0
 10
117.1346245366885
 20
-146.9586438977221
 30
0.0
 10
117.119810626102
 20
-146.9882717188953
 30
0.0
 10
117.1091308300977
 20
-147.0073919988384
 30
0.0
 10
117.0733018370511
 20
-147.0771551824147
 30
0.0
  0
HATCH
  5
9D
330
8A
100
AcDbEntity
  8
レイヤー 1
 62
    18
420
        0
440
 33554687
100
AcDbHatch
 10
0.0
 20
0.0
 30
0.0
210
0.0
220
0.0
230
1.0
  2
SOLID
 70
     1
 71
     1
 91
        1
 92
        1
 93
        1
 72
     4
 94
        3
 73
     0
 74
     0
 95
       47
 96
       43
 40
0.0
 40
0.0
 40
0.0
 40
0.0
 40
1.0
 40
1.0
 40
1.0
 40
2.0
 40
2.0
 40
2.0
 40
3.0
 40
3.0
 40
3.0
 40
4.0
 40
4.0
 40
4.0
 40
5.0
 40
5.0
 40
5.0
 40
6.0
 40
6.0
 40
6.0
 40
7.0
 40
7.0
 40
7.0
 40
8.0
 40
8.0
 40
8.0
 40
9.0
 40
9.0
 40
9.0
 40
10.0
 40
10.0
 40
10.0
 40
11.0
 40
11.0
 40
11.0
 40
12.0
 40
12.0
 40
12.0
 40
13.0
 40
13.0
 40
13.0
 40
14.0
 40
14.0
 40
14.0
 40
14.0
 10
117.0733018370511
 20
-147.0771551824147
 10
117.0033663987005
 20
-147.3563801714942
 10
116.9272297884765
 20
-147.6610988671646
 10
116.6140706088673
 20
-147.9932060719426
 10
116.3770480394821
 20
-148.242803239849
 10
116.1317572409323
 20
-148.3421942445985
 10
116.0259928095351
 20
-148.384568919067
 10
116.0259928095351
 20
-148.384568919067
 10
115.8313449146185
 20
-148.2026678774458
 10
115.8313449146185
 20
-148.2026678774458
 10
116.017380070822
 20
-148.1559868336207
 10
116.3794596063218
 20
-148.062969255519
 10
116.6753933085047
 20
-147.5679090342886
 10
116.8362792676659
 20
-147.3014308985045
 10
116.8490261209613
 20
-147.1279703408221
 10
116.8572943501259
 20
-147.0370198200116
 10
116.8572943501259
 20
-147.0370198200116
 10
116.3518988424398
 20
-147.0370198200116
 10
116.3518988424398
 20
-147.0370198200116
 10
116.2333875577472
 20
-147.0370198200116
 10
115.8123968894497
 20
-147.0559678451804
 10
115.6601236690016
 20
-147.0664753864104
 10
115.6601236690016
 20
-147.0664753864104
 10
115.6601236690016
 20
-146.8571858356815
 10
115.6601236690016
 20
-146.8571858356815
 10
115.8017170934454
 20
-146.8697604342027
 10
116.079047280008
 20
-146.8740668035592
 10
116.1951469978609
 20
-146.8740668035592
 10
116.1951469978609
 20
-146.8740668035592
 10
116.5506808519387
 20
-146.8740668035592
 10
116.5506808519387
 20
-146.8740668035592
 10
116.5782416158207
 20
-146.8740668035592
 10
116.7387830654333
 20
-146.8719997462681
 10
116.8490261209613
 20
-146.8571858356815
 10
116.9062147060165
 20
-146.8508124090338
 10
116.9230956738942
 20
-146.8316921290907
 10
116.9461778136454
 20
-146.8084377345652
 10
116.9461778136454
 20
-146.8084377345652
 10
117.1346245366885
 20
-146.9586438977221
 10
117.1346245366885
 20
-146.9586438977221
 10
117.119810626102
 20
-146.9882717188953
 10
117.1091308300977
 20
-147.0073919988384
 10
117.0733018370511
 20
-147.0771551824147
 97
        0
 97
        1
330
9C
 75
     2
 76
     1
 98
        1
 10
0.0
 20
0.0
450
        0
451
        0
460
0.0
461
0.0
452
        0
462
0.0
453
        0
470

  0
SPLINE
  5
9E
330
8A
100
AcDbEntity
  8
レイヤー 1
100
AcDbSpline
210
0.0
220
0.0
230
1.0
 70
    11
 71
     3
 72
    17
 73
    13
 74
     0
 42
0.0000000001
 43
0.0000000001
 40
0.0
 40
0.0
 40
0.0
 40
0.0
 40
1.0
 40
1.0
 40
1.0
 40
2.0
 40
2.0
 40
2.0
 40
3.0
 40
3.0
 40
3.0
 40
4.0
 40
4.0
 40
4.0
 40
4.0
 10
117.4636311555299
 20
-146.8592528929727
 30
0.0
 10
117.4636311555299
 20
-146.9185085353189
 30
0.0
 10
117.5101399445808
 20
-146.9650173243698
 30
0.0
 10
117.5693955869271
 20
-146.9650173243698
 30
0.0
 10
117.6286512292734
 20
-146.9650173243698
 30
0.0
 10
117.6772270756154
 20
-146.9185085353189
 30
0.0
 10
117.6772270756154
 20
-146.8592528929727
 30
0.0
 10
117.6772270756154
 20
-146.7999972506264
 30
0.0
 10
117.6286512292734
 20
-146.7514214042843
 30
0.0
 10
117.5693955869271
 20
-146.7514214042843
 30
0.0
 10
117.5101399445808
 20
-146.7514214042843
 30
0.0
 10
117.4636311555299
 20
-146.7999972506264
 30
0.0
 10
117.4636311555299
 20
-146.8592528929727
 30
0.0
  0
SPLINE
  5
9F
330
8A
100
AcDbEntity
  8
レイヤー 1
100
AcDbSpline
210
0.0
220
0.0
230
1.0
 70
     9
 71
     3
 72
    17
 73
    13
 74
     0
 42
0.0000000001
 43
0.0000000001
 40
0.0
 40
0.0
 40
0.0
 40
0.0
 40
1.0
 40
1.0
 40
1.0
 40
2.0
 40
2.0
 40
2.0
 40
3.0
 40
3.0
 40
3.0
 40
4.0
 40
4.0
 40
4.0
 40
4.0
 10
117.7785128828817
 20
-146.8592528929727
 30
0.0
 10
117.7785128828817
 20
-146.9734578083087
 30
0.0
 10
117.68549530478
 20
-147.0687146984758
 30
0.0
 10
117.5693955869271
 20
-147.0687146984758
 30
0.0
 10
117.4550184168168
 20
-147.0687146984758
 30
0.0
 10
117.3599337814239
 20
-146.9734578083087
 30
0.0
 10
117.3599337814239
 20
-146.8592528929727
 30
0.0
 10
117.3599337814239
 20
-146.7428086655712
 30
0.0
 10
117.4550184168168
 20
-146.6497910874695
 30
0.0
 10
117.5693955869271
 20
-146.6497910874695
 30
0.0
 10
117.6834282474888
 20
-146.6497910874695
 30
0.0
 10
117.7785128828817
 20
-146.7428086655712
 30
0.0
 10
117.7785128828817
 20
-146.8592528929727
 30
0.0
  0
HATCH
  5
A0
330
8A
100
AcDbEntity
  8
レイヤー 1
 62
    18
420
        0
440
 33554687
100
AcDbHatch
 10
0.0
 20
0.0
 30
0.0
210
0.0
220
0.0
230
1.0
  2
SOLID
 70
     1
 71
     1
 91
        2
 92
        1
 93
        1
 72
     4
 94
        3
 73
     0
 74
     0
 95
       17
 96
       13
 40
0.0
 40
0.0
 40
0.0
 40
0.0
 40
1.0
 40
1.0
 40
1.0
 40
2.0
 40
2.0
 40
2.0
 40
3.0
 40
3.0
 40
3.0
 40
4.0
 40
4.0
 40
4.0
 40
4.0
 10
117.4636311555299
 20
-146.8592528929727
 10
117.4636311555299
 20
-146.9185085353189
 10
117.5101399445808
 20
-146.9650173243698
 10
117.5693955869271
 20
-146.9650173243698
 10
117.6286512292734
 20
-146.9650173243698
 10
117.6772270756154
 20
-146.9185085353189
 10
117.6772270756154
 20
-146.8592528929727
 10
117.6772270756154
 20
-146.7999972506264
 10
117.6286512292734
 20
-146.7514214042843
 10
117.5693955869271
 20
-146.7514214042843
 10
117.5101399445808
 20
-146.7514214042843
 10
117.4636311555299
 20
-146.7999972506264
 10
117.4636311555299
 20
-146.8592528929727
 97
        0
 97
        1
330
9E
 92
        1
 93
        1
 72
     4
 94
        3
 73
     0
 74
     0
 95
       17
 96
       13
 40
0.0
 40
0.0
 40
0.0
 40
0.0
 40
1.0
 40
1.0
 40
1.0
 40
2.0
 40
2.0
 40
2.0
 40
3.0
 40
3.0
 40
3.0
 40
4.0
 40
4.0
 40
4.0
 40
4.0
 10
117.7785128828817
 20
-146.8592528929727
 10
117.7785128828817
 20
-146.9734578083087
 10
117.68549530478
 20
-147.0687146984758
 10
117.5693955869271
 20
-147.0687146984758
 10
117.4550184168168
 20
-147.0687146984758
 10
117.3599337814239
 20
-146.9734578083087
 10
117.3599337814239
 20
-146.8592528929727
 10
117.3599337814239
 20
-146.7428086655712
 10
117.4550184168168
 20
-146.6497910874695
 10
117.5693955869271
 20
-146.6497910874695
 10
117.6834282474888
 20
-146.6497910874695
 10
117.7785128828817
 20
-146.7428086655712
 10
117.7785128828817
 20
-146.8592528929727
 97
        0
 97
        1
330
9F
 75
     2
 76
     1
 98
        1
 10
0.0
 20
0.0
450
        0
451
        0
460
0.0
461
0.0
452
        0
462
0.0
453
        0
470

  0
ENDBLK
  5
8D
330
8A
100
AcDbEntity
  8
0
100
AcDbBlockEnd
  0
BLOCK
  5
A3
330
A1
100
AcDbEntity
  8
0
100
AcDbBlockBegin
  2
Block_4
 70
     0
 10
0.0
 20
0.0
 30
0.0
  3
Block_4
  1

  0
LINE
  5
A5
330
A1
100
AcDbEntity
  8
レイヤー 1
 62
    18
420
        0
370
    25
100
AcDbLine
 10
88.98800698442151
 20
-145.3382610180768
 30
0.0
 11
102.0875569811473
 21
-145.3382610180768
 31
0.0
  0
LINE
  5
A6
330
A1
100
AcDbEntity
  8
レイヤー 1
 62
    18
420
        0
370
    25
100
AcDbLine
 10
100.9875254260172
 20
-146.4382573789028
 30
0.0
 11
100.9875254260172
 21
-152.4382663924965
 31
0.0
  0
LINE
  5
A7
330
A1
100
AcDbEntity
  8
レイヤー 1
 62
    18
420
        0
370
    25
100
AcDbLine
 10
88.98800698442151
 20
-146.4382573789028
 30
0.0
 11
100.987525314755
 21
-146.4382573789028
 31
0.0
  0
LINE
  5
A8
330
A1
100
AcDbEntity
  8
レイヤー 1
 62
    18
420
        0
370
    25
100
AcDbLine
 10
88.98800698442151
 20
-145.3382610180768
 30
0.0
 11
88.98800698442151
 21
-146.4382573789028
 31
0.0
  0
LINE
  5
A9
330
A1
100
AcDbEntity
  8
レイヤー 1
 62
    18
420
        0
370
    25
100
AcDbLine
 10
102.0875570924092
 20
-145.3382610180768
 30
0.0
 11
102.0875570924092
 21
-151.3385875316627
 31
0.0
  0
LINE
  5
AA
330
A1
100
AcDbEntity
  8
レイヤー 1
 62
    18
420
        0
370
    25
100
AcDbLine
 10
117.9876736992124
 20
-151.3385875316627
 30
0.0
 11
117.9876736992124
 21
-151.7385669659029
 31
0.0
  0
LINE
  5
AB
330
A1
100
AcDbEntity
  8
レイヤー 1
 62
    18
420
        0
370
    25
100
AcDbLine
 10
102.0875570924092
 20
-151.3385875316627
 30
0.0
 11
117.9876736992124
 21
-151.3385875316627
 31
0.0
  0
LINE
  5
AC
330
A1
100
AcDbEntity
  8
レイヤー 1
 62
    18
420
        0
370
    25
100
AcDbLine
 10
117.9876736992124
 20
-151.7385669659029
 30
0.0
 11
100.9875254260172
 21
-152.4382663924965
 31
0.0
  0
ENDBLK
  5
A4
330
A1
100
AcDbEntity
  8
0
100
AcDbBlockEnd
  0
BLOCK
  5
B9
330
B7
100
AcDbEntity
  8
0
100
AcDbBlockBegin
  2
Block_5
 70
     0
 10
0.0
 20
0.0
 30
0.0
  3
Block_5
  1

  0
INSERT
  5
BC
330
B7
100
AcDbEntity
  8
レイヤー 1
100
AcDbBlockReference
  2
Block_6
 10
0.0
 20
0.0
 30
0.0
  0
ENDBLK
  5
BA
330
B7
100
AcDbEntity
  8
0
100
AcDbBlockEnd
  0
BLOCK
  5
BD
330
BB
100
AcDbEntity
  8
0
100
AcDbBlockBegin
  2
Block_6
 70
     0
 10
0.0
 20
0.0
 30
0.0
  3
Block_6
  1

  0
SPLINE
  5
BF
330
BB
100
AcDbEntity
  8
レイヤー 1
100
AcDbSpline
210
0.0
220
0.0
230
1.0
 70
    11
 71
     3
 72
    26
 73
    22
 74
     0
 42
0.0000000001
 43
0.0000000001
 40
0.0
 40
0.0
 40
0.0
 40
0.0
 40
1.0
 40
1.0
 40
1.0
 40
2.0
 40
2.0
 40
2.0
 40
3.0
 40
3.0
 40
3.0
 40
4.0
 40
4.0
 40
4.0
 40
5.0
 40
5.0
 40
5.0
 40
6.0
 40
6.0
 40
6.0
 40
7.0
 40
7.0
 40
7.0
 40
7.0
 10
108.8502034233083
 20
-155.7923854862255
 30
0.0
 10
108.8502034233083
 20
-155.7923854862255
 30
0.0
 10
108.8502034233083
 20
-154.6882323832029
 30
0.0
 10
108.8502034233083
 20
-154.6882323832029
 30
0.0
 10
108.8502034233083
 20
-154.6882323832029
 30
0.0
 10
108.5201632758213
 20
-154.6882323832029
 30
0.0
 10
108.5201632758213
 20
-154.6882323832029
 30
0.0
 10
108.5201632758213
 20
-154.6882323832029
 30
0.0
 10
108.5201632758213
 20
-154.5400932773372
 30
0.0
 10
108.5201632758213
 20
-154.5400932773372
 30
0.0
 10
108.8522704805994
 20
-154.5252793667506
 30
0.0
 10
108.8987792696503
 20
-154.3623263502983
 30
0.0
 10
108.9284070908234
 20
-154.247949180188
 30
0.0
 10
108.9284070908234
 20
-154.247949180188
 30
0.0
 10
109.074479139398
 20
-154.247949180188
 30
0.0
 10
109.074479139398
 20
-154.247949180188
 30
0.0
 10
109.074479139398
 20
-154.247949180188
 30
0.0
 10
109.074479139398
 20
-155.7923854862255
 30
0.0
 10
109.074479139398
 20
-155.7923854862255
 30
0.0
 10
109.074479139398
 20
-155.7923854862255
 30
0.0
 10
108.8502034233083
 20
-155.7923854862255
 30
0.0
 10
108.8502034233083
 20
-155.7923854862255
 30
0.0
  0
HATCH
  5
C0
330
BB
100
AcDbEntity
  8
レイヤー 1
 62
    18
420
        0
440
 33554687
100
AcDbHatch
 10
0.0
 20
0.0
 30
0.0
210
0.0
220
0.0
230
1.0
  2
SOLID
 70
     1
 71
     1
 91
        1
 92
        1
 93
        1
 72
     4
 94
        3
 73
     0
 74
     0
 95
       26
 96
       22
 40
0.0
 40
0.0
 40
0.0
 40
0.0
 40
1.0
 40
1.0
 40
1.0
 40
2.0
 40
2.0
 40
2.0
 40
3.0
 40
3.0
 40
3.0
 40
4.0
 40
4.0
 40
4.0
 40
5.0
 40
5.0
 40
5.0
 40
6.0
 40
6.0
 40
6.0
 40
7.0
 40
7.0
 40
7.0
 40
7.0
 10
108.8502034233083
 20
-155.7923854862255
 10
108.8502034233083
 20
-155.7923854862255
 10
108.8502034233083
 20
-154.6882323832029
 10
108.8502034233083
 20
-154.6882323832029
 10
108.8502034233083
 20
-154.6882323832029
 10
108.5201632758213
 20
-154.6882323832029
 10
108.5201632758213
 20
-154.6882323832029
 10
108.5201632758213
 20
-154.6882323832029
 10
108.5201632758213
 20
-154.5400932773372
 10
108.5201632758213
 20
-154.5400932773372
 10
108.8522704805994
 20
-154.5252793667506
 10
108.8987792696503
 20
-154.3623263502983
 10
108.9284070908234
 20
-154.247949180188
 10
108.9284070908234
 20
-154.247949180188
 10
109.074479139398
 20
-154.247949180188
 10
109.074479139398
 20
-154.247949180188
 10
109.074479139398
 20
-154.247949180188
 10
109.074479139398
 20
-155.7923854862255
 10
109.074479139398
 20
-155.7923854862255
 10
109.074479139398
 20
-155.7923854862255
 10
108.8502034233083
 20
-155.7923854862255
 10
108.8502034233083
 20
-155.7923854862255
 97
        0
 97
        1
330
BF
 75
     2
 76
     1
 98
        1
 10
0.0
 20
0.0
450
        0
451
        0
460
0.0
461
0.0
452
        0
462
0.0
453
        0
470

  0
SPLINE
  5
C1
330
BB
100
AcDbEntity
  8
レイヤー 1
100
AcDbSpline
210
0.0
220
0.0
230
1.0
 70
     9
 71
     3
 72
    26
 73
    22
 74
     0
 42
0.0000000001
 43
0.0000000001
 40
0.0
 40
0.0
 40
0.0
 40
0.0
 40
1.0
 40
1.0
 40
1.0
 40
2.0
 40
2.0
 40
2.0
 40
3.0
 40
3.0
 40
3.0
 40
4.0
 40
4.0
 40
4.0
 40
5.0
 40
5.0
 40
5.0
 40
6.0
 40
6.0
 40
6.0
 40
7.0
 40
7.0
 40
7.0
 40
7.0
 10
109.9867404238922
 20
-155.7923854862255
 30
0.0
 10
109.9867404238922
 20
-155.7923854862255
 30
0.0
 10
109.749717854507
 20
-155.7923854862255
 30
0.0
 10
109.749717854507
 20
-155.7923854862255
 30
0.0
 10
109.7752115610978
 20
-155.4833604211986
 30
0.0
 10
109.9677923987233
 20
-154.965218060217
 30
0.0
 10
110.3739691564343
 20
-154.4594780429823
 30
0.0
 10
110.3739691564343
 20
-154.4594780429823
 30
0.0
 10
109.5361219344215
 20
-154.4594780429823
 30
0.0
 10
109.5361219344215
 20
-154.4594780429823
 30
0.0
 10
109.5361219344215
 20
-154.4594780429823
 30
0.0
 10
109.5361219344215
 20
-154.247949180188
 30
0.0
 10
109.5361219344215
 20
-154.247949180188
 30
0.0
 10
109.5361219344215
 20
-154.247949180188
 30
0.0
 10
110.6109917258194
 20
-154.247949180188
 30
0.0
 10
110.6109917258194
 20
-154.247949180188
 30
0.0
 10
110.6109917258194
 20
-154.247949180188
 30
0.0
 10
110.6109917258194
 20
-154.4594780429823
 30
0.0
 10
110.6109917258194
 20
-154.4594780429823
 30
0.0
 10
110.287152750206
 20
-154.7495550828404
 30
0.0
 10
110.0205023596476
 20
-155.3417669967548
 30
0.0
 10
109.9867404238922
 20
-155.7923854862255
 30
0.0
  0
HATCH
  5
C2
330
BB
100
AcDbEntity
  8
レイヤー 1
 62
    18
420
        0
440
 33554687
100
AcDbHatch
 10
0.0
 20
0.0
 30
0.0
210
0.0
220
0.0
230
1.0
  2
SOLID
 70
     1
 71
     1
 91
        1
 92
        1
 93
        1
 72
     4
 94
        3
 73
     0
 74
     0
 95
       26
 96
       22
 40
0.0
 40
0.0
 40
0.0
 40
0.0
 40
1.0
 40
1.0
 40
1.0
 40
2.0
 40
2.0
 40
2.0
 40
3.0
 40
3.0
 40
3.0
 40
4.0
 40
4.0
 40
4.0
 40
5.0
 40
5.0
 40
5.0
 40
6.0
 40
6.0
 40
6.0
 40
7.0
 40
7.0
 40
7.0
 40
7.0
 10
109.9867404238922
 20
-155.7923854862255
 10
109.9867404238922
 20
-155.7923854862255
 10
109.749717854507
 20
-155.7923854862255
 10
109.749717854507
 20
-155.7923854862255
 10
109.7752115610978
 20
-155.4833604211986
 10
109.9677923987233
 20
-154.965218060217
 10
110.3739691564343
 20
-154.4594780429823
 10
110.3739691564343
 20
-154.4594780429823
 10
109.5361219344215
 20
-154.4594780429823
 10
109.5361219344215
 20
-154.4594780429823
 10
109.5361219344215
 20
-154.4594780429823
 10
109.5361219344215
 20
-154.247949180188
 10
109.5361219344215
 20
-154.247949180188
 10
109.5361219344215
 20
-154.247949180188
 10
110.6109917258194
 20
-154.247949180188
 10
110.6109917258194
 20
-154.247949180188
 10
110.6109917258194
 20
-154.247949180188
 10
110.6109917258194
 20
-154.4594780429823
 10
110.6109917258194
 20
-154.4594780429823
 10
110.287152750206
 20
-154.7495550828404
 10
110.0205023596476
 20
-155.3417669967548
 10
109.9867404238922
 20
-155.7923854862255
 97
        0
 97
        1
330
C1
 75
     2
 76
     1
 98
        1
 10
0.0
 20
0.0
450
        0
451
        0
460
0.0
461
0.0
452
        0
462
0.0
453
        0
470

  0
ENDBLK
  5
BE
330
BB
100
AcDbEntity
  8
0
100
AcDbBlockEnd
  0
BLOCK
  5
C7
330
C5
100
AcDbEntity
  8
0
100
AcDbBlockBegin
  2
Block_7
 70
     0
 10
0.0
 20
0.0
 30
0.0
  3
Block_7
  1

  0
SPLINE
  5
C9
330
C5
100
AcDbEntity
  8
レイヤー 1
100
AcDbSpline
210
0.0
220
0.0
230
1.0
 70
     9
 71
     3
 72
    17
 73
    13
 74
     0
 42
0.0000000001
 43
0.0000000001
 40
0.0
 40
0.0
 40
0.0
 40
0.0
 40
1.0
 40
1.0
 40
1.0
 40
2.0
 40
2.0
 40
2.0
 40
3.0
 40
3.0
 40
3.0
 40
4.0
 40
4.0
 40
4.0
 40
4.0
 10
120.5910888370397
 20
-148.318250830976
 30
0.0
 10
120.5910888370397
 20
-148.5804225974035
 30
0.0
 10
120.802617699834
 20
-148.6183186477412
 30
0.0
 10
120.9190619272355
 20
-148.6183186477412
 30
0.0
 10
121.0947617969832
 20
-148.6183186477412
 30
0.0
 10
121.2577148134356
 20
-148.5232340123483
 30
0.0
 10
121.2577148134356
 20
-148.339265913436
 30
0.0
 10
121.2577148134356
 20
-148.2186875714523
 30
0.0
 10
121.1984591710893
 20
-148.0429877017045
 30
0.0
 10
120.912860755362
 20
-148.0429877017045
 30
0.0
 10
120.6885850392723
 20
-148.0429877017045
 30
0.0
 10
120.5910888370397
 20
-148.1825140688571
 30
0.0
 10
120.5910888370397
 20
-148.318250830976
 30
0.0
  0
SPLINE
  5
CA
330
C5
100
AcDbEntity
  8
レイヤー 1
100
AcDbSpline
210
0.0
220
0.0
230
1.0
 70
     9
 71
     3
 72
    32
 73
    28
 74
     0
 42
0.0000000001
 43
0.0000000001
 40
0.0
 40
0.0
 40
0.0
 40
0.0
 40
1.0
 40
1.0
 40
1.0
 40
2.0
 40
2.0
 40
2.0
 40
3.0
 40
3.0
 40
3.0
 40
4.0
 40
4.0
 40
4.0
 40
5.0
 40
5.0
 40
5.0
 40
6.0
 40
6.0
 40
6.0
 40
7.0
 40
7.0
 40
7.0
 40
8.0
 40
8.0
 40
8.0
 40
9.0
 40
9.0
 40
9.0
 40
9.0
 10
121.4499511415125
 20
-148.3351317988537
 30
0.0
 10
121.4499511415125
 20
-148.8512071025441
 30
0.0
 10
120.8959797874843
 20
-148.8598198412572
 30
0.0
 10
120.6820393578503
 20
-148.8598198412572
 30
0.0
 10
120.4515624698871
 20
-148.8598198412572
 30
0.0
 10
119.8042290282086
 20
-148.8405273065399
 30
0.0
 10
119.8042290282086
 20
-148.2968912389674
 30
0.0
 10
119.8042290282086
 20
-148.1236029360593
 30
0.0
 10
119.8741644665592
 20
-147.8779676279611
 30
0.0
 10
120.2062716713373
 20
-147.8400715776233
 30
0.0
 10
120.2062716713373
 20
-147.8400715776233
 30
0.0
 10
120.2062716713373
 20
-148.0536674977088
 30
0.0
 10
120.2062716713373
 20
-148.0536674977088
 30
0.0
 10
120.1490830862822
 20
-148.0643472937131
 30
0.0
 10
120.0009439804164
 20
-148.0960421721774
 30
0.0
 10
120.0009439804164
 20
-148.2989582962586
 30
0.0
 10
120.0009439804164
 20
-148.5911023934078
 30
0.0
 10
120.3289170706122
 20
-148.6310655010367
 30
0.0
 10
120.5339002519846
 20
-148.6438123543321
 30
0.0
 10
120.4556965844694
 20
-148.5507947762303
 30
0.0
 10
120.3964409421231
 20
-148.4829263951709
 30
0.0
 10
120.3964409421231
 20
-148.3010253535497
 30
0.0
 10
120.3964409421231
 20
-148.1211913692197
 30
0.0
 10
120.5046169403599
 20
-147.8187119856148
 30
0.0
 10
120.9107936980709
 20
-147.8187119856148
 30
0.0
 10
121.2301540495535
 20
-147.8187119856148
 30
0.0
 10
121.4499511415125
 20
-148.0178385046622
 30
0.0
 10
121.4499511415125
 20
-148.3351317988537
 30
0.0
  0
HATCH
  5
CB
330
C5
100
AcDbEntity
  8
レイヤー 1
 62
    18
420
        0
440
 33554687
100
AcDbHatch
 10
0.0
 20
0.0
 30
0.0
210
0.0
220
0.0
230
1.0
  2
SOLID
 70
     1
 71
     1
 91
        2
 92
        1
 93
        1
 72
     4
 94
        3
 73
     0
 74
     0
 95
       17
 96
       13
 40
0.0
 40
0.0
 40
0.0
 40
0.0
 40
1.0
 40
1.0
 40
1.0
 40
2.0
 40
2.0
 40
2.0
 40
3.0
 40
3.0
 40
3.0
 40
4.0
 40
4.0
 40
4.0
 40
4.0
 10
120.5910888370397
 20
-148.318250830976
 10
120.5910888370397
 20
-148.5804225974035
 10
120.802617699834
 20
-148.6183186477412
 10
120.9190619272355
 20
-148.6183186477412
 10
121.0947617969832
 20
-148.6183186477412
 10
121.2577148134356
 20
-148.5232340123483
 10
121.2577148134356
 20
-148.339265913436
 10
121.2577148134356
 20
-148.2186875714523
 10
121.1984591710893
 20
-148.0429877017045
 10
120.912860755362
 20
-148.0429877017045
 10
120.6885850392723
 20
-148.0429877017045
 10
120.5910888370397
 20
-148.1825140688571
 10
120.5910888370397
 20
-148.318250830976
 97
        0
 97
        1
330
C9
 92
        1
 93
        1
 72
     4
 94
        3
 73
     0
 74
     0
 95
       32
 96
       28
 40
0.0
 40
0.0
 40
0.0
 40
0.0
 40
1.0
 40
1.0
 40
1.0
 40
2.0
 40
2.0
 40
2.0
 40
3.0
 40
3.0
 40
3.0
 40
4.0
 40
4.0
 40
4.0
 40
5.0
 40
5.0
 40
5.0
 40
6.0
 40
6.0
 40
6.0
 40
7.0
 40
7.0
 40
7.0
 40
8.0
 40
8.0
 40
8.0
 40
9.0
 40
9.0
 40
9.0
 40
9.0
 10
121.4499511415125
 20
-148.3351317988537
 10
121.4499511415125
 20
-148.8512071025441
 10
120.8959797874843
 20
-148.8598198412572
 10
120.6820393578503
 20
-148.8598198412572
 10
120.4515624698871
 20
-148.8598198412572
 10
119.8042290282086
 20
-148.8405273065399
 10
119.8042290282086
 20
-148.2968912389674
 10
119.8042290282086
 20
-148.1236029360593
 10
119.8741644665592
 20
-147.8779676279611
 10
120.2062716713373
 20
-147.8400715776233
 10
120.2062716713373
 20
-147.8400715776233
 10
120.2062716713373
 20
-148.0536674977088
 10
120.2062716713373
 20
-148.0536674977088
 10
120.1490830862822
 20
-148.0643472937131
 10
120.0009439804164
 20
-148.0960421721774
 10
120.0009439804164
 20
-148.2989582962586
 10
120.0009439804164
 20
-148.5911023934078
 10
120.3289170706122
 20
-148.6310655010367
 10
120.5339002519846
 20
-148.6438123543321
 10
120.4556965844694
 20
-148.5507947762303
 10
120.3964409421231
 20
-148.4829263951709
 10
120.3964409421231
 20
-148.3010253535497
 10
120.3964409421231
 20
-148.1211913692197
 10
120.5046169403599
 20
-147.8187119856148
 10
120.9107936980709
 20
-147.8187119856148
 10
121.2301540495535
 20
-147.8187119856148
 10
121.4499511415125
 20
-148.0178385046622
 10
121.4499511415125
 20
-148.3351317988537
 97
        0
 97
        1
330
CA
 75
     2
 76
     1
 98
        1
 10
0.0
 20
0.0
450
        0
451
        0
460
0.0
461
0.0
452
        0
462
0.0
453
        0
470

  0
ENDBLK
  5
C8
330
C5
100
AcDbEntity
  8
0
100
AcDbBlockEnd
  0
BLOCK
  5
D2
330
D0
100
AcDbEntity
  8
0
100
AcDbBlockBegin
  2
Block_8
 70
     0
 10
0.0
 20
0.0
 30
0.0
  3
Block_8
  1

  0
INSERT
  5
D5
330
D0
100
AcDbEntity
  8
レイヤー 1
100
AcDbBlockReference
  2
Block_9
 10
0.0
 20
0.0
 30
0.0
  0
ENDBLK
  5
D3
330
D0
100
AcDbEntity
  8
0
100
AcDbBlockEnd
  0
BLOCK
  5
D6
330
D4
100
AcDbEntity
  8
0
100
AcDbBlockBegin
  2
Block_9
 70
     0
 10
0.0
 20
0.0
 30
0.0
  3
Block_9
  1

  0
SPLINE
  5
D8
330
D4
100
AcDbEntity
  8
レイヤー 1
100
AcDbSpline
210
0.0
220
0.0
230
1.0
 70
    11
 71
     3
 72
    26
 73
    22
 74
     0
 42
0.0000000001
 43
0.0000000001
 40
0.0
 40
0.0
 40
0.0
 40
0.0
 40
1.0
 40
1.0
 40
1.0
 40
2.0
 40
2.0
 40
2.0
 40
3.0
 40
3.0
 40
3.0
 40
4.0
 40
4.0
 40
4.0
 40
5.0
 40
5.0
 40
5.0
 40
6.0
 40
6.0
 40
6.0
 40
7.0
 40
7.0
 40
7.0
 40
7.0
 10
86.10551077491459
 20
-144.2499375724445
 30
0.0
 10
86.10551077491459
 20
-144.2499375724445
 30
0.0
 10
85.00135767189203
 20
-144.2499375724445
 30
0.0
 10
85.00135767189203
 20
-144.2499375724445
 30
0.0
 10
85.00135767189203
 20
-144.2499375724445
 30
0.0
 10
85.00135767189203
 20
-144.5799777199314
 30
0.0
 10
85.00135767189203
 20
-144.5799777199314
 30
0.0
 10
85.00135767189203
 20
-144.5799777199314
 30
0.0
 10
84.85321856602629
 20
-144.5799777199314
 30
0.0
 10
84.85321856602629
 20
-144.5799777199314
 30
0.0
 10
84.8384046554397
 20
-144.2478705151533
 30
0.0
 10
84.67545163898739
 20
-144.2013617261024
 30
0.0
 10
84.5610744688771
 20
-144.1717339049293
 30
0.0
 10
84.5610744688771
 20
-144.1717339049293
 30
0.0
 10
84.5610744688771
 20
-144.0256618563547
 30
0.0
 10
84.5610744688771
 20
-144.0256618563547
 30
0.0
 10
84.5610744688771
 20
-144.0256618563547
 30
0.0
 10
86.10551077491459
 20
-144.0256618563547
 30
0.0
 10
86.10551077491459
 20
-144.0256618563547
 30
0.0
 10
86.10551077491459
 20
-144.0256618563547
 30
0.0
 10
86.10551077491459
 20
-144.2499375724445
 30
0.0
 10
86.10551077491459
 20
-144.2499375724445
 30
0.0
  0
HATCH
  5
D9
330
D4
100
AcDbEntity
  8
レイヤー 1
 62
    18
420
        0
440
 33554687
100
AcDbHatch
 10
0.0
 20
0.0
 30
0.0
210
0.0
220
0.0
230
1.0
  2
SOLID
 70
     1
 71
     1
 91
        1
 92
        1
 93
        1
 72
     4
 94
        3
 73
     0
 74
     0
 95
       26
 96
       22
 40
0.0
 40
0.0
 40
0.0
 40
0.0
 40
1.0
 40
1.0
 40
1.0
 40
2.0
 40
2.0
 40
2.0
 40
3.0
 40
3.0
 40
3.0
 40
4.0
 40
4.0
 40
4.0
 40
5.0
 40
5.0
 40
5.0
 40
6.0
 40
6.0
 40
6.0
 40
7.0
 40
7.0
 40
7.0
 40
7.0
 10
86.10551077491459
 20
-144.2499375724445
 10
86.10551077491459
 20
-144.2499375724445
 10
85.00135767189203
 20
-144.2499375724445
 10
85.00135767189203
 20
-144.2499375724445
 10
85.00135767189203
 20
-144.2499375724445
 10
85.00135767189203
 20
-144.5799777199314
 10
85.00135767189203
 20
-144.5799777199314
 10
85.00135767189203
 20
-144.5799777199314
 10
84.85321856602629
 20
-144.5799777199314
 10
84.85321856602629
 20
-144.5799777199314
 10
84.8384046554397
 20
-144.2478705151533
 10
84.67545163898739
 20
-144.2013617261024
 10
84.5610744688771
 20
-144.1717339049293
 10
84.5610744688771
 20
-144.1717339049293
 10
84.5610744688771
 20
-144.0256618563547
 10
84.5610744688771
 20
-144.0256618563547
 10
84.5610744688771
 20
-144.0256618563547
 10
86.10551077491459
 20
-144.0256618563547
 10
86.10551077491459
 20
-144.0256618563547
 10
86.10551077491459
 20
-144.0256618563547
 10
86.10551077491459
 20
-144.2499375724445
 10
86.10551077491459
 20
-144.2499375724445
 97
        0
 97
        1
330
D8
 75
     2
 76
     1
 98
        1
 10
0.0
 20
0.0
450
        0
451
        0
460
0.0
461
0.0
452
        0
462
0.0
453
        0
470

  0
SPLINE
  5
DA
330
D4
100
AcDbEntity
  8
レイヤー 1
100
AcDbSpline
210
0.0
220
0.0
230
1.0
 70
    11
 71
     3
 72
    17
 73
    13
 74
     0
 42
0.0000000001
 43
0.0000000001
 40
0.0
 40
0.0
 40
0.0
 40
0.0
 40
1.0
 40
1.0
 40
1.0
 40
2.0
 40
2.0
 40
2.0
 40
3.0
 40
3.0
 40
3.0
 40
4.0
 40
4.0
 40
4.0
 40
4.0
 10
86.10551077491459
 20
-143.4644558018075
 30
0.0
 10
86.10551077491459
 20
-143.4644558018075
 30
0.0
 10
85.85367429494283
 20
-143.4644558018075
 30
0.0
 10
85.85367429494283
 20
-143.4644558018075
 30
0.0
 10
85.85367429494283
 20
-143.4644558018075
 30
0.0
 10
85.85367429494283
 20
-143.2126193218357
 30
0.0
 10
85.85367429494283
 20
-143.2126193218357
 30
0.0
 10
85.85367429494283
 20
-143.2126193218357
 30
0.0
 10
86.10551077491459
 20
-143.2126193218357
 30
0.0
 10
86.10551077491459
 20
-143.2126193218357
 30
0.0
 10
86.10551077491459
 20
-143.2126193218357
 30
0.0
 10
86.10551077491459
 20
-143.4644558018075
 30
0.0
 10
86.10551077491459
 20
-143.4644558018075
 30
0.0
  0
HATCH
  5
DB
330
D4
100
AcDbEntity
  8
レイヤー 1
 62
    18
420
        0
440
 33554687
100
AcDbHatch
 10
0.0
 20
0.0
 30
0.0
210
0.0
220
0.0
230
1.0
  2
SOLID
 70
     1
 71
     1
 91
        1
 92
        1
 93
        1
 72
     4
 94
        3
 73
     0
 74
     0
 95
       17
 96
       13
 40
0.0
 40
0.0
 40
0.0
 40
0.0
 40
1.0
 40
1.0
 40
1.0
 40
2.0
 40
2.0
 40
2.0
 40
3.0
 40
3.0
 40
3.0
 40
4.0
 40
4.0
 40
4.0
 40
4.0
 10
86.10551077491459
 20
-143.4644558018075
 10
86.10551077491459
 20
-143.4644558018075
 10
85.85367429494283
 20
-143.4644558018075
 10
85.85367429494283
 20
-143.4644558018075
 10
85.85367429494283
 20
-143.4644558018075
 10
85.85367429494283
 20
-143.2126193218357
 10
85.85367429494283
 20
-143.2126193218357
 10
85.85367429494283
 20
-143.2126193218357
 10
86.10551077491459
 20
-143.2126193218357
 10
86.10551077491459
 20
-143.2126193218357
 10
86.10551077491459
 20
-143.2126193218357
 10
86.10551077491459
 20
-143.4644558018075
 10
86.10551077491459
 20
-143.4644558018075
 97
        0
 97
        1
330
DA
 75
     2
 76
     1
 98
        1
 10
0.0
 20
0.0
450
        0
451
        0
460
0.0
461
0.0
452
        0
462
0.0
453
        0
470

  0
SPLINE
  5
DC
330
D4
100
AcDbEntity
  8
レイヤー 1
100
AcDbSpline
210
0.0
220
0.0
230
1.0
 70
    11
 71
     3
 72
    26
 73
    22
 74
     0
 42
0.0000000001
 43
0.0000000001
 40
0.0
 40
0.0
 40
0.0
 40
0.0
 40
1.0
 40
1.0
 40
1.0
 40
2.0
 40
2.0
 40
2.0
 40
3.0
 40
3.0
 40
3.0
 40
4.0
 40
4.0
 40
4.0
 40
5.0
 40
5.0
 40
5.0
 40
6.0
 40
6.0
 40
6.0
 40
7.0
 40
7.0
 40
7.0
 40
7.0
 10
86.10551077491459
 20
-142.5249782629799
 30
0.0
 10
86.10551077491459
 20
-142.5249782629799
 30
0.0
 10
85.00135767189203
 20
-142.5249782629799
 30
0.0
 10
85.00135767189203
 20
-142.5249782629799
 30
0.0
 10
85.00135767189203
 20
-142.5249782629799
 30
0.0
 10
85.00135767189203
 20
-142.8550184104668
 30
0.0
 10
85.00135767189203
 20
-142.8550184104668
 30
0.0
 10
85.00135767189203
 20
-142.8550184104668
 30
0.0
 10
84.85321856602629
 20
-142.8550184104668
 30
0.0
 10
84.85321856602629
 20
-142.8550184104668
 30
0.0
 10
84.8384046554397
 20
-142.5229112056887
 30
0.0
 10
84.67545163898739
 20
-142.4764024166378
 30
0.0
 10
84.5610744688771
 20
-142.4467745954647
 30
0.0
 10
84.5610744688771
 20
-142.4467745954647
 30
0.0
 10
84.5610744688771
 20
-142.3007025468901
 30
0.0
 10
84.5610744688771
 20
-142.3007025468901
 30
0.0
 10
84.5610744688771
 20
-142.3007025468901
 30
0.0
 10
86.10551077491459
 20
-142.3007025468901
 30
0.0
 10
86.10551077491459
 20
-142.3007025468901
 30
0.0
 10
86.10551077491459
 20
-142.3007025468901
 30
0.0
 10
86.10551077491459
 20
-142.5249782629799
 30
0.0
 10
86.10551077491459
 20
-142.5249782629799
 30
0.0
  0
HATCH
  5
DD
330
D4
100
AcDbEntity
  8
レイヤー 1
 62
    18
420
        0
440
 33554687
100
AcDbHatch
 10
0.0
 20
0.0
 30
0.0
210
0.0
220
0.0
230
1.0
  2
SOLID
 70
     1
 71
     1
 91
        1
 92
        1
 93
        1
 72
     4
 94
        3
 73
     0
 74
     0
 95
       26
 96
       22
 40
0.0
 40
0.0
 40
0.0
 40
0.0
 40
1.0
 40
1.0
 40
1.0
 40
2.0
 40
2.0
 40
2.0
 40
3.0
 40
3.0
 40
3.0
 40
4.0
 40
4.0
 40
4.0
 40
5.0
 40
5.0
 40
5.0
 40
6.0
 40
6.0
 40
6.0
 40
7.0
 40
7.0
 40
7.0
 40
7.0
 10
86.10551077491459
 20
-142.5249782629799
 10
86.10551077491459
 20
-142.5249782629799
 10
85.00135767189203
 20
-142.5249782629799
 10
85.00135767189203
 20
-142.5249782629799
 10
85.00135767189203
 20
-142.5249782629799
 10
85.00135767189203
 20
-142.8550184104668
 10
85.00135767189203
 20
-142.8550184104668
 10
85.00135767189203
 20
-142.8550184104668
 10
84.85321856602629
 20
-142.8550184104668
 10
84.85321856602629
 20
-142.8550184104668
 10
84.8384046554397
 20
-142.5229112056887
 10
84.67545163898739
 20
-142.4764024166378
 10
84.5610744688771
 20
-142.4467745954647
 10
84.5610744688771
 20
-142.4467745954647
 10
84.5610744688771
 20
-142.3007025468901
 10
84.5610744688771
 20
-142.3007025468901
 10
84.5610744688771
 20
-142.3007025468901
 10
86.10551077491459
 20
-142.3007025468901
 10
86.10551077491459
 20
-142.3007025468901
 10
86.10551077491459
 20
-142.3007025468901
 10
86.10551077491459
 20
-142.5249782629799
 10
86.10551077491459
 20
-142.5249782629799
 97
        0
 97
        1
330
DC
 75
     2
 76
     1
 98
        1
 10
0.0
 20
0.0
450
        0
451
        0
460
0.0
461
0.0
452
        0
462
0.0
453
        0
470

  0
ENDBLK
  5
D7
330
D4
100
AcDbEntity
  8
0
100
AcDbBlockEnd
  0
BLOCK
  5
E3
330
E1
100
AcDbEntity
  8
0
100
AcDbBlockBegin
  2
Block_10
 70
     0
 10
0.0
 20
0.0
 30
0.0
  3
Block_10
  1

  0
INSERT
  5
E6
330
E1
100
AcDbEntity
  8
レイヤー 1
100
AcDbBlockReference
  2
Block_11
 10
0.0
 20
0.0
 30
0.0
  0
ENDBLK
  5
E4
330
E1
100
AcDbEntity
  8
0
100
AcDbBlockEnd
  0
BLOCK
  5
E7
330
E5
100
AcDbEntity
  8
0
100
AcDbBlockBegin
  2
Block_11
 70
     0
 10
0.0
 20
0.0
 30
0.0
  3
Block_11
  1

  0
SPLINE
  5
E9
330
E5
100
AcDbEntity
  8
レイヤー 1
100
AcDbSpline
210
0.0
220
0.0
230
1.0
 70
    11
 71
     3
 72
    26
 73
    22
 74
     0
 42
0.0000000001
 43
0.0000000001
 40
0.0
 40
0.0
 40
0.0
 40
0.0
 40
1.0
 40
1.0
 40
1.0
 40
2.0
 40
2.0
 40
2.0
 40
3.0
 40
3.0
 40
3.0
 40
4.0
 40
4.0
 40
4.0
 40
5.0
 40
5.0
 40
5.0
 40
6.0
 40
6.0
 40
6.0
 40
7.0
 40
7.0
 40
7.0
 40
7.0
 10
94.35048554498877
 20
-155.7923854862255
 30
0.0
 10
94.35048554498877
 20
-155.7923854862255
 30
0.0
 10
94.35048554498877
 20
-154.6882323832029
 30
0.0
 10
94.35048554498877
 20
-154.6882323832029
 30
0.0
 10
94.35048554498877
 20
-154.6882323832029
 30
0.0
 10
94.02044539750184
 20
-154.6882323832029
 30
0.0
 10
94.02044539750184
 20
-154.6882323832029
 30
0.0
 10
94.02044539750184
 20
-154.6882323832029
 30
0.0
 10
94.02044539750184
 20
-154.5400932773372
 30
0.0
 10
94.02044539750184
 20
-154.5400932773372
 30
0.0
 10
94.35255260227993
 20
-154.5252793667506
 30
0.0
 10
94.39906139133078
 20
-154.3623263502983
 30
0.0
 10
94.42868921250394
 20
-154.247949180188
 30
0.0
 10
94.42868921250394
 20
-154.247949180188
 30
0.0
 10
94.57476126107854
 20
-154.247949180188
 30
0.0
 10
94.57476126107854
 20
-154.247949180188
 30
0.0
 10
94.57476126107854
 20
-154.247949180188
 30
0.0
 10
94.57476126107854
 20
-155.7923854862255
 30
0.0
 10
94.57476126107854
 20
-155.7923854862255
 30
0.0
 10
94.57476126107854
 20
-155.7923854862255
 30
0.0
 10
94.35048554498877
 20
-155.7923854862255
 30
0.0
 10
94.35048554498877
 20
-155.7923854862255
 30
0.0
  0
HATCH
  5
EA
330
E5
100
AcDbEntity
  8
レイヤー 1
 62
    18
420
        0
440
 33554687
100
AcDbHatch
 10
0.0
 20
0.0
 30
0.0
210
0.0
220
0.0
230
1.0
  2
SOLID
 70
     1
 71
     1
 91
        1
 92
        1
 93
        1
 72
     4
 94
        3
 73
     0
 74
     0
 95
       26
 96
       22
 40
0.0
 40
0.0
 40
0.0
 40
0.0
 40
1.0
 40
1.0
 40
1.0
 40
2.0
 40
2.0
 40
2.0
 40
3.0
 40
3.0
 40
3.0
 40
4.0
 40
4.0
 40
4.0
 40
5.0
 40
5.0
 40
5.0
 40
6.0
 40
6.0
 40
6.0
 40
7.0
 40
7.0
 40
7.0
 40
7.0
 10
94.35048554498877
 20
-155.7923854862255
 10
94.35048554498877
 20
-155.7923854862255
 10
94.35048554498877
 20
-154.6882323832029
 10
94.35048554498877
 20
-154.6882323832029
 10
94.35048554498877
 20
-154.6882323832029
 10
94.02044539750184
 20
-154.6882323832029
 10
94.02044539750184
 20
-154.6882323832029
 10
94.02044539750184
 20
-154.6882323832029
 10
94.02044539750184
 20
-154.5400932773372
 10
94.02044539750184
 20
-154.5400932773372
 10
94.35255260227993
 20
-154.5252793667506
 10
94.39906139133078
 20
-154.3623263502983
 10
94.42868921250394
 20
-154.247949180188
 10
94.42868921250394
 20
-154.247949180188
 10
94.57476126107854
 20
-154.247949180188
 10
94.57476126107854
 20
-154.247949180188
 10
94.57476126107854
 20
-154.247949180188
 10
94.57476126107854
 20
-155.7923854862255
 10
94.57476126107854
 20
-155.7923854862255
 10
94.57476126107854
 20
-155.7923854862255
 10
94.35048554498877
 20
-155.7923854862255
 10
94.35048554498877
 20
-155.7923854862255
 97
        0
 97
        1
330
E9
 75
     2
 76
     1
 98
        1
 10
0.0
 20
0.0
450
        0
451
        0
460
0.0
461
0.0
452
        0
462
0.0
453
        0
470

  0
SPLINE
  5
EB
330
E5
100
AcDbEntity
  8
レイヤー 1
100
AcDbSpline
210
0.0
220
0.0
230
1.0
 70
     9
 71
     3
 72
    44
 73
    40
 74
     0
 42
0.0000000001
 43
0.0000000001
 40
0.0
 40
0.0
 40
0.0
 40
0.0
 40
1.0
 40
1.0
 40
1.0
 40
2.0
 40
2.0
 40
2.0
 40
3.0
 40
3.0
 40
3.0
 40
4.0
 40
4.0
 40
4.0
 40
5.0
 40
5.0
 40
5.0
 40
6.0
 40
6.0
 40
6.0
 40
7.0
 40
7.0
 40
7.0
 40
8.0
 40
8.0
 40
8.0
 40
9.0
 40
9.0
 40
9.0
 40
10.0
 40
10.0
 40
10.0
 40
11.0
 40
11.0
 40
11.0
 40
12.0
 40
12.0
 40
12.0
 40
13.0
 40
13.0
 40
13.0
 40
13.0
 10
95.66909584196814
 20
-155.2105088587668
 30
0.0
 10
95.45119355252609
 20
-155.3693277606368
 30
0.0
 10
95.35800371965008
 20
-155.4433973135697
 30
0.0
 10
95.30942787330806
 20
-155.5870577953046
 30
0.0
 10
95.30942787330806
 20
-155.5870577953046
 30
0.0
 10
96.08784719820027
 20
-155.5870577953046
 30
0.0
 10
96.08784719820027
 20
-155.5870577953046
 30
0.0
 10
96.08784719820027
 20
-155.5870577953046
 30
0.0
 10
96.08784719820027
 20
-155.7923854862255
 30
0.0
 10
96.08784719820027
 20
-155.7923854862255
 30
0.0
 10
96.08784719820027
 20
-155.7923854862255
 30
0.0
 10
95.05983070540171
 20
-155.7923854862255
 30
0.0
 10
95.05983070540171
 20
-155.7923854862255
 30
0.0
 10
95.09152558386601
 20
-155.4347845748566
 30
0.0
 10
95.15698239808576
 20
-155.3565809073414
 30
0.0
 10
95.54214407333669
 20
-155.0582356383188
 30
0.0
 10
95.79811466789076
 20
-154.8594536288199
 30
0.0
 10
95.8635714821105
 20
-154.7915852477604
 30
0.0
 10
95.8635714821105
 20
-154.6541259378989
 30
0.0
 10
95.8635714821105
 20
-154.5356146532063
 30
0.0
 10
95.79174124124305
 20
-154.4047010247669
 30
0.0
 10
95.59502628903528
 20
-154.4047010247669
 30
0.0
 10
95.33474932512465
 20
-154.4047010247669
 30
0.0
 10
95.3263088411858
 20
-154.6351779127301
 30
0.0
 10
95.32200247182922
 20
-154.7516221401315
 30
0.0
 10
95.32200247182922
 20
-154.7516221401315
 30
0.0
 10
95.09789901051373
 20
-154.7516221401315
 30
0.0
 10
95.09789901051373
 20
-154.7516221401315
 30
0.0
 10
95.10633949445258
 20
-154.6244981167258
 30
0.0
 10
95.1168470356826
 20
-154.5125325134552
 30
0.0
 10
95.19729001526318
 20
-154.3940212287626
 30
0.0
 10
95.30718856124265
 20
-154.2331352696014
 30
0.0
 10
95.49339597222042
 20
-154.199373333846
 30
0.0
 10
95.60984019962184
 20
-154.199373333846
 30
0.0
 10
95.88699813141019
 20
-154.199373333846
 30
0.0
 10
96.09422062484798
 20
-154.3833414327583
 30
0.0
 10
96.09422062484798
 20
-154.6561929951901
 30
0.0
 10
96.09422062484798
 20
-154.8849473354107
 30
0.0
 10
95.97794865222079
 20
-154.9841660853859
 30
0.0
 10
95.66909584196814
 20
-155.2105088587668
 30
0.0
  0
HATCH
  5
EC
330
E5
100
AcDbEntity
  8
レイヤー 1
 62
    18
420
        0
440
 33554687
100
AcDbHatch
 10
0.0
 20
0.0
 30
0.0
210
0.0
220
0.0
230
1.0
  2
SOLID
 70
     1
 71
     1
 91
        1
 92
        1
 93
        1
 72
     4
 94
        3
 73
     0
 74
     0
 95
       44
 96
       40
 40
0.0
 40
0.0
 40
0.0
 40
0.0
 40
1.0
 40
1.0
 40
1.0
 40
2.0
 40
2.0
 40
2.0
 40
3.0
 40
3.0
 40
3.0
 40
4.0
 40
4.0
 40
4.0
 40
5.0
 40
5.0
 40
5.0
 40
6.0
 40
6.0
 40
6.0
 40
7.0
 40
7.0
 40
7.0
 40
8.0
 40
8.0
 40
8.0
 40
9.0
 40
9.0
 40
9.0
 40
10.0
 40
10.0
 40
10.0
 40
11.0
 40
11.0
 40
11.0
 40
12.0
 40
12.0
 40
12.0
 40
13.0
 40
13.0
 40
13.0
 40
13.0
 10
95.66909584196814
 20
-155.2105088587668
 10
95.45119355252609
 20
-155.3693277606368
 10
95.35800371965008
 20
-155.4433973135697
 10
95.30942787330806
 20
-155.5870577953046
 10
95.30942787330806
 20
-155.5870577953046
 10
96.08784719820027
 20
-155.5870577953046
 10
96.08784719820027
 20
-155.5870577953046
 10
96.08784719820027
 20
-155.5870577953046
 10
96.08784719820027
 20
-155.7923854862255
 10
96.08784719820027
 20
-155.7923854862255
 10
96.08784719820027
 20
-155.7923854862255
 10
95.05983070540171
 20
-155.7923854862255
 10
95.05983070540171
 20
-155.7923854862255
 10
95.09152558386601
 20
-155.4347845748566
 10
95.15698239808576
 20
-155.3565809073414
 10
95.54214407333669
 20
-155.0582356383188
 10
95.79811466789076
 20
-154.8594536288199
 10
95.8635714821105
 20
-154.7915852477604
 10
95.8635714821105
 20
-154.6541259378989
 10
95.8635714821105
 20
-154.5356146532063
 10
95.79174124124305
 20
-154.4047010247669
 10
95.59502628903528
 20
-154.4047010247669
 10
95.33474932512465
 20
-154.4047010247669
 10
95.3263088411858
 20
-154.6351779127301
 10
95.32200247182922
 20
-154.7516221401315
 10
95.32200247182922
 20
-154.7516221401315
 10
95.09789901051373
 20
-154.7516221401315
 10
95.09789901051373
 20
-154.7516221401315
 10
95.10633949445258
 20
-154.6244981167258
 10
95.1168470356826
 20
-154.5125325134552
 10
95.19729001526318
 20
-154.3940212287626
 10
95.30718856124265
 20
-154.2331352696014
 10
95.49339597222042
 20
-154.199373333846
 10
95.60984019962184
 20
-154.199373333846
 10
95.88699813141019
 20
-154.199373333846
 10
96.09422062484798
 20
-154.3833414327583
 10
96.09422062484798
 20
-154.6561929951901
 10
96.09422062484798
 20
-154.8849473354107
 10
95.97794865222079
 20
-154.9841660853859
 10
95.66909584196814
 20
-155.2105088587668
 97
        0
 97
        1
330
EB
 75
     2
 76
     1
 98
        1
 10
0.0
 20
0.0
450
        0
451
        0
460
0.0
461
0.0
452
        0
462
0.0
453
        0
470

  0
ENDBLK
  5
E8
330
E5
100
AcDbEntity
  8
0
100
AcDbBlockEnd
  0
BLOCK
  5
F3
330
F1
100
AcDbEntity
  8
0
100
AcDbBlockBegin
  2
Block_12
 70
     0
 10
0.0
 20
0.0
 30
0.0
  3
Block_12
  1

  0
INSERT
  5
F6
330
F1
100
AcDbEntity
  8
レイヤー 1
100
AcDbBlockReference
  2
Block_13
 10
0.0
 20
0.0
 30
0.0
  0
ENDBLK
  5
F4
330
F1
100
AcDbEntity
  8
0
100
AcDbBlockEnd
  0
BLOCK
  5
F7
330
F5
100
AcDbEntity
  8
0
100
AcDbBlockBegin
  2
Block_13
 70
     0
 10
0.0
 20
0.0
 30
0.0
  3
Block_13
  1

  0
SPLINE
  5
F9
330
F5
100
AcDbEntity
  8
レイヤー 1
100
AcDbSpline
210
0.0
220
0.0
230
1.0
 70
     9
 71
     3
 72
    17
 73
    13
 74
     0
 42
0.0000000001
 43
0.0000000001
 40
0.0
 40
0.0
 40
0.0
 40
0.0
 40
1.0
 40
1.0
 40
1.0
 40
2.0
 40
2.0
 40
2.0
 40
3.0
 40
3.0
 40
3.0
 40
4.0
 40
4.0
 40
4.0
 40
4.0
 10
123.82121036401
 20
-152.5436604436349
 30
0.0
 10
123.82121036401
 20
-152.7934298663155
 30
0.0
 10
124.104741722446
 20
-152.8399386553664
 30
0.0
 10
124.4495957805195
 20
-152.8399386553664
 30
0.0
 10
124.7689561320022
 20
-152.8399386553664
 30
0.0
 10
125.0776366874806
 20
-152.8037651527713
 30
0.0
 10
125.0776366874806
 20
-152.5436604436349
 30
0.0
 10
125.0776366874806
 20
-152.2959580782455
 30
0.0
 10
124.7965168958842
 20
-152.2473822319034
 30
0.0
 10
124.4495957805195
 20
-152.2473822319034
 30
0.0
 10
124.1298909194883
 20
-152.2473822319034
 30
0.0
 10
123.82121036401
 20
-152.2856227917897
 30
0.0
 10
123.82121036401
 20
-152.5436604436349
 30
0.0
  0
SPLINE
  5
FA
330
F5
100
AcDbEntity
  8
レイヤー 1
100
AcDbSpline
210
0.0
220
0.0
230
1.0
 70
     9
 71
     3
 72
    29
 73
    25
 74
     0
 42
0.0000000001
 43
0.0000000001
 40
0.0
 40
0.0
 40
0.0
 40
0.0
 40
1.0
 40
1.0
 40
1.0
 40
2.0
 40
2.0
 40
2.0
 40
3.0
 40
3.0
 40
3.0
 40
4.0
 40
4.0
 40
4.0
 40
5.0
 40
5.0
 40
5.0
 40
6.0
 40
6.0
 40
6.0
 40
7.0
 40
7.0
 40
7.0
 40
8.0
 40
8.0
 40
8.0
 40
8.0
 10
125.0438747517251
 20
-152.1457519150885
 30
0.0
 10
125.2533365572283
 20
-152.2539279133254
 30
0.0
 10
125.2722845823972
 20
-152.4272162162335
 30
0.0
 10
125.2722845823972
 20
-152.5436604436349
 30
0.0
 10
125.2722845823972
 20
-152.7045464027961
 30
0.0
 10
125.2257757933463
 20
-152.8461398272398
 30
0.0
 10
125.0438747517251
 20
-152.9412244626327
 30
0.0
 10
124.8492268568085
 20
-153.0449218367388
 30
0.0
 10
124.6125487969719
 20
-153.0642143714562
 30
0.0
 10
124.4495957805195
 20
-153.0642143714562
 30
0.0
 10
124.3055907892361
 20
-153.0642143714562
 30
0.0
 10
124.0537543092643
 20
-153.0469888940299
 30
0.0
 10
123.8549722997654
 20
-152.9412244626327
 30
0.0
 10
123.6520561756842
 20
-152.8333929739444
 30
0.0
 10
123.6286295263845
 20
-152.6725070147833
 30
0.0
 10
123.6286295263845
 20
-152.5436604436349
 30
0.0
 10
123.6286295263845
 20
-152.3848415417649
 30
0.0
 10
123.6730712581442
 20
-152.24118106003
 30
0.0
 10
123.8549722997654
 20
-152.1457519150885
 30
0.0
 10
124.0475531373909
 20
-152.0465331651134
 30
0.0
 10
124.2759629680629
 20
-152.0231065158136
 30
0.0
 10
124.4495957805195
 20
-152.0231065158136
 30
0.0
 10
124.6208170261364
 20
-152.0231065158136
 30
0.0
 10
124.8512939140997
 20
-152.0444661078222
 30
0.0
 10
125.0438747517251
 20
-152.1457519150885
 30
0.0
  0
HATCH
  5
FB
330
F5
100
AcDbEntity
  8
レイヤー 1
 62
    18
420
        0
440
 33554687
100
AcDbHatch
 10
0.0
 20
0.0
 30
0.0
210
0.0
220
0.0
230
1.0
  2
SOLID
 70
     1
 71
     1
 91
        2
 92
        1
 93
        1
 72
     4
 94
        3
 73
     0
 74
     0
 95
       17
 96
       13
 40
0.0
 40
0.0
 40
0.0
 40
0.0
 40
1.0
 40
1.0
 40
1.0
 40
2.0
 40
2.0
 40
2.0
 40
3.0
 40
3.0
 40
3.0
 40
4.0
 40
4.0
 40
4.0
 40
4.0
 10
123.82121036401
 20
-152.5436604436349
 10
123.82121036401
 20
-152.7934298663155
 10
124.104741722446
 20
-152.8399386553664
 10
124.4495957805195
 20
-152.8399386553664
 10
124.7689561320022
 20
-152.8399386553664
 10
125.0776366874806
 20
-152.8037651527713
 10
125.0776366874806
 20
-152.5436604436349
 10
125.0776366874806
 20
-152.2959580782455
 10
124.7965168958842
 20
-152.2473822319034
 10
124.4495957805195
 20
-152.2473822319034
 10
124.1298909194883
 20
-152.2473822319034
 10
123.82121036401
 20
-152.2856227917897
 10
123.82121036401
 20
-152.5436604436349
 97
        0
 97
        1
330
F9
 92
        1
 93
        1
 72
     4
 94
        3
 73
     0
 74
     0
 95
       29
 96
       25
 40
0.0
 40
0.0
 40
0.0
 40
0.0
 40
1.0
 40
1.0
 40
1.0
 40
2.0
 40
2.0
 40
2.0
 40
3.0
 40
3.0
 40
3.0
 40
4.0
 40
4.0
 40
4.0
 40
5.0
 40
5.0
 40
5.0
 40
6.0
 40
6.0
 40
6.0
 40
7.0
 40
7.0
 40
7.0
 40
8.0
 40
8.0
 40
8.0
 40
8.0
 10
125.0438747517251
 20
-152.1457519150885
 10
125.2533365572283
 20
-152.2539279133254
 10
125.2722845823972
 20
-152.4272162162335
 10
125.2722845823972
 20
-152.5436604436349
 10
125.2722845823972
 20
-152.7045464027961
 10
125.2257757933463
 20
-152.8461398272398
 10
125.0438747517251
 20
-152.9412244626327
 10
124.8492268568085
 20
-153.0449218367388
 10
124.6125487969719
 20
-153.0642143714562
 10
124.4495957805195
 20
-153.0642143714562
 10
124.3055907892361
 20
-153.0642143714562
 10
124.0537543092643
 20
-153.0469888940299
 10
123.8549722997654
 20
-152.9412244626327
 10
123.6520561756842
 20
-152.8333929739444
 10
123.6286295263845
 20
-152.6725070147833
 10
123.6286295263845
 20
-152.5436604436349
 10
123.6286295263845
 20
-152.3848415417649
 10
123.6730712581442
 20
-152.24118106003
 10
123.8549722997654
 20
-152.1457519150885
 10
124.0475531373909
 20
-152.0465331651134
 10
124.2759629680629
 20
-152.0231065158136
 10
124.4495957805195
 20
-152.0231065158136
 10
124.6208170261364
 20
-152.0231065158136
 10
124.8512939140997
 20
-152.0444661078222
 10
125.0438747517251
 20
-152.1457519150885
 97
        0
 97
        1
330
FA
 75
     2
 76
     1
 98
        1
 10
0.0
 20
0.0
450
        0
451
        0
460
0.0
461
0.0
452
        0
462
0.0
453
        0
470

  0
SPLINE
  5
FC
330
F5
100
AcDbEntity
  8
レイヤー 1
100
AcDbSpline
210
0.0
220
0.0
230
1.0
 70
    11
 71
     3
 72
    17
 73
    13
 74
     0
 42
0.0000000001
 43
0.0000000001
 40
0.0
 40
0.0
 40
0.0
 40
0.0
 40
1.0
 40
1.0
 40
1.0
 40
2.0
 40
2.0
 40
2.0
 40
3.0
 40
3.0
 40
3.0
 40
4.0
 40
4.0
 40
4.0
 40
4.0
 10
125.221641678764
 20
-151.80675451934
 30
0.0
 10
125.221641678764
 20
-151.80675451934
 30
0.0
 10
124.9698051987923
 20
-151.80675451934
 30
0.0
 10
124.9698051987923
 20
-151.80675451934
 30
0.0
 10
124.9698051987923
 20
-151.80675451934
 30
0.0
 10
124.9698051987923
 20
-151.5549180393682
 30
0.0
 10
124.9698051987923
 20
-151.5549180393682
 30
0.0
 10
124.9698051987923
 20
-151.5549180393682
 30
0.0
 10
125.221641678764
 20
-151.5549180393682
 30
0.0
 10
125.221641678764
 20
-151.5549180393682
 30
0.0
 10
125.221641678764
 20
-151.5549180393682
 30
0.0
 10
125.221641678764
 20
-151.80675451934
 30
0.0
 10
125.221641678764
 20
-151.80675451934
 30
0.0
  0
HATCH
  5
FD
330
F5
100
AcDbEntity
  8
レイヤー 1
 62
    18
420
        0
440
 33554687
100
AcDbHatch
 10
0.0
 20
0.0
 30
0.0
210
0.0
220
0.0
230
1.0
  2
SOLID
 70
     1
 71
     1
 91
        1
 92
        1
 93
        1
 72
     4
 94
        3
 73
     0
 74
     0
 95
       17
 96
       13
 40
0.0
 40
0.0
 40
0.0
 40
0.0
 40
1.0
 40
1.0
 40
1.0
 40
2.0
 40
2.0
 40
2.0
 40
3.0
 40
3.0
 40
3.0
 40
4.0
 40
4.0
 40
4.0
 40
4.0
 10
125.221641678764
 20
-151.80675451934
 10
125.221641678764
 20
-151.80675451934
 10
124.9698051987923
 20
-151.80675451934
 10
124.9698051987923
 20
-151.80675451934
 10
124.9698051987923
 20
-151.80675451934
 10
124.9698051987923
 20
-151.5549180393682
 10
124.9698051987923
 20
-151.5549180393682
 10
124.9698051987923
 20
-151.5549180393682
 10
125.221641678764
 20
-151.5549180393682
 10
125.221641678764
 20
-151.5549180393682
 10
125.221641678764
 20
-151.5549180393682
 10
125.221641678764
 20
-151.80675451934
 10
125.221641678764
 20
-151.80675451934
 97
        0
 97
        1
330
FC
 75
     2
 76
     1
 98
        1
 10
0.0
 20
0.0
450
        0
451
        0
460
0.0
461
0.0
452
        0
462
0.0
453
        0
470

  0
SPLINE
  5
FE
330
F5
100
AcDbEntity
  8
レイヤー 1
100
AcDbSpline
210
0.0
220
0.0
230
1.0
 70
    11
 71
     3
 72
    14
 73
    10
 74
     0
 42
0.0000000001
 43
0.0000000001
 40
0.0
 40
0.0
 40
0.0
 40
0.0
 40
1.0
 40
1.0
 40
1.0
 40
2.0
 40
2.0
 40
2.0
 40
3.0
 40
3.0
 40
3.0
 40
3.0
 10
124.0199923735089
 20
-150.70432396406
 30
0.0
 10
124.0199923735089
 20
-150.70432396406
 30
0.0
 10
124.6759385539004
 20
-151.1614881349527
 30
0.0
 10
124.6759385539004
 20
-151.1614881349527
 30
0.0
 10
124.6759385539004
 20
-151.1614881349527
 30
0.0
 10
124.6759385539004
 20
-150.70432396406
 30
0.0
 10
124.6759385539004
 20
-150.70432396406
 30
0.0
 10
124.6759385539004
 20
-150.70432396406
 30
0.0
 10
124.0199923735089
 20
-150.70432396406
 30
0.0
 10
124.0199923735089
 20
-150.70432396406
 30
0.0
  0
SPLINE
  5
FF
330
F5
100
AcDbEntity
  8
レイヤー 1
100
AcDbSpline
210
0.0
220
0.0
230
1.0
 70
    11
 71
     3
 72
    38
 73
    34
 74
     0
 42
0.0000000001
 43
0.0000000001
 40
0.0
 40
0.0
 40
0.0
 40
0.0
 40
1.0
 40
1.0
 40
1.0
 40
2.0
 40
2.0
 40
2.0
 40
3.0
 40
3.0
 40
3.0
 40
4.0
 40
4.0
 40
4.0
 40
5.0
 40
5.0
 40
5.0
 40
6.0
 40
6.0
 40
6.0
 40
7.0
 40
7.0
 40
7.0
 40
8.0
 40
8.0
 40
8.0
 40
9.0
 40
9.0
 40
9.0
 40
10.0
 40
10.0
 40
10.0
 40
11.0
 40
11.0
 40
11.0
 40
11.0
 10
124.8747205633994
 20
-150.4865939293922
 30
0.0
 10
124.8747205633994
 20
-150.4865939293922
 30
0.0
 10
125.221641678764
 20
-150.4865939293922
 30
0.0
 10
125.221641678764
 20
-150.4865939293922
 30
0.0
 10
125.221641678764
 20
-150.4865939293922
 30
0.0
 10
125.221641678764
 20
-150.70432396406
 30
0.0
 10
125.221641678764
 20
-150.70432396406
 30
0.0
 10
125.221641678764
 20
-150.70432396406
 30
0.0
 10
124.8747205633994
 20
-150.70432396406
 30
0.0
 10
124.8747205633994
 20
-150.70432396406
 30
0.0
 10
124.8747205633994
 20
-150.70432396406
 30
0.0
 10
124.8747205633994
 20
-151.3602701444516
 30
0.0
 10
124.8747205633994
 20
-151.3602701444516
 30
0.0
 10
124.8747205633994
 20
-151.3602701444516
 30
0.0
 10
124.6504448473096
 20
-151.3602701444516
 30
0.0
 10
124.6504448473096
 20
-151.3602701444516
 30
0.0
 10
124.6504448473096
 20
-151.3602701444516
 30
0.0
 10
123.6772053727265
 20
-150.6812418243088
 30
0.0
 10
123.6772053727265
 20
-150.6812418243088
 30
0.0
 10
123.6772053727265
 20
-150.6812418243088
 30
0.0
 10
123.6772053727265
 20
-150.4865939293922
 30
0.0
 10
123.6772053727265
 20
-150.4865939293922
 30
0.0
 10
123.6772053727265
 20
-150.4865939293922
 30
0.0
 10
124.6759385539004
 20
-150.4865939293922
 30
0.0
 10
124.6759385539004
 20
-150.4865939293922
 30
0.0
 10
124.6759385539004
 20
-150.4865939293922
 30
0.0
 10
124.6759385539004
 20
-150.2791991811802
 30
0.0
 10
124.6759385539004
 20
-150.2791991811802
 30
0.0
 10
124.6759385539004
 20
-150.2791991811802
 30
0.0
 10
124.8747205633994
 20
-150.2791991811802
 30
0.0
 10
124.8747205633994
 20
-150.2791991811802
 30
0.0
 10
124.8747205633994
 20
-150.2791991811802
 30
0.0
 10
124.8747205633994
 20
-150.4865939293922
 30
0.0
 10
124.8747205633994
 20
-150.4865939293922
 30
0.0
  0
HATCH
  5
100
330
F5
100
AcDbEntity
  8
レイヤー 1
 62
    18
420
        0
440
 33554687
100
AcDbHatch
 10
0.0
 20
0.0
 30
0.0
210
0.0
220
0.0
230
1.0
  2
SOLID
 70
     1
 71
     1
 91
        2
 92
        1
 93
        1
 72
     4
 94
        3
 73
     0
 74
     0
 95
       14
 96
       10
 40
0.0
 40
0.0
 40
0.0
 40
0.0
 40
1.0
 40
1.0
 40
1.0
 40
2.0
 40
2.0
 40
2.0
 40
3.0
 40
3.0
 40
3.0
 40
3.0
 10
124.0199923735089
 20
-150.70432396406
 10
124.0199923735089
 20
-150.70432396406
 10
124.6759385539004
 20
-151.1614881349527
 10
124.6759385539004
 20
-151.1614881349527
 10
124.6759385539004
 20
-151.1614881349527
 10
124.6759385539004
 20
-150.70432396406
 10
124.6759385539004
 20
-150.70432396406
 10
124.6759385539004
 20
-150.70432396406
 10
124.0199923735089
 20
-150.70432396406
 10
124.0199923735089
 20
-150.70432396406
 97
        0
 97
        1
330
FE
 92
        1
 93
        1
 72
     4
 94
        3
 73
     0
 74
     0
 95
       38
 96
       34
 40
0.0
 40
0.0
 40
0.0
 40
0.0
 40
1.0
 40
1.0
 40
1.0
 40
2.0
 40
2.0
 40
2.0
 40
3.0
 40
3.0
 40
3.0
 40
4.0
 40
4.0
 40
4.0
 40
5.0
 40
5.0
 40
5.0
 40
6.0
 40
6.0
 40
6.0
 40
7.0
 40
7.0
 40
7.0
 40
8.0
 40
8.0
 40
8.0
 40
9.0
 40
9.0
 40
9.0
 40
10.0
 40
10.0
 40
10.0
 40
11.0
 40
11.0
 40
11.0
 40
11.0
 10
124.8747205633994
 20
-150.4865939293922
 10
124.8747205633994
 20
-150.4865939293922
 10
125.221641678764
 20
-150.4865939293922
 10
125.221641678764
 20
-150.4865939293922
 10
125.221641678764
 20
-150.4865939293922
 10
125.221641678764
 20
-150.70432396406
 10
125.221641678764
 20
-150.70432396406
 10
125.221641678764
 20
-150.70432396406
 10
124.8747205633994
 20
-150.70432396406
 10
124.8747205633994
 20
-150.70432396406
 10
124.8747205633994
 20
-150.70432396406
 10
124.8747205633994
 20
-151.3602701444516
 10
124.8747205633994
 20
-151.3602701444516
 10
124.8747205633994
 20
-151.3602701444516
 10
124.6504448473096
 20
-151.3602701444516
 10
124.6504448473096
 20
-151.3602701444516
 10
124.6504448473096
 20
-151.3602701444516
 10
123.6772053727265
 20
-150.6812418243088
 10
123.6772053727265
 20
-150.6812418243088
 10
123.6772053727265
 20
-150.6812418243088
 10
123.6772053727265
 20
-150.4865939293922
 10
123.6772053727265
 20
-150.4865939293922
 10
123.6772053727265
 20
-150.4865939293922
 10
124.6759385539004
 20
-150.4865939293922
 10
124.6759385539004
 20
-150.4865939293922
 10
124.6759385539004
 20
-150.4865939293922
 10
124.6759385539004
 20
-150.2791991811802
 10
124.6759385539004
 20
-150.2791991811802
 10
124.6759385539004
 20
-150.2791991811802
 10
124.8747205633994
 20
-150.2791991811802
 10
124.8747205633994
 20
-150.2791991811802
 10
124.8747205633994
 20
-150.2791991811802
 10
124.8747205633994
 20
-150.4865939293922
 10
124.8747205633994
 20
-150.4865939293922
 97
        0
 97
        1
330
FF
 75
     2
 76
     1
 98
        1
 10
0.0
 20
0.0
450
        0
451
        0
460
0.0
461
0.0
452
        0
462
0.0
453
        0
470

  0
ENDBLK
  5
F8
330
F5
100
AcDbEntity
  8
0
100
AcDbBlockEnd
  0
ENDSEC
  0
SECTION
  2
ENTITIES
  0
INSERT
  5
7A
330
70
100
AcDbEntity
  8
レイヤー 1
100
AcDbBlockReference
  2
Block_0
 10
0.0
 20
0.0
 30
0.0
  0
INSERT
  5
A2
330
70
100
AcDbEntity
  8
レイヤー 1
100
AcDbBlockReference
  2
Block_4
 10
0.0
 20
0.0
 30
0.0
  0
SPLINE
  5
AD
330
70
100
AcDbEntity
  8
レイヤー 1
 62
    18
420
        0
370
     9
100
AcDbSpline
210
0.0
220
0.0
230
1.0
 70
     9
 71
     3
 72
    17
 73
    13
 74
     0
 42
0.0000000001
 43
0.0000000001
 40
0.0
 40
0.0
 40
0.0
 40
0.0
 40
1.0
 40
1.0
 40
1.0
 40
2.0
 40
2.0
 40
2.0
 40
3.0
 40
3.0
 40
3.0
 40
4.0
 40
4.0
 40
4.0
 40
4.0
 10
122.1459661304304
 20
-145.3382610180768
 30
0.0
 10
122.1459661304304
 20
-145.2831218528169
 30
0.0
 10
122.1011986315725
 20
-145.238354353959
 30
0.0
 10
122.0457066885438
 20
-145.238354353959
 30
0.0
 10
121.9906028010607
 20
-145.238354353959
 30
0.0
 10
121.9458000244259
 20
-145.2831218528169
 30
0.0
 10
121.9458000244259
 20
-145.3382610180768
 30
0.0
 10
121.9458000244259
 20
-145.3937176833287
 30
0.0
 10
121.9906028010607
 20
-145.4385204599635
 30
0.0
 10
122.0457066885438
 20
-145.4385204599635
 30
0.0
 10
122.1011986315725
 20
-145.4385204599635
 30
0.0
 10
122.1459661304304
 20
-145.3937176833287
 30
0.0
 10
122.1459661304304
 20
-145.3382610180768
 30
0.0
  0
SPLINE
  5
AE
330
70
100
AcDbEntity
  8
レイヤー 1
 62
    18
420
        0
370
     9
100
AcDbSpline
210
0.0
220
0.0
230
1.0
 70
     9
 71
     3
 72
    17
 73
    13
 74
     0
 42
0.0000000001
 43
0.0000000001
 40
0.0
 40
0.0
 40
0.0
 40
0.0
 40
1.0
 40
1.0
 40
1.0
 40
2.0
 40
2.0
 40
2.0
 40
3.0
 40
3.0
 40
3.0
 40
4.0
 40
4.0
 40
4.0
 40
4.0
 10
122.1459661304304
 20
-151.3385875316627
 30
0.0
 10
122.1459661304304
 20
-151.283095588634
 30
0.0
 10
122.1011986315725
 20
-151.2383280897761
 30
0.0
 10
122.0457066885438
 20
-151.2383280897761
 30
0.0
 10
121.9906028010607
 20
-151.2383280897761
 30
0.0
 10
121.9458000244259
 20
-151.283095588634
 30
0.0
 10
121.9458000244259
 20
-151.3385875316627
 30
0.0
 10
121.9458000244259
 20
-151.3936914191458
 30
0.0
 10
121.9906028010607
 20
-151.4384941957806
 30
0.0
 10
122.0457066885438
 20
-151.4384941957806
 30
0.0
 10
122.1011986315725
 20
-151.4384941957806
 30
0.0
 10
122.1459661304304
 20
-151.3936914191458
 30
0.0
 10
122.1459661304304
 20
-151.3385875316627
 30
0.0
  0
SPLINE
  5
AF
330
70
100
AcDbEntity
  8
レイヤー 1
 62
    18
420
        0
370
     9
100
AcDbSpline
210
0.0
220
0.0
230
1.0
 70
     9
 71
     3
 72
    17
 73
    13
 74
     0
 42
0.0000000001
 43
0.0000000001
 40
0.0
 40
0.0
 40
0.0
 40
0.0
 40
1.0
 40
1.0
 40
1.0
 40
2.0
 40
2.0
 40
2.0
 40
3.0
 40
3.0
 40
3.0
 40
4.0
 40
4.0
 40
4.0
 40
4.0
 10
122.1459661304304
 20
-151.7385669659029
 30
0.0
 10
122.1459661304304
 20
-151.6830689356516
 30
0.0
 10
122.1011986315725
 20
-151.6383075240162
 30
0.0
 10
122.0457066885438
 20
-151.6383075240162
 30
0.0
 10
121.9906028010607
 20
-151.6383075240162
 30
0.0
 10
121.9458000244259
 20
-151.6830689356516
 30
0.0
 10
121.9458000244259
 20
-151.7385669659029
 30
0.0
 10
121.9458000244259
 20
-151.7936708533859
 30
0.0
 10
121.9906028010607
 20
-151.8384736300207
 30
0.0
 10
122.0457066885438
 20
-151.8384736300207
 30
0.0
 10
122.1011986315725
 20
-151.8384736300207
 30
0.0
 10
122.1459661304304
 20
-151.7936708533859
 30
0.0
 10
122.1459661304304
 20
-151.7385669659029
 30
0.0
  0
SPLINE
  5
B0
330
70
100
AcDbEntity
  8
レイヤー 1
 62
    18
420
        0
370
     9
100
AcDbSpline
210
0.0
220
0.0
230
1.0
 70
     9
 71
     3
 72
    17
 73
    13
 74
     0
 42
0.0000000001
 43
0.0000000001
 40
0.0
 40
0.0
 40
0.0
 40
0.0
 40
1.0
 40
1.0
 40
1.0
 40
2.0
 40
2.0
 40
2.0
 40
3.0
 40
3.0
 40
3.0
 40
4.0
 40
4.0
 40
4.0
 40
4.0
 10
118.0875803633302
 20
-156.4383429571127
 30
0.0
 10
118.0875803633302
 20
-156.3832390696297
 30
0.0
 10
118.0428128644724
 20
-156.3384362929949
 30
0.0
 10
117.9876736992124
 20
-156.3384362929949
 30
0.0
 10
117.9322181995594
 20
-156.3384362929949
 30
0.0
 10
117.8874495351027
 20
-156.3832390696297
 30
0.0
 10
117.8874495351027
 20
-156.4383429571127
 30
0.0
 10
117.8874495351027
 20
-156.4934821223727
 30
0.0
 10
117.9322181995594
 20
-156.5382496212305
 30
0.0
 10
117.9876736992124
 20
-156.5382496212305
 30
0.0
 10
118.0428128644724
 20
-156.5382496212305
 30
0.0
 10
118.0875803633302
 20
-156.4934821223727
 30
0.0
 10
118.0875803633302
 20
-156.4383429571127
 30
0.0
  0
SPLINE
  5
B1
330
70
100
AcDbEntity
  8
レイヤー 1
 62
    18
420
        0
370
     9
100
AcDbSpline
210
0.0
220
0.0
230
1.0
 70
     9
 71
     3
 72
    17
 73
    13
 74
     0
 42
0.0000000001
 43
0.0000000001
 40
0.0
 40
0.0
 40
0.0
 40
0.0
 40
1.0
 40
1.0
 40
1.0
 40
2.0
 40
2.0
 40
2.0
 40
3.0
 40
3.0
 40
3.0
 40
4.0
 40
4.0
 40
4.0
 40
4.0
 10
89.08791365106379
 20
-156.4383429571127
 30
0.0
 10
89.08791365106379
 20
-156.3832390696297
 30
0.0
 10
89.04314615107523
 20
-156.3384362929949
 30
0.0
 10
88.98800698442151
 20
-156.3384362929949
 30
0.0
 10
88.93255031776948
 20
-156.3384362929949
 30
0.0
 10
88.88774754000277
 20
-156.3832390696297
 30
0.0
 10
88.88774754000277
 20
-156.4383429571127
 30
0.0
 10
88.88774754000277
 20
-156.4934821223727
 30
0.0
 10
88.93255031776948
 20
-156.5382496212305
 30
0.0
 10
88.98800698442151
 20
-156.5382496212305
 30
0.0
 10
89.04314615107523
 20
-156.5382496212305
 30
0.0
 10
89.08791365106379
 20
-156.4934821223727
 30
0.0
 10
89.08791365106379
 20
-156.4383429571127
 30
0.0
  0
SPLINE
  5
B2
330
70
100
AcDbEntity
  8
レイヤー 1
 62
    18
420
        0
370
     9
100
AcDbSpline
210
0.0
220
0.0
230
1.0
 70
     9
 71
     3
 72
    17
 73
    13
 74
     0
 42
0.0000000001
 43
0.0000000001
 40
0.0
 40
0.0
 40
0.0
 40
0.0
 40
1.0
 40
1.0
 40
1.0
 40
2.0
 40
2.0
 40
2.0
 40
3.0
 40
3.0
 40
3.0
 40
4.0
 40
4.0
 40
4.0
 40
4.0
 10
86.85169059606707
 20
-145.3382610180768
 30
0.0
 10
86.85169059606707
 20
-145.2831218528169
 30
0.0
 10
86.8069230960785
 20
-145.238354353959
 30
0.0
 10
86.75146642942584
 20
-145.238354353959
 30
0.0
 10
86.69632726277276
 20
-145.238354353959
 30
0.0
 10
86.65155976278354
 20
-145.2831218528169
 30
0.0
 10
86.65155976278354
 20
-145.3382610180768
 30
0.0
 10
86.65155976278354
 20
-145.3937176833287
 30
0.0
 10
86.69632726277276
 20
-145.4385204599635
 30
0.0
 10
86.75146642942584
 20
-145.4385204599635
 30
0.0
 10
86.8069230960785
 20
-145.4385204599635
 30
0.0
 10
86.85169059606707
 20
-145.3937176833287
 30
0.0
 10
86.85169059606707
 20
-145.3382610180768
 30
0.0
  0
SPLINE
  5
B3
330
70
100
AcDbEntity
  8
レイヤー 1
 62
    18
420
        0
370
     9
100
AcDbSpline
210
0.0
220
0.0
230
1.0
 70
     9
 71
     3
 72
    17
 73
    13
 74
     0
 42
0.0000000001
 43
0.0000000001
 40
0.0
 40
0.0
 40
0.0
 40
0.0
 40
1.0
 40
1.0
 40
1.0
 40
2.0
 40
2.0
 40
2.0
 40
3.0
 40
3.0
 40
3.0
 40
4.0
 40
4.0
 40
4.0
 40
4.0
 10
86.85169059606707
 20
-146.4382573789028
 30
0.0
 10
86.85169059606707
 20
-146.3831534914191
 30
0.0
 10
86.8069230960785
 20
-146.3383507147846
 30
0.0
 10
86.75146642942584
 20
-146.3383507147846
 30
0.0
 10
86.69632726277276
 20
-146.3383507147846
 30
0.0
 10
86.65155976278354
 20
-146.3831534914191
 30
0.0
 10
86.65155976278354
 20
-146.4382573789028
 30
0.0
 10
86.65155976278354
 20
-146.4937493219312
 30
0.0
 10
86.69632726277276
 20
-146.5385106036045
 30
0.0
 10
86.75146642942584
 20
-146.5385106036045
 30
0.0
 10
86.8069230960785
 20
-146.5385106036045
 30
0.0
 10
86.85169059606707
 20
-146.4937493219312
 30
0.0
 10
86.85169059606707
 20
-146.4382573789028
 30
0.0
  0
SPLINE
  5
B4
330
70
100
AcDbEntity
  8
レイヤー 1
 62
    18
420
        0
370
     9
100
AcDbSpline
210
0.0
220
0.0
230
1.0
 70
     9
 71
     3
 72
    17
 73
    13
 74
     0
 42
0.0000000001
 43
0.0000000001
 40
0.0
 40
0.0
 40
0.0
 40
0.0
 40
1.0
 40
1.0
 40
1.0
 40
2.0
 40
2.0
 40
2.0
 40
3.0
 40
3.0
 40
3.0
 40
4.0
 40
4.0
 40
4.0
 40
4.0
 10
101.0877848704367
 20
-156.4383429571127
 30
0.0
 10
101.0877848704367
 20
-156.3832390696297
 30
0.0
 10
101.0429820926706
 20
-156.3384362929949
 30
0.0
 10
100.9875254260172
 20
-156.3384362929949
 30
0.0
 10
100.9323862593648
 20
-156.3384362929949
 30
0.0
 10
100.8876187593756
 20
-156.3832390696297
 30
0.0
 10
100.8876187593756
 20
-156.4383429571127
 30
0.0
 10
100.8876187593756
 20
-156.4934821223727
 30
0.0
 10
100.9323862593648
 20
-156.5382496212305
 30
0.0
 10
100.9875254260172
 20
-156.5382496212305
 30
0.0
 10
101.0429820926706
 20
-156.5382496212305
 30
0.0
 10
101.0877848704367
 20
-156.4934821223727
 30
0.0
 10
101.0877848704367
 20
-156.4383429571127
 30
0.0
  0
LINE
  5
B5
330
70
100
AcDbEntity
  8
レイヤー 1
 62
    18
420
        0
370
     9
100
AcDbLine
 10
100.9875254260172
 20
-156.4383429571127
 30
0.0
 11
117.9876736992124
 21
-156.4383429571127
 31
0.0
  0
LINE
  5
B6
330
70
100
AcDbEntity
  8
レイヤー 1
 62
    18
420
        0
370
     9
100
AcDbLine
 10
117.9876736992124
 20
-154.2782846788871
 30
0.0
 11
117.9876736992124
 21
-157.4384679315974
 31
0.0
  0
INSERT
  5
B8
330
70
100
AcDbEntity
  8
レイヤー 1
100
AcDbBlockReference
  2
Block_5
 10
0.0
 20
0.0
 30
0.0
  0
LINE
  5
C3
330
70
100
AcDbEntity
  8
レイヤー 1
 62
    18
420
        0
370
     9
100
AcDbLine
 10
122.0457066885438
 20
-151.3385875316627
 30
0.0
 11
122.0457066885438
 21
-145.3382610180768
 31
0.0
  0
LINE
  5
C4
330
70
100
AcDbEntity
  8
レイヤー 1
 62
    18
420
        0
370
     9
100
AcDbLine
 10
91.52615262130828
 20
-145.3382610180768
 30
0.0
 11
123.0458314752769
 21
-145.3382610180768
 31
0.0
  0
INSERT
  5
C6
330
70
100
AcDbEntity
  8
レイヤー 1
100
AcDbBlockReference
  2
Block_7
 10
0.0
 20
0.0
 30
0.0
  0
LINE
  5
CC
330
70
100
AcDbEntity
  8
レイヤー 1
 62
    18
420
        0
370
     9
100
AcDbLine
 10
86.75146642942584
 20
-145.3382610180768
 30
0.0
 11
86.75146642942584
 21
-144.3384888213609
 31
0.0
  0
LINE
  5
CD
330
70
100
AcDbEntity
  8
レイヤー 1
 62
    18
420
        0
370
     9
100
AcDbLine
 10
86.75146642942584
 20
-145.3382610180768
 30
0.0
 11
86.75146642942584
 21
-147.4383823533872
 31
0.0
  0
LINE
  5
CE
330
70
100
AcDbEntity
  8
レイヤー 1
 62
    18
420
        0
370
     9
100
AcDbLine
 10
88.21147254017139
 20
-145.3382610180768
 30
0.0
 11
85.7516942074533
 21
-145.3382610180768
 31
0.0
  0
LINE
  5
CF
330
70
100
AcDbEntity
  8
レイヤー 1
 62
    18
420
        0
370
     9
100
AcDbLine
 10
88.21147254017139
 20
-146.4382573789028
 30
0.0
 11
85.7516942074533
 21
-146.4382573789028
 31
0.0
  0
INSERT
  5
D1
330
70
100
AcDbEntity
  8
レイヤー 1
100
AcDbBlockReference
  2
Block_8
 10
0.0
 20
0.0
 30
0.0
  0
LINE
  5
DE
330
70
100
AcDbEntity
  8
レイヤー 1
 62
    18
420
        0
370
     9
100
AcDbLine
 10
88.98800698442151
 20
-156.4383429571127
 30
0.0
 11
100.987525314755
 21
-156.4383429571127
 31
0.0
  0
LINE
  5
DF
330
70
100
AcDbEntity
  8
レイヤー 1
 62
    18
420
        0
370
     9
100
AcDbLine
 10
88.98800698442151
 20
-148.9783217141058
 30
0.0
 11
88.98800698442151
 21
-157.4384679315974
 31
0.0
  0
LINE
  5
E0
330
70
100
AcDbEntity
  8
レイヤー 1
 62
    18
420
        0
370
     9
100
AcDbLine
 10
100.9875254260172
 20
-154.9783368832488
 30
0.0
 11
100.9875254260172
 21
-157.4384679315974
 31
0.0
  0
INSERT
  5
E2
330
70
100
AcDbEntity
  8
レイヤー 1
100
AcDbBlockReference
  2
Block_10
 10
0.0
 20
0.0
 30
0.0
  0
LINE
  5
ED
330
70
100
AcDbEntity
  8
レイヤー 1
 62
    18
420
        0
370
     9
100
AcDbLine
 10
122.0457066885438
 20
-151.7385669659029
 30
0.0
 11
122.0457066885438
 21
-152.7383038848419
 31
0.0
  0
LINE
  5
EE
330
70
100
AcDbEntity
  8
レイヤー 1
 62
    18
420
        0
370
     9
100
AcDbLine
 10
122.0457066885438
 20
-151.3385875316627
 30
0.0
 11
122.0457066885438
 21
-151.7385669659029
 31
0.0
  0
LINE
  5
EF
330
70
100
AcDbEntity
  8
レイヤー 1
 62
    18
420
        0
370
     9
100
AcDbLine
 10
120.5857006146805
 20
-151.3385875316627
 30
0.0
 11
123.0458316630285
 21
-151.3385875316627
 31
0.0
  0
LINE
  5
F0
330
70
100
AcDbEntity
  8
レイヤー 1
 62
    18
420
        0
370
     9
100
AcDbLine
 10
120.5857006146805
 20
-151.7385669659029
 30
0.0
 11
123.0458316630285
 21
-151.7385669659029
 31
0.0
  0
INSERT
  5
F2
330
70
100
AcDbEntity
  8
レイヤー 1
100
AcDbBlockReference
  2
Block_12
 10
0.0
 20
0.0
 30
0.0
  0
ENDSEC
  0
SECTION
  2
OBJECTS
  0
DICTIONARY
  5
C
330
0
100
AcDbDictionary
281
     1
  3
ACAD_COLOR
350
63
  3
ACAD_DETAILVIEWSTYLE
350
6A
  3
ACAD_GROUP
350
D
  3
ACAD_LAYOUT
350
62
  3
ACAD_MATERIAL
350
10
  3
ACAD_MLEADERSTYLE
350
66
  3
ACAD_MLINESTYLE
350
5F
  3
ACAD_PLOTSETTINGS
350
61
  3
ACAD_PLOTSTYLENAME
350
E
  3
ACAD_SCALELIST
350
42
  3
ACAD_SECTIONVIEWSTYLE
350
68
  3
ACAD_TABLESTYLE
350
64
  3
ACAD_VISUALSTYLE
350
29
  3
ACDB_RECOMPOSE_DATA
350
109
  3
AcDbVariableDictionary
350
101
  0
DICTIONARY
  5
63
102
{ACAD_REACTORS
330
C
102
}
330
C
100
AcDbDictionary
281
     1
  0
DICTIONARY
  5
6A
102
{ACAD_REACTORS
330
C
102
}
330
C
100
AcDbDictionary
281
     1
  3
Imperial24
350
6B
  0
DICTIONARY
  5
D
102
{ACAD_REACTORS
330
C
102
}
330
C
100
AcDbDictionary
281
     1
  0
DICTIONARY
  5
62
102
{ACAD_REACTORS
330
C
102
}
330
C
100
AcDbDictionary
281
     1
  3
Layout1
350
6F
  3
Layout2
350
77
  3
Model
350
73
  0
DICTIONARY
  5
10
102
{ACAD_REACTORS
330
C
102
}
330
C
100
AcDbDictionary
281
     1
  3
ByBlock
350
19
  3
ByLayer
350
11
  3
Global
350
21
  0
DICTIONARY
  5
66
102
{ACAD_REACTORS
330
C
102
}
330
C
100
AcDbDictionary
281
     1
  3
Standard
350
67
  0
DICTIONARY
  5
5F
102
{ACAD_REACTORS
330
C
102
}
330
C
100
AcDbDictionary
281
     1
  3
Standard
350
60
  0
DICTIONARY
  5
61
102
{ACAD_REACTORS
330
C
102
}
330
C
100
AcDbDictionary
281
     1
  0
ACDBDICTIONARYWDFLT
  5
E
102
{ACAD_REACTORS
330
C
102
}
330
C
100
AcDbDictionary
281
     1
  3
Normal
350
F
100
AcDbDictionaryWithDefault
340
F
  0
DICTIONARY
  5
42
102
{ACAD_REACTORS
330
C
102
}
330
C
100
AcDbDictionary
281
     1
  3
A0
350
43
  3
A1
350
44
  3
A2
350
45
  3
A3
350
46
  3
A4
350
47
  3
A5
350
48
  3
A6
350
49
  3
A7
350
4A
  3
A8
350
4B
  3
A9
350
4C
  3
B0
350
4D
  3
B1
350
4E
  3
B2
350
4F
  3
B3
350
50
  3
B4
350
51
  3
B5
350
52
  3
B6
350
53
  0
DICTIONARY
  5
68
102
{ACAD_REACTORS
330
C
102
}
330
C
100
AcDbDictionary
281
     1
  3
Imperial24
350
69
  0
DICTIONARY
  5
64
102
{ACAD_REACTORS
330
C
102
}
330
C
100
AcDbDictionary
281
     1
  3
Standard
350
65
  0
DICTIONARY
  5
29
102
{ACAD_REACTORS
330
C
102
}
330
C
100
AcDbDictionary
281
     1
  3
2dWireframe
350
2F
  3
Basic
350
2E
  3
Brighten
350
35
  3
ColorChange
350
39
  3
Conceptual
350
32
  3
Dim
350
34
  3
EdgeColorOff
350
41
  3
Facepattern
350
38
  3
Flat
350
2A
  3
FlatWithEdges
350
2B
  3
Gouraud
350
2C
  3
GouraudWithEdges
350
2D
  3
Hidden
350
31
  3
JitterOff
350
3F
  3
Linepattern
350
37
  3
OverhangOff
350
40
  3
Realistic
350
33
  3
Shaded
350
3E
  3
Shaded with edges
350
3D
  3
Shades of Gray
350
3A
  3
Sketchy
350
3B
  3
Thicken
350
36
  3
Wireframe
350
30
  3
X-Ray
350
3C
  0
XRECORD
  5
109
102
{ACAD_REACTORS
330
C
102
}
330
C
100
AcDbXrecord
280
     1
 90
        1
330
65
  0
DICTIONARY
  5
101
102
{ACAD_REACTORS
330
C
102
}
330
C
100
AcDbDictionary
281
     1
  3
CANNOSCALE
350
106
  3
CMLEADERSTYLE
350
103
  3
CTABLESTYLE
350
102
  3
CVIEWDETAILSTYLE
350
104
  3
CVIEWSECTIONSTYLE
350
105
  0
ACDBDETAILVIEWSTYLE
  5
6B
102
{ACAD_XDICTIONARY
360
13E
102
}
102
{ACAD_REACTORS
330
6A
102
}
330
6A
100
AcDbModelDocViewStyle
 70
     0
  3
Imperial24
290
     0
100
AcDbDetailViewStyle
 70
     0
 71
     0
 90
        3
 71
     1
340
55
 62
   256
 40
0.24
340
0
 62
   256
 40
0.24
300

 40
0.36
280
     3
 71
     2
340
5D
 90
       25
 62
   256
 71
     3
340
55
 62
   256
 40
0.24
 90
        1
 40
0.75
 90
        1
300
%<\AcVar ViewType \f "%tc1">% %<\AcVar ViewDetailId>%\PSCALE %<\AcVar ViewScale \f "%sn">%
 71
     4
340
5D
 90
       25
 62
   256
340
5D
 90
       25
 62
   256
280
     0
  0
LAYOUT
  5
6F
102
{ACAD_REACTORS
330
62
102
}
330
62
100
AcDbPlotSettings
  1

  2

  4

  6

 40
0.0
 41
0.0
 42
0.0
 43
0.0
 44
0.0
 45
0.0
 46
0.0
 47
0.0
 48
0.0
 49
0.0
140
0.0
141
0.0
142
1.0
143
1.0
 70
   688
 72
     0
 73
     0
 74
     5
  7

 75
    16
147
1.0
 76
     0
 77
     2
 78
   300
148
0.0
149
0.0
100
AcDbLayout
  1
Layout1
 70
     1
 71
     1
 10
0.0
 20
0.0
 11
12.0
 21
9.0
 12
0.0
 22
0.0
 32
0.0
 14
0.0
 24
0.0
 34
0.0
 15
0.0
 25
0.0
 35
0.0
146
0.0
 13
0.0
 23
0.0
 33
0.0
 16
1.0
 26
0.0
 36
0.0
 17
0.0
 27
1.0
 37
0.0
 76
     0
330
6C
  0
LAYOUT
  5
77
102
{ACAD_REACTORS
330
62
102
}
330
62
100
AcDbPlotSettings
  1

  2

  4

  6

 40
0.0
 41
0.0
 42
0.0
 43
0.0
 44
0.0
 45
0.0
 46
0.0
 47
0.0
 48
0.0
 49
0.0
140
0.0
141
0.0
142
1.0
143
1.0
 70
   688
 72
     0
 73
     0
 74
     5
  7

 75
    16
147
1.0
 76
     0
 77
     2
 78
   300
148
0.0
149
0.0
100
AcDbLayout
  1
Layout2
 70
     1
 71
     2
 10
0.0
 20
0.0
 11
12.0
 21
9.0
 12
0.0
 22
0.0
 32
0.0
 14
0.0
 24
0.0
 34
0.0
 15
0.0
 25
0.0
 35
0.0
146
0.0
 13
0.0
 23
0.0
 33
0.0
 16
1.0
 26
0.0
 36
0.0
 17
0.0
 27
1.0
 37
0.0
 76
     0
330
74
  0
LAYOUT
  5
73
102
{ACAD_REACTORS
330
62
102
}
330
62
100
AcDbPlotSettings
  1

  2

  4

  6

 40
0.0
 41
0.0
 42
0.0
 43
0.0
 44
0.0
 45
0.0
 46
0.0
 47
0.0
 48
0.0
 49
0.0
140
0.0
141
0.0
142
1.0
143
1.0
 70
  1712
 72
     0
 73
     0
 74
     0
  7

 75
     0
147
1.0
 76
     0
 77
     2
 78
   300
148
0.0
149
0.0
100
AcDbLayout
  1
Model
 70
     1
 71
     0
 10
0.0
 20
0.0
 11
12.0
 21
9.0
 12
0.0
 22
0.0
 32
0.0
 14
0.0
 24
0.0
 34
0.0
 15
0.0
 25
0.0
 35
0.0
146
0.0
 13
0.0
 23
0.0
 33
0.0
 16
1.0
 26
0.0
 36
0.0
 17
0.0
 27
1.0
 37
0.0
 76
     0
330
70
  0
MATERIAL
  5
19
102
{ACAD_XDICTIONARY
360
1A
102
}
102
{ACAD_REACTORS
330
10
102
}
330
10
100
AcDbMaterial
  1
ByBlock
 72
     0
 43
0.0208333333333333
 43
0.0
 43
0.0
 43
0.0
 43
0.0
 43
0.0208333333333333
 43
0.0
 43
0.0
 43
0.0
 43
0.0
 43
1.0
 43
0.0
 43
0.0
 43
0.0
 43
0.0
 43
1.0
 77
     0
 47
0.0208333333333333
 47
0.0
 47
0.0
 47
0.0
 47
0.0
 47
0.0208333333333333
 47
0.0
 47
0.0
 47
0.0
 47
0.0
 47
1.0
 47
0.0
 47
0.0
 47
0.0
 47
0.0
 47
1.0
171
     0
 49
0.0208333333333333
 49
0.0
 49
0.0
 49
0.0
 49
0.0
 49
0.0208333333333333
 49
0.0
 49
0.0
 49
0.0
 49
0.0
 49
1.0
 49
0.0
 49
0.0
 49
0.0
 49
0.0
 49
1.0
175
     0
142
0.0208333333333333
142
0.0
142
0.0
142
0.0
142
0.0
142
0.0208333333333333
142
0.0
142
0.0
142
0.0
142
0.0
142
1.0
142
0.0
142
0.0
142
0.0
142
0.0
142
1.0
179
     0
144
0.0208333333333333
144
0.0
144
0.0
144
0.0
144
0.0
144
0.0208333333333333
144
0.0
144
0.0
144
0.0
144
0.0
144
1.0
144
0.0
144
0.0
144
0.0
144
0.0
144
1.0
147
0.0208333333333333
147
0.0
147
0.0
147
0.0
147
0.0
147
0.0208333333333333
147
0.0
147
0.0
147
0.0
147
0.0
147
1.0
147
0.0
147
0.0
147
0.0
147
0.0
147
1.0
  0
MATERIAL
  5
11
102
{ACAD_XDICTIONARY
360
12
102
}
102
{ACAD_REACTORS
330
10
102
}
330
10
100
AcDbMaterial
  1
ByLayer
 72
     0
 43
0.0208333333333333
 43
0.0
 43
0.0
 43
0.0
 43
0.0
 43
0.0208333333333333
 43
0.0
 43
0.0
 43
0.0
 43
0.0
 43
1.0
 43
0.0
 43
0.0
 43
0.0
 43
0.0
 43
1.0
 77
     0
 47
0.0208333333333333
 47
0.0
 47
0.0
 47
0.0
 47
0.0
 47
0.0208333333333333
 47
0.0
 47
0.0
 47
0.0
 47
0.0
 47
1.0
 47
0.0
 47
0.0
 47
0.0
 47
0.0
 47
1.0
171
     0
 49
0.0208333333333333
 49
0.0
 49
0.0
 49
0.0
 49
0.0
 49
0.0208333333333333
 49
0.0
 49
0.0
 49
0.0
 49
0.0
 49
1.0
 49
0.0
 49
0.0
 49
0.0
 49
0.0
 49
1.0
175
     0
142
0.0208333333333333
142
0.0
142
0.0
142
0.0
142
0.0
142
0.0208333333333333
142
0.0
142
0.0
142
0.0
142
0.0
142
1.0
142
0.0
142
0.0
142
0.0
142
0.0
142
1.0
179
     0
144
0.0208333333333333
144
0.0
144
0.0
144
0.0
144
0.0
144
0.0208333333333333
144
0.0
144
0.0
144
0.0
144
0.0
144
1.0
144
0.0
144
0.0
144
0.0
144
0.0
144
1.0
147
0.0208333333333333
147
0.0
147
0.0
147
0.0
147
0.0
147
0.0208333333333333
147
0.0
147
0.0
147
0.0
147
0.0
147
1.0
147
0.0
147
0.0
147
0.0
147
0.0
147
1.0
  0
MATERIAL
  5
21
102
{ACAD_XDICTIONARY
360
22
102
}
102
{ACAD_REACTORS
330
10
102
}
330
10
100
AcDbMaterial
  1
Global
 72
     0
 43
0.0208333333333333
 43
0.0
 43
0.0
 43
0.0
 43
0.0
 43
0.0208333333333333
 43
0.0
 43
0.0
 43
0.0
 43
0.0
 43
1.0
 43
0.0
 43
0.0
 43
0.0
 43
0.0
 43
1.0
 77
     0
 47
0.0208333333333333
 47
0.0
 47
0.0
 47
0.0
 47
0.0
 47
0.0208333333333333
 47
0.0
 47
0.0
 47
0.0
 47
0.0
 47
1.0
 47
0.0
 47
0.0
 47
0.0
 47
0.0
 47
1.0
171
     0
 49
0.0208333333333333
 49
0.0
 49
0.0
 49
0.0
 49
0.0
 49
0.0208333333333333
 49
0.0
 49
0.0
 49
0.0
 49
0.0
 49
1.0
 49
0.0
 49
0.0
 49
0.0
 49
0.0
 49
1.0
175
     0
142
0.0208333333333333
142
0.0
142
0.0
142
0.0
142
0.0
142
0.0208333333333333
142
0.0
142
0.0
142
0.0
142
0.0
142
1.0
142
0.0
142
0.0
142
0.0
142
0.0
142
1.0
179
     0
144
0.0208333333333333
144
0.0
144
0.0
144
0.0
144
0.0
144
0.0208333333333333
144
0.0
144
0.0
144
0.0
144
0.0
144
1.0
144
0.0
144
0.0
144
0.0
144
0.0
144
1.0
147
0.0208333333333333
147
0.0
147
0.0
147
0.0
147
0.0
147
0.0208333333333333
147
0.0
147
0.0
147
0.0
147
0.0
147
1.0
147
0.0
147
0.0
147
0.0
147
0.0
147
1.0
  0
MLEADERSTYLE
  5
67
102
{ACAD_XDICTIONARY
360
13A
102
}
102
{ACAD_REACTORS
330
66
102
}
330
66
100
AcDbMLeaderStyle
179
     2
170
     2
171
     1
172
     0
 90
        2
 40
0.0
 41
0.0
173
     1
 91
-1056964608
340
5B
 92
       -2
290
     1
 42
0.09
291
     1
 43
0.36
  3
Standard
 44
0.18
300

342
55
174
     1
178
     6
175
     1
176
     0
 93
-1056964608
 45
0.18
292
     0
297
     0
 46
0.18
 94
-1056964608
 47
1.0
 49
1.0
140
1.0
293
     1
141
0.0
294
     1
177
     0
142
1.0
295
     0
296
     0
143
0.125
271
     0
272
     9
273
     9
  0
MLINESTYLE
  5
60
102
{ACAD_REACTORS
330
5F
102
}
330
5F
100
AcDbMlineStyle
  2
STANDARD
 70
     0
  3

 62
   256
 51
90.0
 52
90.0
 71
     2
 49
0.5
 62
   256
  6
BYLAYER
 49
-0.5
 62
   256
  6
BYLAYER
  0
ACDBPLACEHOLDER
  5
F
102
{ACAD_REACTORS
330
E
102
}
330
E
  0
SCALE
  5
43
102
{ACAD_REACTORS
330
42
102
}
330
42
100
AcDbScale
 70
     0
300
1:1
140
1.0
141
1.0
290
     1
  0
SCALE
  5
44
102
{ACAD_REACTORS
330
42
102
}
330
42
100
AcDbScale
 70
     0
300
1/128" = 1'-0"
140
0.0078125
141
12.0
290
     0
  0
SCALE
  5
45
102
{ACAD_REACTORS
330
42
102
}
330
42
100
AcDbScale
 70
     0
300
1/64" = 1'-0"
140
0.015625
141
12.0
290
     0
  0
SCALE
  5
46
102
{ACAD_REACTORS
330
42
102
}
330
42
100
AcDbScale
 70
     0
300
1/32" = 1'-0"
140
0.03125
141
12.0
290
     0
  0
SCALE
  5
47
102
{ACAD_REACTORS
330
42
102
}
330
42
100
AcDbScale
 70
     0
300
1/16" = 1'-0"
140
0.0625
141
12.0
290
     0
  0
SCALE
  5
48
102
{ACAD_REACTORS
330
42
102
}
330
42
100
AcDbScale
 70
     0
300
3/32" = 1'-0"
140
0.09375
141
12.0
290
     0
  0
SCALE
  5
49
102
{ACAD_REACTORS
330
42
102
}
330
42
100
AcDbScale
 70
     0
300
1/8" = 1'-0"
140
0.125
141
12.0
290
     0
  0
SCALE
  5
4A
102
{ACAD_REACTORS
330
42
102
}
330
42
100
AcDbScale
 70
     0
300
3/16" = 1'-0"
140
0.1875
141
12.0
290
     0
  0
SCALE
  5
4B
102
{ACAD_REACTORS
330
42
102
}
330
42
100
AcDbScale
 70
     0
300
1/4" = 1'-0"
140
0.25
141
12.0
290
     0
  0
SCALE
  5
4C
102
{ACAD_REACTORS
330
42
102
}
330
42
100
AcDbScale
 70
     0
300
3/8" = 1'-0"
140
0.375
141
12.0
290
     0
  0
SCALE
  5
4D
102
{ACAD_REACTORS
330
42
102
}
330
42
100
AcDbScale
 70
     0
300
1/2" = 1'-0"
140
0.5
141
12.0
290
     0
  0
SCALE
  5
4E
102
{ACAD_REACTORS
330
42
102
}
330
42
100
AcDbScale
 70
     0
300
3/4" = 1'-0"
140
0.75
141
12.0
290
     0
  0
SCALE
  5
4F
102
{ACAD_REACTORS
330
42
102
}
330
42
100
AcDbScale
 70
     0
300
1" = 1'-0"
140
1.0
141
12.0
290
     0
  0
SCALE
  5
50
102
{ACAD_REACTORS
330
42
102
}
330
42
100
AcDbScale
 70
     0
300
1-1/2" = 1'-0"
140
1.5
141
12.0
290
     0
  0
SCALE
  5
51
102
{ACAD_REACTORS
330
42
102
}
330
42
100
AcDbScale
 70
     0
300
3" = 1'-0"
140
3.0
141
12.0
290
     0
  0
SCALE
  5
52
102
{ACAD_REACTORS
330
42
102
}
330
42
100
AcDbScale
 70
     0
300
6" = 1'-0"
140
6.0
141
12.0
290
     0
  0
SCALE
  5
53
102
{ACAD_REACTORS
330
42
102
}
330
42
100
AcDbScale
 70
     0
300
1'-0" = 1'-0"
140
12.0
141
12.0
290
     0
  0
ACDBSECTIONVIEWSTYLE
  5
69
102
{ACAD_XDICTIONARY
360
13C
102
}
102
{ACAD_REACTORS
330
68
102
}
330
68
100
AcDbModelDocViewStyle
 70
     0
  3
Imperial24
290
     0
100
AcDbSectionViewStyle
 70
     0
 71
     0
 90
       78
 71
     1
340
55
 62
   256
 40
0.24
340
0
340
0
 62
   256
 40
0.24
300
I, O, Q, S, X, Z
 40
0.48
 90
        3
 40
0.18
 90
        1
 71
     2
340
5D
 90
       25
 62
   256
340
5D
 90
       50
 62
   256
 40
0.24
 40
0.0
 40
0.24
 71
     3
340
55
 62
   256
 40
0.24
 90
        1
 40
0.75
 90
        1
300
%<\AcVar ViewType \f "%tc1">% %<\AcVar ViewSectionStartId>%-%<\AcVar ViewSectionEndId>%\PSCALE %<\AcVar ViewScale \f "%sn">%
 71
     4
 62
   256
 62
   257
300
ANSI31
 40
1.0
 90
        0
290
     0
290
     0
 90
        6
 40
0.0
 40
1.570796326794896
 40
0.2617993877991494
 40
1.308996938995747
 40
-0.2617993877991494
 40
1.832595714594046
  0
TABLESTYLE
  5
65
102
{ACAD_XDICTIONARY
360
107
102
}
102
{ACAD_REACTORS
330
64
102
}
330
64
100
AcDbTableStyle
280
     0
  3
Standard
 70
     0
 71
     0
 40
0.06
 41
0.06
280
     0
281
     0
  7
Standard
140
0.18
170
     2
 62
     0
 63
     7
283
     0
 90
      512
 91
        0
  1

274
    -2
284
     1
 64
     0
275
    -2
285
     1
 65
     0
276
    -2
286
     1
 66
     0
277
    -2
287
     1
 67
     0
278
    -2
288
     1
 68
     0
279
    -2
289
     1
 69
     0
  7
Standard
140
0.25
170
     5
 62
     0
 63
     7
283
     0
 90
      512
 91
        0
  1

274
    -2
284
     1
 64
     0
275
    -2
285
     1
 65
     0
276
    -2
286
     1
 66
     0
277
    -2
287
     1
 67
     0
278
    -2
288
     1
 68
     0
279
    -2
289
     1
 69
     0
  7
Standard
140
0.18
170
     5
 62
     0
 63
     7
283
     0
 90
      512
 91
        0
  1

274
    -2
284
     1
 64
     0
275
    -2
285
     1
 65
     0
276
    -2
286
     1
 66
     0
277
    -2
287
     1
 67
     0
278
    -2
288
     1
 68
     0
279
    -2
289
     1
 69
     0
  0
VISUALSTYLE
  5
2F
102
{ACAD_XDICTIONARY
360
114
102
}
102
{ACAD_REACTORS
330
29
102
}
330
29
100
AcDbVisualStyle
  2
2dWireframe
 70
     4
177
     2
291
     0
 71
     0
176
     1
 72
     2
176
     1
 73
     0
176
     1
 90
        0
176
     1
 40
0.6
176
     1
 41
30.0
176
     1
 63
     7
421
 16777215
176
     1
 74
     1
176
     1
 91
        4
176
     1
 64
     7
176
     1
 65
   257
176
     1
 75
     1
176
     1
175
     1
176
     1
 42
1.0
176
     1
 92
        0
176
     1
 66
   257
176
     1
 43
1.0
176
     1
 76
     1
176
     1
 77
     6
176
     1
 78
     2
176
     1
 67
     7
176
     1
 79
     5
176
     1
170
     0
176
     1
171
     0
176
     1
290
     0
176
     1
 93
        1
176
     1
 44
0.0
176
     1
173
     0
176
     1
1001
ACAD
1000
AcDbSavedByObjectVersion
1070
     0
  0
VISUALSTYLE
  5
2E
102
{ACAD_XDICTIONARY
360
112
102
}
102
{ACAD_REACTORS
330
29
102
}
330
29
100
AcDbVisualStyle
  2
Basic
 70
     7
177
     2
291
     1
 71
     1
176
     1
 72
     0
176
     1
 73
     1
176
     1
 90
        0
176
     1
 40
0.6
176
     1
 41
30.0
176
     1
 63
     7
421
 16777215
176
     1
 74
     0
176
     1
 91
        4
176
     1
 64
     7
176
     1
 65
   257
176
     1
 75
     1
176
     1
175
     1
176
     1
 42
1.0
176
     1
 92
        8
176
     1
 66
     7
176
     1
 43
1.0
176
     1
 76
     1
176
     1
 77
     6
176
     1
 78
     2
176
     1
 67
     7
176
     1
 79
     5
176
     1
170
     0
176
     1
171
     0
176
     1
290
     0
176
     1
 93
        1
176
     1
 44
0.0
176
     1
173
     0
176
     1
1001
ACAD
1000
AcDbSavedByObjectVersion
1070
     0
  0
VISUALSTYLE
  5
35
102
{ACAD_XDICTIONARY
360
120
102
}
102
{ACAD_REACTORS
330
29
102
}
330
29
100
AcDbVisualStyle
  2
Brighten
 70
    12
177
     2
291
     1
 71
     2
176
     1
 72
     2
176
     1
 73
     0
176
     1
 90
        0
176
     1
 40
0.6
176
     1
 41
30.0
176
     1
 63
     7
421
 16777215
176
     1
 74
     1
176
     1
 91
        4
176
     1
 64
     7
176
     1
 65
   257
176
     1
 75
     1
176
     1
175
     1
176
     1
 42
1.0
176
     1
 92
        8
176
     1
 66
     7
176
     1
 43
1.0
176
     1
 76
     1
176
     1
 77
     6
176
     1
 78
     2
176
     1
 67
     7
176
     1
 79
     5
176
     1
170
     0
176
     1
171
     0
176
     1
290
     0
176
     1
 93
        1
176
     1
 44
50.0
176
     1
173
     0
176
     1
1001
ACAD
1000
AcDbSavedByObjectVersion
1070
     0
  0
VISUALSTYLE
  5
39
102
{ACAD_XDICTIONARY
360
128
102
}
102
{ACAD_REACTORS
330
29
102
}
330
29
100
AcDbVisualStyle
  2
ColorChange
 70
    16
177
     2
291
     1
 71
     2
176
     1
 72
     2
176
     1
 73
     3
176
     1
 90
        0
176
     1
 40
0.6
176
     1
 41
30.0
176
     1
 63
     8
421
  8421504
176
     1
 74
     1
176
     1
 91
        4
176
     1
 64
     7
176
     1
 65
   257
176
     1
 75
     1
176
     1
175
     1
176
     1
 42
1.0
176
     1
 92
        8
176
     1
 66
     8
424
  8421504
176
     1
 43
1.0
176
     1
 76
     1
176
     1
 77
     6
176
     1
 78
     2
176
     1
 67
     7
176
     1
 79
     5
176
     1
170
     0
176
     1
171
     0
176
     1
290
     0
176
     1
 93
        1
176
     1
 44
0.0
176
     1
173
     0
176
     1
1001
ACAD
1000
AcDbSavedByObjectVersion
1070
     0
  0
VISUALSTYLE
  5
32
102
{ACAD_XDICTIONARY
360
11A
102
}
102
{ACAD_REACTORS
330
29
102
}
330
29
100
AcDbVisualStyle
  2
Conceptual
 70
     9
177
     2
291
     0
 71
     3
176
     1
 72
     2
176
     1
 73
     0
176
     1
 90
        0
176
     1
 40
0.6
176
     1
 41
30.0
176
     1
 63
     7
421
 16777215
176
     1
 74
     2
176
     1
 91
        2
176
     1
 64
     7
176
     1
 65
   257
176
     1
 75
     1
176
     1
175
     1
176
     1
 42
179.0
176
     1
 92
        8
176
     1
 66
     7
176
     1
 43
1.0
176
     1
 76
     1
176
     1
 77
     6
176
     1
 78
     2
176
     1
 67
     7
176
     1
 79
     3
176
     1
170
     0
176
     1
171
     0
176
     1
290
     0
176
     1
 93
        1
176
     1
 44
0.0
176
     1
173
     0
176
     1
1001
ACAD
1000
AcDbSavedByObjectVersion
1070
     0
  0
VISUALSTYLE
  5
34
102
{ACAD_XDICTIONARY
360
11E
102
}
102
{ACAD_REACTORS
330
29
102
}
330
29
100
AcDbVisualStyle
  2
Dim
 70
    11
177
     2
291
     1
 71
     2
176
     1
 72
     2
176
     1
 73
     0
176
     1
 90
        0
176
     1
 40
0.6
176
     1
 41
30.0
176
     1
 63
     7
421
 16777215
176
     1
 74
     1
176
     1
 91
        4
176
     1
 64
     7
176
     1
 65
   257
176
     1
 75
     1
176
     1
175
     1
176
     1
 42
1.0
176
     1
 92
        8
176
     1
 66
     7
176
     1
 43
1.0
176
     1
 76
     1
176
     1
 77
     6
176
     1
 78
     2
176
     1
 67
     7
176
     1
 79
     5
176
     1
170
     0
176
     1
171
     0
176
     1
290
     0
176
     1
 93
        1
176
     1
 44
-50.0
176
     1
173
     0
176
     1
1001
ACAD
1000
AcDbSavedByObjectVersion
1070
     0
  0
VISUALSTYLE
  5
41
102
{ACAD_XDICTIONARY
360
138
102
}
102
{ACAD_REACTORS
330
29
102
}
330
29
100
AcDbVisualStyle
  2
EdgeColorOff
 70
    22
177
     2
291
     1
 71
     2
176
     0
 72
     2
176
     0
 73
     0
176
     0
 90
        0
176
     0
 40
0.6
176
     0
 41
30.0
176
     0
 63
     7
421
 16777215
176
     0
 74
     1
176
     0
 91
        4
176
     0
 64
     7
176
     0
 65
   257
176
     0
 75
     1
176
     0
175
     1
176
     0
 42
1.0
176
     0
 92
        8
176
     2
 66
     7
176
     0
 43
1.0
176
     0
 76
     1
176
     0
 77
     6
176
     0
 78
     2
176
     0
 67
     7
176
     0
 79
     5
176
     0
170
     0
176
     0
171
     0
176
     0
290
     0
176
     0
 93
        1
176
     0
 44
0.0
176
     0
173
     0
176
     0
1001
ACAD
1000
AcDbSavedByObjectVersion
1070
     0
  0
VISUALSTYLE
  5
38
102
{ACAD_XDICTIONARY
360
126
102
}
102
{ACAD_REACTORS
330
29
102
}
330
29
100
AcDbVisualStyle
  2
Facepattern
 70
    15
177
     2
291
     1
 71
     2
176
     1
 72
     2
176
     1
 73
     0
176
     1
 90
        0
176
     1
 40
0.6
176
     1
 41
30.0
176
     1
 63
     7
421
 16777215
176
     1
 74
     1
176
     1
 91
        4
176
     1
 64
     7
176
     1
 65
   257
176
     1
 75
     1
176
     1
175
     1
176
     1
 42
1.0
176
     1
 92
        8
176
     1
 66
     7
176
     1
 43
1.0
176
     1
 76
     1
176
     1
 77
     6
176
     1
 78
     2
176
     1
 67
     7
176
     1
 79
     5
176
     1
170
     0
176
     1
171
     0
176
     1
290
     0
176
     1
 93
        1
176
     1
 44
0.0
176
     1
173
     0
176
     1
1001
ACAD
1000
AcDbSavedByObjectVersion
1070
     0
  0
VISUALSTYLE
  5
2A
102
{ACAD_XDICTIONARY
360
10A
102
}
102
{ACAD_REACTORS
330
29
102
}
330
29
100
AcDbVisualStyle
  2
Flat
 70
     0
177
     2
291
     1
 71
     2
176
     1
 72
     1
176
     1
 73
     1
176
     1
 90
        2
176
     1
 40
0.6
176
     1
 41
30.0
176
     1
 63
     7
421
 16777215
176
     1
 74
     0
176
     1
 91
        0
176
     1
 64
     7
176
     1
 65
   257
176
     1
 75
     1
176
     1
175
     1
176
     1
 42
1.0
176
     1
 92
        8
176
     1
 66
     7
176
     1
 43
1.0
176
     1
 76
     1
176
     1
 77
     6
176
     1
 78
     2
176
     1
 67
     7
176
     1
 79
     5
176
     1
170
     0
176
     1
171
     0
176
     1
290
     0
176
     1
 93
       13
176
     1
 44
0.0
176
     1
173
     0
176
     1
1001
ACAD
1000
AcDbSavedByObjectVersion
1070
     0
  0
VISUALSTYLE
  5
2B
102
{ACAD_XDICTIONARY
360
10C
102
}
102
{ACAD_REACTORS
330
29
102
}
330
29
100
AcDbVisualStyle
  2
FlatWithEdges
 70
     1
177
     2
291
     1
 71
     2
176
     1
 72
     1
176
     1
 73
     1
176
     1
 90
        2
176
     1
 40
0.6
176
     1
 41
30.0
176
     1
 63
     7
421
 16777215
176
     1
 74
     1
176
     1
 91
        0
176
     1
 64
     7
176
     1
 65
   257
176
     1
 75
     1
176
     1
175
     1
176
     1
 42
1.0
176
     1
 92
        0
176
     1
 66
   257
176
     1
 43
1.0
176
     1
 76
     1
176
     1
 77
     6
176
     1
 78
     2
176
     1
 67
     7
176
     1
 79
     5
176
     1
170
     0
176
     1
171
     0
176
     1
290
     0
176
     1
 93
       13
176
     1
 44
0.0
176
     1
173
     0
176
     1
1001
ACAD
1000
AcDbSavedByObjectVersion
1070
     0
  0
VISUALSTYLE
  5
2C
102
{ACAD_XDICTIONARY
360
10E
102
}
102
{ACAD_REACTORS
330
29
102
}
330
29
100
AcDbVisualStyle
  2
Gouraud
 70
     2
177
     2
291
     1
 71
     2
176
     1
 72
     2
176
     1
 73
     1
176
     1
 90
        2
176
     1
 40
0.6
176
     1
 41
30.0
176
     1
 63
     7
421
 16777215
176
     1
 74
     0
176
     1
 91
        0
176
     1
 64
     7
176
     1
 65
   257
176
     1
 75
     1
176
     1
175
     1
176
     1
 42
1.0
176
     1
 92
        0
176
     1
 66
     7
176
     1
 43
1.0
176
     1
 76
     1
176
     1
 77
     6
176
     1
 78
     2
176
     1
 67
     7
176
     1
 79
     5
176
     1
170
     0
176
     1
171
     0
176
     1
290
     0
176
     1
 93
       13
176
     1
 44
0.0
176
     1
173
     0
176
     1
1001
ACAD
1000
AcDbSavedByObjectVersion
1070
     0
  0
VISUALSTYLE
  5
2D
102
{ACAD_XDICTIONARY
360
110
102
}
102
{ACAD_REACTORS
330
29
102
}
330
29
100
AcDbVisualStyle
  2
GouraudWithEdges
 70
     3
177
     2
291
     1
 71
     2
176
     1
 72
     2
176
     1
 73
     1
176
     1
 90
        2
176
     1
 40
0.6
176
     1
 41
30.0
176
     1
 63
     7
421
 16777215
176
     1
 74
     1
176
     1
 91
        0
176
     1
 64
     7
176
     1
 65
   257
176
     1
 75
     1
176
     1
175
     1
176
     1
 42
1.0
176
     1
 92
        0
176
     1
 66
   257
176
     1
 43
1.0
176
     1
 76
     1
176
     1
 77
     6
176
     1
 78
     2
176
     1
 67
     7
176
     1
 79
     5
176
     1
170
     0
176
     1
171
     0
176
     1
290
     0
176
     1
 93
       13
176
     1
 44
0.0
176
     1
173
     0
176
     1
1001
ACAD
1000
AcDbSavedByObjectVersion
1070
     0
  0
VISUALSTYLE
  5
31
102
{ACAD_XDICTIONARY
360
118
102
}
102
{ACAD_REACTORS
330
29
102
}
330
29
100
AcDbVisualStyle
  2
Hidden
 70
     6
177
     2
291
     0
 71
     1
176
     1
 72
     2
176
     1
 73
     2
176
     1
 90
        0
176
     1
 40
0.6
176
     1
 41
30.0
176
     1
 63
     7
421
 16777215
176
     1
 74
     2
176
     1
 91
        2
176
     1
 64
     7
176
     1
 65
   257
176
     1
 75
     2
176
     1
175
     1
176
     1
 42
40.0
176
     1
 92
        0
176
     1
 66
   257
176
     1
 43
1.0
176
     1
 76
     1
176
     1
 77
     6
176
     1
 78
     2
176
     1
 67
     7
176
     1
 79
     3
176
     1
170
     0
176
     1
171
     0
176
     1
290
     0
176
     1
 93
        1
176
     1
 44
0.0
176
     1
173
     0
176
     1
1001
ACAD
1000
AcDbSavedByObjectVersion
1070
     0
  0
VISUALSTYLE
  5
3F
102
{ACAD_XDICTIONARY
360
134
102
}
102
{ACAD_REACTORS
330
29
102
}
330
29
100
AcDbVisualStyle
  2
JitterOff
 70
    20
177
     2
291
     1
 71
     2
176
     0
 72
     2
176
     0
 73
     0
176
     0
 90
        0
176
     0
 40
0.6
176
     0
 41
30.0
176
     0
 63
     7
421
 16777215
176
     0
 74
     1
176
     0
 91
        4
176
     0
 64
     7
176
     0
 65
   257
176
     0
 75
     1
176
     0
175
     1
176
     0
 42
1.0
176
     0
 92
       10
176
     2
 66
     7
176
     0
 43
1.0
176
     0
 76
     1
176
     0
 77
     6
176
     0
 78
     2
176
     0
 67
     7
176
     0
 79
     5
176
     0
170
     0
176
     0
171
     0
176
     0
290
     0
176
     0
 93
        1
176
     0
 44
0.0
176
     0
173
     0
176
     0
1001
ACAD
1000
AcDbSavedByObjectVersion
1070
     0
  0
VISUALSTYLE
  5
37
102
{ACAD_XDICTIONARY
360
124
102
}
102
{ACAD_REACTORS
330
29
102
}
330
29
100
AcDbVisualStyle
  2
Linepattern
 70
    14
177
     2
291
     1
 71
     2
176
     1
 72
     2
176
     1
 73
     0
176
     1
 90
        0
176
     1
 40
0.6
176
     1
 41
30.0
176
     1
 63
     7
421
 16777215
176
     1
 74
     1
176
     1
 91
        4
176
     1
 64
     7
176
     1
 65
   257
176
     1
 75
     7
176
     1
175
     7
176
     1
 42
1.0
176
     1
 92
        8
176
     1
 66
     7
176
     1
 43
1.0
176
     1
 76
     1
176
     1
 77
     6
176
     1
 78
     2
176
     1
 67
     7
176
     1
 79
     5
176
     1
170
     0
176
     1
171
     0
176
     1
290
     0
176
     1
 93
        1
176
     1
 44
0.0
176
     1
173
     0
176
     1
1001
ACAD
1000
AcDbSavedByObjectVersion
1070
     0
  0
VISUALSTYLE
  5
40
102
{ACAD_XDICTIONARY
360
136
102
}
102
{ACAD_REACTORS
330
29
102
}
330
29
100
AcDbVisualStyle
  2
OverhangOff
 70
    21
177
     2
291
     1
 71
     2
176
     0
 72
     2
176
     0
 73
     0
176
     0
 90
        0
176
     0
 40
0.6
176
     0
 41
30.0
176
     0
 63
     7
421
 16777215
176
     0
 74
     1
176
     0
 91
        4
176
     0
 64
     7
176
     0
 65
   257
176
     0
 75
     1
176
     0
175
     1
176
     0
 42
1.0
176
     0
 92
        9
176
     2
 66
     7
176
     0
 43
1.0
176
     0
 76
     1
176
     0
 77
     6
176
     0
 78
     2
176
     0
 67
     7
176
     0
 79
     5
176
     0
170
     0
176
     0
171
     0
176
     0
290
     0
176
     0
 93
        1
176
     0
 44
0.0
176
     0
173
     0
176
     0
1001
ACAD
1000
AcDbSavedByObjectVersion
1070
     0
  0
VISUALSTYLE
  5
33
102
{ACAD_XDICTIONARY
360
11C
102
}
102
{ACAD_REACTORS
330
29
102
}
330
29
100
AcDbVisualStyle
  2
Realistic
 70
     8
177
     2
291
     0
 71
     2
176
     1
 72
     3
176
     1
 73
     0
176
     1
 90
        2
176
     1
 40
0.6
176
     1
 41
30.0
176
     1
 63
     7
421
 16777215
176
     1
 74
     0
176
     1
 91
        0
176
     1
 64
     7
176
     1
 65
   257
176
     1
 75
     1
176
     1
175
     1
176
     1
 42
1.0
176
     1
 92
        8
176
     1
 66
   257
176
     1
 43
1.0
176
     1
 76
     1
176
     1
 77
     6
176
     1
 78
     2
176
     1
 67
     7
176
     1
 79
     3
176
     1
170
     0
176
     1
171
     0
176
     1
290
     0
176
     1
 93
       13
176
     1
 44
0.0
176
     1
173
     0
176
     1
1001
ACAD
1000
AcDbSavedByObjectVersion
1070
     0
  0
VISUALSTYLE
  5
3E
102
{ACAD_XDICTIONARY
360
132
102
}
102
{ACAD_REACTORS
330
29
102
}
330
29
100
AcDbVisualStyle
  2
Shaded
 70
    27
177
     2
291
     0
 71
     2
176
     1
 72
     2
176
     1
 73
     1
176
     1
 90
        2
176
     1
 40
0.6
176
     1
 41
30.0
176
     1
 63
     7
421
 16777215
176
     1
 74
     0
176
     1
 91
        4
176
     1
 64
     7
176
     1
 65
   257
176
     1
 75
     1
176
     1
175
     1
176
     1
 42
1.0
176
     1
 92
        8
176
     1
 66
   257
176
     1
 43
1.0
176
     1
 76
     1
176
     1
 77
     6
176
     1
 78
     2
176
     1
 67
     8
425
  7895160
176
     1
 79
     3
176
     1
170
     0
176
     1
171
     0
176
     1
290
     0
176
     1
 93
        5
176
     1
 44
0.0
176
     1
173
     0
176
     1
1001
ACAD
1000
AcDbSavedByObjectVersion
1070
     0
  0
VISUALSTYLE
  5
3D
102
{ACAD_XDICTIONARY
360
130
102
}
102
{ACAD_REACTORS
330
29
102
}
330
29
100
AcDbVisualStyle
  2
Shaded with edges
 70
    26
177
     2
291
     0
 71
     2
176
     1
 72
     2
176
     1
 73
     1
176
     1
 90
        2
176
     1
 40
0.6
176
     1
 41
30.0
176
     1
 63
     7
421
 16777215
176
     1
 74
     1
176
     1
 91
        2
176
     1
 64
     7
176
     1
 65
   257
176
     1
 75
     2
176
     1
175
     1
176
     1
 42
1.0
176
     1
 92
        8
176
     1
 66
   257
176
     1
 43
1.0
176
     1
 76
     1
176
     1
 77
     6
176
     1
 78
     2
176
     1
 67
     7
176
     1
 79
     3
176
     1
170
     0
176
     1
171
     0
176
     1
290
     0
176
     1
 93
        5
176
     1
 44
0.0
176
     1
173
     0
176
     1
1001
ACAD
1000
AcDbSavedByObjectVersion
1070
     0
  0
VISUALSTYLE
  5
3A
102
{ACAD_XDICTIONARY
360
12A
102
}
102
{ACAD_REACTORS
330
29
102
}
330
29
100
AcDbVisualStyle
  2
Shades of Gray
 70
    23
177
     2
291
     0
 71
     2
176
     1
 72
     2
176
     1
 73
     3
176
     1
 90
        0
176
     1
 40
0.6
176
     1
 41
30.0
176
     1
 63
     7
421
 16777215
176
     1
 74
     2
176
     1
 91
        2
176
     1
 64
     7
176
     1
 65
     7
176
     1
 75
     1
176
     1
175
     1
176
     1
 42
40.0
176
     1
 92
        8
176
     1
 66
     7
176
     1
 43
1.0
176
     1
 76
     1
176
     1
 77
     6
176
     1
 78
     2
176
     1
 67
     7
176
     1
 79
     3
176
     1
170
     0
176
     1
171
     0
176
     1
290
     0
176
     1
 93
        1
176
     1
 44
0.0
176
     1
173
     0
176
     1
1001
ACAD
1000
AcDbSavedByObjectVersion
1070
     0
  0
VISUALSTYLE
  5
3B
102
{ACAD_XDICTIONARY
360
12C
102
}
102
{ACAD_REACTORS
330
29
102
}
330
29
100
AcDbVisualStyle
  2
Sketchy
 70
    24
177
     2
291
     0
 71
     1
176
     1
 72
     2
176
     1
 73
     2
176
     1
 90
        0
176
     1
 40
0.6
176
     1
 41
30.0
176
     1
 63
     7
421
 16777215
176
     1
 74
     2
176
     1
 91
        2
176
     1
 64
     7
176
     1
 65
     7
176
     1
 75
     1
176
     1
175
     1
176
     1
 42
40.0
176
     1
 92
       11
176
     1
 66
     7
176
     1
 43
1.0
176
     1
 76
     1
176
     1
 77
     6
176
     1
 78
     2
176
     1
 67
     7
176
     1
 79
     6
176
     1
170
     0
176
     1
171
     0
176
     1
290
     0
176
     1
 93
        1
176
     1
 44
0.0
176
     1
173
     0
176
     1
1001
ACAD
1000
AcDbSavedByObjectVersion
1070
     0
  0
VISUALSTYLE
  5
36
102
{ACAD_XDICTIONARY
360
122
102
}
102
{ACAD_REACTORS
330
29
102
}
330
29
100
AcDbVisualStyle
  2
Thicken
 70
    13
177
     2
291
     1
 71
     2
176
     1
 72
     2
176
     1
 73
     0
176
     1
 90
        0
176
     1
 40
0.6
176
     1
 41
30.0
176
     1
 63
     7
421
 16777215
176
     1
 74
     1
176
     1
 91
        4
176
     1
 64
     7
176
     1
 65
   257
176
     1
 75
     1
176
     1
175
     1
176
     1
 42
1.0
176
     1
 92
       12
176
     1
 66
     7
176
     1
 43
1.0
176
     1
 76
     1
176
     1
 77
     6
176
     1
 78
     2
176
     1
 67
     7
176
     1
 79
     5
176
     1
170
     0
176
     1
171
     0
176
     1
290
     0
176
     1
 93
        1
176
     1
 44
0.0
176
     1
173
     0
176
     1
1001
ACAD
1000
AcDbSavedByObjectVersion
1070
     0
  0
VISUALSTYLE
  5
30
102
{ACAD_XDICTIONARY
360
116
102
}
102
{ACAD_REACTORS
330
29
102
}
330
29
100
AcDbVisualStyle
  2
Wireframe
 70
     5
177
     2
291
     0
 71
     0
176
     1
 72
     2
176
     1
 73
     0
176
     1
 90
        0
176
     1
 40
0.6
176
     1
 41
30.0
176
     1
 63
     7
421
 16777215
176
     1
 74
     1
176
     1
 91
        4
176
     1
 64
     7
176
     1
 65
   257
176
     1
 75
     1
176
     1
175
     1
176
     1
 42
1.0
176
     1
 92
        0
176
     1
 66
   257
176
     1
 43
1.0
176
     1
 76
     1
176
     1
 77
     6
176
     1
 78
     2
176
     1
 67
     7
176
     1
 79
     3
176
     1
170
     0
176
     1
171
     0
176
     1
290
     0
176
     1
 93
        1
176
     1
 44
0.0
176
     1
173
     0
176
     1
1001
ACAD
1000
AcDbSavedByObjectVersion
1070
     0
  0
VISUALSTYLE
  5
3C
102
{ACAD_XDICTIONARY
360
12E
102
}
102
{ACAD_REACTORS
330
29
102
}
330
29
100
AcDbVisualStyle
  2
X-Ray
 70
    25
177
     2
291
     0
 71
     2
176
     1
 72
     2
176
     1
 73
     1
176
     1
 90
        1
176
     1
 40
0.5
176
     1
 41
30.0
176
     1
 63
     7
421
 16777215
176
     1
 74
     1
176
     1
 91
        0
176
     1
 64
     7
176
     1
 65
   257
176
     1
 75
     1
176
     1
175
     1
176
     1
 42
1.0
176
     1
 92
        8
176
     1
 66
     7
176
     1
 43
1.0
176
     1
 76
     1
176
     1
 77
     6
176
     1
 78
     2
176
     1
 67
     7
176
     1
 79
     3
176
     1
170
     0
176
     1
171
     0
176
     1
290
     0
176
     1
 93
       13
176
     1
 44
0.0
176
     1
173
     0
176
     1
1001
ACAD
1000
AcDbSavedByObjectVersion
1070
     0
  0
DICTIONARYVAR
  5
106
102
{ACAD_REACTORS
330
101
102
}
330
101
100
DictionaryVariables
280
     0
  1
1:1
  0
DICTIONARYVAR
  5
103
102
{ACAD_REACTORS
330
101
102
}
330
101
100
DictionaryVariables
280
     0
  1
STANDARD
  0
DICTIONARYVAR
  5
102
102
{ACAD_REACTORS
330
101
102
}
330
101
100
DictionaryVariables
280
     0
  1
STANDARD
  0
DICTIONARYVAR
  5
104
102
{ACAD_REACTORS
330
101
102
}
330
101
100
DictionaryVariables
280
     0
  1
Imperial24
  0
DICTIONARYVAR
  5
105
102
{ACAD_REACTORS
330
101
102
}
330
101
100
DictionaryVariables
280
     0
  1
Imperial24
  0
DICTIONARY
  5
13E
330
6B
100
AcDbDictionary
280
     1
281
     1
  3
ACAD_XREC_ROUNDTRIP
360
13F
  0
DICTIONARY
  5
1A
330
19
100
AcDbDictionary
280
     1
281
     1
  3
BUMPTILE
360
1C
  3
DIFFUSETILE
360
1B
  3
OPACITYTILE
360
1F
  3
REFLECTIONTILE
360
1E
  3
REFRACTIONTILE
360
20
  3
SPECULARTILE
360
1D
  0
DICTIONARY
  5
12
330
11
100
AcDbDictionary
280
     1
281
     1
  3
BUMPTILE
360
14
  3
DIFFUSETILE
360
13
  3
OPACITYTILE
360
17
  3
REFLECTIONTILE
360
16
  3
REFRACTIONTILE
360
18
  3
SPECULARTILE
360
15
  0
DICTIONARY
  5
22
330
21
100
AcDbDictionary
280
     1
281
     1
  3
BUMPTILE
360
24
  3
DIFFUSETILE
360
23
  3
OPACITYTILE
360
27
  3
REFLECTIONTILE
360
26
  3
REFRACTIONTILE
360
28
  3
SPECULARTILE
360
25
  0
DICTIONARY
  5
13A
330
67
100
AcDbDictionary
280
     1
281
     1
  3
ACAD_XREC_ROUNDTRIP
360
13B
  0
DICTIONARY
  5
13C
330
69
100
AcDbDictionary
280
     1
281
     1
  3
ACAD_XREC_ROUNDTRIP
360
13D
  0
DICTIONARY
  5
107
330
65
100
AcDbDictionary
280
     1
281
     1
  3
ACAD_ROUNDTRIP_2008_TABLESTYLE_CELLSTYLEMAP
360
108
  0
DICTIONARY
  5
114
330
2F
100
AcDbDictionary
280
     1
281
     1
  3
ACAD_XREC_ROUNDTRIP
360
115
  0
DICTIONARY
  5
112
330
2E
100
AcDbDictionary
280
     1
281
     1
  3
ACAD_XREC_ROUNDTRIP
360
113
  0
DICTIONARY
  5
120
330
35
100
AcDbDictionary
280
     1
281
     1
  3
ACAD_XREC_ROUNDTRIP
360
121
  0
DICTIONARY
  5
128
330
39
100
AcDbDictionary
280
     1
281
     1
  3
ACAD_XREC_ROUNDTRIP
360
129
  0
DICTIONARY
  5
11A
330
32
100
AcDbDictionary
280
     1
281
     1
  3
ACAD_XREC_ROUNDTRIP
360
11B
  0
DICTIONARY
  5
11E
330
34
100
AcDbDictionary
280
     1
281
     1
  3
ACAD_XREC_ROUNDTRIP
360
11F
  0
DICTIONARY
  5
138
330
41
100
AcDbDictionary
280
     1
281
     1
  3
ACAD_XREC_ROUNDTRIP
360
139
  0
DICTIONARY
  5
126
330
38
100
AcDbDictionary
280
     1
281
     1
  3
ACAD_XREC_ROUNDTRIP
360
127
  0
DICTIONARY
  5
10A
330
2A
100
AcDbDictionary
280
     1
281
     1
  3
ACAD_XREC_ROUNDTRIP
360
10B
  0
DICTIONARY
  5
10C
330
2B
100
AcDbDictionary
280
     1
281
     1
  3
ACAD_XREC_ROUNDTRIP
360
10D
  0
DICTIONARY
  5
10E
330
2C
100
AcDbDictionary
280
     1
281
     1
  3
ACAD_XREC_ROUNDTRIP
360
10F
  0
DICTIONARY
  5
110
330
2D
100
AcDbDictionary
280
     1
281
     1
  3
ACAD_XREC_ROUNDTRIP
360
111
  0
DICTIONARY
  5
118
330
31
100
AcDbDictionary
280
     1
281
     1
  3
ACAD_XREC_ROUNDTRIP
360
119
  0
DICTIONARY
  5
134
330
3F
100
AcDbDictionary
280
     1
281
     1
  3
ACAD_XREC_ROUNDTRIP
360
135
  0
DICTIONARY
  5
124
330
37
100
AcDbDictionary
280
     1
281
     1
  3
ACAD_XREC_ROUNDTRIP
360
125
  0
DICTIONARY
  5
136
330
40
100
AcDbDictionary
280
     1
281
     1
  3
ACAD_XREC_ROUNDTRIP
360
137
  0
DICTIONARY
  5
11C
330
33
100
AcDbDictionary
280
     1
281
     1
  3
ACAD_XREC_ROUNDTRIP
360
11D
  0
DICTIONARY
  5
132
330
3E
100
AcDbDictionary
280
     1
281
     1
  3
ACAD_XREC_ROUNDTRIP
360
133
  0
DICTIONARY
  5
130
330
3D
100
AcDbDictionary
280
     1
281
     1
  3
ACAD_XREC_ROUNDTRIP
360
131
  0
DICTIONARY
  5
12A
330
3A
100
AcDbDictionary
280
     1
281
     1
  3
ACAD_XREC_ROUNDTRIP
360
12B
  0
DICTIONARY
  5
12C
330
3B
100
AcDbDictionary
280
     1
281
     1
  3
ACAD_XREC_ROUNDTRIP
360
12D
  0
DICTIONARY
  5
122
330
36
100
AcDbDictionary
280
     1
281
     1
  3
ACAD_XREC_ROUNDTRIP
360
123
  0
DICTIONARY
  5
116
330
30
100
AcDbDictionary
280
     1
281
     1
  3
ACAD_XREC_ROUNDTRIP
360
117
  0
DICTIONARY
  5
12E
330
3C
100
AcDbDictionary
280
     1
281
     1
  3
ACAD_XREC_ROUNDTRIP
360
12F
  0
XRECORD
  5
13F
102
{ACAD_REACTORS
330
13E
102
}
330
13E
100
AcDbXrecord
280
     1
102
DISPLAYNAME
  1
Imperial24
102
FLAGS
 90
        0
  0
XRECORD
  5
1C
102
{ACAD_REACTORS
330
1A
102
}
330
1A
100
AcDbXrecord
280
     1
270
     1
271
     1
  0
XRECORD
  5
1B
102
{ACAD_REACTORS
330
1A
102
}
330
1A
100
AcDbXrecord
280
     1
270
     1
271
     1
  0
XRECORD
  5
1F
102
{ACAD_REACTORS
330
1A
102
}
330
1A
100
AcDbXrecord
280
     1
270
     1
271
     1
  0
XRECORD
  5
1E
102
{ACAD_REACTORS
330
1A
102
}
330
1A
100
AcDbXrecord
280
     1
270
     1
271
     1
  0
XRECORD
  5
20
102
{ACAD_REACTORS
330
1A
102
}
330
1A
100
AcDbXrecord
280
     1
270
     1
271
     1
  0
XRECORD
  5
1D
102
{ACAD_REACTORS
330
1A
102
}
330
1A
100
AcDbXrecord
280
     1
270
     1
271
     1
  0
XRECORD
  5
14
102
{ACAD_REACTORS
330
12
102
}
330
12
100
AcDbXrecord
280
     1
270
     1
271
     1
  0
XRECORD
  5
13
102
{ACAD_REACTORS
330
12
102
}
330
12
100
AcDbXrecord
280
     1
270
     1
271
     1
  0
XRECORD
  5
17
102
{ACAD_REACTORS
330
12
102
}
330
12
100
AcDbXrecord
280
     1
270
     1
271
     1
  0
XRECORD
  5
16
102
{ACAD_REACTORS
330
12
102
}
330
12
100
AcDbXrecord
280
     1
270
     1
271
     1
  0
XRECORD
  5
18
102
{ACAD_REACTORS
330
12
102
}
330
12
100
AcDbXrecord
280
     1
270
     1
271
     1
  0
XRECORD
  5
15
102
{ACAD_REACTORS
330
12
102
}
330
12
100
AcDbXrecord
280
     1
270
     1
271
     1
  0
XRECORD
  5
24
102
{ACAD_REACTORS
330
22
102
}
330
22
100
AcDbXrecord
280
     1
270
     1
271
     1
  0
XRECORD
  5
23
102
{ACAD_REACTORS
330
22
102
}
330
22
100
AcDbXrecord
280
     1
270
     1
271
     1
  0
XRECORD
  5
27
102
{ACAD_REACTORS
330
22
102
}
330
22
100
AcDbXrecord
280
     1
270
     1
271
     1
  0
XRECORD
  5
26
102
{ACAD_REACTORS
330
22
102
}
330
22
100
AcDbXrecord
280
     1
270
     1
271
     1
  0
XRECORD
  5
28
102
{ACAD_REACTORS
330
22
102
}
330
22
100
AcDbXrecord
280
     1
270
     1
271
     1
  0
XRECORD
  5
25
102
{ACAD_REACTORS
330
22
102
}
330
22
100
AcDbXrecord
280
     1
270
     1
271
     1
  0
XRECORD
  5
13B
102
{ACAD_REACTORS
330
13A
102
}
330
13A
100
AcDbXrecord
280
     1
102
ACAD_ROUNDTRIP_2012_MLEADER_STYLE
298
     1
  0
XRECORD
  5
13D
102
{ACAD_REACTORS
330
13C
102
}
330
13C
100
AcDbXrecord
280
     1
102
DISPLAYNAME
  1
Imperial24
102
FLAGS
 90
        0
  0
CELLSTYLEMAP
  5
108
102
{ACAD_REACTORS
330
107
102
}
330
107
100
AcDbCellStyleMap
 90
        3
300
CELLSTYLE
  1
TABLEFORMAT_BEGIN
 90
        5
170
     1
 91
        0
 92
    32768
 62
   257
 93
        1
300
CONTENTFORMAT
  1
CONTENTFORMAT_BEGIN
 90
        0
 91
        0
 92
      512
 93
        0
300

 40
0.0
140
1.0
 94
        5
 62
     0
340
55
144
0.25
309
CONTENTFORMAT_END
171
     0
 94
        0
309
TABLEFORMAT_END
  1
CELLSTYLE_BEGIN
 90
        1
 91
        1
300
_TITLE
309
CELLSTYLE_END
300
CELLSTYLE
  1
TABLEFORMAT_BEGIN
 90
        5
170
     1
 91
        0
 92
        0
 62
   257
 93
        1
300
CONTENTFORMAT
  1
CONTENTFORMAT_BEGIN
 90
        0
 91
        0
 92
      512
 93
        0
300

 40
0.0
140
1.0
 94
        5
 62
     0
340
55
144
0.18
309
CONTENTFORMAT_END
171
     0
 94
        0
309
TABLEFORMAT_END
  1
CELLSTYLE_BEGIN
 90
        2
 91
        1
300
_HEADER
309
CELLSTYLE_END
300
CELLSTYLE
  1
TABLEFORMAT_BEGIN
 90
        5
170
     1
 91
        0
 92
        0
 62
   257
 93
        1
300
CONTENTFORMAT
  1
CONTENTFORMAT_BEGIN
 90
        0
 91
        0
 92
      512
 93
        0
300

 40
0.0
140
1.0
 94
        2
 62
     0
340
55
144
0.18
309
CONTENTFORMAT_END
171
     0
 94
        0
309
TABLEFORMAT_END
  1
CELLSTYLE_BEGIN
 90
        3
 91
        2
300
_DATA
309
CELLSTYLE_END
  0
XRECORD
  5
115
102
{ACAD_REACTORS
330
114
102
}
330
114
100
AcDbXrecord
280
     1
102
RTVSPost2010Prop28
280
     1
102
RTVSPost2010PropOp28
 70
     1
102
RTVSPost2010Prop29
280
     1
102
RTVSPost2010PropOp29
 70
     1
102
RTVSPost2010Prop30
280
     0
102
RTVSPost2010PropOp30
 70
     1
102
RTVSPost2010Prop31
280
     0
102
RTVSPost2010PropOp31
 70
     1
102
RTVSPost2010Prop32
280
     0
102
RTVSPost2010PropOp32
 70
     1
102
RTVSPost2010Prop33
280
     0
102
RTVSPost2010PropOp33
 70
     1
102
RTVSPost2010Prop34
280
     0
102
RTVSPost2010PropOp34
 70
     1
102
RTVSPost2010Prop35
280
     0
102
RTVSPost2010PropOp35
 70
     1
102
RTVSPost2010Prop36
280
     0
102
RTVSPost2010PropOp36
 70
     1
102
RTVSPost2010Prop37
 90
       50
102
RTVSPost2010PropOp37
 70
     1
102
RTVSPost2010Prop38
140
0.0
102
RTVSPost2010PropOp38
 70
     1
102
RTVSPost2010Prop39
140
1.0
102
RTVSPost2010PropOp39
 70
     1
102
RTVSPost2010Prop40
 90
        0
102
RTVSPost2010PropOp40
 70
     1
102
RTVSPost2010Prop41ColorIndex
 90
       18
102
RTVSPost2010Prop41ColorRGB
 90
        0
102
RTVSPost2010PropOp41
 70
     1
102
RTVSPost2010Prop42
 90
       50
102
RTVSPost2010PropOp42
 70
     1
102
RTVSPost2010Prop43
 90
        3
102
RTVSPost2010PropOp43
 70
     1
102
RTVSPost2010Prop44ColorIndex
 90
        5
102
RTVSPost2010Prop44ColorRGB
 90
      255
102
RTVSPost2010PropOp44
 70
     1
102
RTVSPost2010Prop45
280
     0
102
RTVSPost2010PropOp45
 70
     1
102
RTVSPost2010Prop46
 90
       50
102
RTVSPost2010PropOp46
 70
     1
102
RTVSPost2010Prop47
 90
       50
102
RTVSPost2010PropOp47
 70
     1
102
RTVSPost2010Prop48
 90
       50
102
RTVSPost2010PropOp48
 70
     1
102
RTVSPost2010Prop49
280
     0
102
RTVSPost2010PropOp49
 70
     1
102
RTVSPost2010Prop50
 90
       50
102
RTVSPost2010PropOp50
 70
     1
102
RTVSPost2010Prop51ColorIndex
 90
      256
102
RTVSPost2010Prop51ColorRGB
 90
-16777216
102
RTVSPost2010PropOp51
 70
     0
102
RTVSPost2010Prop52
140
1.0
102
RTVSPost2010PropOp52
 70
     0
102
RTVSPost2010Prop53
 90
        2
102
RTVSPost2010PropOp53
 70
     1
102
RTVSPost2010Prop54
  1
strokes_ogs.tif
102
RTVSPost2010PropOp54
 70
     1
102
RTVSPost2010Prop55
280
     0
102
RTVSPost2010PropOp55
 70
     1
102
RTVSPost2010Prop56
140
1.0
102
RTVSPost2010PropOp56
 70
     1
102
RTVSPost2010Prop57
140
1.0
102
RTVSPost2010PropOp57
 70
     1
  0
XRECORD
  5
113
102
{ACAD_REACTORS
330
112
102
}
330
112
100
AcDbXrecord
280
     1
102
RTVSPost2010Prop28
280
     0
102
RTVSPost2010PropOp28
 70
     1
102
RTVSPost2010Prop29
280
     1
102
RTVSPost2010PropOp29
 70
     1
102
RTVSPost2010Prop30
280
     1
102
RTVSPost2010PropOp30
 70
     1
102
RTVSPost2010Prop31
280
     0
102
RTVSPost2010PropOp31
 70
     1
102
RTVSPost2010Prop32
280
     0
102
RTVSPost2010PropOp32
 70
     1
102
RTVSPost2010Prop33
280
     0
102
RTVSPost2010PropOp33
 70
     1
102
RTVSPost2010Prop34
280
     0
102
RTVSPost2010PropOp34
 70
     1
102
RTVSPost2010Prop35
280
     0
102
RTVSPost2010PropOp35
 70
     1
102
RTVSPost2010Prop36
280
     0
102
RTVSPost2010PropOp36
 70
     1
102
RTVSPost2010Prop37
 90
       50
102
RTVSPost2010PropOp37
 70
     1
102
RTVSPost2010Prop38
140
0.0
102
RTVSPost2010PropOp38
 70
     1
102
RTVSPost2010Prop39
140
1.0
102
RTVSPost2010PropOp39
 70
     1
102
RTVSPost2010Prop40
 90
        0
102
RTVSPost2010PropOp40
 70
     1
102
RTVSPost2010Prop41ColorIndex
 90
       18
102
RTVSPost2010Prop41ColorRGB
 90
        0
102
RTVSPost2010PropOp41
 70
     1
102
RTVSPost2010Prop42
 90
       50
102
RTVSPost2010PropOp42
 70
     1
102
RTVSPost2010Prop43
 90
        3
102
RTVSPost2010PropOp43
 70
     1
102
RTVSPost2010Prop44ColorIndex
 90
        5
102
RTVSPost2010Prop44ColorRGB
 90
      255
102
RTVSPost2010PropOp44
 70
     1
102
RTVSPost2010Prop45
280
     0
102
RTVSPost2010PropOp45
 70
     1
102
RTVSPost2010Prop46
 90
       50
102
RTVSPost2010PropOp46
 70
     1
102
RTVSPost2010Prop47
 90
       50
102
RTVSPost2010PropOp47
 70
     1
102
RTVSPost2010Prop48
 90
       50
102
RTVSPost2010PropOp48
 70
     1
102
RTVSPost2010Prop49
280
     0
102
RTVSPost2010PropOp49
 70
     1
102
RTVSPost2010Prop50
 90
       50
102
RTVSPost2010PropOp50
 70
     1
102
RTVSPost2010Prop51ColorIndex
 90
      256
102
RTVSPost2010Prop51ColorRGB
 90
-16777216
102
RTVSPost2010PropOp51
 70
     0
102
RTVSPost2010Prop52
140
1.0
102
RTVSPost2010PropOp52
 70
     0
102
RTVSPost2010Prop53
 90
        2
102
RTVSPost2010PropOp53
 70
     1
102
RTVSPost2010Prop54
  1
strokes_ogs.tif
102
RTVSPost2010PropOp54
 70
     1
102
RTVSPost2010Prop55
280
     0
102
RTVSPost2010PropOp55
 70
     1
102
RTVSPost2010Prop56
140
1.0
102
RTVSPost2010PropOp56
 70
     1
102
RTVSPost2010Prop57
140
1.0
102
RTVSPost2010PropOp57
 70
     1
  0
XRECORD
  5
121
102
{ACAD_REACTORS
330
120
102
}
330
120
100
AcDbXrecord
280
     1
102
RTVSPost2010Prop28
280
     0
102
RTVSPost2010PropOp28
 70
     1
102
RTVSPost2010Prop29
280
     1
102
RTVSPost2010PropOp29
 70
     1
102
RTVSPost2010Prop30
280
     1
102
RTVSPost2010PropOp30
 70
     1
102
RTVSPost2010Prop31
280
     0
102
RTVSPost2010PropOp31
 70
     1
102
RTVSPost2010Prop32
280
     0
102
RTVSPost2010PropOp32
 70
     1
102
RTVSPost2010Prop33
280
     0
102
RTVSPost2010PropOp33
 70
     1
102
RTVSPost2010Prop34
280
     0
102
RTVSPost2010PropOp34
 70
     1
102
RTVSPost2010Prop35
280
     0
102
RTVSPost2010PropOp35
 70
     1
102
RTVSPost2010Prop36
280
     0
102
RTVSPost2010PropOp36
 70
     1
102
RTVSPost2010Prop37
 90
       50
102
RTVSPost2010PropOp37
 70
     1
102
RTVSPost2010Prop38
140
0.0
102
RTVSPost2010PropOp38
 70
     1
102
RTVSPost2010Prop39
140
1.0
102
RTVSPost2010PropOp39
 70
     1
102
RTVSPost2010Prop40
 90
        0
102
RTVSPost2010PropOp40
 70
     1
102
RTVSPost2010Prop41ColorIndex
 90
       18
102
RTVSPost2010Prop41ColorRGB
 90
        0
102
RTVSPost2010PropOp41
 70
     1
102
RTVSPost2010Prop42
 90
       50
102
RTVSPost2010PropOp42
 70
     1
102
RTVSPost2010Prop43
 90
        3
102
RTVSPost2010PropOp43
 70
     1
102
RTVSPost2010Prop44ColorIndex
 90
        5
102
RTVSPost2010Prop44ColorRGB
 90
      255
102
RTVSPost2010PropOp44
 70
     1
102
RTVSPost2010Prop45
280
     0
102
RTVSPost2010PropOp45
 70
     1
102
RTVSPost2010Prop46
 90
       50
102
RTVSPost2010PropOp46
 70
     1
102
RTVSPost2010Prop47
 90
       50
102
RTVSPost2010PropOp47
 70
     1
102
RTVSPost2010Prop48
 90
       50
102
RTVSPost2010PropOp48
 70
     1
102
RTVSPost2010Prop49
280
     0
102
RTVSPost2010PropOp49
 70
     1
102
RTVSPost2010Prop50
 90
       50
102
RTVSPost2010PropOp50
 70
     1
102
RTVSPost2010Prop51ColorIndex
 90
      256
102
RTVSPost2010Prop51ColorRGB
 90
-16777216
102
RTVSPost2010PropOp51
 70
     0
102
RTVSPost2010Prop52
140
1.0
102
RTVSPost2010PropOp52
 70
     0
102
RTVSPost2010Prop53
 90
        2
102
RTVSPost2010PropOp53
 70
     1
102
RTVSPost2010Prop54
  1
strokes_ogs.tif
102
RTVSPost2010PropOp54
 70
     1
102
RTVSPost2010Prop55
280
     0
102
RTVSPost2010PropOp55
 70
     1
102
RTVSPost2010Prop56
140
1.0
102
RTVSPost2010PropOp56
 70
     1
102
RTVSPost2010Prop57
140
1.0
102
RTVSPost2010PropOp57
 70
     1
  0
XRECORD
  5
129
102
{ACAD_REACTORS
330
128
102
}
330
128
100
AcDbXrecord
280
     1
102
RTVSPost2010Prop28
280
     0
102
RTVSPost2010PropOp28
 70
     1
102
RTVSPost2010Prop29
280
     1
102
RTVSPost2010PropOp29
 70
     1
102
RTVSPost2010Prop30
280
     1
102
RTVSPost2010PropOp30
 70
     1
102
RTVSPost2010Prop31
280
     0
102
RTVSPost2010PropOp31
 70
     1
102
RTVSPost2010Prop32
280
     0
102
RTVSPost2010PropOp32
 70
     1
102
RTVSPost2010Prop33
280
     0
102
RTVSPost2010PropOp33
 70
     1
102
RTVSPost2010Prop34
280
     0
102
RTVSPost2010PropOp34
 70
     1
102
RTVSPost2010Prop35
280
     0
102
RTVSPost2010PropOp35
 70
     1
102
RTVSPost2010Prop36
280
     0
102
RTVSPost2010PropOp36
 70
     1
102
RTVSPost2010Prop37
 90
       50
102
RTVSPost2010PropOp37
 70
     1
102
RTVSPost2010Prop38
140
0.0
102
RTVSPost2010PropOp38
 70
     1
102
RTVSPost2010Prop39
140
1.0
102
RTVSPost2010PropOp39
 70
     1
102
RTVSPost2010Prop40
 90
        0
102
RTVSPost2010PropOp40
 70
     1
102
RTVSPost2010Prop41ColorIndex
 90
       18
102
RTVSPost2010Prop41ColorRGB
 90
        0
102
RTVSPost2010PropOp41
 70
     1
102
RTVSPost2010Prop42
 90
       50
102
RTVSPost2010PropOp42
 70
     1
102
RTVSPost2010Prop43
 90
        3
102
RTVSPost2010PropOp43
 70
     1
102
RTVSPost2010Prop44ColorIndex
 90
        5
102
RTVSPost2010Prop44ColorRGB
 90
      255
102
RTVSPost2010PropOp44
 70
     1
102
RTVSPost2010Prop45
280
     0
102
RTVSPost2010PropOp45
 70
     1
102
RTVSPost2010Prop46
 90
       50
102
RTVSPost2010PropOp46
 70
     1
102
RTVSPost2010Prop47
 90
       50
102
RTVSPost2010PropOp47
 70
     1
102
RTVSPost2010Prop48
 90
       50
102
RTVSPost2010PropOp48
 70
     1
102
RTVSPost2010Prop49
280
     0
102
RTVSPost2010PropOp49
 70
     1
102
RTVSPost2010Prop50
 90
       50
102
RTVSPost2010PropOp50
 70
     1
102
RTVSPost2010Prop51ColorIndex
 90
      256
102
RTVSPost2010Prop51ColorRGB
 90
-16777216
102
RTVSPost2010PropOp51
 70
     0
102
RTVSPost2010Prop52
140
1.0
102
RTVSPost2010PropOp52
 70
     0
102
RTVSPost2010Prop53
 90
        2
102
RTVSPost2010PropOp53
 70
     1
102
RTVSPost2010Prop54
  1
strokes_ogs.tif
102
RTVSPost2010PropOp54
 70
     1
102
RTVSPost2010Prop55
280
     0
102
RTVSPost2010PropOp55
 70
     1
102
RTVSPost2010Prop56
140
1.0
102
RTVSPost2010PropOp56
 70
     1
102
RTVSPost2010Prop57
140
1.0
102
RTVSPost2010PropOp57
 70
     1
  0
XRECORD
  5
11B
102
{ACAD_REACTORS
330
11A
102
}
330
11A
100
AcDbXrecord
280
     1
102
RTVSPost2010Prop28
280
     0
102
RTVSPost2010PropOp28
 70
     1
102
RTVSPost2010Prop29
280
     1
102
RTVSPost2010PropOp29
 70
     1
102
RTVSPost2010Prop30
280
     1
102
RTVSPost2010PropOp30
 70
     1
102
RTVSPost2010Prop31
280
     0
102
RTVSPost2010PropOp31
 70
     1
102
RTVSPost2010Prop32
280
     0
102
RTVSPost2010PropOp32
 70
     1
102
RTVSPost2010Prop33
280
     0
102
RTVSPost2010PropOp33
 70
     1
102
RTVSPost2010Prop34
280
     0
102
RTVSPost2010PropOp34
 70
     1
102
RTVSPost2010Prop35
280
     0
102
RTVSPost2010PropOp35
 70
     1
102
RTVSPost2010Prop36
280
     0
102
RTVSPost2010PropOp36
 70
     1
102
RTVSPost2010Prop37
 90
       50
102
RTVSPost2010PropOp37
 70
     1
102
RTVSPost2010Prop38
140
0.0
102
RTVSPost2010PropOp38
 70
     1
102
RTVSPost2010Prop39
140
1.0
102
RTVSPost2010PropOp39
 70
     1
102
RTVSPost2010Prop40
 90
        0
102
RTVSPost2010PropOp40
 70
     1
102
RTVSPost2010Prop41ColorIndex
 90
       18
102
RTVSPost2010Prop41ColorRGB
 90
        0
102
RTVSPost2010PropOp41
 70
     1
102
RTVSPost2010Prop42
 90
       50
102
RTVSPost2010PropOp42
 70
     1
102
RTVSPost2010Prop43
 90
        3
102
RTVSPost2010PropOp43
 70
     1
102
RTVSPost2010Prop44ColorIndex
 90
        5
102
RTVSPost2010Prop44ColorRGB
 90
      255
102
RTVSPost2010PropOp44
 70
     1
102
RTVSPost2010Prop45
280
     0
102
RTVSPost2010PropOp45
 70
     1
102
RTVSPost2010Prop46
 90
       50
102
RTVSPost2010PropOp46
 70
     1
102
RTVSPost2010Prop47
 90
       50
102
RTVSPost2010PropOp47
 70
     1
102
RTVSPost2010Prop48
 90
       50
102
RTVSPost2010PropOp48
 70
     1
102
RTVSPost2010Prop49
280
     0
102
RTVSPost2010PropOp49
 70
     1
102
RTVSPost2010Prop50
 90
       50
102
RTVSPost2010PropOp50
 70
     1
102
RTVSPost2010Prop51ColorIndex
 90
      256
102
RTVSPost2010Prop51ColorRGB
 90
-16777216
102
RTVSPost2010PropOp51
 70
     0
102
RTVSPost2010Prop52
140
1.0
102
RTVSPost2010PropOp52
 70
     0
102
RTVSPost2010Prop53
 90
        2
102
RTVSPost2010PropOp53
 70
     1
102
RTVSPost2010Prop54
  1
strokes_ogs.tif
102
RTVSPost2010PropOp54
 70
     1
102
RTVSPost2010Prop55
280
     0
102
RTVSPost2010PropOp55
 70
     1
102
RTVSPost2010Prop56
140
1.0
102
RTVSPost2010PropOp56
 70
     1
102
RTVSPost2010Prop57
140
1.0
102
RTVSPost2010PropOp57
 70
     1
  0
XRECORD
  5
11F
102
{ACAD_REACTORS
330
11E
102
}
330
11E
100
AcDbXrecord
280
     1
102
RTVSPost2010Prop28
280
     0
102
RTVSPost2010PropOp28
 70
     1
102
RTVSPost2010Prop29
280
     1
102
RTVSPost2010PropOp29
 70
     1
102
RTVSPost2010Prop30
280
     1
102
RTVSPost2010PropOp30
 70
     1
102
RTVSPost2010Prop31
280
     0
102
RTVSPost2010PropOp31
 70
     1
102
RTVSPost2010Prop32
280
     0
102
RTVSPost2010PropOp32
 70
     1
102
RTVSPost2010Prop33
280
     0
102
RTVSPost2010PropOp33
 70
     1
102
RTVSPost2010Prop34
280
     0
102
RTVSPost2010PropOp34
 70
     1
102
RTVSPost2010Prop35
280
     0
102
RTVSPost2010PropOp35
 70
     1
102
RTVSPost2010Prop36
280
     0
102
RTVSPost2010PropOp36
 70
     1
102
RTVSPost2010Prop37
 90
       50
102
RTVSPost2010PropOp37
 70
     1
102
RTVSPost2010Prop38
140
0.0
102
RTVSPost2010PropOp38
 70
     1
102
RTVSPost2010Prop39
140
1.0
102
RTVSPost2010PropOp39
 70
     1
102
RTVSPost2010Prop40
 90
        0
102
RTVSPost2010PropOp40
 70
     1
102
RTVSPost2010Prop41ColorIndex
 90
       18
102
RTVSPost2010Prop41ColorRGB
 90
        0
102
RTVSPost2010PropOp41
 70
     1
102
RTVSPost2010Prop42
 90
       50
102
RTVSPost2010PropOp42
 70
     1
102
RTVSPost2010Prop43
 90
        3
102
RTVSPost2010PropOp43
 70
     1
102
RTVSPost2010Prop44ColorIndex
 90
        5
102
RTVSPost2010Prop44ColorRGB
 90
      255
102
RTVSPost2010PropOp44
 70
     1
102
RTVSPost2010Prop45
280
     0
102
RTVSPost2010PropOp45
 70
     1
102
RTVSPost2010Prop46
 90
       50
102
RTVSPost2010PropOp46
 70
     1
102
RTVSPost2010Prop47
 90
       50
102
RTVSPost2010PropOp47
 70
     1
102
RTVSPost2010Prop48
 90
       50
102
RTVSPost2010PropOp48
 70
     1
102
RTVSPost2010Prop49
280
     0
102
RTVSPost2010PropOp49
 70
     1
102
RTVSPost2010Prop50
 90
       50
102
RTVSPost2010PropOp50
 70
     1
102
RTVSPost2010Prop51ColorIndex
 90
      256
102
RTVSPost2010Prop51ColorRGB
 90
-16777216
102
RTVSPost2010PropOp51
 70
     0
102
RTVSPost2010Prop52
140
1.0
102
RTVSPost2010PropOp52
 70
     0
102
RTVSPost2010Prop53
 90
        2
102
RTVSPost2010PropOp53
 70
     1
102
RTVSPost2010Prop54
  1
strokes_ogs.tif
102
RTVSPost2010PropOp54
 70
     1
102
RTVSPost2010Prop55
280
     0
102
RTVSPost2010PropOp55
 70
     1
102
RTVSPost2010Prop56
140
1.0
102
RTVSPost2010PropOp56
 70
     1
102
RTVSPost2010Prop57
140
1.0
102
RTVSPost2010PropOp57
 70
     1
  0
XRECORD
  5
139
102
{ACAD_REACTORS
330
138
102
}
330
138
100
AcDbXrecord
280
     1
102
RTVSPost2010Prop28
280
     0
102
RTVSPost2010PropOp28
 70
     0
102
RTVSPost2010Prop29
280
     1
102
RTVSPost2010PropOp29
 70
     0
102
RTVSPost2010Prop30
280
     1
102
RTVSPost2010PropOp30
 70
     0
102
RTVSPost2010Prop31
280
     0
102
RTVSPost2010PropOp31
 70
     0
102
RTVSPost2010Prop32
280
     0
102
RTVSPost2010PropOp32
 70
     0
102
RTVSPost2010Prop33
280
     0
102
RTVSPost2010PropOp33
 70
     0
102
RTVSPost2010Prop34
280
     0
102
RTVSPost2010PropOp34
 70
     0
102
RTVSPost2010Prop35
280
     0
102
RTVSPost2010PropOp35
 70
     0
102
RTVSPost2010Prop36
280
     0
102
RTVSPost2010PropOp36
 70
     0
102
RTVSPost2010Prop37
 90
       50
102
RTVSPost2010PropOp37
 70
     0
102
RTVSPost2010Prop38
140
0.0
102
RTVSPost2010PropOp38
 70
     0
102
RTVSPost2010Prop39
140
1.0
102
RTVSPost2010PropOp39
 70
     0
102
RTVSPost2010Prop40
 90
        0
102
RTVSPost2010PropOp40
 70
     0
102
RTVSPost2010Prop41ColorIndex
 90
       18
102
RTVSPost2010Prop41ColorRGB
 90
        0
102
RTVSPost2010PropOp41
 70
     0
102
RTVSPost2010Prop42
 90
       50
102
RTVSPost2010PropOp42
 70
     0
102
RTVSPost2010Prop43
 90
        3
102
RTVSPost2010PropOp43
 70
     0
102
RTVSPost2010Prop44ColorIndex
 90
        5
102
RTVSPost2010Prop44ColorRGB
 90
      255
102
RTVSPost2010PropOp44
 70
     0
102
RTVSPost2010Prop45
280
     0
102
RTVSPost2010PropOp45
 70
     0
102
RTVSPost2010Prop46
 90
       50
102
RTVSPost2010PropOp46
 70
     0
102
RTVSPost2010Prop47
 90
       50
102
RTVSPost2010PropOp47
 70
     0
102
RTVSPost2010Prop48
 90
       50
102
RTVSPost2010PropOp48
 70
     0
102
RTVSPost2010Prop49
280
     0
102
RTVSPost2010PropOp49
 70
     0
102
RTVSPost2010Prop50
 90
       50
102
RTVSPost2010PropOp50
 70
     0
102
RTVSPost2010Prop51ColorIndex
 90
      256
102
RTVSPost2010Prop51ColorRGB
 90
-16777216
102
RTVSPost2010PropOp51
 70
     0
102
RTVSPost2010Prop52
140
1.0
102
RTVSPost2010PropOp52
 70
     0
102
RTVSPost2010Prop53
 90
        2
102
RTVSPost2010PropOp53
 70
     0
102
RTVSPost2010Prop54
  1
strokes_ogs.tif
102
RTVSPost2010PropOp54
 70
     0
102
RTVSPost2010Prop55
280
     0
102
RTVSPost2010PropOp55
 70
     0
102
RTVSPost2010Prop56
140
1.0
102
RTVSPost2010PropOp56
 70
     0
102
RTVSPost2010Prop57
140
1.0
102
RTVSPost2010PropOp57
 70
     0
  0
XRECORD
  5
127
102
{ACAD_REACTORS
330
126
102
}
330
126
100
AcDbXrecord
280
     1
102
RTVSPost2010Prop28
280
     0
102
RTVSPost2010PropOp28
 70
     1
102
RTVSPost2010Prop29
280
     1
102
RTVSPost2010PropOp29
 70
     1
102
RTVSPost2010Prop30
280
     1
102
RTVSPost2010PropOp30
 70
     1
102
RTVSPost2010Prop31
280
     0
102
RTVSPost2010PropOp31
 70
     1
102
RTVSPost2010Prop32
280
     0
102
RTVSPost2010PropOp32
 70
     1
102
RTVSPost2010Prop33
280
     0
102
RTVSPost2010PropOp33
 70
     1
102
RTVSPost2010Prop34
280
     0
102
RTVSPost2010PropOp34
 70
     1
102
RTVSPost2010Prop35
280
     0
102
RTVSPost2010PropOp35
 70
     1
102
RTVSPost2010Prop36
280
     0
102
RTVSPost2010PropOp36
 70
     1
102
RTVSPost2010Prop37
 90
       50
102
RTVSPost2010PropOp37
 70
     1
102
RTVSPost2010Prop38
140
0.0
102
RTVSPost2010PropOp38
 70
     1
102
RTVSPost2010Prop39
140
1.0
102
RTVSPost2010PropOp39
 70
     1
102
RTVSPost2010Prop40
 90
        0
102
RTVSPost2010PropOp40
 70
     1
102
RTVSPost2010Prop41ColorIndex
 90
       18
102
RTVSPost2010Prop41ColorRGB
 90
        0
102
RTVSPost2010PropOp41
 70
     1
102
RTVSPost2010Prop42
 90
       50
102
RTVSPost2010PropOp42
 70
     1
102
RTVSPost2010Prop43
 90
        3
102
RTVSPost2010PropOp43
 70
     1
102
RTVSPost2010Prop44ColorIndex
 90
        5
102
RTVSPost2010Prop44ColorRGB
 90
      255
102
RTVSPost2010PropOp44
 70
     1
102
RTVSPost2010Prop45
280
     0
102
RTVSPost2010PropOp45
 70
     1
102
RTVSPost2010Prop46
 90
       50
102
RTVSPost2010PropOp46
 70
     1
102
RTVSPost2010Prop47
 90
       50
102
RTVSPost2010PropOp47
 70
     1
102
RTVSPost2010Prop48
 90
       50
102
RTVSPost2010PropOp48
 70
     1
102
RTVSPost2010Prop49
280
     0
102
RTVSPost2010PropOp49
 70
     1
102
RTVSPost2010Prop50
 90
       50
102
RTVSPost2010PropOp50
 70
     1
102
RTVSPost2010Prop51ColorIndex
 90
      256
102
RTVSPost2010Prop51ColorRGB
 90
-16777216
102
RTVSPost2010PropOp51
 70
     0
102
RTVSPost2010Prop52
140
1.0
102
RTVSPost2010PropOp52
 70
     0
102
RTVSPost2010Prop53
 90
        2
102
RTVSPost2010PropOp53
 70
     1
102
RTVSPost2010Prop54
  1
strokes_ogs.tif
102
RTVSPost2010PropOp54
 70
     1
102
RTVSPost2010Prop55
280
     0
102
RTVSPost2010PropOp55
 70
     1
102
RTVSPost2010Prop56
140
1.0
102
RTVSPost2010PropOp56
 70
     1
102
RTVSPost2010Prop57
140
1.0
102
RTVSPost2010PropOp57
 70
     1
  0
XRECORD
  5
10B
102
{ACAD_REACTORS
330
10A
102
}
330
10A
100
AcDbXrecord
280
     1
102
RTVSPost2010Prop28
280
     0
102
RTVSPost2010PropOp28
 70
     1
102
RTVSPost2010Prop29
280
     1
102
RTVSPost2010PropOp29
 70
     1
102
RTVSPost2010Prop30
280
     1
102
RTVSPost2010PropOp30
 70
     1
102
RTVSPost2010Prop31
280
     0
102
RTVSPost2010PropOp31
 70
     1
102
RTVSPost2010Prop32
280
     0
102
RTVSPost2010PropOp32
 70
     1
102
RTVSPost2010Prop33
280
     0
102
RTVSPost2010PropOp33
 70
     1
102
RTVSPost2010Prop34
280
     0
102
RTVSPost2010PropOp34
 70
     1
102
RTVSPost2010Prop35
280
     0
102
RTVSPost2010PropOp35
 70
     1
102
RTVSPost2010Prop36
280
     0
102
RTVSPost2010PropOp36
 70
     1
102
RTVSPost2010Prop37
 90
       50
102
RTVSPost2010PropOp37
 70
     1
102
RTVSPost2010Prop38
140
0.0
102
RTVSPost2010PropOp38
 70
     1
102
RTVSPost2010Prop39
140
1.0
102
RTVSPost2010PropOp39
 70
     1
102
RTVSPost2010Prop40
 90
        0
102
RTVSPost2010PropOp40
 70
     1
102
RTVSPost2010Prop41ColorIndex
 90
       18
102
RTVSPost2010Prop41ColorRGB
 90
        0
102
RTVSPost2010PropOp41
 70
     1
102
RTVSPost2010Prop42
 90
       50
102
RTVSPost2010PropOp42
 70
     1
102
RTVSPost2010Prop43
 90
        3
102
RTVSPost2010PropOp43
 70
     1
102
RTVSPost2010Prop44ColorIndex
 90
        5
102
RTVSPost2010Prop44ColorRGB
 90
      255
102
RTVSPost2010PropOp44
 70
     1
102
RTVSPost2010Prop45
280
     0
102
RTVSPost2010PropOp45
 70
     1
102
RTVSPost2010Prop46
 90
       50
102
RTVSPost2010PropOp46
 70
     1
102
RTVSPost2010Prop47
 90
       50
102
RTVSPost2010PropOp47
 70
     1
102
RTVSPost2010Prop48
 90
       50
102
RTVSPost2010PropOp48
 70
     1
102
RTVSPost2010Prop49
280
     0
102
RTVSPost2010PropOp49
 70
     1
102
RTVSPost2010Prop50
 90
       50
102
RTVSPost2010PropOp50
 70
     1
102
RTVSPost2010Prop51ColorIndex
 90
      256
102
RTVSPost2010Prop51ColorRGB
 90
-16777216
102
RTVSPost2010PropOp51
 70
     0
102
RTVSPost2010Prop52
140
1.0
102
RTVSPost2010PropOp52
 70
     0
102
RTVSPost2010Prop53
 90
        2
102
RTVSPost2010PropOp53
 70
     1
102
RTVSPost2010Prop54
  1
strokes_ogs.tif
102
RTVSPost2010PropOp54
 70
     1
102
RTVSPost2010Prop55
280
     0
102
RTVSPost2010PropOp55
 70
     1
102
RTVSPost2010Prop56
140
1.0
102
RTVSPost2010PropOp56
 70
     1
102
RTVSPost2010Prop57
140
1.0
102
RTVSPost2010PropOp57
 70
     1
  0
XRECORD
  5
10D
102
{ACAD_REACTORS
330
10C
102
}
330
10C
100
AcDbXrecord
280
     1
102
RTVSPost2010Prop28
280
     0
102
RTVSPost2010PropOp28
 70
     1
102
RTVSPost2010Prop29
280
     1
102
RTVSPost2010PropOp29
 70
     1
102
RTVSPost2010Prop30
280
     1
102
RTVSPost2010PropOp30
 70
     1
102
RTVSPost2010Prop31
280
     0
102
RTVSPost2010PropOp31
 70
     1
102
RTVSPost2010Prop32
280
     0
102
RTVSPost2010PropOp32
 70
     1
102
RTVSPost2010Prop33
280
     0
102
RTVSPost2010PropOp33
 70
     1
102
RTVSPost2010Prop34
280
     0
102
RTVSPost2010PropOp34
 70
     1
102
RTVSPost2010Prop35
280
     0
102
RTVSPost2010PropOp35
 70
     1
102
RTVSPost2010Prop36
280
     0
102
RTVSPost2010PropOp36
 70
     1
102
RTVSPost2010Prop37
 90
       50
102
RTVSPost2010PropOp37
 70
     1
102
RTVSPost2010Prop38
140
0.0
102
RTVSPost2010PropOp38
 70
     1
102
RTVSPost2010Prop39
140
1.0
102
RTVSPost2010PropOp39
 70
     1
102
RTVSPost2010Prop40
 90
        0
102
RTVSPost2010PropOp40
 70
     1
102
RTVSPost2010Prop41ColorIndex
 90
       18
102
RTVSPost2010Prop41ColorRGB
 90
        0
102
RTVSPost2010PropOp41
 70
     1
102
RTVSPost2010Prop42
 90
       50
102
RTVSPost2010PropOp42
 70
     1
102
RTVSPost2010Prop43
 90
        3
102
RTVSPost2010PropOp43
 70
     1
102
RTVSPost2010Prop44ColorIndex
 90
        5
102
RTVSPost2010Prop44ColorRGB
 90
      255
102
RTVSPost2010PropOp44
 70
     1
102
RTVSPost2010Prop45
280
     0
102
RTVSPost2010PropOp45
 70
     1
102
RTVSPost2010Prop46
 90
       50
102
RTVSPost2010PropOp46
 70
     1
102
RTVSPost2010Prop47
 90
       50
102
RTVSPost2010PropOp47
 70
     1
102
RTVSPost2010Prop48
 90
       50
102
RTVSPost2010PropOp48
 70
     1
102
RTVSPost2010Prop49
280
     0
102
RTVSPost2010PropOp49
 70
     1
102
RTVSPost2010Prop50
 90
       50
102
RTVSPost2010PropOp50
 70
     1
102
RTVSPost2010Prop51ColorIndex
 90
      256
102
RTVSPost2010Prop51ColorRGB
 90
-16777216
102
RTVSPost2010PropOp51
 70
     0
102
RTVSPost2010Prop52
140
1.0
102
RTVSPost2010PropOp52
 70
     0
102
RTVSPost2010Prop53
 90
        2
102
RTVSPost2010PropOp53
 70
     1
102
RTVSPost2010Prop54
  1
strokes_ogs.tif
102
RTVSPost2010PropOp54
 70
     1
102
RTVSPost2010Prop55
280
     0
102
RTVSPost2010PropOp55
 70
     1
102
RTVSPost2010Prop56
140
1.0
102
RTVSPost2010PropOp56
 70
     1
102
RTVSPost2010Prop57
140
1.0
102
RTVSPost2010PropOp57
 70
     1
  0
XRECORD
  5
10F
102
{ACAD_REACTORS
330
10E
102
}
330
10E
100
AcDbXrecord
280
     1
102
RTVSPost2010Prop28
280
     0
102
RTVSPost2010PropOp28
 70
     1
102
RTVSPost2010Prop29
280
     1
102
RTVSPost2010PropOp29
 70
     1
102
RTVSPost2010Prop30
280
     1
102
RTVSPost2010PropOp30
 70
     1
102
RTVSPost2010Prop31
280
     0
102
RTVSPost2010PropOp31
 70
     1
102
RTVSPost2010Prop32
280
     0
102
RTVSPost2010PropOp32
 70
     1
102
RTVSPost2010Prop33
280
     0
102
RTVSPost2010PropOp33
 70
     1
102
RTVSPost2010Prop34
280
     0
102
RTVSPost2010PropOp34
 70
     1
102
RTVSPost2010Prop35
280
     0
102
RTVSPost2010PropOp35
 70
     1
102
RTVSPost2010Prop36
280
     0
102
RTVSPost2010PropOp36
 70
     1
102
RTVSPost2010Prop37
 90
       50
102
RTVSPost2010PropOp37
 70
     1
102
RTVSPost2010Prop38
140
0.0
102
RTVSPost2010PropOp38
 70
     1
102
RTVSPost2010Prop39
140
1.0
102
RTVSPost2010PropOp39
 70
     1
102
RTVSPost2010Prop40
 90
        0
102
RTVSPost2010PropOp40
 70
     1
102
RTVSPost2010Prop41ColorIndex
 90
       18
102
RTVSPost2010Prop41ColorRGB
 90
        0
102
RTVSPost2010PropOp41
 70
     1
102
RTVSPost2010Prop42
 90
       50
102
RTVSPost2010PropOp42
 70
     1
102
RTVSPost2010Prop43
 90
        3
102
RTVSPost2010PropOp43
 70
     1
102
RTVSPost2010Prop44ColorIndex
 90
        5
102
RTVSPost2010Prop44ColorRGB
 90
      255
102
RTVSPost2010PropOp44
 70
     1
102
RTVSPost2010Prop45
280
     0
102
RTVSPost2010PropOp45
 70
     1
102
RTVSPost2010Prop46
 90
       50
102
RTVSPost2010PropOp46
 70
     1
102
RTVSPost2010Prop47
 90
       50
102
RTVSPost2010PropOp47
 70
     1
102
RTVSPost2010Prop48
 90
       50
102
RTVSPost2010PropOp48
 70
     1
102
RTVSPost2010Prop49
280
     0
102
RTVSPost2010PropOp49
 70
     1
102
RTVSPost2010Prop50
 90
       50
102
RTVSPost2010PropOp50
 70
     1
102
RTVSPost2010Prop51ColorIndex
 90
      256
102
RTVSPost2010Prop51ColorRGB
 90
-16777216
102
RTVSPost2010PropOp51
 70
     0
102
RTVSPost2010Prop52
140
1.0
102
RTVSPost2010PropOp52
 70
     0
102
RTVSPost2010Prop53
 90
        2
102
RTVSPost2010PropOp53
 70
     1
102
RTVSPost2010Prop54
  1
strokes_ogs.tif
102
RTVSPost2010PropOp54
 70
     1
102
RTVSPost2010Prop55
280
     0
102
RTVSPost2010PropOp55
 70
     1
102
RTVSPost2010Prop56
140
1.0
102
RTVSPost2010PropOp56
 70
     1
102
RTVSPost2010Prop57
140
1.0
102
RTVSPost2010PropOp57
 70
     1
  0
XRECORD
  5
111
102
{ACAD_REACTORS
330
110
102
}
330
110
100
AcDbXrecord
280
     1
102
RTVSPost2010Prop28
280
     0
102
RTVSPost2010PropOp28
 70
     1
102
RTVSPost2010Prop29
280
     1
102
RTVSPost2010PropOp29
 70
     1
102
RTVSPost2010Prop30
280
     1
102
RTVSPost2010PropOp30
 70
     1
102
RTVSPost2010Prop31
280
     0
102
RTVSPost2010PropOp31
 70
     1
102
RTVSPost2010Prop32
280
     0
102
RTVSPost2010PropOp32
 70
     1
102
RTVSPost2010Prop33
280
     0
102
RTVSPost2010PropOp33
 70
     1
102
RTVSPost2010Prop34
280
     0
102
RTVSPost2010PropOp34
 70
     1
102
RTVSPost2010Prop35
280
     0
102
RTVSPost2010PropOp35
 70
     1
102
RTVSPost2010Prop36
280
     0
102
RTVSPost2010PropOp36
 70
     1
102
RTVSPost2010Prop37
 90
       50
102
RTVSPost2010PropOp37
 70
     1
102
RTVSPost2010Prop38
140
0.0
102
RTVSPost2010PropOp38
 70
     1
102
RTVSPost2010Prop39
140
1.0
102
RTVSPost2010PropOp39
 70
     1
102
RTVSPost2010Prop40
 90
        0
102
RTVSPost2010PropOp40
 70
     1
102
RTVSPost2010Prop41ColorIndex
 90
       18
102
RTVSPost2010Prop41ColorRGB
 90
        0
102
RTVSPost2010PropOp41
 70
     1
102
RTVSPost2010Prop42
 90
       50
102
RTVSPost2010PropOp42
 70
     1
102
RTVSPost2010Prop43
 90
        3
102
RTVSPost2010PropOp43
 70
     1
102
RTVSPost2010Prop44ColorIndex
 90
        5
102
RTVSPost2010Prop44ColorRGB
 90
      255
102
RTVSPost2010PropOp44
 70
     1
102
RTVSPost2010Prop45
280
     0
102
RTVSPost2010PropOp45
 70
     1
102
RTVSPost2010Prop46
 90
       50
102
RTVSPost2010PropOp46
 70
     1
102
RTVSPost2010Prop47
 90
       50
102
RTVSPost2010PropOp47
 70
     1
102
RTVSPost2010Prop48
 90
       50
102
RTVSPost2010PropOp48
 70
     1
102
RTVSPost2010Prop49
280
     0
102
RTVSPost2010PropOp49
 70
     1
102
RTVSPost2010Prop50
 90
       50
102
RTVSPost2010PropOp50
 70
     1
102
RTVSPost2010Prop51ColorIndex
 90
      256
102
RTVSPost2010Prop51ColorRGB
 90
-16777216
102
RTVSPost2010PropOp51
 70
     0
102
RTVSPost2010Prop52
140
1.0
102
RTVSPost2010PropOp52
 70
     0
102
RTVSPost2010Prop53
 90
        2
102
RTVSPost2010PropOp53
 70
     1
102
RTVSPost2010Prop54
  1
strokes_ogs.tif
102
RTVSPost2010PropOp54
 70
     1
102
RTVSPost2010Prop55
280
     0
102
RTVSPost2010PropOp55
 70
     1
102
RTVSPost2010Prop56
140
1.0
102
RTVSPost2010PropOp56
 70
     1
102
RTVSPost2010Prop57
140
1.0
102
RTVSPost2010PropOp57
 70
     1
  0
XRECORD
  5
119
102
{ACAD_REACTORS
330
118
102
}
330
118
100
AcDbXrecord
280
     1
102
RTVSPost2010Prop28
280
     0
102
RTVSPost2010PropOp28
 70
     1
102
RTVSPost2010Prop29
280
     1
102
RTVSPost2010PropOp29
 70
     1
102
RTVSPost2010Prop30
280
     1
102
RTVSPost2010PropOp30
 70
     1
102
RTVSPost2010Prop31
280
     0
102
RTVSPost2010PropOp31
 70
     1
102
RTVSPost2010Prop32
280
     0
102
RTVSPost2010PropOp32
 70
     1
102
RTVSPost2010Prop33
280
     0
102
RTVSPost2010PropOp33
 70
     1
102
RTVSPost2010Prop34
280
     0
102
RTVSPost2010PropOp34
 70
     1
102
RTVSPost2010Prop35
280
     0
102
RTVSPost2010PropOp35
 70
     1
102
RTVSPost2010Prop36
280
     0
102
RTVSPost2010PropOp36
 70
     1
102
RTVSPost2010Prop37
 90
       50
102
RTVSPost2010PropOp37
 70
     1
102
RTVSPost2010Prop38
140
0.0
102
RTVSPost2010PropOp38
 70
     1
102
RTVSPost2010Prop39
140
1.0
102
RTVSPost2010PropOp39
 70
     1
102
RTVSPost2010Prop40
 90
        0
102
RTVSPost2010PropOp40
 70
     1
102
RTVSPost2010Prop41ColorIndex
 90
       18
102
RTVSPost2010Prop41ColorRGB
 90
        0
102
RTVSPost2010PropOp41
 70
     1
102
RTVSPost2010Prop42
 90
       50
102
RTVSPost2010PropOp42
 70
     1
102
RTVSPost2010Prop43
 90
        3
102
RTVSPost2010PropOp43
 70
     1
102
RTVSPost2010Prop44ColorIndex
 90
        5
102
RTVSPost2010Prop44ColorRGB
 90
      255
102
RTVSPost2010PropOp44
 70
     1
102
RTVSPost2010Prop45
280
     0
102
RTVSPost2010PropOp45
 70
     1
102
RTVSPost2010Prop46
 90
       50
102
RTVSPost2010PropOp46
 70
     1
102
RTVSPost2010Prop47
 90
       50
102
RTVSPost2010PropOp47
 70
     1
102
RTVSPost2010Prop48
 90
       50
102
RTVSPost2010PropOp48
 70
     1
102
RTVSPost2010Prop49
280
     0
102
RTVSPost2010PropOp49
 70
     1
102
RTVSPost2010Prop50
 90
       50
102
RTVSPost2010PropOp50
 70
     1
102
RTVSPost2010Prop51ColorIndex
 90
      256
102
RTVSPost2010Prop51ColorRGB
 90
-16777216
102
RTVSPost2010PropOp51
 70
     0
102
RTVSPost2010Prop52
140
1.0
102
RTVSPost2010PropOp52
 70
     0
102
RTVSPost2010Prop53
 90
        2
102
RTVSPost2010PropOp53
 70
     1
102
RTVSPost2010Prop54
  1
strokes_ogs.tif
102
RTVSPost2010PropOp54
 70
     1
102
RTVSPost2010Prop55
280
     0
102
RTVSPost2010PropOp55
 70
     1
102
RTVSPost2010Prop56
140
1.0
102
RTVSPost2010PropOp56
 70
     1
102
RTVSPost2010Prop57
140
1.0
102
RTVSPost2010PropOp57
 70
     1
  0
XRECORD
  5
135
102
{ACAD_REACTORS
330
134
102
}
330
134
100
AcDbXrecord
280
     1
102
RTVSPost2010Prop28
280
     0
102
RTVSPost2010PropOp28
 70
     0
102
RTVSPost2010Prop29
280
     1
102
RTVSPost2010PropOp29
 70
     0
102
RTVSPost2010Prop30
280
     1
102
RTVSPost2010PropOp30
 70
     0
102
RTVSPost2010Prop31
280
     0
102
RTVSPost2010PropOp31
 70
     0
102
RTVSPost2010Prop32
280
     0
102
RTVSPost2010PropOp32
 70
     0
102
RTVSPost2010Prop33
280
     0
102
RTVSPost2010PropOp33
 70
     0
102
RTVSPost2010Prop34
280
     0
102
RTVSPost2010PropOp34
 70
     0
102
RTVSPost2010Prop35
280
     0
102
RTVSPost2010PropOp35
 70
     0
102
RTVSPost2010Prop36
280
     0
102
RTVSPost2010PropOp36
 70
     0
102
RTVSPost2010Prop37
 90
       50
102
RTVSPost2010PropOp37
 70
     0
102
RTVSPost2010Prop38
140
0.0
102
RTVSPost2010PropOp38
 70
     0
102
RTVSPost2010Prop39
140
1.0
102
RTVSPost2010PropOp39
 70
     0
102
RTVSPost2010Prop40
 90
        0
102
RTVSPost2010PropOp40
 70
     0
102
RTVSPost2010Prop41ColorIndex
 90
       18
102
RTVSPost2010Prop41ColorRGB
 90
        0
102
RTVSPost2010PropOp41
 70
     0
102
RTVSPost2010Prop42
 90
       50
102
RTVSPost2010PropOp42
 70
     0
102
RTVSPost2010Prop43
 90
        3
102
RTVSPost2010PropOp43
 70
     0
102
RTVSPost2010Prop44ColorIndex
 90
        5
102
RTVSPost2010Prop44ColorRGB
 90
      255
102
RTVSPost2010PropOp44
 70
     0
102
RTVSPost2010Prop45
280
     0
102
RTVSPost2010PropOp45
 70
     0
102
RTVSPost2010Prop46
 90
       50
102
RTVSPost2010PropOp46
 70
     0
102
RTVSPost2010Prop47
 90
       50
102
RTVSPost2010PropOp47
 70
     0
102
RTVSPost2010Prop48
 90
       50
102
RTVSPost2010PropOp48
 70
     0
102
RTVSPost2010Prop49
280
     0
102
RTVSPost2010PropOp49
 70
     0
102
RTVSPost2010Prop50
 90
       50
102
RTVSPost2010PropOp50
 70
     0
102
RTVSPost2010Prop51ColorIndex
 90
      256
102
RTVSPost2010Prop51ColorRGB
 90
-16777216
102
RTVSPost2010PropOp51
 70
     0
102
RTVSPost2010Prop52
140
1.0
102
RTVSPost2010PropOp52
 70
     0
102
RTVSPost2010Prop53
 90
        2
102
RTVSPost2010PropOp53
 70
     0
102
RTVSPost2010Prop54
  1
strokes_ogs.tif
102
RTVSPost2010PropOp54
 70
     0
102
RTVSPost2010Prop55
280
     0
102
RTVSPost2010PropOp55
 70
     0
102
RTVSPost2010Prop56
140
1.0
102
RTVSPost2010PropOp56
 70
     0
102
RTVSPost2010Prop57
140
1.0
102
RTVSPost2010PropOp57
 70
     0
  0
XRECORD
  5
125
102
{ACAD_REACTORS
330
124
102
}
330
124
100
AcDbXrecord
280
     1
102
RTVSPost2010Prop28
280
     0
102
RTVSPost2010PropOp28
 70
     1
102
RTVSPost2010Prop29
280
     1
102
RTVSPost2010PropOp29
 70
     1
102
RTVSPost2010Prop30
280
     1
102
RTVSPost2010PropOp30
 70
     1
102
RTVSPost2010Prop31
280
     0
102
RTVSPost2010PropOp31
 70
     1
102
RTVSPost2010Prop32
280
     0
102
RTVSPost2010PropOp32
 70
     1
102
RTVSPost2010Prop33
280
     0
102
RTVSPost2010PropOp33
 70
     1
102
RTVSPost2010Prop34
280
     0
102
RTVSPost2010PropOp34
 70
     1
102
RTVSPost2010Prop35
280
     0
102
RTVSPost2010PropOp35
 70
     1
102
RTVSPost2010Prop36
280
     0
102
RTVSPost2010PropOp36
 70
     1
102
RTVSPost2010Prop37
 90
       50
102
RTVSPost2010PropOp37
 70
     1
102
RTVSPost2010Prop38
140
0.0
102
RTVSPost2010PropOp38
 70
     1
102
RTVSPost2010Prop39
140
1.0
102
RTVSPost2010PropOp39
 70
     1
102
RTVSPost2010Prop40
 90
        0
102
RTVSPost2010PropOp40
 70
     1
102
RTVSPost2010Prop41ColorIndex
 90
       18
102
RTVSPost2010Prop41ColorRGB
 90
        0
102
RTVSPost2010PropOp41
 70
     1
102
RTVSPost2010Prop42
 90
       50
102
RTVSPost2010PropOp42
 70
     1
102
RTVSPost2010Prop43
 90
        3
102
RTVSPost2010PropOp43
 70
     1
102
RTVSPost2010Prop44ColorIndex
 90
        5
102
RTVSPost2010Prop44ColorRGB
 90
      255
102
RTVSPost2010PropOp44
 70
     1
102
RTVSPost2010Prop45
280
     0
102
RTVSPost2010PropOp45
 70
     1
102
RTVSPost2010Prop46
 90
       50
102
RTVSPost2010PropOp46
 70
     1
102
RTVSPost2010Prop47
 90
       50
102
RTVSPost2010PropOp47
 70
     1
102
RTVSPost2010Prop48
 90
       50
102
RTVSPost2010PropOp48
 70
     1
102
RTVSPost2010Prop49
280
     0
102
RTVSPost2010PropOp49
 70
     1
102
RTVSPost2010Prop50
 90
       50
102
RTVSPost2010PropOp50
 70
     1
102
RTVSPost2010Prop51ColorIndex
 90
      256
102
RTVSPost2010Prop51ColorRGB
 90
-16777216
102
RTVSPost2010PropOp51
 70
     0
102
RTVSPost2010Prop52
140
1.0
102
RTVSPost2010PropOp52
 70
     0
102
RTVSPost2010Prop53
 90
        2
102
RTVSPost2010PropOp53
 70
     1
102
RTVSPost2010Prop54
  1
strokes_ogs.tif
102
RTVSPost2010PropOp54
 70
     1
102
RTVSPost2010Prop55
280
     0
102
RTVSPost2010PropOp55
 70
     1
102
RTVSPost2010Prop56
140
1.0
102
RTVSPost2010PropOp56
 70
     1
102
RTVSPost2010Prop57
140
1.0
102
RTVSPost2010PropOp57
 70
     1
  0
XRECORD
  5
137
102
{ACAD_REACTORS
330
136
102
}
330
136
100
AcDbXrecord
280
     1
102
RTVSPost2010Prop28
280
     0
102
RTVSPost2010PropOp28
 70
     0
102
RTVSPost2010Prop29
280
     1
102
RTVSPost2010PropOp29
 70
     0
102
RTVSPost2010Prop30
280
     1
102
RTVSPost2010PropOp30
 70
     0
102
RTVSPost2010Prop31
280
     0
102
RTVSPost2010PropOp31
 70
     0
102
RTVSPost2010Prop32
280
     0
102
RTVSPost2010PropOp32
 70
     0
102
RTVSPost2010Prop33
280
     0
102
RTVSPost2010PropOp33
 70
     0
102
RTVSPost2010Prop34
280
     0
102
RTVSPost2010PropOp34
 70
     0
102
RTVSPost2010Prop35
280
     0
102
RTVSPost2010PropOp35
 70
     0
102
RTVSPost2010Prop36
280
     0
102
RTVSPost2010PropOp36
 70
     0
102
RTVSPost2010Prop37
 90
       50
102
RTVSPost2010PropOp37
 70
     0
102
RTVSPost2010Prop38
140
0.0
102
RTVSPost2010PropOp38
 70
     0
102
RTVSPost2010Prop39
140
1.0
102
RTVSPost2010PropOp39
 70
     0
102
RTVSPost2010Prop40
 90
        0
102
RTVSPost2010PropOp40
 70
     0
102
RTVSPost2010Prop41ColorIndex
 90
       18
102
RTVSPost2010Prop41ColorRGB
 90
        0
102
RTVSPost2010PropOp41
 70
     0
102
RTVSPost2010Prop42
 90
       50
102
RTVSPost2010PropOp42
 70
     0
102
RTVSPost2010Prop43
 90
        3
102
RTVSPost2010PropOp43
 70
     0
102
RTVSPost2010Prop44ColorIndex
 90
        5
102
RTVSPost2010Prop44ColorRGB
 90
      255
102
RTVSPost2010PropOp44
 70
     0
102
RTVSPost2010Prop45
280
     0
102
RTVSPost2010PropOp45
 70
     0
102
RTVSPost2010Prop46
 90
       50
102
RTVSPost2010PropOp46
 70
     0
102
RTVSPost2010Prop47
 90
       50
102
RTVSPost2010PropOp47
 70
     0
102
RTVSPost2010Prop48
 90
       50
102
RTVSPost2010PropOp48
 70
     0
102
RTVSPost2010Prop49
280
     0
102
RTVSPost2010PropOp49
 70
     0
102
RTVSPost2010Prop50
 90
       50
102
RTVSPost2010PropOp50
 70
     0
102
RTVSPost2010Prop51ColorIndex
 90
      256
102
RTVSPost2010Prop51ColorRGB
 90
-16777216
102
RTVSPost2010PropOp51
 70
     0
102
RTVSPost2010Prop52
140
1.0
102
RTVSPost2010PropOp52
 70
     0
102
RTVSPost2010Prop53
 90
        2
102
RTVSPost2010PropOp53
 70
     0
102
RTVSPost2010Prop54
  1
strokes_ogs.tif
102
RTVSPost2010PropOp54
 70
     0
102
RTVSPost2010Prop55
280
     0
102
RTVSPost2010PropOp55
 70
     0
102
RTVSPost2010Prop56
140
1.0
102
RTVSPost2010PropOp56
 70
     0
102
RTVSPost2010Prop57
140
1.0
102
RTVSPost2010PropOp57
 70
     0
  0
XRECORD
  5
11D
102
{ACAD_REACTORS
330
11C
102
}
330
11C
100
AcDbXrecord
280
     1
102
RTVSPost2010Prop28
280
     0
102
RTVSPost2010PropOp28
 70
     1
102
RTVSPost2010Prop29
280
     1
102
RTVSPost2010PropOp29
 70
     1
102
RTVSPost2010Prop30
280
     1
102
RTVSPost2010PropOp30
 70
     1
102
RTVSPost2010Prop31
280
     0
102
RTVSPost2010PropOp31
 70
     1
102
RTVSPost2010Prop32
280
     0
102
RTVSPost2010PropOp32
 70
     1
102
RTVSPost2010Prop33
280
     0
102
RTVSPost2010PropOp33
 70
     1
102
RTVSPost2010Prop34
280
     0
102
RTVSPost2010PropOp34
 70
     1
102
RTVSPost2010Prop35
280
     0
102
RTVSPost2010PropOp35
 70
     1
102
RTVSPost2010Prop36
280
     0
102
RTVSPost2010PropOp36
 70
     1
102
RTVSPost2010Prop37
 90
       50
102
RTVSPost2010PropOp37
 70
     1
102
RTVSPost2010Prop38
140
0.0
102
RTVSPost2010PropOp38
 70
     1
102
RTVSPost2010Prop39
140
1.0
102
RTVSPost2010PropOp39
 70
     1
102
RTVSPost2010Prop40
 90
        0
102
RTVSPost2010PropOp40
 70
     1
102
RTVSPost2010Prop41ColorIndex
 90
       18
102
RTVSPost2010Prop41ColorRGB
 90
        0
102
RTVSPost2010PropOp41
 70
     1
102
RTVSPost2010Prop42
 90
       50
102
RTVSPost2010PropOp42
 70
     1
102
RTVSPost2010Prop43
 90
        3
102
RTVSPost2010PropOp43
 70
     1
102
RTVSPost2010Prop44ColorIndex
 90
        5
102
RTVSPost2010Prop44ColorRGB
 90
      255
102
RTVSPost2010PropOp44
 70
     1
102
RTVSPost2010Prop45
280
     0
102
RTVSPost2010PropOp45
 70
     1
102
RTVSPost2010Prop46
 90
       50
102
RTVSPost2010PropOp46
 70
     1
102
RTVSPost2010Prop47
 90
       50
102
RTVSPost2010PropOp47
 70
     1
102
RTVSPost2010Prop48
 90
       50
102
RTVSPost2010PropOp48
 70
     1
102
RTVSPost2010Prop49
280
     0
102
RTVSPost2010PropOp49
 70
     1
102
RTVSPost2010Prop50
 90
       50
102
RTVSPost2010PropOp50
 70
     1
102
RTVSPost2010Prop51ColorIndex
 90
      256
102
RTVSPost2010Prop51ColorRGB
 90
-16777216
102
RTVSPost2010PropOp51
 70
     0
102
RTVSPost2010Prop52
140
1.0
102
RTVSPost2010PropOp52
 70
     0
102
RTVSPost2010Prop53
 90
        2
102
RTVSPost2010PropOp53
 70
     1
102
RTVSPost2010Prop54
  1
strokes_ogs.tif
102
RTVSPost2010PropOp54
 70
     1
102
RTVSPost2010Prop55
280
     0
102
RTVSPost2010PropOp55
 70
     1
102
RTVSPost2010Prop56
140
1.0
102
RTVSPost2010PropOp56
 70
     1
102
RTVSPost2010Prop57
140
1.0
102
RTVSPost2010PropOp57
 70
     1
  0
XRECORD
  5
133
102
{ACAD_REACTORS
330
132
102
}
330
132
100
AcDbXrecord
280
     1
102
RTVSPost2010Prop28
280
     0
102
RTVSPost2010PropOp28
 70
     1
102
RTVSPost2010Prop29
280
     1
102
RTVSPost2010PropOp29
 70
     1
102
RTVSPost2010Prop30
280
     1
102
RTVSPost2010PropOp30
 70
     1
102
RTVSPost2010Prop31
280
     0
102
RTVSPost2010PropOp31
 70
     1
102
RTVSPost2010Prop32
280
     0
102
RTVSPost2010PropOp32
 70
     1
102
RTVSPost2010Prop33
280
     0
102
RTVSPost2010PropOp33
 70
     1
102
RTVSPost2010Prop34
280
     0
102
RTVSPost2010PropOp34
 70
     1
102
RTVSPost2010Prop35
280
     0
102
RTVSPost2010PropOp35
 70
     1
102
RTVSPost2010Prop36
280
     0
102
RTVSPost2010PropOp36
 70
     1
102
RTVSPost2010Prop37
 90
       50
102
RTVSPost2010PropOp37
 70
     1
102
RTVSPost2010Prop38
140
0.0
102
RTVSPost2010PropOp38
 70
     1
102
RTVSPost2010Prop39
140
1.0
102
RTVSPost2010PropOp39
 70
     1
102
RTVSPost2010Prop40
 90
        0
102
RTVSPost2010PropOp40
 70
     1
102
RTVSPost2010Prop41ColorIndex
 90
       18
102
RTVSPost2010Prop41ColorRGB
 90
        0
102
RTVSPost2010PropOp41
 70
     1
102
RTVSPost2010Prop42
 90
       50
102
RTVSPost2010PropOp42
 70
     1
102
RTVSPost2010Prop43
 90
        3
102
RTVSPost2010PropOp43
 70
     1
102
RTVSPost2010Prop44ColorIndex
 90
        5
102
RTVSPost2010Prop44ColorRGB
 90
      255
102
RTVSPost2010PropOp44
 70
     1
102
RTVSPost2010Prop45
280
     0
102
RTVSPost2010PropOp45
 70
     1
102
RTVSPost2010Prop46
 90
       50
102
RTVSPost2010PropOp46
 70
     1
102
RTVSPost2010Prop47
 90
       50
102
RTVSPost2010PropOp47
 70
     1
102
RTVSPost2010Prop48
 90
       50
102
RTVSPost2010PropOp48
 70
     1
102
RTVSPost2010Prop49
280
     0
102
RTVSPost2010PropOp49
 70
     1
102
RTVSPost2010Prop50
 90
       50
102
RTVSPost2010PropOp50
 70
     1
102
RTVSPost2010Prop51ColorIndex
 90
      256
102
RTVSPost2010Prop51ColorRGB
 90
-16777216
102
RTVSPost2010PropOp51
 70
     0
102
RTVSPost2010Prop52
140
1.0
102
RTVSPost2010PropOp52
 70
     0
102
RTVSPost2010Prop53
 90
        2
102
RTVSPost2010PropOp53
 70
     1
102
RTVSPost2010Prop54
  1
strokes_ogs.tif
102
RTVSPost2010PropOp54
 70
     1
102
RTVSPost2010Prop55
280
     0
102
RTVSPost2010PropOp55
 70
     1
102
RTVSPost2010Prop56
140
1.0
102
RTVSPost2010PropOp56
 70
     1
102
RTVSPost2010Prop57
140
1.0
102
RTVSPost2010PropOp57
 70
     1
  0
XRECORD
  5
131
102
{ACAD_REACTORS
330
130
102
}
330
130
100
AcDbXrecord
280
     1
102
RTVSPost2010Prop28
280
     0
102
RTVSPost2010PropOp28
 70
     1
102
RTVSPost2010Prop29
280
     1
102
RTVSPost2010PropOp29
 70
     1
102
RTVSPost2010Prop30
280
     1
102
RTVSPost2010PropOp30
 70
     1
102
RTVSPost2010Prop31
280
     0
102
RTVSPost2010PropOp31
 70
     1
102
RTVSPost2010Prop32
280
     0
102
RTVSPost2010PropOp32
 70
     1
102
RTVSPost2010Prop33
280
     0
102
RTVSPost2010PropOp33
 70
     1
102
RTVSPost2010Prop34
280
     0
102
RTVSPost2010PropOp34
 70
     1
102
RTVSPost2010Prop35
280
     0
102
RTVSPost2010PropOp35
 70
     1
102
RTVSPost2010Prop36
280
     0
102
RTVSPost2010PropOp36
 70
     1
102
RTVSPost2010Prop37
 90
       50
102
RTVSPost2010PropOp37
 70
     1
102
RTVSPost2010Prop38
140
0.0
102
RTVSPost2010PropOp38
 70
     1
102
RTVSPost2010Prop39
140
1.0
102
RTVSPost2010PropOp39
 70
     1
102
RTVSPost2010Prop40
 90
        0
102
RTVSPost2010PropOp40
 70
     1
102
RTVSPost2010Prop41ColorIndex
 90
       18
102
RTVSPost2010Prop41ColorRGB
 90
        0
102
RTVSPost2010PropOp41
 70
     1
102
RTVSPost2010Prop42
 90
       50
102
RTVSPost2010PropOp42
 70
     1
102
RTVSPost2010Prop43
 90
        3
102
RTVSPost2010PropOp43
 70
     1
102
RTVSPost2010Prop44ColorIndex
 90
        5
102
RTVSPost2010Prop44ColorRGB
 90
      255
102
RTVSPost2010PropOp44
 70
     1
102
RTVSPost2010Prop45
280
     0
102
RTVSPost2010PropOp45
 70
     1
102
RTVSPost2010Prop46
 90
       50
102
RTVSPost2010PropOp46
 70
     1
102
RTVSPost2010Prop47
 90
       50
102
RTVSPost2010PropOp47
 70
     1
102
RTVSPost2010Prop48
 90
       50
102
RTVSPost2010PropOp48
 70
     1
102
RTVSPost2010Prop49
280
     0
102
RTVSPost2010PropOp49
 70
     1
102
RTVSPost2010Prop50
 90
       50
102
RTVSPost2010PropOp50
 70
     1
102
RTVSPost2010Prop51ColorIndex
 90
      256
102
RTVSPost2010Prop51ColorRGB
 90
-16777216
102
RTVSPost2010PropOp51
 70
     0
102
RTVSPost2010Prop52
140
1.0
102
RTVSPost2010PropOp52
 70
     0
102
RTVSPost2010Prop53
 90
        2
102
RTVSPost2010PropOp53
 70
     1
102
RTVSPost2010Prop54
  1
strokes_ogs.tif
102
RTVSPost2010PropOp54
 70
     1
102
RTVSPost2010Prop55
280
     0
102
RTVSPost2010PropOp55
 70
     1
102
RTVSPost2010Prop56
140
1.0
102
RTVSPost2010PropOp56
 70
     1
102
RTVSPost2010Prop57
140
1.0
102
RTVSPost2010PropOp57
 70
     1
  0
XRECORD
  5
12B
102
{ACAD_REACTORS
330
12A
102
}
330
12A
100
AcDbXrecord
280
     1
102
RTVSPost2010Prop28
280
     0
102
RTVSPost2010PropOp28
 70
     1
102
RTVSPost2010Prop29
280
     1
102
RTVSPost2010PropOp29
 70
     1
102
RTVSPost2010Prop30
280
     1
102
RTVSPost2010PropOp30
 70
     1
102
RTVSPost2010Prop31
280
     0
102
RTVSPost2010PropOp31
 70
     1
102
RTVSPost2010Prop32
280
     0
102
RTVSPost2010PropOp32
 70
     1
102
RTVSPost2010Prop33
280
     0
102
RTVSPost2010PropOp33
 70
     1
102
RTVSPost2010Prop34
280
     0
102
RTVSPost2010PropOp34
 70
     1
102
RTVSPost2010Prop35
280
     0
102
RTVSPost2010PropOp35
 70
     1
102
RTVSPost2010Prop36
280
     0
102
RTVSPost2010PropOp36
 70
     1
102
RTVSPost2010Prop37
 90
       50
102
RTVSPost2010PropOp37
 70
     1
102
RTVSPost2010Prop38
140
0.0
102
RTVSPost2010PropOp38
 70
     1
102
RTVSPost2010Prop39
140
1.0
102
RTVSPost2010PropOp39
 70
     1
102
RTVSPost2010Prop40
 90
        0
102
RTVSPost2010PropOp40
 70
     1
102
RTVSPost2010Prop41ColorIndex
 90
       18
102
RTVSPost2010Prop41ColorRGB
 90
        0
102
RTVSPost2010PropOp41
 70
     1
102
RTVSPost2010Prop42
 90
       50
102
RTVSPost2010PropOp42
 70
     1
102
RTVSPost2010Prop43
 90
        3
102
RTVSPost2010PropOp43
 70
     1
102
RTVSPost2010Prop44ColorIndex
 90
        5
102
RTVSPost2010Prop44ColorRGB
 90
      255
102
RTVSPost2010PropOp44
 70
     1
102
RTVSPost2010Prop45
280
     0
102
RTVSPost2010PropOp45
 70
     1
102
RTVSPost2010Prop46
 90
       50
102
RTVSPost2010PropOp46
 70
     1
102
RTVSPost2010Prop47
 90
       50
102
RTVSPost2010PropOp47
 70
     1
102
RTVSPost2010Prop48
 90
       50
102
RTVSPost2010PropOp48
 70
     1
102
RTVSPost2010Prop49
280
     0
102
RTVSPost2010PropOp49
 70
     1
102
RTVSPost2010Prop50
 90
       50
102
RTVSPost2010PropOp50
 70
     1
102
RTVSPost2010Prop51ColorIndex
 90
      256
102
RTVSPost2010Prop51ColorRGB
 90
-16777216
102
RTVSPost2010PropOp51
 70
     0
102
RTVSPost2010Prop52
140
1.0
102
RTVSPost2010PropOp52
 70
     0
102
RTVSPost2010Prop53
 90
        2
102
RTVSPost2010PropOp53
 70
     1
102
RTVSPost2010Prop54
  1
strokes_ogs.tif
102
RTVSPost2010PropOp54
 70
     1
102
RTVSPost2010Prop55
280
     0
102
RTVSPost2010PropOp55
 70
     1
102
RTVSPost2010Prop56
140
1.0
102
RTVSPost2010PropOp56
 70
     1
102
RTVSPost2010Prop57
140
1.0
102
RTVSPost2010PropOp57
 70
     1
  0
XRECORD
  5
12D
102
{ACAD_REACTORS
330
12C
102
}
330
12C
100
AcDbXrecord
280
     1
102
RTVSPost2010Prop28
280
     0
102
RTVSPost2010PropOp28
 70
     1
102
RTVSPost2010Prop29
280
     1
102
RTVSPost2010PropOp29
 70
     1
102
RTVSPost2010Prop30
280
     1
102
RTVSPost2010PropOp30
 70
     1
102
RTVSPost2010Prop31
280
     0
102
RTVSPost2010PropOp31
 70
     1
102
RTVSPost2010Prop32
280
     0
102
RTVSPost2010PropOp32
 70
     1
102
RTVSPost2010Prop33
280
     0
102
RTVSPost2010PropOp33
 70
     1
102
RTVSPost2010Prop34
280
     0
102
RTVSPost2010PropOp34
 70
     1
102
RTVSPost2010Prop35
280
     0
102
RTVSPost2010PropOp35
 70
     1
102
RTVSPost2010Prop36
280
     0
102
RTVSPost2010PropOp36
 70
     1
102
RTVSPost2010Prop37
 90
       50
102
RTVSPost2010PropOp37
 70
     1
102
RTVSPost2010Prop38
140
0.0
102
RTVSPost2010PropOp38
 70
     1
102
RTVSPost2010Prop39
140
1.0
102
RTVSPost2010PropOp39
 70
     1
102
RTVSPost2010Prop40
 90
        0
102
RTVSPost2010PropOp40
 70
     1
102
RTVSPost2010Prop41ColorIndex
 90
       18
102
RTVSPost2010Prop41ColorRGB
 90
        0
102
RTVSPost2010PropOp41
 70
     1
102
RTVSPost2010Prop42
 90
       50
102
RTVSPost2010PropOp42
 70
     1
102
RTVSPost2010Prop43
 90
        3
102
RTVSPost2010PropOp43
 70
     1
102
RTVSPost2010Prop44ColorIndex
 90
        5
102
RTVSPost2010Prop44ColorRGB
 90
      255
102
RTVSPost2010PropOp44
 70
     1
102
RTVSPost2010Prop45
280
     0
102
RTVSPost2010PropOp45
 70
     1
102
RTVSPost2010Prop46
 90
       50
102
RTVSPost2010PropOp46
 70
     1
102
RTVSPost2010Prop47
 90
       50
102
RTVSPost2010PropOp47
 70
     1
102
RTVSPost2010Prop48
 90
       50
102
RTVSPost2010PropOp48
 70
     1
102
RTVSPost2010Prop49
280
     0
102
RTVSPost2010PropOp49
 70
     1
102
RTVSPost2010Prop50
 90
       50
102
RTVSPost2010PropOp50
 70
     1
102
RTVSPost2010Prop51ColorIndex
 90
      256
102
RTVSPost2010Prop51ColorRGB
 90
-16777216
102
RTVSPost2010PropOp51
 70
     0
102
RTVSPost2010Prop52
140
1.0
102
RTVSPost2010PropOp52
 70
     0
102
RTVSPost2010Prop53
 90
        2
102
RTVSPost2010PropOp53
 70
     1
102
RTVSPost2010Prop54
  1
strokes_ogs.tif
102
RTVSPost2010PropOp54
 70
     1
102
RTVSPost2010Prop55
280
     0
102
RTVSPost2010PropOp55
 70
     1
102
RTVSPost2010Prop56
140
1.0
102
RTVSPost2010PropOp56
 70
     1
102
RTVSPost2010Prop57
140
1.0
102
RTVSPost2010PropOp57
 70
     1
  0
XRECORD
  5
123
102
{ACAD_REACTORS
330
122
102
}
330
122
100
AcDbXrecord
280
     1
102
RTVSPost2010Prop28
280
     0
102
RTVSPost2010PropOp28
 70
     1
102
RTVSPost2010Prop29
280
     1
102
RTVSPost2010PropOp29
 70
     1
102
RTVSPost2010Prop30
280
     1
102
RTVSPost2010PropOp30
 70
     1
102
RTVSPost2010Prop31
280
     0
102
RTVSPost2010PropOp31
 70
     1
102
RTVSPost2010Prop32
280
     0
102
RTVSPost2010PropOp32
 70
     1
102
RTVSPost2010Prop33
280
     0
102
RTVSPost2010PropOp33
 70
     1
102
RTVSPost2010Prop34
280
     0
102
RTVSPost2010PropOp34
 70
     1
102
RTVSPost2010Prop35
280
     0
102
RTVSPost2010PropOp35
 70
     1
102
RTVSPost2010Prop36
280
     0
102
RTVSPost2010PropOp36
 70
     1
102
RTVSPost2010Prop37
 90
       50
102
RTVSPost2010PropOp37
 70
     1
102
RTVSPost2010Prop38
140
0.0
102
RTVSPost2010PropOp38
 70
     1
102
RTVSPost2010Prop39
140
1.0
102
RTVSPost2010PropOp39
 70
     1
102
RTVSPost2010Prop40
 90
        0
102
RTVSPost2010PropOp40
 70
     1
102
RTVSPost2010Prop41ColorIndex
 90
       18
102
RTVSPost2010Prop41ColorRGB
 90
        0
102
RTVSPost2010PropOp41
 70
     1
102
RTVSPost2010Prop42
 90
       50
102
RTVSPost2010PropOp42
 70
     1
102
RTVSPost2010Prop43
 90
        3
102
RTVSPost2010PropOp43
 70
     1
102
RTVSPost2010Prop44ColorIndex
 90
        5
102
RTVSPost2010Prop44ColorRGB
 90
      255
102
RTVSPost2010PropOp44
 70
     1
102
RTVSPost2010Prop45
280
     0
102
RTVSPost2010PropOp45
 70
     1
102
RTVSPost2010Prop46
 90
       50
102
RTVSPost2010PropOp46
 70
     1
102
RTVSPost2010Prop47
 90
       50
102
RTVSPost2010PropOp47
 70
     1
102
RTVSPost2010Prop48
 90
       50
102
RTVSPost2010PropOp48
 70
     1
102
RTVSPost2010Prop49
280
     0
102
RTVSPost2010PropOp49
 70
     1
102
RTVSPost2010Prop50
 90
       50
102
RTVSPost2010PropOp50
 70
     1
102
RTVSPost2010Prop51ColorIndex
 90
      256
102
RTVSPost2010Prop51ColorRGB
 90
-16777216
102
RTVSPost2010PropOp51
 70
     0
102
RTVSPost2010Prop52
140
1.0
102
RTVSPost2010PropOp52
 70
     0
102
RTVSPost2010Prop53
 90
        2
102
RTVSPost2010PropOp53
 70
     1
102
RTVSPost2010Prop54
  1
strokes_ogs.tif
102
RTVSPost2010PropOp54
 70
     1
102
RTVSPost2010Prop55
280
     0
102
RTVSPost2010PropOp55
 70
     1
102
RTVSPost2010Prop56
140
1.0
102
RTVSPost2010PropOp56
 70
     1
102
RTVSPost2010Prop57
140
1.0
102
RTVSPost2010PropOp57
 70
     1
  0
XRECORD
  5
117
102
{ACAD_REACTORS
330
116
102
}
330
116
100
AcDbXrecord
280
     1
102
RTVSPost2010Prop28
280
     0
102
RTVSPost2010PropOp28
 70
     1
102
RTVSPost2010Prop29
280
     1
102
RTVSPost2010PropOp29
 70
     1
102
RTVSPost2010Prop30
280
     1
102
RTVSPost2010PropOp30
 70
     1
102
RTVSPost2010Prop31
280
     0
102
RTVSPost2010PropOp31
 70
     1
102
RTVSPost2010Prop32
280
     0
102
RTVSPost2010PropOp32
 70
     1
102
RTVSPost2010Prop33
280
     0
102
RTVSPost2010PropOp33
 70
     1
102
RTVSPost2010Prop34
280
     0
102
RTVSPost2010PropOp34
 70
     1
102
RTVSPost2010Prop35
280
     0
102
RTVSPost2010PropOp35
 70
     1
102
RTVSPost2010Prop36
280
     0
102
RTVSPost2010PropOp36
 70
     1
102
RTVSPost2010Prop37
 90
       50
102
RTVSPost2010PropOp37
 70
     1
102
RTVSPost2010Prop38
140
0.0
102
RTVSPost2010PropOp38
 70
     1
102
RTVSPost2010Prop39
140
1.0
102
RTVSPost2010PropOp39
 70
     1
102
RTVSPost2010Prop40
 90
        0
102
RTVSPost2010PropOp40
 70
     1
102
RTVSPost2010Prop41ColorIndex
 90
       18
102
RTVSPost2010Prop41ColorRGB
 90
        0
102
RTVSPost2010PropOp41
 70
     1
102
RTVSPost2010Prop42
 90
       50
102
RTVSPost2010PropOp42
 70
     1
102
RTVSPost2010Prop43
 90
        3
102
RTVSPost2010PropOp43
 70
     1
102
RTVSPost2010Prop44ColorIndex
 90
        5
102
RTVSPost2010Prop44ColorRGB
 90
      255
102
RTVSPost2010PropOp44
 70
     1
102
RTVSPost2010Prop45
280
     0
102
RTVSPost2010PropOp45
 70
     1
102
RTVSPost2010Prop46
 90
       50
102
RTVSPost2010PropOp46
 70
     1
102
RTVSPost2010Prop47
 90
       50
102
RTVSPost2010PropOp47
 70
     1
102
RTVSPost2010Prop48
 90
       50
102
RTVSPost2010PropOp48
 70
     1
102
RTVSPost2010Prop49
280
     0
102
RTVSPost2010PropOp49
 70
     1
102
RTVSPost2010Prop50
 90
       50
102
RTVSPost2010PropOp50
 70
     1
102
RTVSPost2010Prop51ColorIndex
 90
      256
102
RTVSPost2010Prop51ColorRGB
 90
-16777216
102
RTVSPost2010PropOp51
 70
     0
102
RTVSPost2010Prop52
140
1.0
102
RTVSPost2010PropOp52
 70
     0
102
RTVSPost2010Prop53
 90
        2
102
RTVSPost2010PropOp53
 70
     1
102
RTVSPost2010Prop54
  1
strokes_ogs.tif
102
RTVSPost2010PropOp54
 70
     1
102
RTVSPost2010Prop55
280
     0
102
RTVSPost2010PropOp55
 70
     1
102
RTVSPost2010Prop56
140
1.0
102
RTVSPost2010PropOp56
 70
     1
102
RTVSPost2010Prop57
140
1.0
102
RTVSPost2010PropOp57
 70
     1
  0
XRECORD
  5
12F
102
{ACAD_REACTORS
330
12E
102
}
330
12E
100
AcDbXrecord
280
     1
102
RTVSPost2010Prop28
280
     0
102
RTVSPost2010PropOp28
 70
     1
102
RTVSPost2010Prop29
280
     1
102
RTVSPost2010PropOp29
 70
     1
102
RTVSPost2010Prop30
280
     1
102
RTVSPost2010PropOp30
 70
     1
102
RTVSPost2010Prop31
280
     0
102
RTVSPost2010PropOp31
 70
     1
102
RTVSPost2010Prop32
280
     0
102
RTVSPost2010PropOp32
 70
     1
102
RTVSPost2010Prop33
280
     0
102
RTVSPost2010PropOp33
 70
     1
102
RTVSPost2010Prop34
280
     0
102
RTVSPost2010PropOp34
 70
     1
102
RTVSPost2010Prop35
280
     0
102
RTVSPost2010PropOp35
 70
     1
102
RTVSPost2010Prop36
280
     0
102
RTVSPost2010PropOp36
 70
     1
102
RTVSPost2010Prop37
 90
       50
102
RTVSPost2010PropOp37
 70
     1
102
RTVSPost2010Prop38
140
0.0
102
RTVSPost2010PropOp38
 70
     1
102
RTVSPost2010Prop39
140
1.0
102
RTVSPost2010PropOp39
 70
     1
102
RTVSPost2010Prop40
 90
        0
102
RTVSPost2010PropOp40
 70
     1
102
RTVSPost2010Prop41ColorIndex
 90
       18
102
RTVSPost2010Prop41ColorRGB
 90
        0
102
RTVSPost2010PropOp41
 70
     1
102
RTVSPost2010Prop42
 90
       50
102
RTVSPost2010PropOp42
 70
     1
102
RTVSPost2010Prop43
 90
        3
102
RTVSPost2010PropOp43
 70
     1
102
RTVSPost2010Prop44ColorIndex
 90
        5
102
RTVSPost2010Prop44ColorRGB
 90
      255
102
RTVSPost2010PropOp44
 70
     1
102
RTVSPost2010Prop45
280
     0
102
RTVSPost2010PropOp45
 70
     1
102
RTVSPost2010Prop46
 90
       50
102
RTVSPost2010PropOp46
 70
     1
102
RTVSPost2010Prop47
 90
       50
102
RTVSPost2010PropOp47
 70
     1
102
RTVSPost2010Prop48
 90
       50
102
RTVSPost2010PropOp48
 70
     1
102
RTVSPost2010Prop49
280
     0
102
RTVSPost2010PropOp49
 70
     1
102
RTVSPost2010Prop50
 90
       50
102
RTVSPost2010PropOp50
 70
     1
102
RTVSPost2010Prop51ColorIndex
 90
      256
102
RTVSPost2010Prop51ColorRGB
 90
-16777216
102
RTVSPost2010PropOp51
 70
     0
102
RTVSPost2010Prop52
140
1.0
102
RTVSPost2010PropOp52
 70
     0
102
RTVSPost2010Prop53
 90
        2
102
RTVSPost2010PropOp53
 70
     1
102
RTVSPost2010Prop54
  1
strokes_ogs.tif
102
RTVSPost2010PropOp54
 70
     1
102
RTVSPost2010Prop55
280
     0
102
RTVSPost2010PropOp55
 70
     1
102
RTVSPost2010Prop56
140
1.0
102
RTVSPost2010PropOp56
 70
     1
102
RTVSPost2010Prop57
140
1.0
102
RTVSPost2010PropOp57
 70
     1
  0
ENDSEC
  0
EOF
