  0
SECTION
  2
HEADER
  9
$ACADVER
  1
AC1024
  9
$ACADMAINTVER
 70
     6
  9
$DWGCODEPAGE
  3
UNDEFINED
  9
$INSBASE
 10
0.0
 20
0.0
 30
0.0
  9
$EXTMIN
 10
1.000000000000000E+20
 20
1.000000000000000E+20
 30
1.000000000000000E+20
  9
$EXTMAX
 10
-1.000000000000000E+20
 20
-1.000000000000000E+20
 30
-1.000000000000000E+20
  9
$LIMMIN
 10
0.0
 20
0.0
  9
$LIMMAX
 10
12.0
 20
9.0
  9
$ORTHOMODE
 70
     0
  9
$REGENMODE
 70
     1
  9
$FILLMODE
 70
     1
  9
$QTEXTMODE
 70
     0
  9
$MIRRTEXT
 70
     1
  9
$LTSCALE
 40
1.0
  9
$ATTMODE
 70
     1
  9
$TEXTSIZE
 40
0.2
  9
$TRACEWID
 40
0.05
  9
$TEXTSTYLE
  7
Standard
  9
$CLAYER
  8
0
  9
$CELTYPE
  6
ByLayer
  9
$CECOLOR
 62
   256
  9
$CELTSCALE
 40
1.0
  9
$DISPSILH
 70
     0
  9
$DIMSCALE
 40
1.0
  9
$DIMASZ
 40
0.18
  9
$DIMEXO
 40
0.0625
  9
$DIMDLI
 40
0.38
  9
$DIMRND
 40
0.0
  9
$DIMDLE
 40
0.0
  9
$DIMEXE
 40
0.18
  9
$DIMTP
 40
0.0
  9
$DIMTM
 40
0.0
  9
$DIMTXT
 40
0.18
  9
$DIMCEN
 40
0.09
  9
$DIMTSZ
 40
0.0
  9
$DIMTOL
 70
     0
  9
$DIMLIM
 70
     0
  9
$DIMTIH
 70
     1
  9
$DIMTOH
 70
     1
  9
$DIMSE1
 70
     0
  9
$DIMSE2
 70
     0
  9
$DIMTAD
 70
     0
  9
$DIMZIN
 70
     0
  9
$DIMBLK
  1

  9
$DIMASO
 70
     1
  9
$DIMSHO
 70
     1
  9
$DIMPOST
  1

  9
$DIMAPOST
  1

  9
$DIMALT
 70
     0
  9
$DIMALTD
 70
     2
  9
$DIMALTF
 40
25.4
  9
$DIMLFAC
 40
1.0
  9
$DIMTOFL
 70
     0
  9
$DIMTVP
 40
0.0
  9
$DIMTIX
 70
     0
  9
$DIMSOXD
 70
     0
  9
$DIMSAH
 70
     0
  9
$DIMBLK1
  1

  9
$DIMBLK2
  1

  9
$DIMSTYLE
  2
Standard
  9
$DIMCLRD
 70
     0
  9
$DIMCLRE
 70
     0
  9
$DIMCLRT
 70
     0
  9
$DIMTFAC
 40
1.0
  9
$DIMGAP
 40
0.09
  9
$DIMJUST
 70
     0
  9
$DIMSD1
 70
     0
  9
$DIMSD2
 70
     0
  9
$DIMTOLJ
 70
     1
  9
$DIMTZIN
 70
     0
  9
$DIMALTZ
 70
     0
  9
$DIMALTTZ
 70
     0
  9
$DIMUPT
 70
     0
  9
$DIMDEC
 70
     4
  9
$DIMTDEC
 70
     4
  9
$DIMALTU
 70
     2
  9
$DIMALTTD
 70
     2
  9
$DIMTXSTY
  7
Standard
  9
$DIMAUNIT
 70
     0
  9
$DIMADEC
 70
     0
  9
$DIMALTRND
 40
0.0
  9
$DIMAZIN
 70
     0
  9
$DIMDSEP
 70
    46
  9
$DIMATFIT
 70
     3
  9
$DIMFRAC
 70
     0
  9
$DIMLDRBLK
  1

  9
$DIMLUNIT
 70
     2
  9
$DIMLWD
 70
    -2
  9
$DIMLWE
 70
    -2
  9
$DIMTMOVE
 70
     0
  9
$DIMFXL
 40
1.0
  9
$DIMFXLON
 70
     0
  9
$DIMJOGANG
 40
0.7853981633974483
  9
$DIMTFILL
 70
     0
  9
$DIMTFILLCLR
 70
     0
  9
$DIMARCSYM
 70
     0
  9
$DIMLTYPE
  6

  9
$DIMLTEX1
  6

  9
$DIMLTEX2
  6

  9
$DIMTXTDIRECTION
 70
     0
  9
$LUNITS
 70
     2
  9
$LUPREC
 70
     4
  9
$SKETCHINC
 40
0.1
  9
$FILLETRAD
 40
0.5
  9
$AUNITS
 70
     0
  9
$AUPREC
 70
     0
  9
$MENU
  1
.
  9
$ELEVATION
 40
0.0
  9
$PELEVATION
 40
0.0
  9
$THICKNESS
 40
0.0
  9
$LIMCHECK
 70
     0
  9
$CHAMFERA
 40
0.5
  9
$CHAMFERB
 40
0.5
  9
$CHAMFERC
 40
1.0
  9
$CHAMFERD
 40
0.0
  9
$SKPOLY
 70
     0
  9
$TDCREATE
 40
2457917.586759259
  9
$TDUCREATE
 40
2457917.211759259
  9
$TDUPDATE
 40
2457917.586759259
  9
$TDUUPDATE
 40
2457917.211759259
  9
$TDINDWG
 40
0.0000000116
  9
$TDUSRTIMER
 40
0.0000000116
  9
$USRTIMER
 70
     1
  9
$ANGBASE
 50
0.0
  9
$ANGDIR
 70
     0
  9
$PDMODE
 70
     0
  9
$PDSIZE
 40
0.0
  9
$PLINEWID
 40
0.0
  9
$SPLFRAME
 70
     0
  9
$SPLINETYPE
 70
     6
  9
$SPLINESEGS
 70
     8
  9
$HANDSEED
  5
C6
  9
$SURFTAB1
 70
     6
  9
$SURFTAB2
 70
     6
  9
$SURFTYPE
 70
     6
  9
$SURFU
 70
     6
  9
$SURFV
 70
     6
  9
$UCSBASE
  2

  9
$UCSNAME
  2

  9
$UCSORG
 10
0.0
 20
0.0
 30
0.0
  9
$UCSXDIR
 10
1.0
 20
0.0
 30
0.0
  9
$UCSYDIR
 10
0.0
 20
1.0
 30
0.0
  9
$UCSORTHOREF
  2

  9
$UCSORTHOVIEW
 70
     0
  9
$UCSORGTOP
 10
0.0
 20
0.0
 30
0.0
  9
$UCSORGBOTTOM
 10
0.0
 20
0.0
 30
0.0
  9
$UCSORGLEFT
 10
0.0
 20
0.0
 30
0.0
  9
$UCSORGRIGHT
 10
0.0
 20
0.0
 30
0.0
  9
$UCSORGFRONT
 10
0.0
 20
0.0
 30
0.0
  9
$UCSORGBACK
 10
0.0
 20
0.0
 30
0.0
  9
$PUCSBASE
  2

  9
$PUCSNAME
  2

  9
$PUCSORG
 10
0.0
 20
0.0
 30
0.0
  9
$PUCSXDIR
 10
1.0
 20
0.0
 30
0.0
  9
$PUCSYDIR
 10
0.0
 20
1.0
 30
0.0
  9
$PUCSORTHOREF
  2

  9
$PUCSORTHOVIEW
 70
     0
  9
$PUCSORGTOP
 10
0.0
 20
0.0
 30
0.0
  9
$PUCSORGBOTTOM
 10
0.0
 20
0.0
 30
0.0
  9
$PUCSORGLEFT
 10
0.0
 20
0.0
 30
0.0
  9
$PUCSORGRIGHT
 10
0.0
 20
0.0
 30
0.0
  9
$PUCSORGFRONT
 10
0.0
 20
0.0
 30
0.0
  9
$PUCSORGBACK
 10
0.0
 20
0.0
 30
0.0
  9
$USERI1
 70
     0
  9
$USERI2
 70
     0
  9
$USERI3
 70
     0
  9
$USERI4
 70
     0
  9
$USERI5
 70
     0
  9
$USERR1
 40
0.0
  9
$USERR2
 40
0.0
  9
$USERR3
 40
0.0
  9
$USERR4
 40
0.0
  9
$USERR5
 40
0.0
  9
$WORLDVIEW
 70
     1
  9
$SHADEDGE
 70
     3
  9
$SHADEDIF
 70
    70
  9
$TILEMODE
 70
     1
  9
$MAXACTVP
 70
    64
  9
$PINSBASE
 10
0.0
 20
0.0
 30
0.0
  9
$PLIMCHECK
 70
     0
  9
$PEXTMIN
 10
1.000000000000000E+20
 20
1.000000000000000E+20
 30
1.000000000000000E+20
  9
$PEXTMAX
 10
-1.000000000000000E+20
 20
-1.000000000000000E+20
 30
-1.000000000000000E+20
  9
$PLIMMIN
 10
0.0
 20
0.0
  9
$PLIMMAX
 10
12.0
 20
9.0
  9
$UNITMODE
 70
     0
  9
$VISRETAIN
 70
     1
  9
$PLINEGEN
 70
     0
  9
$PSLTSCALE
 70
     1
  9
$TREEDEPTH
 70
  3020
  9
$CMLSTYLE
  2
Standard
  9
$CMLJUST
 70
     0
  9
$CMLSCALE
 40
1.0
  9
$PROXYGRAPHICS
 70
     1
  9
$MEASUREMENT
 70
     0
  9
$CELWEIGHT
370
    -1
  9
$ENDCAPS
280
     0
  9
$JOINSTYLE
280
     0
  9
$LWDISPLAY
290
     1
  9
$INSUNITS
 70
     1
  9
$HYPERLINKBASE
  1

  9
$STYLESHEET
  1

  9
$XEDIT
290
     1
  9
$CEPSNTYPE
380
     0
  9
$PSTYLEMODE
290
     1
  9
$FINGERPRINTGUID
  2
{29069CE3-E5F1-D7A5-25C5-6919C14F7518}
  9
$VERSIONGUID
  2
{FAEB1C32-E019-11D5-929B-00C0DF256EC4}
  9
$EXTNAMES
290
     1
  9
$PSVPSCALE
 40
0.0
  9
$OLESTARTUP
290
     0
  9
$SORTENTS
280
   127
  9
$INDEXCTL
280
     0
  9
$HIDETEXT
280
     1
  9
$XCLIPFRAME
280
     2
  9
$HALOGAP
280
     0
  9
$OBSCOLOR
 70
   257
  9
$OBSLTYPE
280
     0
  9
$INTERSECTIONDISPLAY
280
     0
  9
$INTERSECTIONCOLOR
 70
   257
  9
$DIMASSOC
280
     2
  9
$PROJECTNAME
  1

  9
$CAMERADISPLAY
290
     0
  9
$LENSLENGTH
 40
50.0
  9
$CAMERAHEIGHT
 40
0.0
  9
$STEPSPERSEC
 40
2.0
  9
$STEPSIZE
 40
6.0
  9
$3DDWFPREC
 40
2.0
  9
$PSOLWIDTH
 40
0.25
  9
$PSOLHEIGHT
 40
4.0
  9
$LOFTANG1
 40
1.570796326794897
  9
$LOFTANG2
 40
1.570796326794897
  9
$LOFTMAG1
 40
0.0
  9
$LOFTMAG2
 40
0.0
  9
$LOFTPARAM
 70
     7
  9
$LOFTNORMALS
280
     1
  9
$LATITUDE
 40
37.795
  9
$LONGITUDE
 40
-122.394
  9
$NORTHDIRECTION
 40
0.0
  9
$TIMEZONE
 70
 -8000
  9
$LIGHTGLYPHDISPLAY
280
     1
  9
$TILEMODELIGHTSYNCH
280
     1
  9
$CMATERIAL
347
3C
  9
$SOLIDHIST
280
     1
  9
$SHOWHIST
280
     1
  9
$DWFFRAME
280
     2
  9
$DGNFRAME
280
     2
  9
$REALWORLDSCALE
290
     1
  9
$INTERFERECOLOR
 62
   256
  9
$CSHADOW
280
     0
  9
$SHADOWPLANELOCATION
 40
0.0
  0
ENDSEC
  0
SECTION
  2
CLASSES
  0
CLASS
  1
ACDBDICTIONARYWDFLT
  2
AcDbDictionaryWithDefault
  3
ObjectDBX Classes
 90
        0
 91
        4
280
     0
281
     0
  0
CLASS
  1
VISUALSTYLE
  2
AcDbVisualStyle
  3
ObjectDBX Classes
 90
     4095
 91
        4
280
     0
281
     0
  0
CLASS
  1
MATERIAL
  2
AcDbMaterial
  3
ObjectDBX Classes
 90
     1153
 91
        4
280
     0
281
     0
  0
CLASS
  1
SUN
  2
AcDbSun
  3
SCENEOE
 90
     1024
 91
        4
280
     0
281
     0
  0
ENDSEC
  0
SECTION
  2
TABLES
  0
TABLE
  2
VPORT
  5
8
330
0
100
AcDbSymbolTable
 70
     1
  0
VPORT
  5
29
330
8
100
AcDbSymbolTableRecord
100
AcDbViewportTableRecord
  2
*Active
 70
     0
 10
0.0
 20
0.0
 11
1.0
 21
1.0
 12
0.0
 22
0.0
 13
0.0
 23
0.0
 14
0.5
 24
0.5
 15
0.5
 25
0.5
 16
0.0
 26
0.0
 36
1.0
 17
63.499999984125
 27
-89.00059456108309
 37
0.0
 40
178.0011891221662
 41
0.7134783795241226
 42
50.0
 43
0.0
 44
0.0
 50
0.0
 51
0.0
 71
     0
 72
   100
 73
     1
 74
     3
 75
     0
 76
     0
 77
     0
 78
     0
281
     0
 65
     1
110
0.0
120
0.0
130
0.0
111
1.0
121
0.0
131
0.0
112
0.0
122
1.0
132
0.0
 79
     0
146
0.0
 60
     3
 61
     5
292
     1
282
     1
141
0.0
142
0.0
 63
   250
361
3F
  0
ENDTAB
  0
TABLE
  2
LTYPE
  5
5
330
0
100
AcDbSymbolTable
 70
     1
  0
LTYPE
  5
14
330
5
100
AcDbSymbolTableRecord
100
AcDbLinetypeTableRecord
  2
ByBlock
 70
     0
  3

 72
    65
 73
     0
 40
0.0
  0
LTYPE
  5
15
330
5
100
AcDbSymbolTableRecord
100
AcDbLinetypeTableRecord
  2
ByLayer
 70
     0
  3

 72
    65
 73
     0
 40
0.0
  0
LTYPE
  5
16
330
5
100
AcDbSymbolTableRecord
100
AcDbLinetypeTableRecord
  2
Continuous
 70
     0
  3
Solid line
 72
    65
 73
     0
 40
0.0
  0
ENDTAB
  0
TABLE
  2
LAYER
  5
2
330
0
100
AcDbSymbolTable
 70
     2
  0
LAYER
  5
10
330
2
100
AcDbSymbolTableRecord
100
AcDbLayerTableRecord
  2
0
 70
     0
 62
     7
  6
Continuous
370
    -3
390
F
347
3E
  0
LAYER
  5
40
330
2
100
AcDbSymbolTableRecord
100
AcDbLayerTableRecord
  2
_U+30EC_U+30A4_U+30E4_U+30FC 1
 70
     0
 62
     7
  6
Continuous
370
    -3
390
F
347
3E
  0
ENDTAB
  0
TABLE
  2
STYLE
  5
3
330
0
100
AcDbSymbolTable
 70
     1
  0
STYLE
  5
11
330
3
100
AcDbSymbolTableRecord
100
AcDbTextStyleTableRecord
  2
Standard
 70
     0
 40
0.0
 41
1.0
 50
0.0
 71
     0
 42
0.2
  3
txt
  4

  0
ENDTAB
  0
TABLE
  2
VIEW
  5
6
330
0
100
AcDbSymbolTable
 70
     0
  0
ENDTAB
  0
TABLE
  2
UCS
  5
7
330
0
100
AcDbSymbolTable
 70
     0
  0
ENDTAB
  0
TABLE
  2
APPID
  5
9
330
0
100
AcDbSymbolTable
 70
     1
  0
APPID
  5
12
330
9
100
AcDbSymbolTableRecord
100
AcDbRegAppTableRecord
  2
ACAD
 70
     0
  0
ENDTAB
  0
TABLE
  2
DIMSTYLE
  5
A
330
0
100
AcDbSymbolTable
 70
     1
100
AcDbDimStyleTable
  0
DIMSTYLE
105
27
330
A
100
AcDbSymbolTableRecord
100
AcDbDimStyleTableRecord
  2
Standard
 70
     0
178
     0
340
11
  0
ENDTAB
  0
TABLE
  2
BLOCK_RECORD
  5
1
330
0
100
AcDbSymbolTable
 70
     6
  0
BLOCK_RECORD
  5
1F
330
1
100
AcDbSymbolTableRecord
100
AcDbBlockTableRecord
  2
*Model_Space
340
22
 70
     0
280
     1
281
     0
  0
BLOCK_RECORD
  5
1B
330
1
100
AcDbSymbolTableRecord
100
AcDbBlockTableRecord
  2
*Paper_Space
340
1E
 70
     0
280
     1
281
     0
  0
BLOCK_RECORD
  5
23
330
1
100
AcDbSymbolTableRecord
100
AcDbBlockTableRecord
  2
*Paper_Space0
340
26
 70
     0
280
     1
281
     0
  0
BLOCK_RECORD
  5
61
330
1
100
AcDbSymbolTableRecord
100
AcDbBlockTableRecord
  2
block 2
340
0
102
{BLKREFS
331
62
102
}
 70
     0
280
     1
281
     0
  0
BLOCK_RECORD
  5
6A
330
1
100
AcDbSymbolTableRecord
100
AcDbBlockTableRecord
  2
block 3
340
0
102
{BLKREFS
331
6B
102
}
 70
     0
280
     1
281
     0
  0
BLOCK_RECORD
  5
96
330
1
100
AcDbSymbolTableRecord
100
AcDbBlockTableRecord
  2
block 4
340
0
102
{BLKREFS
331
97
102
}
 70
     0
280
     1
281
     0
  0
BLOCK_RECORD
  5
9C
330
1
100
AcDbSymbolTableRecord
100
AcDbBlockTableRecord
  2
block 5
340
0
102
{BLKREFS
331
9D
102
}
 70
     0
280
     1
281
     0
  0
BLOCK_RECORD
  5
BC
330
1
100
AcDbSymbolTableRecord
100
AcDbBlockTableRecord
  2
block 6
340
0
102
{BLKREFS
331
BD
102
}
 70
     0
280
     1
281
     0
  0
ENDTAB
  0
ENDSEC
  0
SECTION
  2
BLOCKS
  0
BLOCK
  5
20
330
1F
100
AcDbEntity
  8
0
100
AcDbBlockBegin
  2
*Model_Space
 70
     0
 10
0.0
 20
0.0
 30
0.0
  3
*Model_Space
  1

  0
ENDBLK
  5
21
330
1F
100
AcDbEntity
  8
0
100
AcDbBlockEnd
  0
BLOCK
  5
1C
330
1B
100
AcDbEntity
 67
     1
  8
0
100
AcDbBlockBegin
  2
*Paper_Space
 70
     0
 10
0.0
 20
0.0
 30
0.0
  3
*Paper_Space
  1

  0
ENDBLK
  5
1D
330
1B
100
AcDbEntity
 67
     1
  8
0
100
AcDbBlockEnd
  0
BLOCK
  5
24
330
23
100
AcDbEntity
  8
0
100
AcDbBlockBegin
  2
*Paper_Space0
 70
     0
 10
0.0
 20
0.0
 30
0.0
  3
*Paper_Space0
  1

  0
ENDBLK
  5
25
330
23
100
AcDbEntity
  8
0
100
AcDbBlockEnd
  0
BLOCK
  5
63
330
61
100
AcDbEntity
  8
0
100
AcDbBlockBegin
  2
block 2
 70
     0
 10
0.0
 20
0.0
 30
0.0
  3
block 2
  1

  0
SPLINE
  5
65
330
61
100
AcDbEntity
  8
_U+30EC_U+30A4_U+30E4_U+30FC 1
370
     0
100
AcDbSpline
210
0.0
220
0.0
230
1.0
 70
    11
 71
     3
 72
    26
 73
    22
 74
     0
 42
0.0000000001
 43
0.0000000001
 12
1.0
 22
0.0
 32
0.0
 13
1.0
 23
0.0
 33
0.0
 40
0.0
 40
0.0
 40
0.0
 40
0.0
 40
1.0
 40
1.0
 40
1.0
 40
2.0
 40
2.0
 40
2.0
 40
3.0
 40
3.0
 40
3.0
 40
4.0
 40
4.0
 40
4.0
 40
5.0
 40
5.0
 40
5.0
 40
6.0
 40
6.0
 40
6.0
 40
7.0
 40
7.0
 40
7.0
 40
7.0
 10
52.90529783833617
 20
-101.1786647967539
 30
0.0
 10
52.90529783833617
 20
-101.1786647967539
 30
0.0
 10
52.90529783833617
 20
-100.0745116937314
 30
0.0
 10
52.90529783833617
 20
-100.0745116937314
 30
0.0
 10
52.90529783833617
 20
-100.0745116937314
 30
0.0
 10
52.57525769084924
 20
-100.0745116937314
 30
0.0
 10
52.57525769084924
 20
-100.0745116937314
 30
0.0
 10
52.57525769084924
 20
-100.0745116937314
 30
0.0
 10
52.57525769084924
 20
-99.92637258786563
 30
0.0
 10
52.57525769084924
 20
-99.92637258786563
 30
0.0
 10
52.90736489562732
 20
-99.91155867727906
 30
0.0
 10
52.9538736846782
 20
-99.74860566082674
 30
0.0
 10
52.98350150585135
 20
-99.63422849071645
 30
0.0
 10
52.98350150585135
 20
-99.63422849071645
 30
0.0
 10
53.12957355442595
 20
-99.63422849071645
 30
0.0
 10
53.12957355442595
 20
-99.63422849071645
 30
0.0
 10
53.12957355442595
 20
-99.63422849071645
 30
0.0
 10
53.12957355442595
 20
-101.1786647967539
 30
0.0
 10
53.12957355442595
 20
-101.1786647967539
 30
0.0
 10
53.12957355442595
 20
-101.1786647967539
 30
0.0
 10
52.90529783833617
 20
-101.1786647967539
 30
0.0
 10
52.90529783833617
 20
-101.1786647967539
 30
0.0
  0
HATCH
  5
66
330
61
100
AcDbEntity
  8
_U+30EC_U+30A4_U+30E4_U+30FC 1
 62
   179
420
  2234388
100
AcDbHatch
 10
0.0
 20
0.0
 30
0.0
210
0.0
220
0.0
230
1.0
  2
SOLID
 70
     1
 71
     0
 91
        1
 92
        1
 93
        1
 72
     4
 94
        3
 73
     0
 74
     1
 95
       26
 96
       22
 40
0.0
 40
0.0
 40
0.0
 40
0.0
 40
1.0
 40
1.0
 40
1.0
 40
2.0
 40
2.0
 40
2.0
 40
3.0
 40
3.0
 40
3.0
 40
4.0
 40
4.0
 40
4.0
 40
5.0
 40
5.0
 40
5.0
 40
6.0
 40
6.0
 40
6.0
 40
7.0
 40
7.0
 40
7.0
 40
7.0
 10
52.90529783833617
 20
-101.1786647967539
 10
52.90529783833617
 20
-101.1786647967539
 10
52.90529783833617
 20
-100.0745116937314
 10
52.90529783833617
 20
-100.0745116937314
 10
52.90529783833617
 20
-100.0745116937314
 10
52.57525769084924
 20
-100.0745116937314
 10
52.57525769084924
 20
-100.0745116937314
 10
52.57525769084924
 20
-100.0745116937314
 10
52.57525769084924
 20
-99.92637258786563
 10
52.57525769084924
 20
-99.92637258786563
 10
52.90736489562732
 20
-99.91155867727906
 10
52.9538736846782
 20
-99.74860566082674
 10
52.98350150585135
 20
-99.63422849071645
 10
52.98350150585135
 20
-99.63422849071645
 10
53.12957355442595
 20
-99.63422849071645
 10
53.12957355442595
 20
-99.63422849071645
 10
53.12957355442595
 20
-99.63422849071645
 10
53.12957355442595
 20
-101.1786647967539
 10
53.12957355442595
 20
-101.1786647967539
 10
53.12957355442595
 20
-101.1786647967539
 10
52.90529783833617
 20
-101.1786647967539
 10
52.90529783833617
 20
-101.1786647967539
 97
        0
 97
        0
 75
     2
 76
     1
 98
        0
  0
SPLINE
  5
67
330
61
100
AcDbEntity
  8
_U+30EC_U+30A4_U+30E4_U+30FC 1
370
     0
100
AcDbSpline
210
0.0
220
0.0
230
1.0
 70
    11
 71
     3
 72
    29
 73
    25
 74
     0
 42
0.0000000001
 43
0.0000000001
 12
1.0
 22
0.0
 32
0.0
 13
1.0
 23
0.0
 33
0.0
 40
0.0
 40
0.0
 40
0.0
 40
0.0
 40
1.0
 40
1.0
 40
1.0
 40
2.0
 40
2.0
 40
2.0
 40
3.0
 40
3.0
 40
3.0
 40
4.0
 40
4.0
 40
4.0
 40
5.0
 40
5.0
 40
5.0
 40
6.0
 40
6.0
 40
6.0
 40
7.0
 40
7.0
 40
7.0
 40
8.0
 40
8.0
 40
8.0
 40
8.0
 10
54.5286268309859
 20
-101.0008978697151
 30
0.0
 10
54.42045083274905
 20
-101.2103596752182
 30
0.0
 10
54.24716252984099
 20
-101.2293077003871
 30
0.0
 10
54.13071830243955
 20
-101.2293077003871
 30
0.0
 10
53.96983234327838
 20
-101.2293077003871
 30
0.0
 10
53.82823891883461
 20
-101.1827989113362
 30
0.0
 10
53.73315428344171
 20
-101.0008978697151
 30
0.0
 10
53.62945690933569
 20
-100.8062499747984
 30
0.0
 10
53.61050888416682
 20
-100.5695719149618
 30
0.0
 10
53.61050888416682
 20
-100.4066188985095
 30
0.0
 10
53.61050888416682
 20
-100.262613907226
 30
0.0
 10
53.62738985204454
 20
-100.0107774272543
 30
0.0
 10
53.73315428344171
 20
-99.81199541775534
 30
0.0
 10
53.84098577213003
 20
-99.60907929367413
 30
0.0
 10
54.0018717312912
 20
-99.58565264437442
 30
0.0
 10
54.13071830243955
 20
-99.58565264437442
 30
0.0
 10
54.28953720430956
 20
-99.58565264437442
 30
0.0
 10
54.43319768604448
 20
-99.63009437613415
 30
0.0
 10
54.5286268309859
 20
-99.81199541775534
 30
0.0
 10
54.62784558096109
 20
-100.0045762553808
 30
0.0
 10
54.65127223026079
 20
-100.2329860860529
 30
0.0
 10
54.65127223026079
 20
-100.4066188985095
 30
0.0
 10
54.65127223026079
 20
-100.5778401441264
 30
0.0
 10
54.62991263825224
 20
-100.8083170320896
 30
0.0
 10
54.5286268309859
 20
-101.0008978697151
 30
0.0
  0
SPLINE
  5
68
330
61
100
AcDbEntity
  8
_U+30EC_U+30A4_U+30E4_U+30FC 1
370
     0
100
AcDbSpline
210
0.0
220
0.0
230
1.0
 70
    11
 71
     3
 72
    17
 73
    13
 74
     0
 42
0.0000000001
 43
0.0000000001
 12
1.0
 22
0.0
 32
0.0
 13
1.0
 23
0.0
 33
0.0
 40
0.0
 40
0.0
 40
0.0
 40
0.0
 40
1.0
 40
1.0
 40
1.0
 40
2.0
 40
2.0
 40
2.0
 40
3.0
 40
3.0
 40
3.0
 40
4.0
 40
4.0
 40
4.0
 40
4.0
 10
54.13071830243955
 20
-99.77823348199989
 30
0.0
 10
53.88129338930746
 20
-99.77823348199989
 30
0.0
 10
53.83444009070806
 20
-100.061764840436
 30
0.0
 10
53.83444009070806
 20
-100.4066188985095
 30
0.0
 10
53.83444009070806
 20
-100.7259792499921
 30
0.0
 10
53.87061359330318
 20
-101.0346598054705
 30
0.0
 10
54.13071830243955
 20
-101.0346598054705
 30
0.0
 10
54.37842066782901
 20
-101.0346598054705
 30
0.0
 10
54.42699651417103
 20
-100.7535400138741
 30
0.0
 10
54.42699651417103
 20
-100.4066188985095
 30
0.0
 10
54.42699651417103
 20
-100.0869140374783
 30
0.0
 10
54.38875595428476
 20
-99.77823348199989
 30
0.0
 10
54.13071830243955
 20
-99.77823348199989
 30
0.0
  0
HATCH
  5
69
330
61
100
AcDbEntity
  8
_U+30EC_U+30A4_U+30E4_U+30FC 1
 62
   179
420
  2234388
100
AcDbHatch
 10
0.0
 20
0.0
 30
0.0
210
0.0
220
0.0
230
1.0
  2
SOLID
 70
     1
 71
     0
 91
        2
 92
        1
 93
        1
 72
     4
 94
        3
 73
     0
 74
     1
 95
       29
 96
       25
 40
0.0
 40
0.0
 40
0.0
 40
0.0
 40
1.0
 40
1.0
 40
1.0
 40
2.0
 40
2.0
 40
2.0
 40
3.0
 40
3.0
 40
3.0
 40
4.0
 40
4.0
 40
4.0
 40
5.0
 40
5.0
 40
5.0
 40
6.0
 40
6.0
 40
6.0
 40
7.0
 40
7.0
 40
7.0
 40
8.0
 40
8.0
 40
8.0
 40
8.0
 10
54.5286268309859
 20
-101.0008978697151
 10
54.42045083274905
 20
-101.2103596752182
 10
54.24716252984099
 20
-101.2293077003871
 10
54.13071830243955
 20
-101.2293077003871
 10
53.96983234327838
 20
-101.2293077003871
 10
53.82823891883461
 20
-101.1827989113362
 10
53.73315428344171
 20
-101.0008978697151
 10
53.62945690933569
 20
-100.8062499747984
 10
53.61050888416682
 20
-100.5695719149618
 10
53.61050888416682
 20
-100.4066188985095
 10
53.61050888416682
 20
-100.262613907226
 10
53.62738985204454
 20
-100.0107774272543
 10
53.73315428344171
 20
-99.81199541775534
 10
53.84098577213003
 20
-99.60907929367413
 10
54.0018717312912
 20
-99.58565264437442
 10
54.13071830243955
 20
-99.58565264437442
 10
54.28953720430956
 20
-99.58565264437442
 10
54.43319768604448
 20
-99.63009437613415
 10
54.5286268309859
 20
-99.81199541775534
 10
54.62784558096109
 20
-100.0045762553808
 10
54.65127223026079
 20
-100.2329860860529
 10
54.65127223026079
 20
-100.4066188985095
 10
54.65127223026079
 20
-100.5778401441264
 10
54.62991263825224
 20
-100.8083170320896
 10
54.5286268309859
 20
-101.0008978697151
 97
        0
 97
        0
 92
        1
 93
        1
 72
     4
 94
        3
 73
     0
 74
     1
 95
       17
 96
       13
 40
0.0
 40
0.0
 40
0.0
 40
0.0
 40
1.0
 40
1.0
 40
1.0
 40
2.0
 40
2.0
 40
2.0
 40
3.0
 40
3.0
 40
3.0
 40
4.0
 40
4.0
 40
4.0
 40
4.0
 10
54.13071830243955
 20
-99.77823348199989
 10
53.88129338930746
 20
-99.77823348199989
 10
53.83444009070806
 20
-100.061764840436
 10
53.83444009070806
 20
-100.4066188985095
 10
53.83444009070806
 20
-100.7259792499921
 10
53.87061359330318
 20
-101.0346598054705
 10
54.13071830243955
 20
-101.0346598054705
 10
54.37842066782901
 20
-101.0346598054705
 10
54.42699651417103
 20
-100.7535400138741
 10
54.42699651417103
 20
-100.4066188985095
 10
54.42699651417103
 20
-100.0869140374783
 10
54.38875595428476
 20
-99.77823348199989
 10
54.13071830243955
 20
-99.77823348199989
 97
        0
 97
        0
 75
     2
 76
     1
 98
        0
  0
ENDBLK
  5
64
330
61
100
AcDbEntity
  8
0
100
AcDbBlockEnd
  0
BLOCK
  5
6C
330
6A
100
AcDbEntity
  8
0
100
AcDbBlockBegin
  2
block 3
 70
     0
 10
0.0
 20
0.0
 30
0.0
  3
block 3
  1

  0
POLYLINE
  5
6E
330
6A
100
AcDbEntity
  8
_U+30EC_U+30A4_U+30E4_U+30FC 1
370
     0
100
AcDb2dPolyline
 66
     1
 10
0.0
 20
0.0
 30
0.0
  0
VERTEX
  5
6F
330
6E
100
AcDbEntity
  8
_U+30EC_U+30A4_U+30E4_U+30FC 1
370
     0
100
AcDbVertex
100
AcDb2dVertex
 10
60.8744927148161
 20
-100.8317436813893
 30
0.0
  0
VERTEX
  5
70
330
6E
100
AcDbEntity
  8
_U+30EC_U+30A4_U+30E4_U+30FC 1
370
     0
100
AcDbVertex
100
AcDb2dVertex
 10
60.8744927148161
 20
-101.1786647967539
 30
0.0
  0
VERTEX
  5
71
330
6E
100
AcDbEntity
  8
_U+30EC_U+30A4_U+30E4_U+30FC 1
370
     0
100
AcDbVertex
100
AcDb2dVertex
 10
60.65676268014831
 20
-101.1786647967539
 30
0.0
  0
VERTEX
  5
72
330
6E
100
AcDbEntity
  8
_U+30EC_U+30A4_U+30E4_U+30FC 1
370
     0
100
AcDbVertex
100
AcDb2dVertex
 10
60.65676268014831
 20
-100.8317436813893
 30
0.0
  0
VERTEX
  5
73
330
6E
100
AcDbEntity
  8
_U+30EC_U+30A4_U+30E4_U+30FC 1
370
     0
100
AcDbVertex
100
AcDb2dVertex
 10
60.00081649975674
 20
-100.8317436813893
 30
0.0
  0
VERTEX
  5
74
330
6E
100
AcDbEntity
  8
_U+30EC_U+30A4_U+30E4_U+30FC 1
370
     0
100
AcDbVertex
100
AcDb2dVertex
 10
60.00081649975674
 20
-100.6074679652995
 30
0.0
  0
VERTEX
  5
75
330
6E
100
AcDbEntity
  8
_U+30EC_U+30A4_U+30E4_U+30FC 1
370
     0
100
AcDbVertex
100
AcDb2dVertex
 10
60.67984481989949
 20
-99.63422849071645
 30
0.0
  0
VERTEX
  5
76
330
6E
100
AcDbEntity
  8
_U+30EC_U+30A4_U+30E4_U+30FC 1
370
     0
100
AcDbVertex
100
AcDb2dVertex
 10
60.8744927148161
 20
-99.63422849071645
 30
0.0
  0
VERTEX
  5
77
330
6E
100
AcDbEntity
  8
_U+30EC_U+30A4_U+30E4_U+30FC 1
370
     0
100
AcDbVertex
100
AcDb2dVertex
 10
60.8744927148161
 20
-100.6329616718904
 30
0.0
  0
VERTEX
  5
78
330
6E
100
AcDbEntity
  8
_U+30EC_U+30A4_U+30E4_U+30FC 1
370
     0
100
AcDbVertex
100
AcDb2dVertex
 10
61.08188746302814
 20
-100.6329616718904
 30
0.0
  0
VERTEX
  5
79
330
6E
100
AcDbEntity
  8
_U+30EC_U+30A4_U+30E4_U+30FC 1
370
     0
100
AcDbVertex
100
AcDb2dVertex
 10
61.08188746302814
 20
-100.8317436813893
 30
0.0
  0
VERTEX
  5
7A
330
6E
100
AcDbEntity
  8
_U+30EC_U+30A4_U+30E4_U+30FC 1
370
     0
100
AcDbVertex
100
AcDb2dVertex
 10
60.8744927148161
 20
-100.8317436813893
 30
0.0
  0
SEQEND
  5
7B
330
6E
100
AcDbEntity
  8
_U+30EC_U+30A4_U+30E4_U+30FC 1
370
     0
  0
POLYLINE
  5
7C
330
6A
100
AcDbEntity
  8
_U+30EC_U+30A4_U+30E4_U+30FC 1
370
     0
100
AcDb2dPolyline
 66
     1
 10
0.0
 20
0.0
 30
0.0
  0
VERTEX
  5
7D
330
7C
100
AcDbEntity
  8
_U+30EC_U+30A4_U+30E4_U+30FC 1
370
     0
100
AcDbVertex
100
AcDb2dVertex
 10
60.65676268014831
 20
-99.9770154914988
 30
0.0
  0
VERTEX
  5
7E
330
7C
100
AcDbEntity
  8
_U+30EC_U+30A4_U+30E4_U+30FC 1
370
     0
100
AcDbVertex
100
AcDb2dVertex
 10
60.19959850925566
 20
-100.6329616718904
 30
0.0
  0
VERTEX
  5
7F
330
7C
100
AcDbEntity
  8
_U+30EC_U+30A4_U+30E4_U+30FC 1
370
     0
100
AcDbVertex
100
AcDb2dVertex
 10
60.65676268014831
 20
-100.6329616718904
 30
0.0
  0
VERTEX
  5
80
330
7C
100
AcDbEntity
  8
_U+30EC_U+30A4_U+30E4_U+30FC 1
370
     0
100
AcDbVertex
100
AcDb2dVertex
 10
60.65676268014831
 20
-99.9770154914988
 30
0.0
  0
SEQEND
  5
81
330
7C
100
AcDbEntity
  8
_U+30EC_U+30A4_U+30E4_U+30FC 1
370
     0
  0
HATCH
  5
82
330
6A
100
AcDbEntity
  8
_U+30EC_U+30A4_U+30E4_U+30FC 1
 62
   179
420
  2234388
100
AcDbHatch
 10
0.0
 20
0.0
 30
0.0
210
0.0
220
0.0
230
1.0
  2
SOLID
 70
     1
 71
     0
 91
        2
 92
        1
 93
       11
 72
     1
 10
60.8744927148161
 20
-100.8317436813893
 11
60.8744927148161
 21
-101.1786647967539
 72
     1
 10
60.8744927148161
 20
-101.1786647967539
 11
60.65676268014831
 21
-101.1786647967539
 72
     1
 10
60.65676268014831
 20
-101.1786647967539
 11
60.65676268014831
 21
-100.8317436813893
 72
     1
 10
60.65676268014831
 20
-100.8317436813893
 11
60.00081649975674
 21
-100.8317436813893
 72
     1
 10
60.00081649975674
 20
-100.8317436813893
 11
60.00081649975674
 21
-100.6074679652995
 72
     1
 10
60.00081649975674
 20
-100.6074679652995
 11
60.67984481989949
 21
-99.63422849071645
 72
     1
 10
60.67984481989949
 20
-99.63422849071645
 11
60.8744927148161
 21
-99.63422849071645
 72
     1
 10
60.8744927148161
 20
-99.63422849071645
 11
60.8744927148161
 21
-100.6329616718904
 72
     1
 10
60.8744927148161
 20
-100.6329616718904
 11
61.08188746302814
 21
-100.6329616718904
 72
     1
 10
61.08188746302814
 20
-100.6329616718904
 11
61.08188746302814
 21
-100.8317436813893
 72
     1
 10
61.08188746302814
 20
-100.8317436813893
 11
60.8744927148161
 21
-100.8317436813893
 97
        0
 92
        1
 93
        3
 72
     1
 10
60.65676268014831
 20
-99.9770154914988
 11
60.19959850925566
 21
-100.6329616718904
 72
     1
 10
60.19959850925566
 20
-100.6329616718904
 11
60.65676268014831
 21
-100.6329616718904
 72
     1
 10
60.65676268014831
 20
-100.6329616718904
 11
60.65676268014831
 21
-99.9770154914988
 97
        0
 75
     2
 76
     1
 98
        0
  0
ENDBLK
  5
6D
330
6A
100
AcDbEntity
  8
0
100
AcDbBlockEnd
  0
BLOCK
  5
98
330
96
100
AcDbEntity
  8
0
100
AcDbBlockBegin
  2
block 4
 70
     0
 10
0.0
 20
0.0
 30
0.0
  3
block 4
  1

  0
SPLINE
  5
9A
330
96
100
AcDbEntity
  8
_U+30EC_U+30A4_U+30E4_U+30FC 1
370
     0
100
AcDbSpline
210
0.0
220
0.0
230
1.0
 70
    11
 71
     3
 72
    26
 73
    22
 74
     0
 42
0.0000000001
 43
0.0000000001
 12
1.0
 22
0.0
 32
0.0
 13
1.0
 23
0.0
 33
0.0
 40
0.0
 40
0.0
 40
0.0
 40
0.0
 40
1.0
 40
1.0
 40
1.0
 40
2.0
 40
2.0
 40
2.0
 40
3.0
 40
3.0
 40
3.0
 40
4.0
 40
4.0
 40
4.0
 40
5.0
 40
5.0
 40
5.0
 40
6.0
 40
6.0
 40
6.0
 40
7.0
 40
7.0
 40
7.0
 40
7.0
 10
76.86628144779732
 20
-78.6060546678485
 30
0.0
 10
76.86628144779732
 20
-78.6060546678485
 30
0.0
 10
75.76212834477475
 20
-78.6060546678485
 30
0.0
 10
75.76212834477475
 20
-78.6060546678485
 30
0.0
 10
75.76212834477475
 20
-78.6060546678485
 30
0.0
 10
75.76212834477475
 20
-78.93609481533542
 30
0.0
 10
75.76212834477475
 20
-78.93609481533542
 30
0.0
 10
75.76212834477475
 20
-78.93609481533542
 30
0.0
 10
75.613989238909
 20
-78.93609481533542
 30
0.0
 10
75.613989238909
 20
-78.93609481533542
 30
0.0
 10
75.59917532832243
 20
-78.60398761055734
 30
0.0
 10
75.43622231187011
 20
-78.55747882150646
 30
0.0
 10
75.32184514175982
 20
-78.52785100033331
 30
0.0
 10
75.32184514175982
 20
-78.52785100033331
 30
0.0
 10
75.32184514175982
 20
-78.38177895175872
 30
0.0
 10
75.32184514175982
 20
-78.38177895175872
 30
0.0
 10
75.32184514175982
 20
-78.38177895175872
 30
0.0
 10
76.86628144779732
 20
-78.38177895175872
 30
0.0
 10
76.86628144779732
 20
-78.38177895175872
 30
0.0
 10
76.86628144779732
 20
-78.38177895175872
 30
0.0
 10
76.86628144779732
 20
-78.6060546678485
 30
0.0
 10
76.86628144779732
 20
-78.6060546678485
 30
0.0
  0
HATCH
  5
9B
330
96
100
AcDbEntity
  8
_U+30EC_U+30A4_U+30E4_U+30FC 1
 62
   179
420
  2234388
100
AcDbHatch
 10
0.0
 20
0.0
 30
0.0
210
0.0
220
0.0
230
1.0
  2
SOLID
 70
     1
 71
     0
 91
        1
 92
        1
 93
        1
 72
     4
 94
        3
 73
     0
 74
     1
 95
       26
 96
       22
 40
0.0
 40
0.0
 40
0.0
 40
0.0
 40
1.0
 40
1.0
 40
1.0
 40
2.0
 40
2.0
 40
2.0
 40
3.0
 40
3.0
 40
3.0
 40
4.0
 40
4.0
 40
4.0
 40
5.0
 40
5.0
 40
5.0
 40
6.0
 40
6.0
 40
6.0
 40
7.0
 40
7.0
 40
7.0
 40
7.0
 10
76.86628144779732
 20
-78.6060546678485
 10
76.86628144779732
 20
-78.6060546678485
 10
75.76212834477475
 20
-78.6060546678485
 10
75.76212834477475
 20
-78.6060546678485
 10
75.76212834477475
 20
-78.6060546678485
 10
75.76212834477475
 20
-78.93609481533542
 10
75.76212834477475
 20
-78.93609481533542
 10
75.76212834477475
 20
-78.93609481533542
 10
75.613989238909
 20
-78.93609481533542
 10
75.613989238909
 20
-78.93609481533542
 10
75.59917532832243
 20
-78.60398761055734
 10
75.43622231187011
 20
-78.55747882150646
 10
75.32184514175982
 20
-78.52785100033331
 10
75.32184514175982
 20
-78.52785100033331
 10
75.32184514175982
 20
-78.38177895175872
 10
75.32184514175982
 20
-78.38177895175872
 10
75.32184514175982
 20
-78.38177895175872
 10
76.86628144779732
 20
-78.38177895175872
 10
76.86628144779732
 20
-78.38177895175872
 10
76.86628144779732
 20
-78.38177895175872
 10
76.86628144779732
 20
-78.6060546678485
 10
76.86628144779732
 20
-78.6060546678485
 97
        0
 97
        0
 75
     2
 76
     1
 98
        0
  0
ENDBLK
  5
99
330
96
100
AcDbEntity
  8
0
100
AcDbBlockEnd
  0
BLOCK
  5
9E
330
9C
100
AcDbEntity
  8
0
100
AcDbBlockBegin
  2
block 5
 70
     0
 10
0.0
 20
0.0
 30
0.0
  3
block 5
  1

  0
SPLINE
  5
A0
330
9C
100
AcDbEntity
  8
_U+30EC_U+30A4_U+30E4_U+30FC 1
370
     0
100
AcDbSpline
210
0.0
220
0.0
230
1.0
 70
    11
 71
     3
 72
    26
 73
    22
 74
     0
 42
0.0000000001
 43
0.0000000001
 12
1.0
 22
0.0
 32
0.0
 13
1.0
 23
0.0
 33
0.0
 40
0.0
 40
0.0
 40
0.0
 40
0.0
 40
1.0
 40
1.0
 40
1.0
 40
2.0
 40
2.0
 40
2.0
 40
3.0
 40
3.0
 40
3.0
 40
4.0
 40
4.0
 40
4.0
 40
5.0
 40
5.0
 40
5.0
 40
6.0
 40
6.0
 40
6.0
 40
7.0
 40
7.0
 40
7.0
 40
7.0
 10
76.86628144779732
 20
-91.55272350141738
 30
0.0
 10
76.86628144779732
 20
-91.55272350141738
 30
0.0
 10
75.76212834477475
 20
-91.55272350141738
 30
0.0
 10
75.76212834477475
 20
-91.55272350141738
 30
0.0
 10
75.76212834477475
 20
-91.55272350141738
 30
0.0
 10
75.76212834477475
 20
-91.88276364890432
 30
0.0
 10
75.76212834477475
 20
-91.88276364890432
 30
0.0
 10
75.76212834477475
 20
-91.88276364890432
 30
0.0
 10
75.613989238909
 20
-91.88276364890432
 30
0.0
 10
75.613989238909
 20
-91.88276364890432
 30
0.0
 10
75.59917532832243
 20
-91.55065644412623
 30
0.0
 10
75.43622231187011
 20
-91.50414765507536
 30
0.0
 10
75.32184514175982
 20
-91.4745198339022
 30
0.0
 10
75.32184514175982
 20
-91.4745198339022
 30
0.0
 10
75.32184514175982
 20
-91.32844778532761
 30
0.0
 10
75.32184514175982
 20
-91.32844778532761
 30
0.0
 10
75.32184514175982
 20
-91.32844778532761
 30
0.0
 10
76.86628144779732
 20
-91.32844778532761
 30
0.0
 10
76.86628144779732
 20
-91.32844778532761
 30
0.0
 10
76.86628144779732
 20
-91.32844778532761
 30
0.0
 10
76.86628144779732
 20
-91.55272350141738
 30
0.0
 10
76.86628144779732
 20
-91.55272350141738
 30
0.0
  0
HATCH
  5
A1
330
9C
100
AcDbEntity
  8
_U+30EC_U+30A4_U+30E4_U+30FC 1
 62
   179
420
  2234388
100
AcDbHatch
 10
0.0
 20
0.0
 30
0.0
210
0.0
220
0.0
230
1.0
  2
SOLID
 70
     1
 71
     0
 91
        1
 92
        1
 93
        1
 72
     4
 94
        3
 73
     0
 74
     1
 95
       26
 96
       22
 40
0.0
 40
0.0
 40
0.0
 40
0.0
 40
1.0
 40
1.0
 40
1.0
 40
2.0
 40
2.0
 40
2.0
 40
3.0
 40
3.0
 40
3.0
 40
4.0
 40
4.0
 40
4.0
 40
5.0
 40
5.0
 40
5.0
 40
6.0
 40
6.0
 40
6.0
 40
7.0
 40
7.0
 40
7.0
 40
7.0
 10
76.86628144779732
 20
-91.55272350141738
 10
76.86628144779732
 20
-91.55272350141738
 10
75.76212834477475
 20
-91.55272350141738
 10
75.76212834477475
 20
-91.55272350141738
 10
75.76212834477475
 20
-91.55272350141738
 10
75.76212834477475
 20
-91.88276364890432
 10
75.76212834477475
 20
-91.88276364890432
 10
75.76212834477475
 20
-91.88276364890432
 10
75.613989238909
 20
-91.88276364890432
 10
75.613989238909
 20
-91.88276364890432
 10
75.59917532832243
 20
-91.55065644412623
 10
75.43622231187011
 20
-91.50414765507536
 10
75.32184514175982
 20
-91.4745198339022
 10
75.32184514175982
 20
-91.4745198339022
 10
75.32184514175982
 20
-91.32844778532761
 10
75.32184514175982
 20
-91.32844778532761
 10
75.32184514175982
 20
-91.32844778532761
 10
76.86628144779732
 20
-91.32844778532761
 10
76.86628144779732
 20
-91.32844778532761
 10
76.86628144779732
 20
-91.32844778532761
 10
76.86628144779732
 20
-91.55272350141738
 10
76.86628144779732
 20
-91.55272350141738
 97
        0
 97
        0
 75
     2
 76
     1
 98
        0
  0
SPLINE
  5
A2
330
9C
100
AcDbEntity
  8
_U+30EC_U+30A4_U+30E4_U+30FC 1
370
     0
100
AcDbSpline
210
0.0
220
0.0
230
1.0
 70
    11
 71
     3
 72
    53
 73
    49
 74
     0
 42
0.0000000001
 43
0.0000000001
 12
1.0
 22
0.0
 32
0.0
 13
1.0
 23
0.0
 33
0.0
 40
0.0
 40
0.0
 40
0.0
 40
0.0
 40
1.0
 40
1.0
 40
1.0
 40
2.0
 40
2.0
 40
2.0
 40
3.0
 40
3.0
 40
3.0
 40
4.0
 40
4.0
 40
4.0
 40
5.0
 40
5.0
 40
5.0
 40
6.0
 40
6.0
 40
6.0
 40
7.0
 40
7.0
 40
7.0
 40
8.0
 40
8.0
 40
8.0
 40
9.0
 40
9.0
 40
9.0
 40
10.0
 40
10.0
 40
10.0
 40
11.0
 40
11.0
 40
11.0
 40
12.0
 40
12.0
 40
12.0
 40
13.0
 40
13.0
 40
13.0
 40
14.0
 40
14.0
 40
14.0
 40
15.0
 40
15.0
 40
15.0
 40
16.0
 40
16.0
 40
16.0
 40
16.0
 10
76.9169243514305
 20
-90.34625106248289
 30
0.0
 10
76.9169243514305
 20
-90.42445472999806
 30
0.0
 10
76.90004338355277
 20
-90.52608504681292
 30
0.0
 10
76.83665362662417
 20
-90.6277153636278
 30
0.0
 10
76.72675508064471
 20
-90.80100366653586
 30
0.0
 10
76.59549694265668
 20
-90.82236325854441
 30
0.0
 10
76.48766545396836
 20
-90.84131128371328
 30
0.0
 10
76.48766545396836
 20
-90.84131128371328
 30
0.0
 10
76.48766545396836
 20
-90.61910262491467
 30
0.0
 10
76.48766545396836
 20
-90.61910262491467
 30
0.0
 10
76.68644746346727
 20
-90.5643256066992
 30
0.0
 10
76.71607528464043
 20
-90.43720158329349
 30
0.0
 10
76.71607528464043
 20
-90.34418400519174
 30
0.0
 10
76.71607528464043
 20
-90.20465763803912
 30
0.0
 10
76.6165120251167
 20
-90.05238441759107
 30
0.0
 10
76.38396807986234
 20
-90.05238441759107
 30
0.0
 10
76.12799748530828
 20
-90.05238441759107
 30
0.0
 10
76.05806204695772
 20
-90.23221840192112
 30
0.0
 10
76.05806204695772
 20
-90.35279674390486
 30
0.0
 10
76.05806204695772
 20
-90.38449162236915
 30
0.0
 10
76.05806204695772
 20
-90.52608504681292
 30
0.0
 10
76.18725312765459
 20
-90.61496851033237
 30
0.0
 10
76.18725312765459
 20
-90.61496851033237
 30
0.0
 10
76.1683051024857
 20
-90.79066838008012
 30
0.0
 10
76.1683051024857
 20
-90.79066838008012
 30
0.0
 10
76.1683051024857
 20
-90.79066838008012
 30
0.0
 10
75.32184514175982
 20
-90.67009003809638
 30
0.0
 10
75.32184514175982
 20
-90.67009003809638
 30
0.0
 10
75.32184514175982
 20
-90.67009003809638
 30
0.0
 10
75.32184514175982
 20
-89.89149845842991
 30
0.0
 10
75.32184514175982
 20
-89.89149845842991
 30
0.0
 10
75.32184514175982
 20
-89.89149845842991
 30
0.0
 10
75.51649303667644
 20
-89.89149845842991
 30
0.0
 10
75.51649303667644
 20
-89.89149845842991
 30
0.0
 10
75.51649303667644
 20
-89.89149845842991
 30
0.0
 10
75.51649303667644
 20
-90.50713702164406
 30
0.0
 10
75.51649303667644
 20
-90.50713702164406
 30
0.0
 10
75.51649303667644
 20
-90.50713702164406
 30
0.0
 10
75.93955076226511
 20
-90.5725938358638
 30
0.0
 10
75.93955076226511
 20
-90.5725938358638
 30
0.0
 10
75.90578882650966
 20
-90.51127113622636
 30
0.0
 10
75.86548120933224
 20
-90.42893335412889
 30
0.0
 10
75.86548120933224
 20
-90.31042206943629
 30
0.0
 10
75.86548120933224
 20
-90.05651853217337
 30
0.0
 10
76.05186087508426
 20
-89.81949596278818
 30
0.0
 10
76.36502005469347
 20
-89.81949596278818
 30
0.0
 10
76.68231334888497
 20
-89.81949596278818
 30
0.0
 10
76.9169243514305
 20
-90.04377167887795
 30
0.0
 10
76.9169243514305
 20
-90.34625106248289
 30
0.0
  0
HATCH
  5
A3
330
9C
100
AcDbEntity
  8
_U+30EC_U+30A4_U+30E4_U+30FC 1
 62
   179
420
  2234388
100
AcDbHatch
 10
0.0
 20
0.0
 30
0.0
210
0.0
220
0.0
230
1.0
  2
SOLID
 70
     1
 71
     0
 91
        1
 92
        1
 93
        1
 72
     4
 94
        3
 73
     0
 74
     1
 95
       53
 96
       49
 40
0.0
 40
0.0
 40
0.0
 40
0.0
 40
1.0
 40
1.0
 40
1.0
 40
2.0
 40
2.0
 40
2.0
 40
3.0
 40
3.0
 40
3.0
 40
4.0
 40
4.0
 40
4.0
 40
5.0
 40
5.0
 40
5.0
 40
6.0
 40
6.0
 40
6.0
 40
7.0
 40
7.0
 40
7.0
 40
8.0
 40
8.0
 40
8.0
 40
9.0
 40
9.0
 40
9.0
 40
10.0
 40
10.0
 40
10.0
 40
11.0
 40
11.0
 40
11.0
 40
12.0
 40
12.0
 40
12.0
 40
13.0
 40
13.0
 40
13.0
 40
14.0
 40
14.0
 40
14.0
 40
15.0
 40
15.0
 40
15.0
 40
16.0
 40
16.0
 40
16.0
 40
16.0
 10
76.9169243514305
 20
-90.34625106248289
 10
76.9169243514305
 20
-90.42445472999806
 10
76.90004338355277
 20
-90.52608504681292
 10
76.83665362662417
 20
-90.6277153636278
 10
76.72675508064471
 20
-90.80100366653586
 10
76.59549694265668
 20
-90.82236325854441
 10
76.48766545396836
 20
-90.84131128371328
 10
76.48766545396836
 20
-90.84131128371328
 10
76.48766545396836
 20
-90.61910262491467
 10
76.48766545396836
 20
-90.61910262491467
 10
76.68644746346727
 20
-90.5643256066992
 10
76.71607528464043
 20
-90.43720158329349
 10
76.71607528464043
 20
-90.34418400519174
 10
76.71607528464043
 20
-90.20465763803912
 10
76.6165120251167
 20
-90.05238441759107
 10
76.38396807986234
 20
-90.05238441759107
 10
76.12799748530828
 20
-90.05238441759107
 10
76.05806204695772
 20
-90.23221840192112
 10
76.05806204695772
 20
-90.35279674390486
 10
76.05806204695772
 20
-90.38449162236915
 10
76.05806204695772
 20
-90.52608504681292
 10
76.18725312765459
 20
-90.61496851033237
 10
76.18725312765459
 20
-90.61496851033237
 10
76.1683051024857
 20
-90.79066838008012
 10
76.1683051024857
 20
-90.79066838008012
 10
76.1683051024857
 20
-90.79066838008012
 10
75.32184514175982
 20
-90.67009003809638
 10
75.32184514175982
 20
-90.67009003809638
 10
75.32184514175982
 20
-90.67009003809638
 10
75.32184514175982
 20
-89.89149845842991
 10
75.32184514175982
 20
-89.89149845842991
 10
75.32184514175982
 20
-89.89149845842991
 10
75.51649303667644
 20
-89.89149845842991
 10
75.51649303667644
 20
-89.89149845842991
 10
75.51649303667644
 20
-89.89149845842991
 10
75.51649303667644
 20
-90.50713702164406
 10
75.51649303667644
 20
-90.50713702164406
 10
75.51649303667644
 20
-90.50713702164406
 10
75.93955076226511
 20
-90.5725938358638
 10
75.93955076226511
 20
-90.5725938358638
 10
75.90578882650966
 20
-90.51127113622636
 10
75.86548120933224
 20
-90.42893335412889
 10
75.86548120933224
 20
-90.31042206943629
 10
75.86548120933224
 20
-90.05651853217337
 10
76.05186087508426
 20
-89.81949596278818
 10
76.36502005469347
 20
-89.81949596278818
 10
76.68231334888497
 20
-89.81949596278818
 10
76.9169243514305
 20
-90.04377167887795
 10
76.9169243514305
 20
-90.34625106248289
 97
        0
 97
        0
 75
     2
 76
     1
 98
        0
  0
POLYLINE
  5
A4
330
9C
100
AcDbEntity
  8
_U+30EC_U+30A4_U+30E4_U+30FC 1
370
     0
100
AcDb2dPolyline
 66
     1
 10
0.0
 20
0.0
 30
0.0
  0
VERTEX
  5
A5
330
A4
100
AcDbEntity
  8
_U+30EC_U+30A4_U+30E4_U+30FC 1
370
     0
100
AcDbVertex
100
AcDb2dVertex
 10
76.86628144779732
 20
-89.59039711301907
 30
0.0
  0
VERTEX
  5
A6
330
A4
100
AcDbEntity
  8
_U+30EC_U+30A4_U+30E4_U+30FC 1
370
     0
100
AcDbVertex
100
AcDb2dVertex
 10
76.61444496782556
 20
-89.59039711301907
 30
0.0
  0
VERTEX
  5
A7
330
A4
100
AcDbEntity
  8
_U+30EC_U+30A4_U+30E4_U+30FC 1
370
     0
100
AcDbVertex
100
AcDb2dVertex
 10
76.61444496782556
 20
-89.33856063304731
 30
0.0
  0
VERTEX
  5
A8
330
A4
100
AcDbEntity
  8
_U+30EC_U+30A4_U+30E4_U+30FC 1
370
     0
100
AcDbVertex
100
AcDb2dVertex
 10
76.86628144779732
 20
-89.33856063304731
 30
0.0
  0
VERTEX
  5
A9
330
A4
100
AcDbEntity
  8
_U+30EC_U+30A4_U+30E4_U+30FC 1
370
     0
100
AcDbVertex
100
AcDb2dVertex
 10
76.86628144779732
 20
-89.59039711301907
 30
0.0
  0
SEQEND
  5
AA
330
A4
100
AcDbEntity
  8
_U+30EC_U+30A4_U+30E4_U+30FC 1
370
     0
  0
HATCH
  5
AB
330
9C
100
AcDbEntity
  8
_U+30EC_U+30A4_U+30E4_U+30FC 1
 62
   179
420
  2234388
100
AcDbHatch
 10
0.0
 20
0.0
 30
0.0
210
0.0
220
0.0
230
1.0
  2
SOLID
 70
     1
 71
     0
 91
        1
 92
        1
 93
        4
 72
     1
 10
76.86628144779732
 20
-89.59039711301907
 11
76.61444496782556
 21
-89.59039711301907
 72
     1
 10
76.61444496782556
 20
-89.59039711301907
 11
76.61444496782556
 21
-89.33856063304731
 72
     1
 10
76.61444496782556
 20
-89.33856063304731
 11
76.86628144779732
 21
-89.33856063304731
 72
     1
 10
76.86628144779732
 20
-89.33856063304731
 11
76.86628144779732
 21
-89.59039711301907
 97
        0
 75
     2
 76
     1
 98
        0
  0
SPLINE
  5
AC
330
9C
100
AcDbEntity
  8
_U+30EC_U+30A4_U+30E4_U+30FC 1
370
     0
100
AcDbSpline
210
0.0
220
0.0
230
1.0
 70
    11
 71
     3
 72
    44
 73
    40
 74
     0
 42
0.0000000001
 43
0.0000000001
 12
1.0
 22
0.0
 32
0.0
 13
1.0
 23
0.0
 33
0.0
 40
0.0
 40
0.0
 40
0.0
 40
0.0
 40
1.0
 40
1.0
 40
1.0
 40
2.0
 40
2.0
 40
2.0
 40
3.0
 40
3.0
 40
3.0
 40
4.0
 40
4.0
 40
4.0
 40
5.0
 40
5.0
 40
5.0
 40
6.0
 40
6.0
 40
6.0
 40
7.0
 40
7.0
 40
7.0
 40
8.0
 40
8.0
 40
8.0
 40
9.0
 40
9.0
 40
9.0
 40
10.0
 40
10.0
 40
10.0
 40
11.0
 40
11.0
 40
11.0
 40
12.0
 40
12.0
 40
12.0
 40
13.0
 40
13.0
 40
13.0
 40
13.0
 10
76.28440482033862
 20
-88.50932614974768
 30
0.0
 10
76.44322372220864
 20
-88.72705618441546
 30
0.0
 10
76.51729327514151
 20
-88.82007376251721
 30
0.0
 10
76.66095375687644
 20
-88.86899411840776
 30
0.0
 10
76.66095375687644
 20
-88.86899411840776
 30
0.0
 10
76.66095375687644
 20
-88.09040253874129
 30
0.0
 10
76.66095375687644
 20
-88.09040253874129
 30
0.0
 10
76.66095375687644
 20
-88.09040253874129
 30
0.0
 10
76.86628144779732
 20
-88.09040253874129
 30
0.0
 10
76.86628144779732
 20
-88.09040253874129
 30
0.0
 10
76.86628144779732
 20
-88.09040253874129
 30
0.0
 10
76.86628144779732
 20
-89.11841903153984
 30
0.0
 10
76.86628144779732
 20
-89.11841903153984
 30
0.0
 10
76.50868053642839
 20
-89.08672415307555
 30
0.0
 10
76.43047686891322
 20
-89.0212673388558
 30
0.0
 10
76.13213159989058
 20
-88.63610566360487
 30
0.0
 10
75.93334959039167
 20
-88.38013506905081
 30
0.0
 10
75.86548120933224
 20
-88.31467825483105
 30
0.0
 10
75.72802189947078
 20
-88.31467825483105
 30
0.0
 10
75.60951061477819
 20
-88.31467825483105
 30
0.0
 10
75.47859698633869
 20
-88.38668075047278
 30
0.0
 10
75.47859698633869
 20
-88.58339570268055
 30
0.0
 10
75.47859698633869
 20
-88.8435004118169
 30
0.0
 10
75.70907387430191
 20
-88.8517686409815
 30
0.0
 10
75.82551810170335
 20
-88.85624726511233
 30
0.0
 10
75.82551810170335
 20
-88.85624726511233
 30
0.0
 10
75.82551810170335
 20
-89.0805229812021
 30
0.0
 10
75.82551810170335
 20
-89.0805229812021
 30
0.0
 10
75.69839407829762
 20
-89.07191024248897
 30
0.0
 10
75.586428475027
 20
-89.0612304464847
 30
0.0
 10
75.46791719033442
 20
-88.98095972167837
 30
0.0
 10
75.30703123117324
 20
-88.87106117569891
 30
0.0
 10
75.27326929541779
 20
-88.68468150994688
 30
0.0
 10
75.27326929541779
 20
-88.56858179209397
 30
0.0
 10
75.27326929541779
 20
-88.29125160553136
 30
0.0
 10
75.45723739433014
 20
-88.08385685731932
 30
0.0
 10
75.73008895676193
 20
-88.08385685731932
 30
0.0
 10
75.95884329698251
 20
-88.08385685731932
 30
0.0
 10
76.05806204695772
 20
-88.20030108472076
 30
0.0
 10
76.28440482033862
 20
-88.50932614974768
 30
0.0
  0
HATCH
  5
AD
330
9C
100
AcDbEntity
  8
_U+30EC_U+30A4_U+30E4_U+30FC 1
 62
   179
420
  2234388
100
AcDbHatch
 10
0.0
 20
0.0
 30
0.0
210
0.0
220
0.0
230
1.0
  2
SOLID
 70
     1
 71
     0
 91
        1
 92
        1
 93
        1
 72
     4
 94
        3
 73
     0
 74
     1
 95
       44
 96
       40
 40
0.0
 40
0.0
 40
0.0
 40
0.0
 40
1.0
 40
1.0
 40
1.0
 40
2.0
 40
2.0
 40
2.0
 40
3.0
 40
3.0
 40
3.0
 40
4.0
 40
4.0
 40
4.0
 40
5.0
 40
5.0
 40
5.0
 40
6.0
 40
6.0
 40
6.0
 40
7.0
 40
7.0
 40
7.0
 40
8.0
 40
8.0
 40
8.0
 40
9.0
 40
9.0
 40
9.0
 40
10.0
 40
10.0
 40
10.0
 40
11.0
 40
11.0
 40
11.0
 40
12.0
 40
12.0
 40
12.0
 40
13.0
 40
13.0
 40
13.0
 40
13.0
 10
76.28440482033862
 20
-88.50932614974768
 10
76.44322372220864
 20
-88.72705618441546
 10
76.51729327514151
 20
-88.82007376251721
 10
76.66095375687644
 20
-88.86899411840776
 10
76.66095375687644
 20
-88.86899411840776
 10
76.66095375687644
 20
-88.09040253874129
 10
76.66095375687644
 20
-88.09040253874129
 10
76.66095375687644
 20
-88.09040253874129
 10
76.86628144779732
 20
-88.09040253874129
 10
76.86628144779732
 20
-88.09040253874129
 10
76.86628144779732
 20
-88.09040253874129
 10
76.86628144779732
 20
-89.11841903153984
 10
76.86628144779732
 20
-89.11841903153984
 10
76.50868053642839
 20
-89.08672415307555
 10
76.43047686891322
 20
-89.0212673388558
 10
76.13213159989058
 20
-88.63610566360487
 10
75.93334959039167
 20
-88.38013506905081
 10
75.86548120933224
 20
-88.31467825483105
 10
75.72802189947078
 20
-88.31467825483105
 10
75.60951061477819
 20
-88.31467825483105
 10
75.47859698633869
 20
-88.38668075047278
 10
75.47859698633869
 20
-88.58339570268055
 10
75.47859698633869
 20
-88.8435004118169
 10
75.70907387430191
 20
-88.8517686409815
 10
75.82551810170335
 20
-88.85624726511233
 10
75.82551810170335
 20
-88.85624726511233
 10
75.82551810170335
 20
-89.0805229812021
 10
75.82551810170335
 20
-89.0805229812021
 10
75.69839407829762
 20
-89.07191024248897
 10
75.586428475027
 20
-89.0612304464847
 10
75.46791719033442
 20
-88.98095972167837
 10
75.30703123117324
 20
-88.87106117569891
 10
75.27326929541779
 20
-88.68468150994688
 10
75.27326929541779
 20
-88.56858179209397
 10
75.27326929541779
 20
-88.29125160553136
 10
75.45723739433014
 20
-88.08385685731932
 10
75.73008895676193
 20
-88.08385685731932
 10
75.95884329698251
 20
-88.08385685731932
 10
76.05806204695772
 20
-88.20030108472076
 10
76.28440482033862
 20
-88.50932614974768
 97
        0
 97
        0
 75
     2
 76
     1
 98
        0
  0
ENDBLK
  5
9F
330
9C
100
AcDbEntity
  8
0
100
AcDbBlockEnd
  0
BLOCK
  5
BE
330
BC
100
AcDbEntity
  8
0
100
AcDbBlockBegin
  2
block 6
 70
     0
 10
0.0
 20
0.0
 30
0.0
  3
block 6
  1

  0
SPLINE
  5
C0
330
BC
100
AcDbEntity
  8
_U+30EC_U+30A4_U+30E4_U+30FC 1
370
     0
100
AcDbSpline
210
0.0
220
0.0
230
1.0
 70
    11
 71
     3
 72
    44
 73
    40
 74
     0
 42
0.0000000001
 43
0.0000000001
 12
1.0
 22
0.0
 32
0.0
 13
1.0
 23
0.0
 33
0.0
 40
0.0
 40
0.0
 40
0.0
 40
0.0
 40
1.0
 40
1.0
 40
1.0
 40
2.0
 40
2.0
 40
2.0
 40
3.0
 40
3.0
 40
3.0
 40
4.0
 40
4.0
 40
4.0
 40
5.0
 40
5.0
 40
5.0
 40
6.0
 40
6.0
 40
6.0
 40
7.0
 40
7.0
 40
7.0
 40
8.0
 40
8.0
 40
8.0
 40
9.0
 40
9.0
 40
9.0
 40
10.0
 40
10.0
 40
10.0
 40
11.0
 40
11.0
 40
11.0
 40
12.0
 40
12.0
 40
12.0
 40
13.0
 40
13.0
 40
13.0
 40
13.0
 10
60.51758082254422
 20
-76.2771701198196
 30
0.0
 10
60.29985078787643
 20
-76.43598902168962
 30
0.0
 10
60.20683320977469
 20
-76.51005857462249
 30
0.0
 10
60.15791285388413
 20
-76.6537190563574
 30
0.0
 10
60.15791285388413
 20
-76.6537190563574
 30
0.0
 10
60.9365044335506
 20
-76.6537190563574
 30
0.0
 10
60.9365044335506
 20
-76.6537190563574
 30
0.0
 10
60.9365044335506
 20
-76.6537190563574
 30
0.0
 10
60.9365044335506
 20
-76.8590467472783
 30
0.0
 10
60.9365044335506
 20
-76.8590467472783
 30
0.0
 10
60.9365044335506
 20
-76.8590467472783
 30
0.0
 10
59.90848794075205
 20
-76.8590467472783
 30
0.0
 10
59.90848794075205
 20
-76.8590467472783
 30
0.0
 10
59.94018281921635
 20
-76.50144583590937
 30
0.0
 10
60.00563963343609
 20
-76.4232421683942
 30
0.0
 10
60.39080130868702
 20
-76.12489689937156
 30
0.0
 10
60.64677190324109
 20
-75.92611488987264
 30
0.0
 10
60.71222871746083
 20
-75.85824650881322
 30
0.0
 10
60.71222871746083
 20
-75.72078719895175
 30
0.0
 10
60.71222871746083
 20
-75.60227591425915
 30
0.0
 10
60.64022622181911
 20
-75.47136228581967
 30
0.0
 10
60.44351126961135
 20
-75.47136228581967
 30
0.0
 10
60.18340656047499
 20
-75.47136228581967
 30
0.0
 10
60.17479382176186
 20
-75.70183917378287
 30
0.0
 10
60.17065970717956
 20
-75.81828340118432
 30
0.0
 10
60.17065970717956
 20
-75.81828340118432
 30
0.0
 10
59.9463839910898
 20
-75.81828340118432
 30
0.0
 10
59.9463839910898
 20
-75.81828340118432
 30
0.0
 10
59.95499672980292
 20
-75.6911593777786
 30
0.0
 10
59.9656765258072
 20
-75.57919377450798
 30
0.0
 10
60.04594725061352
 20
-75.46068248981538
 30
0.0
 10
60.15584579659298
 20
-75.29979653065422
 30
0.0
 10
60.342225462345
 20
-75.26603459489877
 30
0.0
 10
60.45832518019792
 20
-75.26603459489877
 30
0.0
 10
60.73565536676053
 20
-75.26603459489877
 30
0.0
 10
60.94305011497257
 20
-75.45000269381111
 30
0.0
 10
60.94305011497257
 20
-75.7228542562429
 30
0.0
 10
60.94305011497257
 20
-75.95160859646349
 30
0.0
 10
60.82660588757113
 20
-76.05082734643868
 30
0.0
 10
60.51758082254422
 20
-76.2771701198196
 30
0.0
  0
HATCH
  5
C1
330
BC
100
AcDbEntity
  8
_U+30EC_U+30A4_U+30E4_U+30FC 1
 62
   179
420
  2234388
100
AcDbHatch
 10
0.0
 20
0.0
 30
0.0
210
0.0
220
0.0
230
1.0
  2
SOLID
 70
     1
 71
     0
 91
        1
 92
        1
 93
        1
 72
     4
 94
        3
 73
     0
 74
     1
 95
       44
 96
       40
 40
0.0
 40
0.0
 40
0.0
 40
0.0
 40
1.0
 40
1.0
 40
1.0
 40
2.0
 40
2.0
 40
2.0
 40
3.0
 40
3.0
 40
3.0
 40
4.0
 40
4.0
 40
4.0
 40
5.0
 40
5.0
 40
5.0
 40
6.0
 40
6.0
 40
6.0
 40
7.0
 40
7.0
 40
7.0
 40
8.0
 40
8.0
 40
8.0
 40
9.0
 40
9.0
 40
9.0
 40
10.0
 40
10.0
 40
10.0
 40
11.0
 40
11.0
 40
11.0
 40
12.0
 40
12.0
 40
12.0
 40
13.0
 40
13.0
 40
13.0
 40
13.0
 10
60.51758082254422
 20
-76.2771701198196
 10
60.29985078787643
 20
-76.43598902168962
 10
60.20683320977469
 20
-76.51005857462249
 10
60.15791285388413
 20
-76.6537190563574
 10
60.15791285388413
 20
-76.6537190563574
 10
60.9365044335506
 20
-76.6537190563574
 10
60.9365044335506
 20
-76.6537190563574
 10
60.9365044335506
 20
-76.6537190563574
 10
60.9365044335506
 20
-76.8590467472783
 10
60.9365044335506
 20
-76.8590467472783
 10
60.9365044335506
 20
-76.8590467472783
 10
59.90848794075205
 20
-76.8590467472783
 10
59.90848794075205
 20
-76.8590467472783
 10
59.94018281921635
 20
-76.50144583590937
 10
60.00563963343609
 20
-76.4232421683942
 10
60.39080130868702
 20
-76.12489689937156
 10
60.64677190324109
 20
-75.92611488987264
 10
60.71222871746083
 20
-75.85824650881322
 10
60.71222871746083
 20
-75.72078719895175
 10
60.71222871746083
 20
-75.60227591425915
 10
60.64022622181911
 20
-75.47136228581967
 10
60.44351126961135
 20
-75.47136228581967
 10
60.18340656047499
 20
-75.47136228581967
 10
60.17479382176186
 20
-75.70183917378287
 10
60.17065970717956
 20
-75.81828340118432
 10
60.17065970717956
 20
-75.81828340118432
 10
59.9463839910898
 20
-75.81828340118432
 10
59.9463839910898
 20
-75.81828340118432
 10
59.95499672980292
 20
-75.6911593777786
 10
59.9656765258072
 20
-75.57919377450798
 10
60.04594725061352
 20
-75.46068248981538
 10
60.15584579659298
 20
-75.29979653065422
 10
60.342225462345
 20
-75.26603459489877
 10
60.45832518019792
 20
-75.26603459489877
 10
60.73565536676053
 20
-75.26603459489877
 10
60.94305011497257
 20
-75.45000269381111
 10
60.94305011497257
 20
-75.7228542562429
 10
60.94305011497257
 20
-75.95160859646349
 10
60.82660588757113
 20
-76.05082734643868
 10
60.51758082254422
 20
-76.2771701198196
 97
        0
 97
        0
 75
     2
 76
     1
 98
        0
  0
SPLINE
  5
C2
330
BC
100
AcDbEntity
  8
_U+30EC_U+30A4_U+30E4_U+30FC 1
370
     0
100
AcDbSpline
210
0.0
220
0.0
230
1.0
 70
    11
 71
     3
 72
    53
 73
    49
 74
     0
 42
0.0000000001
 43
0.0000000001
 12
1.0
 22
0.0
 32
0.0
 13
1.0
 23
0.0
 33
0.0
 40
0.0
 40
0.0
 40
0.0
 40
0.0
 40
1.0
 40
1.0
 40
1.0
 40
2.0
 40
2.0
 40
2.0
 40
3.0
 40
3.0
 40
3.0
 40
4.0
 40
4.0
 40
4.0
 40
5.0
 40
5.0
 40
5.0
 40
6.0
 40
6.0
 40
6.0
 40
7.0
 40
7.0
 40
7.0
 40
8.0
 40
8.0
 40
8.0
 40
9.0
 40
9.0
 40
9.0
 40
10.0
 40
10.0
 40
10.0
 40
11.0
 40
11.0
 40
11.0
 40
12.0
 40
12.0
 40
12.0
 40
13.0
 40
13.0
 40
13.0
 40
14.0
 40
14.0
 40
14.0
 40
15.0
 40
15.0
 40
15.0
 40
16.0
 40
16.0
 40
16.0
 40
16.0
 10
61.58245983703495
 20
-76.90968965091147
 30
0.0
 10
61.50425616951977
 20
-76.90968965091147
 30
0.0
 10
61.4026258527049
 20
-76.89280868303375
 30
0.0
 10
61.30099553589003
 20
-76.82941892610515
 30
0.0
 10
61.12770723298196
 20
-76.71952038012567
 30
0.0
 10
61.10634764097342
 20
-76.58826224213766
 30
0.0
 10
61.08739961580454
 20
-76.48043075344934
 30
0.0
 10
61.08739961580454
 20
-76.48043075344934
 30
0.0
 10
61.30960827460316
 20
-76.48043075344934
 30
0.0
 10
61.30960827460316
 20
-76.48043075344934
 30
0.0
 10
61.36438529281863
 20
-76.67921276294825
 30
0.0
 10
61.49150931622435
 20
-76.7088405841214
 30
0.0
 10
61.5845268943261
 20
-76.7088405841214
 30
0.0
 10
61.72405326147871
 20
-76.7088405841214
 30
0.0
 10
61.87632648192675
 20
-76.60927732459768
 30
0.0
 10
61.87632648192675
 20
-76.37673337934332
 30
0.0
 10
61.87632648192675
 20
-76.12076278478926
 30
0.0
 10
61.69649249759672
 20
-76.05082734643868
 30
0.0
 10
61.57591415561297
 20
-76.05082734643868
 30
0.0
 10
61.54421927714867
 20
-76.05082734643868
 30
0.0
 10
61.4026258527049
 20
-76.05082734643868
 30
0.0
 10
61.31374238918546
 20
-76.18001842713555
 30
0.0
 10
61.31374238918546
 20
-76.18001842713555
 30
0.0
 10
61.13804251943771
 20
-76.16107040196668
 30
0.0
 10
61.13804251943771
 20
-76.16107040196668
 30
0.0
 10
61.13804251943771
 20
-76.16107040196668
 30
0.0
 10
61.25862086142146
 20
-75.3146104412408
 30
0.0
 10
61.25862086142146
 20
-75.3146104412408
 30
0.0
 10
61.25862086142146
 20
-75.3146104412408
 30
0.0
 10
62.03721244108792
 20
-75.3146104412408
 30
0.0
 10
62.03721244108792
 20
-75.3146104412408
 30
0.0
 10
62.03721244108792
 20
-75.3146104412408
 30
0.0
 10
62.03721244108792
 20
-75.50925833615742
 30
0.0
 10
62.03721244108792
 20
-75.50925833615742
 30
0.0
 10
62.03721244108792
 20
-75.50925833615742
 30
0.0
 10
61.42157387787378
 20
-75.50925833615742
 30
0.0
 10
61.42157387787378
 20
-75.50925833615742
 30
0.0
 10
61.42157387787378
 20
-75.50925833615742
 30
0.0
 10
61.35611706365403
 20
-75.93231606174609
 30
0.0
 10
61.35611706365403
 20
-75.93231606174609
 30
0.0
 10
61.41743976329148
 20
-75.89855412599064
 30
0.0
 10
61.49977754538894
 20
-75.85824650881322
 30
0.0
 10
61.61828883008154
 20
-75.85824650881322
 30
0.0
 10
61.87219236734445
 20
-75.85824650881322
 30
0.0
 10
62.10921493672964
 20
-76.04462617456524
 30
0.0
 10
62.10921493672964
 20
-76.35778535417445
 30
0.0
 10
62.10921493672964
 20
-76.67507864836595
 30
0.0
 10
61.88493922063988
 20
-76.90968965091147
 30
0.0
 10
61.58245983703495
 20
-76.90968965091147
 30
0.0
  0
HATCH
  5
C3
330
BC
100
AcDbEntity
  8
_U+30EC_U+30A4_U+30E4_U+30FC 1
 62
   179
420
  2234388
100
AcDbHatch
 10
0.0
 20
0.0
 30
0.0
210
0.0
220
0.0
230
1.0
  2
SOLID
 70
     1
 71
     0
 91
        1
 92
        1
 93
        1
 72
     4
 94
        3
 73
     0
 74
     1
 95
       53
 96
       49
 40
0.0
 40
0.0
 40
0.0
 40
0.0
 40
1.0
 40
1.0
 40
1.0
 40
2.0
 40
2.0
 40
2.0
 40
3.0
 40
3.0
 40
3.0
 40
4.0
 40
4.0
 40
4.0
 40
5.0
 40
5.0
 40
5.0
 40
6.0
 40
6.0
 40
6.0
 40
7.0
 40
7.0
 40
7.0
 40
8.0
 40
8.0
 40
8.0
 40
9.0
 40
9.0
 40
9.0
 40
10.0
 40
10.0
 40
10.0
 40
11.0
 40
11.0
 40
11.0
 40
12.0
 40
12.0
 40
12.0
 40
13.0
 40
13.0
 40
13.0
 40
14.0
 40
14.0
 40
14.0
 40
15.0
 40
15.0
 40
15.0
 40
16.0
 40
16.0
 40
16.0
 40
16.0
 10
61.58245983703495
 20
-76.90968965091147
 10
61.50425616951977
 20
-76.90968965091147
 10
61.4026258527049
 20
-76.89280868303375
 10
61.30099553589003
 20
-76.82941892610515
 10
61.12770723298196
 20
-76.71952038012567
 10
61.10634764097342
 20
-76.58826224213766
 10
61.08739961580454
 20
-76.48043075344934
 10
61.08739961580454
 20
-76.48043075344934
 10
61.30960827460316
 20
-76.48043075344934
 10
61.30960827460316
 20
-76.48043075344934
 10
61.36438529281863
 20
-76.67921276294825
 10
61.49150931622435
 20
-76.7088405841214
 10
61.5845268943261
 20
-76.7088405841214
 10
61.72405326147871
 20
-76.7088405841214
 10
61.87632648192675
 20
-76.60927732459768
 10
61.87632648192675
 20
-76.37673337934332
 10
61.87632648192675
 20
-76.12076278478926
 10
61.69649249759672
 20
-76.05082734643868
 10
61.57591415561297
 20
-76.05082734643868
 10
61.54421927714867
 20
-76.05082734643868
 10
61.4026258527049
 20
-76.05082734643868
 10
61.31374238918546
 20
-76.18001842713555
 10
61.31374238918546
 20
-76.18001842713555
 10
61.13804251943771
 20
-76.16107040196668
 10
61.13804251943771
 20
-76.16107040196668
 10
61.13804251943771
 20
-76.16107040196668
 10
61.25862086142146
 20
-75.3146104412408
 10
61.25862086142146
 20
-75.3146104412408
 10
61.25862086142146
 20
-75.3146104412408
 10
62.03721244108792
 20
-75.3146104412408
 10
62.03721244108792
 20
-75.3146104412408
 10
62.03721244108792
 20
-75.3146104412408
 10
62.03721244108792
 20
-75.50925833615742
 10
62.03721244108792
 20
-75.50925833615742
 10
62.03721244108792
 20
-75.50925833615742
 10
61.42157387787378
 20
-75.50925833615742
 10
61.42157387787378
 20
-75.50925833615742
 10
61.42157387787378
 20
-75.50925833615742
 10
61.35611706365403
 20
-75.93231606174609
 10
61.35611706365403
 20
-75.93231606174609
 10
61.41743976329148
 20
-75.89855412599064
 10
61.49977754538894
 20
-75.85824650881322
 10
61.61828883008154
 20
-75.85824650881322
 10
61.87219236734445
 20
-75.85824650881322
 10
62.10921493672964
 20
-76.04462617456524
 10
62.10921493672964
 20
-76.35778535417445
 10
62.10921493672964
 20
-76.67507864836595
 10
61.88493922063988
 20
-76.90968965091147
 10
61.58245983703495
 20
-76.90968965091147
 97
        0
 97
        0
 75
     2
 76
     1
 98
        0
  0
ENDBLK
  5
BF
330
BC
100
AcDbEntity
  8
0
100
AcDbBlockEnd
  0
ENDSEC
  0
SECTION
  2
ENTITIES
  0
POLYLINE
  5
41
330
1F
100
AcDbEntity
  8
_U+30EC_U+30A4_U+30E4_U+30FC 1
 62
   179
420
  2234388
370
    25
100
AcDb2dPolyline
 66
     1
 10
0.0
 20
0.0
 30
0.0
  0
VERTEX
  5
42
330
41
100
AcDbEntity
  8
_U+30EC_U+30A4_U+30E4_U+30FC 1
 62
   179
420
  2234388
370
    25
100
AcDbVertex
100
AcDb2dVertex
 10
58.56128600597712
 20
-98.63652553089626
 30
0.0
  0
VERTEX
  5
43
330
41
100
AcDbEntity
  8
_U+30EC_U+30A4_U+30E4_U+30FC 1
 62
   179
420
  2234388
370
    25
100
AcDbVertex
100
AcDb2dVertex
 10
58.56128600597712
 20
-82.43665247939097
 30
0.0
  0
VERTEX
  5
44
330
41
100
AcDbEntity
  8
_U+30EC_U+30A4_U+30E4_U+30FC 1
 62
   179
420
  2234388
370
    25
100
AcDbVertex
100
AcDb2dVertex
 10
48.56155320553601
 20
-82.43665247939097
 30
0.0
  0
VERTEX
  5
45
330
41
100
AcDbEntity
  8
_U+30EC_U+30A4_U+30E4_U+30FC 1
 62
   179
420
  2234388
370
    25
100
AcDbVertex
100
AcDb2dVertex
 10
48.56155320553601
 20
-81.43688025741844
 30
0.0
  0
VERTEX
  5
46
330
41
100
AcDbEntity
  8
_U+30EC_U+30A4_U+30E4_U+30FC 1
 62
   179
420
  2234388
370
    25
100
AcDbVertex
100
AcDb2dVertex
 10
73.56104395663475
 20
-81.43688025741844
 30
0.0
  0
VERTEX
  5
47
330
41
100
AcDbEntity
  8
_U+30EC_U+30A4_U+30E4_U+30FC 1
 62
   179
420
  2234388
370
    25
100
AcDbVertex
100
AcDb2dVertex
 10
73.56104395663475
 20
-82.43665247939097
 30
0.0
  0
VERTEX
  5
48
330
41
100
AcDbEntity
  8
_U+30EC_U+30A4_U+30E4_U+30FC 1
 62
   179
420
  2234388
370
    25
100
AcDbVertex
100
AcDb2dVertex
 10
59.56105820269303
 20
-82.43665247939097
 30
0.0
  0
VERTEX
  5
49
330
41
100
AcDbEntity
  8
_U+30EC_U+30A4_U+30E4_U+30FC 1
 62
   179
420
  2234388
370
    25
100
AcDbVertex
100
AcDb2dVertex
 10
59.56105820269303
 20
-97.63675330892437
 30
0.0
  0
VERTEX
  5
4A
330
41
100
AcDbEntity
  8
_U+30EC_U+30A4_U+30E4_U+30FC 1
 62
   179
420
  2234388
370
    25
100
AcDbVertex
100
AcDb2dVertex
 10
62.56139784837021
 20
-97.63675330892437
 30
0.0
  0
VERTEX
  5
4B
330
41
100
AcDbEntity
  8
_U+30EC_U+30A4_U+30E4_U+30FC 1
 62
   179
420
  2234388
370
    25
100
AcDbVertex
100
AcDb2dVertex
 10
62.56139784837021
 20
-98.63652553089626
 30
0.0
  0
VERTEX
  5
4C
330
41
100
AcDbEntity
  8
_U+30EC_U+30A4_U+30E4_U+30FC 1
 62
   179
420
  2234388
370
    25
100
AcDbVertex
100
AcDb2dVertex
 10
58.56128600597712
 20
-98.63652553089626
 30
0.0
  0
SEQEND
  5
4D
330
41
100
AcDbEntity
  8
_U+30EC_U+30A4_U+30E4_U+30FC 1
 62
   179
420
  2234388
370
    25
  0
SPLINE
  5
4E
330
1F
100
AcDbEntity
  8
_U+30EC_U+30A4_U+30E4_U+30FC 1
 62
   179
420
  2234388
370
     9
100
AcDbSpline
210
0.0
220
0.0
230
1.0
 70
    11
 71
     3
 72
    17
 73
    13
 74
     0
 42
0.0000000001
 43
0.0000000001
 12
1.0
 22
0.0
 32
0.0
 13
1.0
 23
0.0
 33
0.0
 40
0.0
 40
0.0
 40
0.0
 40
0.0
 40
1.0
 40
1.0
 40
1.0
 40
2.0
 40
2.0
 40
2.0
 40
3.0
 40
3.0
 40
3.0
 40
4.0
 40
4.0
 40
4.0
 40
4.0
 10
48.66213014741452
 20
-102.0402666411565
 30
0.0
 10
48.66213014741452
 20
-101.9851627522815
 30
0.0
 10
48.61736387673459
 20
-101.9403599745148
 30
0.0
 10
48.56155320553601
 20
-101.9403599745148
 30
0.0
 10
48.50641404027606
 20
-101.9403599745148
 30
0.0
 10
48.46164654141817
 20
-101.9851627522815
 30
0.0
 10
48.46164654141817
 20
-102.0402666411565
 30
0.0
 10
48.46164654141817
 20
-102.0954058078095
 30
0.0
 10
48.50641404027606
 20
-102.1402085855763
 30
0.0
 10
48.56155320553601
 20
-102.1402085855763
 30
0.0
 10
48.61736387673459
 20
-102.1402085855763
 30
0.0
 10
48.66213014741452
 20
-102.0954058078095
 30
0.0
 10
48.66213014741452
 20
-102.0402666411565
 30
0.0
  0
POLYLINE
  5
4F
330
1F
100
AcDbEntity
  8
_U+30EC_U+30A4_U+30E4_U+30FC 1
 62
   179
420
  2234388
370
     9
100
AcDb2dPolyline
 66
     1
 10
0.0
 20
0.0
 30
0.0
  0
VERTEX
  5
50
330
4F
100
AcDbEntity
  8
_U+30EC_U+30A4_U+30E4_U+30FC 1
 62
   179
420
  2234388
370
     9
100
AcDbVertex
100
AcDb2dVertex
 10
48.56155320553601
 20
-102.0402666411565
 30
0.0
  0
VERTEX
  5
51
330
4F
100
AcDbEntity
  8
_U+30EC_U+30A4_U+30E4_U+30FC 1
 62
   179
420
  2234388
370
     9
100
AcDbVertex
100
AcDb2dVertex
 10
62.5620681261309
 20
-102.0402666411565
 30
0.0
  0
SEQEND
  5
52
330
4F
100
AcDbEntity
  8
_U+30EC_U+30A4_U+30E4_U+30FC 1
 62
   179
420
  2234388
370
     9
  0
POLYLINE
  5
53
330
1F
100
AcDbEntity
  8
_U+30EC_U+30A4_U+30E4_U+30FC 1
 62
   179
420
  2234388
370
     9
100
AcDb2dPolyline
 66
     1
 10
0.0
 20
0.0
 30
0.0
  0
VERTEX
  5
54
330
53
100
AcDbEntity
  8
_U+30EC_U+30A4_U+30E4_U+30FC 1
 62
   179
420
  2234388
370
     9
100
AcDbVertex
100
AcDb2dVertex
 10
48.56155320553601
 20
-85.18687275648091
 30
0.0
  0
VERTEX
  5
55
330
53
100
AcDbEntity
  8
_U+30EC_U+30A4_U+30E4_U+30FC 1
 62
   179
420
  2234388
370
     9
100
AcDbVertex
100
AcDb2dVertex
 10
48.56155320553601
 20
-103.0407444186845
 30
0.0
  0
SEQEND
  5
56
330
53
100
AcDbEntity
  8
_U+30EC_U+30A4_U+30E4_U+30FC 1
 62
   179
420
  2234388
370
     9
  0
SPLINE
  5
57
330
1F
100
AcDbEntity
  8
_U+30EC_U+30A4_U+30E4_U+30FC 1
 62
   179
420
  2234388
370
     9
100
AcDbSpline
210
0.0
220
0.0
230
1.0
 70
    11
 71
     3
 72
    17
 73
    13
 74
     0
 42
0.0000000001
 43
0.0000000001
 12
1.0
 22
0.0
 32
0.0
 13
1.0
 23
0.0
 33
0.0
 40
0.0
 40
0.0
 40
0.0
 40
0.0
 40
1.0
 40
1.0
 40
1.0
 40
2.0
 40
2.0
 40
2.0
 40
3.0
 40
3.0
 40
3.0
 40
4.0
 40
4.0
 40
4.0
 40
4.0
 10
62.66268034578628
 20
-102.0402666411565
 30
0.0
 10
62.66268034578628
 20
-101.9851627522815
 30
0.0
 10
62.61787756915152
 20
-101.9403599745148
 30
0.0
 10
62.5620681261309
 20
-101.9403599745148
 30
0.0
 10
62.50696423864782
 20
-101.9403599745148
 30
0.0
 10
62.46216146201306
 20
-101.9851627522815
 30
0.0
 10
62.46216146201306
 20
-102.0402666411565
 30
0.0
 10
62.46216146201306
 20
-102.0954058078095
 30
0.0
 10
62.50696423864782
 20
-102.1402085855763
 30
0.0
 10
62.5620681261309
 20
-102.1402085855763
 30
0.0
 10
62.61787756915152
 20
-102.1402085855763
 30
0.0
 10
62.66268034578628
 20
-102.0954058078095
 30
0.0
 10
62.66268034578628
 20
-102.0402666411565
 30
0.0
  0
POLYLINE
  5
58
330
1F
100
AcDbEntity
  8
_U+30EC_U+30A4_U+30E4_U+30FC 1
 62
   179
420
  2234388
370
     9
100
AcDb2dPolyline
 66
     1
 10
0.0
 20
0.0
 30
0.0
  0
VERTEX
  5
59
330
58
100
AcDbEntity
  8
_U+30EC_U+30A4_U+30E4_U+30FC 1
 62
   179
420
  2234388
370
     9
100
AcDbVertex
100
AcDb2dVertex
 10
62.5620681261309
 20
-100.1764710860669
 30
0.0
  0
VERTEX
  5
5A
330
58
100
AcDbEntity
  8
_U+30EC_U+30A4_U+30E4_U+30FC 1
 62
   179
420
  2234388
370
     9
100
AcDbVertex
100
AcDb2dVertex
 10
62.5620681261309
 20
-103.0407444186845
 30
0.0
  0
SEQEND
  5
5B
330
58
100
AcDbEntity
  8
_U+30EC_U+30A4_U+30E4_U+30FC 1
 62
   179
420
  2234388
370
     9
  0
SPLINE
  5
5C
330
1F
100
AcDbEntity
  8
_U+30EC_U+30A4_U+30E4_U+30FC 1
 62
   179
420
  2234388
370
     9
100
AcDbSpline
210
0.0
220
0.0
230
1.0
 70
    11
 71
     3
 72
    17
 73
    13
 74
     0
 42
0.0000000001
 43
0.0000000001
 12
1.0
 22
0.0
 32
0.0
 13
1.0
 23
0.0
 33
0.0
 40
0.0
 40
0.0
 40
0.0
 40
0.0
 40
1.0
 40
1.0
 40
1.0
 40
2.0
 40
2.0
 40
2.0
 40
3.0
 40
3.0
 40
3.0
 40
4.0
 40
4.0
 40
4.0
 40
4.0
 10
58.66186294785564
 20
-102.0402666411565
 30
0.0
 10
58.66186294785564
 20
-101.9851627522815
 30
0.0
 10
58.61709544899775
 20
-101.9403599745148
 30
0.0
 10
58.56128600597712
 20
-101.9403599745148
 30
0.0
 10
58.50614684071718
 20
-101.9403599745148
 30
0.0
 10
58.46137934185929
 20
-101.9851627522815
 30
0.0
 10
58.46137934185929
 20
-102.0402666411565
 30
0.0
 10
58.46137934185929
 20
-102.0954058078095
 30
0.0
 10
58.50614684071718
 20
-102.1402085855763
 30
0.0
 10
58.56128600597712
 20
-102.1402085855763
 30
0.0
 10
58.61709544899775
 20
-102.1402085855763
 30
0.0
 10
58.66186294785564
 20
-102.0954058078095
 30
0.0
 10
58.66186294785564
 20
-102.0402666411565
 30
0.0
  0
POLYLINE
  5
5D
330
1F
100
AcDbEntity
  8
_U+30EC_U+30A4_U+30E4_U+30FC 1
 62
   179
420
  2234388
370
     9
100
AcDb2dPolyline
 66
     1
 10
0.0
 20
0.0
 30
0.0
  0
VERTEX
  5
5E
330
5D
100
AcDbEntity
  8
_U+30EC_U+30A4_U+30E4_U+30FC 1
 62
   179
420
  2234388
370
     9
100
AcDbVertex
100
AcDb2dVertex
 10
58.56128600597712
 20
-100.1764710860669
 30
0.0
  0
VERTEX
  5
5F
330
5D
100
AcDbEntity
  8
_U+30EC_U+30A4_U+30E4_U+30FC 1
 62
   179
420
  2234388
370
     9
100
AcDbVertex
100
AcDb2dVertex
 10
58.56128600597712
 20
-103.0407444186845
 30
0.0
  0
SEQEND
  5
60
330
5D
100
AcDbEntity
  8
_U+30EC_U+30A4_U+30E4_U+30FC 1
 62
   179
420
  2234388
370
     9
  0
INSERT
  5
62
330
1F
100
AcDbEntity
  8
_U+30EC_U+30A4_U+30E4_U+30FC 1
100
AcDbBlockReference
  2
block 2
 10
0.0
 20
0.0
 30
0.0
  0
INSERT
  5
6B
330
1F
100
AcDbEntity
  8
_U+30EC_U+30A4_U+30E4_U+30FC 1
100
AcDbBlockReference
  2
block 3
 10
0.0
 20
0.0
 30
0.0
  0
SPLINE
  5
83
330
1F
100
AcDbEntity
  8
_U+30EC_U+30A4_U+30E4_U+30FC 1
 62
   179
420
  2234388
370
     9
100
AcDbSpline
210
0.0
220
0.0
230
1.0
 70
    11
 71
     3
 72
    17
 73
    13
 74
     0
 42
0.0000000001
 43
0.0000000001
 12
1.0
 22
0.0
 32
0.0
 13
1.0
 23
0.0
 33
0.0
 40
0.0
 40
0.0
 40
0.0
 40
0.0
 40
1.0
 40
1.0
 40
1.0
 40
2.0
 40
2.0
 40
2.0
 40
3.0
 40
3.0
 40
3.0
 40
4.0
 40
4.0
 40
4.0
 40
4.0
 10
77.46089635714122
 20
-97.63675330892437
 30
0.0
 10
77.46089635714122
 20
-97.69189247557681
 30
0.0
 10
77.50569913377599
 20
-97.73665997556601
 30
0.0
 10
77.56080302125906
 20
-97.73665997556601
 30
0.0
 10
77.615942186519
 20
-97.73665997556601
 30
0.0
 10
77.6607096853769
 20
-97.69189247557681
 30
0.0
 10
77.6607096853769
 20
-97.63675330892437
 30
0.0
 10
77.6607096853769
 20
-97.58164942004882
 30
0.0
 10
77.615942186519
 20
-97.53684664228274
 30
0.0
 10
77.56080302125906
 20
-97.53684664228274
 30
0.0
 10
77.50569913377599
 20
-97.53684664228274
 30
0.0
 10
77.46089635714122
 20
-97.58164942004882
 30
0.0
 10
77.46089635714122
 20
-97.63675330892437
 30
0.0
  0
SPLINE
  5
84
330
1F
100
AcDbEntity
  8
_U+30EC_U+30A4_U+30E4_U+30FC 1
 62
   179
420
  2234388
370
     9
100
AcDbSpline
210
0.0
220
0.0
230
1.0
 70
    11
 71
     3
 72
    17
 73
    13
 74
     0
 42
0.0000000001
 43
0.0000000001
 12
1.0
 22
0.0
 32
0.0
 13
1.0
 23
0.0
 33
0.0
 40
0.0
 40
0.0
 40
0.0
 40
0.0
 40
1.0
 40
1.0
 40
1.0
 40
2.0
 40
2.0
 40
2.0
 40
3.0
 40
3.0
 40
3.0
 40
4.0
 40
4.0
 40
4.0
 40
4.0
 10
77.46089635714122
 20
-81.43688025741844
 30
0.0
 10
77.46089635714122
 20
-81.49201942407151
 30
0.0
 10
77.50569913377599
 20
-81.5367869240604
 30
0.0
 10
77.56080302125906
 20
-81.5367869240604
 30
0.0
 10
77.615942186519
 20
-81.5367869240604
 30
0.0
 10
77.6607096853769
 20
-81.49201942407151
 30
0.0
 10
77.6607096853769
 20
-81.43688025741844
 30
0.0
 10
77.6607096853769
 20
-81.381070812988
 30
0.0
 10
77.615942186519
 20
-81.33630331299912
 30
0.0
 10
77.56080302125906
 20
-81.33630331299912
 30
0.0
 10
77.50569913377599
 20
-81.33630331299912
 30
0.0
 10
77.46089635714122
 20
-81.381070812988
 30
0.0
 10
77.46089635714122
 20
-81.43688025741844
 30
0.0
  0
POLYLINE
  5
85
330
1F
100
AcDbEntity
  8
_U+30EC_U+30A4_U+30E4_U+30FC 1
 62
   179
420
  2234388
370
     9
100
AcDb2dPolyline
 66
     1
 10
0.0
 20
0.0
 30
0.0
  0
VERTEX
  5
86
330
85
100
AcDbEntity
  8
_U+30EC_U+30A4_U+30E4_U+30FC 1
 62
   179
420
  2234388
370
     9
100
AcDbVertex
100
AcDb2dVertex
 10
77.56080302125906
 20
-77.66656775836101
 30
0.0
  0
VERTEX
  5
87
330
85
100
AcDbEntity
  8
_U+30EC_U+30A4_U+30E4_U+30FC 1
 62
   179
420
  2234388
370
     9
100
AcDbVertex
100
AcDb2dVertex
 10
77.56080302125906
 20
-97.63675330892437
 30
0.0
  0
SEQEND
  5
88
330
85
100
AcDbEntity
  8
_U+30EC_U+30A4_U+30E4_U+30FC 1
 62
   179
420
  2234388
370
     9
  0
POLYLINE
  5
89
330
1F
100
AcDbEntity
  8
_U+30EC_U+30A4_U+30E4_U+30FC 1
 62
   179
420
  2234388
370
     9
100
AcDb2dPolyline
 66
     1
 10
0.0
 20
0.0
 30
0.0
  0
VERTEX
  5
8A
330
89
100
AcDbEntity
  8
_U+30EC_U+30A4_U+30E4_U+30FC 1
 62
   179
420
  2234388
370
     9
100
AcDbVertex
100
AcDb2dVertex
 10
76.10146722515648
 20
-81.43688025741844
 30
0.0
  0
VERTEX
  5
8B
330
89
100
AcDbEntity
  8
_U+30EC_U+30A4_U+30E4_U+30FC 1
 62
   179
420
  2234388
370
     9
100
AcDbVertex
100
AcDb2dVertex
 10
78.64464216027469
 20
-81.43688025741844
 30
0.0
  0
SEQEND
  5
8C
330
89
100
AcDbEntity
  8
_U+30EC_U+30A4_U+30E4_U+30FC 1
 62
   179
420
  2234388
370
     9
  0
SPLINE
  5
8D
330
1F
100
AcDbEntity
  8
_U+30EC_U+30A4_U+30E4_U+30FC 1
 62
   179
420
  2234388
370
     9
100
AcDbSpline
210
0.0
220
0.0
230
1.0
 70
    11
 71
     3
 72
    17
 73
    13
 74
     0
 42
0.0000000001
 43
0.0000000001
 12
1.0
 22
0.0
 32
0.0
 13
1.0
 23
0.0
 33
0.0
 40
0.0
 40
0.0
 40
0.0
 40
0.0
 40
1.0
 40
1.0
 40
1.0
 40
2.0
 40
2.0
 40
2.0
 40
3.0
 40
3.0
 40
3.0
 40
4.0
 40
4.0
 40
4.0
 40
4.0
 10
77.46089635714122
 20
-82.43665247939097
 30
0.0
 10
77.46089635714122
 20
-82.49179164604374
 30
0.0
 10
77.50569913377599
 20
-82.53655914603262
 30
0.0
 10
77.56080302125906
 20
-82.53655914603262
 30
0.0
 10
77.615942186519
 20
-82.53655914603262
 30
0.0
 10
77.6607096853769
 20
-82.49179164604374
 30
0.0
 10
77.6607096853769
 20
-82.43665247939097
 30
0.0
 10
77.6607096853769
 20
-82.38084303496022
 30
0.0
 10
77.615942186519
 20
-82.33607553497166
 30
0.0
 10
77.56080302125906
 20
-82.33607553497166
 30
0.0
 10
77.50569913377599
 20
-82.33607553497166
 30
0.0
 10
77.46089635714122
 20
-82.38084303496022
 30
0.0
 10
77.46089635714122
 20
-82.43665247939097
 30
0.0
  0
POLYLINE
  5
8E
330
1F
100
AcDbEntity
  8
_U+30EC_U+30A4_U+30E4_U+30FC 1
 62
   179
420
  2234388
370
     9
100
AcDb2dPolyline
 66
     1
 10
0.0
 20
0.0
 30
0.0
  0
VERTEX
  5
8F
330
8E
100
AcDbEntity
  8
_U+30EC_U+30A4_U+30E4_U+30FC 1
 62
   179
420
  2234388
370
     9
100
AcDbVertex
100
AcDb2dVertex
 10
76.10146722515648
 20
-82.43665247939097
 30
0.0
  0
VERTEX
  5
90
330
8E
100
AcDbEntity
  8
_U+30EC_U+30A4_U+30E4_U+30FC 1
 62
   179
420
  2234388
370
     9
100
AcDbVertex
100
AcDb2dVertex
 10
78.64464216027469
 20
-82.43665247939097
 30
0.0
  0
SEQEND
  5
91
330
8E
100
AcDbEntity
  8
_U+30EC_U+30A4_U+30E4_U+30FC 1
 62
   179
420
  2234388
370
     9
  0
POLYLINE
  5
92
330
1F
100
AcDbEntity
  8
_U+30EC_U+30A4_U+30E4_U+30FC 1
 62
   179
420
  2234388
370
     9
100
AcDb2dPolyline
 66
     1
 10
0.0
 20
0.0
 30
0.0
  0
VERTEX
  5
93
330
92
100
AcDbEntity
  8
_U+30EC_U+30A4_U+30E4_U+30FC 1
 62
   179
420
  2234388
370
     9
100
AcDbVertex
100
AcDb2dVertex
 10
65.10196387261314
 20
-97.63675330892437
 30
0.0
  0
VERTEX
  5
94
330
92
100
AcDbEntity
  8
_U+30EC_U+30A4_U+30E4_U+30FC 1
 62
   179
420
  2234388
370
     9
100
AcDbVertex
100
AcDb2dVertex
 10
78.64464216027469
 20
-97.63675330892437
 30
0.0
  0
SEQEND
  5
95
330
92
100
AcDbEntity
  8
_U+30EC_U+30A4_U+30E4_U+30FC 1
 62
   179
420
  2234388
370
     9
  0
INSERT
  5
97
330
1F
100
AcDbEntity
  8
_U+30EC_U+30A4_U+30E4_U+30FC 1
100
AcDbBlockReference
  2
block 4
 10
0.0
 20
0.0
 30
0.0
  0
INSERT
  5
9D
330
1F
100
AcDbEntity
  8
_U+30EC_U+30A4_U+30E4_U+30FC 1
100
AcDbBlockReference
  2
block 5
 10
0.0
 20
0.0
 30
0.0
  0
POLYLINE
  5
AE
330
1F
100
AcDbEntity
  8
_U+30EC_U+30A4_U+30E4_U+30FC 1
 62
   179
420
  2234388
370
     9
100
AcDb2dPolyline
 66
     1
 10
0.0
 20
0.0
 30
0.0
  0
VERTEX
  5
AF
330
AE
100
AcDbEntity
  8
_U+30EC_U+30A4_U+30E4_U+30FC 1
 62
   179
420
  2234388
370
     9
100
AcDbVertex
100
AcDb2dVertex
 10
73.53074034629675
 20
-77.43712109175188
 30
0.0
  0
VERTEX
  5
B0
330
AE
100
AcDbEntity
  8
_U+30EC_U+30A4_U+30E4_U+30FC 1
 62
   179
420
  2234388
370
     9
100
AcDbVertex
100
AcDb2dVertex
 10
48.56155320553601
 20
-77.43712109175188
 30
0.0
  0
SEQEND
  5
B1
330
AE
100
AcDbEntity
  8
_U+30EC_U+30A4_U+30E4_U+30FC 1
 62
   179
420
  2234388
370
     9
  0
SPLINE
  5
B2
330
1F
100
AcDbEntity
  8
_U+30EC_U+30A4_U+30E4_U+30FC 1
 62
   179
420
  2234388
370
     9
100
AcDbSpline
210
0.0
220
0.0
230
1.0
 70
    11
 71
     3
 72
    17
 73
    13
 74
     0
 42
0.0000000001
 43
0.0000000001
 12
1.0
 22
0.0
 32
0.0
 13
1.0
 23
0.0
 33
0.0
 40
0.0
 40
0.0
 40
0.0
 40
0.0
 40
1.0
 40
1.0
 40
1.0
 40
2.0
 40
2.0
 40
2.0
 40
3.0
 40
3.0
 40
3.0
 40
4.0
 40
4.0
 40
4.0
 40
4.0
 10
48.53089681742923
 20
-77.33721442511023
 30
0.0
 10
48.47575765216928
 20
-77.33721442511023
 30
0.0
 10
48.43099015331139
 20
-77.38201720287664
 30
0.0
 10
48.43099015331139
 20
-77.43712109175188
 30
0.0
 10
48.43099015331139
 20
-77.49226025840463
 30
0.0
 10
48.47575765216928
 20
-77.5370277583935
 30
0.0
 10
48.53089681742923
 20
-77.5370277583935
 30
0.0
 10
48.5860007049123
 20
-77.5370277583935
 30
0.0
 10
48.63080348154706
 20
-77.49226025840463
 30
0.0
 10
48.63080348154706
 20
-77.43712109175188
 30
0.0
 10
48.63080348154706
 20
-77.38201720287664
 30
0.0
 10
48.5860007049123
 20
-77.33721442511023
 30
0.0
 10
48.53089681742923
 20
-77.33721442511023
 30
0.0
  0
POLYLINE
  5
B3
330
1F
100
AcDbEntity
  8
_U+30EC_U+30A4_U+30E4_U+30FC 1
 62
   179
420
  2234388
370
     9
100
AcDb2dPolyline
 66
     1
 10
0.0
 20
0.0
 30
0.0
  0
VERTEX
  5
B4
330
B3
100
AcDbEntity
  8
_U+30EC_U+30A4_U+30E4_U+30FC 1
 62
   179
420
  2234388
370
     9
100
AcDbVertex
100
AcDb2dVertex
 10
48.53089681742923
 20
-75.82242192548873
 30
0.0
  0
VERTEX
  5
B5
330
B3
100
AcDbEntity
  8
_U+30EC_U+30A4_U+30E4_U+30FC 1
 62
   179
420
  2234388
370
     9
100
AcDbVertex
100
AcDb2dVertex
 10
48.53089681742923
 20
-78.7173163692095
 30
0.0
  0
SEQEND
  5
B6
330
B3
100
AcDbEntity
  8
_U+30EC_U+30A4_U+30E4_U+30FC 1
 62
   179
420
  2234388
370
     9
  0
SPLINE
  5
B7
330
1F
100
AcDbEntity
  8
_U+30EC_U+30A4_U+30E4_U+30FC 1
 62
   179
420
  2234388
370
     9
100
AcDbSpline
210
0.0
220
0.0
230
1.0
 70
    11
 71
     3
 72
    17
 73
    13
 74
     0
 42
0.0000000001
 43
0.0000000001
 12
1.0
 22
0.0
 32
0.0
 13
1.0
 23
0.0
 33
0.0
 40
0.0
 40
0.0
 40
0.0
 40
0.0
 40
1.0
 40
1.0
 40
1.0
 40
2.0
 40
2.0
 40
2.0
 40
3.0
 40
3.0
 40
3.0
 40
4.0
 40
4.0
 40
4.0
 40
4.0
 10
73.53074034629675
 20
-77.33721442511023
 30
0.0
 10
73.47560118103681
 20
-77.33721442511023
 30
0.0
 10
73.43083368217891
 20
-77.38201720287664
 30
0.0
 10
73.43083368217891
 20
-77.43712109175188
 30
0.0
 10
73.43083368217891
 20
-77.49226025840463
 30
0.0
 10
73.47560118103681
 20
-77.5370277583935
 30
0.0
 10
73.53074034629675
 20
-77.5370277583935
 30
0.0
 10
73.58584423377982
 20
-77.5370277583935
 30
0.0
 10
73.63064701041459
 20
-77.49226025840463
 30
0.0
 10
73.63064701041459
 20
-77.43712109175188
 30
0.0
 10
73.63064701041459
 20
-77.38201720287664
 30
0.0
 10
73.58584423377982
 20
-77.33721442511023
 30
0.0
 10
73.53074034629675
 20
-77.33721442511023
 30
0.0
  0
POLYLINE
  5
B8
330
1F
100
AcDbEntity
  8
_U+30EC_U+30A4_U+30E4_U+30FC 1
 62
   179
420
  2234388
370
     9
100
AcDb2dPolyline
 66
     1
 10
0.0
 20
0.0
 30
0.0
  0
VERTEX
  5
B9
330
B8
100
AcDbEntity
  8
_U+30EC_U+30A4_U+30E4_U+30FC 1
 62
   179
420
  2234388
370
     9
100
AcDbVertex
100
AcDb2dVertex
 10
73.53074034629675
 20
-75.82242192548873
 30
0.0
  0
VERTEX
  5
BA
330
B8
100
AcDbEntity
  8
_U+30EC_U+30A4_U+30E4_U+30FC 1
 62
   179
420
  2234388
370
     9
100
AcDbVertex
100
AcDb2dVertex
 10
73.53074034629675
 20
-78.7173163692095
 30
0.0
  0
SEQEND
  5
BB
330
B8
100
AcDbEntity
  8
_U+30EC_U+30A4_U+30E4_U+30FC 1
 62
   179
420
  2234388
370
     9
  0
INSERT
  5
BD
330
1F
100
AcDbEntity
  8
_U+30EC_U+30A4_U+30E4_U+30FC 1
100
AcDbBlockReference
  2
block 6
 10
0.0
 20
0.0
 30
0.0
  0
ENDSEC
  0
SECTION
  2
OBJECTS
  0
DICTIONARY
  5
C
330
0
100
AcDbDictionary
281
     1
  3
ACAD_GROUP
350
D
  3
ACAD_LAYOUT
350
1A
  3
ACAD_MATERIAL
350
3B
  3
ACAD_MLEADERSTYLE
350
C5
  3
ACAD_MLINESTYLE
350
17
  3
ACAD_PLOTSETTINGS
350
19
  3
ACAD_PLOTSTYLENAME
350
E
  3
ACAD_TABLESTYLE
350
C4
  3
ACAD_VISUALSTYLE
350
2A
  0
SUN
  5
3F
330
29
100
AcDbSun
 90
        1
290
     0
 63
     7
421
 16777215
 40
1.0
291
     1
 91
  2455826
 92
 54000000
292
     0
 70
     2
 71
   256
280
     1
  0
DICTIONARY
  5
D
102
{ACAD_REACTORS
330
C
102
}
330
C
100
AcDbDictionary
281
     1
  0
DICTIONARY
  5
1A
102
{ACAD_REACTORS
330
C
102
}
330
C
100
AcDbDictionary
281
     1
  3
Layout1
350
1E
  3
Layout2
350
26
  3
Model
350
22
  0
DICTIONARY
  5
3B
102
{ACAD_REACTORS
330
C
102
}
330
C
100
AcDbDictionary
281
     1
  3
ByBlock
350
3D
  3
ByLayer
350
3C
  3
Global
350
3E
  0
DICTIONARY
  5
C5
102
{ACAD_REACTORS
330
C
102
}
330
C
100
AcDbDictionary
281
     1
  0
DICTIONARY
  5
17
102
{ACAD_REACTORS
330
C
102
}
330
C
100
AcDbDictionary
281
     1
  3
Standard
350
18
  0
DICTIONARY
  5
19
102
{ACAD_REACTORS
330
C
102
}
330
C
100
AcDbDictionary
281
     1
  0
ACDBDICTIONARYWDFLT
  5
E
102
{ACAD_REACTORS
330
C
102
}
330
C
100
AcDbDictionary
281
     1
  3
Normal
350
F
100
AcDbDictionaryWithDefault
340
F
  0
DICTIONARY
  5
C4
102
{ACAD_REACTORS
330
C
102
}
330
C
100
AcDbDictionary
281
     1
  0
DICTIONARY
  5
2A
102
{ACAD_REACTORS
330
C
102
}
330
C
100
AcDbDictionary
281
     1
  3
2dWireframe
350
2F
  3
3D Hidden
350
31
  3
3dWireframe
350
30
  3
Basic
350
32
  3
Brighten
350
36
  3
ColorChange
350
3A
  3
Conceptual
350
34
  3
Dim
350
35
  3
Facepattern
350
39
  3
Flat
350
2B
  3
FlatWithEdges
350
2C
  3
Gouraud
350
2D
  3
GouraudWithEdges
350
2E
  3
Linepattern
350
38
  3
Realistic
350
33
  3
Thicken
350
37
  0
LAYOUT
  5
1E
102
{ACAD_REACTORS
330
1A
102
}
330
1A
100
AcDbPlotSettings
  1

  2
none_device
  4

  6

 40
0.0
 41
0.0
 42
0.0
 43
0.0
 44
0.0
 45
0.0
 46
0.0
 47
0.0
 48
0.0
 49
0.0
140
0.0
141
0.0
142
1.0
143
1.0
 70
   688
 72
     0
 73
     0
 74
     5
  7

 75
    16
 76
     0
 77
     2
 78
   300
147
1.0
148
0.0
149
0.0
100
AcDbLayout
  1
Layout1
 70
     1
 71
     1
 10
0.0
 20
0.0
 11
12.0
 21
9.0
 12
0.0
 22
0.0
 32
0.0
 14
1.000000000000000E+20
 24
1.000000000000000E+20
 34
1.000000000000000E+20
 15
-1.000000000000000E+20
 25
-1.000000000000000E+20
 35
-1.000000000000000E+20
146
0.0
 13
0.0
 23
0.0
 33
0.0
 16
1.0
 26
0.0
 36
0.0
 17
0.0
 27
1.0
 37
0.0
 76
     0
330
1B
  0
LAYOUT
  5
26
102
{ACAD_REACTORS
330
1A
102
}
330
1A
100
AcDbPlotSettings
  1

  2
none_device
  4

  6

 40
0.0
 41
0.0
 42
0.0
 43
0.0
 44
0.0
 45
0.0
 46
0.0
 47
0.0
 48
0.0
 49
0.0
140
0.0
141
0.0
142
1.0
143
1.0
 70
   688
 72
     0
 73
     0
 74
     5
  7

 75
    16
 76
     0
 77
     2
 78
   300
147
1.0
148
0.0
149
0.0
100
AcDbLayout
  1
Layout2
 70
     1
 71
     2
 10
0.0
 20
0.0
 11
0.0
 21
0.0
 12
0.0
 22
0.0
 32
0.0
 14
0.0
 24
0.0
 34
0.0
 15
0.0
 25
0.0
 35
0.0
146
0.0
 13
0.0
 23
0.0
 33
0.0
 16
1.0
 26
0.0
 36
0.0
 17
0.0
 27
1.0
 37
0.0
 76
     0
330
23
  0
LAYOUT
  5
22
102
{ACAD_REACTORS
330
1A
102
}
330
1A
100
AcDbPlotSettings
  1

  2
none_device
  4

  6

 40
0.0
 41
0.0
 42
0.0
 43
0.0
 44
0.0
 45
0.0
 46
0.0
 47
0.0
 48
0.0
 49
0.0
140
0.0
141
0.0
142
1.0
143
1.0
 70
  1712
 72
     0
 73
     0
 74
     0
  7

 75
     0
 76
     0
 77
     2
 78
   300
147
1.0
148
0.0
149
0.0
100
AcDbLayout
  1
Model
 70
     1
 71
     0
 10
0.0
 20
0.0
 11
12.0
 21
9.0
 12
0.0
 22
0.0
 32
0.0
 14
1.000000000000000E+20
 24
1.000000000000000E+20
 34
1.000000000000000E+20
 15
-1.000000000000000E+20
 25
-1.000000000000000E+20
 35
-1.000000000000000E+20
146
0.0
 13
0.0
 23
0.0
 33
0.0
 16
1.0
 26
0.0
 36
0.0
 17
0.0
 27
1.0
 37
0.0
 76
     0
330
1F
331
29
  0
MATERIAL
  5
3D
102
{ACAD_REACTORS
330
3B
102
}
330
3B
100
AcDbMaterial
  1
ByBlock
 72
     1
 94
      127
  0
MATERIAL
  5
3C
102
{ACAD_REACTORS
330
3B
102
}
330
3B
100
AcDbMaterial
  1
ByLayer
 72
     1
 94
      127
  0
MATERIAL
  5
3E
102
{ACAD_REACTORS
330
3B
102
}
330
3B
100
AcDbMaterial
  1
Global
 72
     1
 94
      127
  0
MLINESTYLE
  5
18
102
{ACAD_REACTORS
330
17
102
}
330
17
100
AcDbMlineStyle
  2
Standard
 70
     0
  3

 62
   256
 51
90.0
 52
90.0
 71
     2
 49
0.5
 62
   256
  6
BYLAYER
 49
-0.5
 62
   256
  6
BYLAYER
  0
ACDBPLACEHOLDER
  5
F
102
{ACAD_REACTORS
330
E
102
}
330
E
  0
VISUALSTYLE
  5
2F
102
{ACAD_REACTORS
330
2A
102
}
330
2A
100
AcDbVisualStyle
  2
2dWireframe
 70
     4
177
     2
291
     0
 71
     0
176
     1
 72
     2
176
     1
 73
     0
176
     1
 90
        0
176
     1
 40
-0.6
176
     1
 41
-30.0
176
     1
 62
     5
 63
     7
421
 16777215
176
     1
 74
     1
176
     1
 91
        4
176
     1
 64
     7
176
     1
 65
   257
176
     1
 75
     1
176
     1
175
     1
176
     1
 42
1.0
176
     1
 92
        0
176
     1
 66
   257
176
     1
 43
1.0
176
     1
 76
     1
176
     1
 77
     6
176
     1
 78
     2
176
     1
 67
     7
176
     1
 79
     5
176
     1
170
     0
176
     1
171
     0
176
     1
290
     0
176
     1
 93
        1
176
     1
 44
0.0
176
     1
173
     0
176
     1
  0
VISUALSTYLE
  5
31
102
{ACAD_REACTORS
330
2A
102
}
330
2A
100
AcDbVisualStyle
  2
3D Hidden
 70
     6
177
     2
291
     0
 71
     1
176
     1
 72
     2
176
     1
 73
     2
176
     1
 90
        0
176
     1
 40
-0.6
176
     1
 41
-30.0
176
     1
 62
     5
 63
     7
421
 16777215
176
     1
 74
     2
176
     1
 91
        2
176
     1
 64
     7
176
     1
 65
   257
176
     1
 75
     2
176
     1
175
     1
176
     1
 42
40.0
176
     1
 92
        0
176
     1
 66
   257
176
     1
 43
1.0
176
     1
 76
     1
176
     1
 77
     6
176
     1
 78
     2
176
     1
 67
     7
176
     1
 79
     3
176
     1
170
     0
176
     1
171
     0
176
     1
290
     0
176
     1
 93
        1
176
     1
 44
0.0
176
     1
173
     0
176
     1
  0
VISUALSTYLE
  5
30
102
{ACAD_REACTORS
330
2A
102
}
330
2A
100
AcDbVisualStyle
  2
3dWireframe
 70
     5
177
     2
291
     0
 71
     0
176
     1
 72
     2
176
     1
 73
     0
176
     1
 90
        0
176
     1
 40
-0.6
176
     1
 41
-30.0
176
     1
 62
     5
 63
     7
421
 16777215
176
     1
 74
     1
176
     1
 91
        4
176
     1
 64
     7
176
     1
 65
   257
176
     1
 75
     1
176
     1
175
     1
176
     1
 42
1.0
176
     1
 92
        0
176
     1
 66
   257
176
     1
 43
1.0
176
     1
 76
     1
176
     1
 77
     6
176
     1
 78
     2
176
     1
 67
     7
176
     1
 79
     5
176
     1
170
     0
176
     1
171
     0
176
     1
290
     0
176
     1
 93
        1
176
     1
 44
0.0
176
     1
173
     0
176
     1
  0
VISUALSTYLE
  5
32
102
{ACAD_REACTORS
330
2A
102
}
330
2A
100
AcDbVisualStyle
  2
Basic
 70
     7
177
     2
291
     1
 71
     1
176
     1
 72
     0
176
     1
 73
     1
176
     1
 90
        0
176
     1
 40
-0.6
176
     1
 41
-30.0
176
     1
 62
     5
 63
     7
421
 16777215
176
     1
 74
     0
176
     1
 91
        4
176
     1
 64
     7
176
     1
 65
   257
176
     1
 75
     1
176
     1
175
     1
176
     1
 42
1.0
176
     1
 92
        8
176
     1
 66
     7
176
     1
 43
1.0
176
     1
 76
     1
176
     1
 77
     6
176
     1
 78
     2
176
     1
 67
     7
176
     1
 79
     5
176
     1
170
     0
176
     1
171
     0
176
     1
290
     0
176
     1
 93
        1
176
     1
 44
0.0
176
     1
173
     0
176
     1
  0
VISUALSTYLE
  5
36
102
{ACAD_REACTORS
330
2A
102
}
330
2A
100
AcDbVisualStyle
  2
Brighten
 70
    12
177
     2
291
     1
 71
     2
176
     1
 72
     2
176
     1
 73
     0
176
     1
 90
        0
176
     1
 40
-0.6
176
     1
 41
-30.0
176
     1
 62
     5
 63
     7
421
 16777215
176
     1
 74
     1
176
     1
 91
        4
176
     1
 64
     7
176
     1
 65
   257
176
     1
 75
     1
176
     1
175
     1
176
     1
 42
1.0
176
     1
 92
        8
176
     1
 66
     7
176
     1
 43
1.0
176
     1
 76
     1
176
     1
 77
     6
176
     1
 78
     2
176
     1
 67
     7
176
     1
 79
     5
176
     1
170
     0
176
     1
171
     0
176
     1
290
     0
176
     1
 93
        1
176
     1
 44
50.0
176
     1
173
     0
176
     1
  0
VISUALSTYLE
  5
3A
102
{ACAD_REACTORS
330
2A
102
}
330
2A
100
AcDbVisualStyle
  2
ColorChange
 70
    16
177
     2
291
     1
 71
     2
176
     1
 72
     2
176
     1
 73
     3
176
     1
 90
        0
176
     1
 40
-0.6
176
     1
 41
-30.0
176
     1
 62
     5
 63
     8
421
  8421504
176
     1
 74
     1
176
     1
 91
        4
176
     1
 64
     7
176
     1
 65
   257
176
     1
 75
     1
176
     1
175
     1
176
     1
 42
1.0
176
     1
 92
        8
176
     1
 66
     8
424
  8421504
176
     1
 43
1.0
176
     1
 76
     1
176
     1
 77
     6
176
     1
 78
     2
176
     1
 67
     7
176
     1
 79
     5
176
     1
170
     0
176
     1
171
     0
176
     1
290
     0
176
     1
 93
        1
176
     1
 44
0.0
176
     1
173
     0
176
     1
  0
VISUALSTYLE
  5
34
102
{ACAD_REACTORS
330
2A
102
}
330
2A
100
AcDbVisualStyle
  2
Conceptual
 70
     9
177
     2
291
     0
 71
     3
176
     1
 72
     2
176
     1
 73
     0
176
     1
 90
        0
176
     1
 40
-0.6
176
     1
 41
-30.0
176
     1
 62
     5
 63
     7
421
 16777215
176
     1
 74
     2
176
     1
 91
        2
176
     1
 64
     7
176
     1
 65
   257
176
     1
 75
     1
176
     1
175
     1
176
     1
 42
40.0
176
     1
 92
        8
176
     1
 66
     7
176
     1
 43
1.0
176
     1
 76
     1
176
     1
 77
     6
176
     1
 78
     2
176
     1
 67
     7
176
     1
 79
     3
176
     1
170
     0
176
     1
171
     0
176
     1
290
     0
176
     1
 93
        1
176
     1
 44
0.0
176
     1
173
     0
176
     1
  0
VISUALSTYLE
  5
35
102
{ACAD_REACTORS
330
2A
102
}
330
2A
100
AcDbVisualStyle
  2
Dim
 70
    11
177
     2
291
     1
 71
     2
176
     1
 72
     2
176
     1
 73
     0
176
     1
 90
        0
176
     1
 40
-0.6
176
     1
 41
-30.0
176
     1
 62
     5
 63
     7
421
 16777215
176
     1
 74
     1
176
     1
 91
        4
176
     1
 64
     7
176
     1
 65
   257
176
     1
 75
     1
176
     1
175
     1
176
     1
 42
1.0
176
     1
 92
        8
176
     1
 66
     7
176
     1
 43
1.0
176
     1
 76
     1
176
     1
 77
     6
176
     1
 78
     2
176
     1
 67
     7
176
     1
 79
     5
176
     1
170
     0
176
     1
171
     0
176
     1
290
     0
176
     1
 93
        1
176
     1
 44
-50.0
176
     1
173
     0
176
     1
  0
VISUALSTYLE
  5
39
102
{ACAD_REACTORS
330
2A
102
}
330
2A
100
AcDbVisualStyle
  2
Facepattern
 70
    15
177
     2
291
     1
 71
     2
176
     1
 72
     2
176
     1
 73
     0
176
     1
 90
        0
176
     1
 40
-0.6
176
     1
 41
-30.0
176
     1
 62
     5
 63
     7
421
 16777215
176
     1
 74
     1
176
     1
 91
        4
176
     1
 64
     7
176
     1
 65
   257
176
     1
 75
     1
176
     1
175
     1
176
     1
 42
1.0
176
     1
 92
        8
176
     1
 66
     7
176
     1
 43
1.0
176
     1
 76
     1
176
     1
 77
     6
176
     1
 78
     2
176
     1
 67
     7
176
     1
 79
     5
176
     1
170
     0
176
     1
171
     0
176
     1
290
     0
176
     1
 93
        1
176
     1
 44
0.0
176
     1
173
     0
176
     1
  0
VISUALSTYLE
  5
2B
102
{ACAD_REACTORS
330
2A
102
}
330
2A
100
AcDbVisualStyle
  2
Flat
 70
     0
177
     2
291
     1
 71
     2
176
     1
 72
     1
176
     1
 73
     1
176
     1
 90
        2
176
     1
 40
-0.6
176
     1
 41
30.0
176
     1
 62
     5
 63
     7
421
 16777215
176
     1
 74
     0
176
     1
 91
        4
176
     1
 64
     7
176
     1
 65
   257
176
     1
 75
     1
176
     1
175
     1
176
     1
 42
1.0
176
     1
 92
        8
176
     1
 66
     7
176
     1
 43
1.0
176
     1
 76
     1
176
     1
 77
     6
176
     1
 78
     2
176
     1
 67
     7
176
     1
 79
     5
176
     1
170
     0
176
     1
171
     0
176
     1
290
     0
176
     1
 93
       13
176
     1
 44
0.0
176
     1
173
     0
176
     1
  0
VISUALSTYLE
  5
2C
102
{ACAD_REACTORS
330
2A
102
}
330
2A
100
AcDbVisualStyle
  2
FlatWithEdges
 70
     1
177
     2
291
     1
 71
     2
176
     1
 72
     1
176
     1
 73
     1
176
     1
 90
        2
176
     1
 40
-0.6
176
     1
 41
30.0
176
     1
 62
     5
 63
     7
421
 16777215
176
     1
 74
     1
176
     1
 91
        4
176
     1
 64
     7
176
     1
 65
   257
176
     1
 75
     1
176
     1
175
     1
176
     1
 42
1.0
176
     1
 92
        0
176
     1
 66
   257
176
     1
 43
1.0
176
     1
 76
     1
176
     1
 77
     6
176
     1
 78
     2
176
     1
 67
     7
176
     1
 79
     5
176
     1
170
     0
176
     1
171
     0
176
     1
290
     0
176
     1
 93
       13
176
     1
 44
0.0
176
     1
173
     0
176
     1
  0
VISUALSTYLE
  5
2D
102
{ACAD_REACTORS
330
2A
102
}
330
2A
100
AcDbVisualStyle
  2
Gouraud
 70
     2
177
     2
291
     1
 71
     2
176
     1
 72
     2
176
     1
 73
     1
176
     1
 90
        2
176
     1
 40
-0.6
176
     1
 41
30.0
176
     1
 62
     5
 63
     7
421
 16777215
176
     1
 74
     0
176
     1
 91
        4
176
     1
 64
     7
176
     1
 65
   257
176
     1
 75
     1
176
     1
175
     1
176
     1
 42
1.0
176
     1
 92
        0
176
     1
 66
     7
176
     1
 43
1.0
176
     1
 76
     1
176
     1
 77
     6
176
     1
 78
     2
176
     1
 67
     7
176
     1
 79
     5
176
     1
170
     0
176
     1
171
     0
176
     1
290
     0
176
     1
 93
       13
176
     1
 44
0.0
176
     1
173
     0
176
     1
  0
VISUALSTYLE
  5
2E
102
{ACAD_REACTORS
330
2A
102
}
330
2A
100
AcDbVisualStyle
  2
GouraudWithEdges
 70
     3
177
     2
291
     1
 71
     2
176
     1
 72
     2
176
     1
 73
     1
176
     1
 90
        2
176
     1
 40
-0.6
176
     1
 41
30.0
176
     1
 62
     5
 63
     7
421
 16777215
176
     1
 74
     1
176
     1
 91
        4
176
     1
 64
     7
176
     1
 65
   257
176
     1
 75
     1
176
     1
175
     1
176
     1
 42
1.0
176
     1
 92
        0
176
     1
 66
   257
176
     1
 43
1.0
176
     1
 76
     1
176
     1
 77
     6
176
     1
 78
     2
176
     1
 67
     7
176
     1
 79
     5
176
     1
170
     0
176
     1
171
     0
176
     1
290
     0
176
     1
 93
       13
176
     1
 44
0.0
176
     1
173
     0
176
     1
  0
VISUALSTYLE
  5
38
102
{ACAD_REACTORS
330
2A
102
}
330
2A
100
AcDbVisualStyle
  2
Linepattern
 70
    14
177
     2
291
     1
 71
     2
176
     1
 72
     2
176
     1
 73
     0
176
     1
 90
        0
176
     1
 40
-0.6
176
     1
 41
-30.0
176
     1
 62
     5
 63
     7
421
 16777215
176
     1
 74
     1
176
     1
 91
        4
176
     1
 64
     7
176
     1
 65
   257
176
     1
 75
     7
176
     1
175
     7
176
     1
 42
1.0
176
     1
 92
        8
176
     1
 66
     7
176
     1
 43
1.0
176
     1
 76
     1
176
     1
 77
     6
176
     1
 78
     2
176
     1
 67
     7
176
     1
 79
     5
176
     1
170
     0
176
     1
171
     0
176
     1
290
     0
176
     1
 93
        1
176
     1
 44
0.0
176
     1
173
     0
176
     1
  0
VISUALSTYLE
  5
33
102
{ACAD_REACTORS
330
2A
102
}
330
2A
100
AcDbVisualStyle
  2
Realistic
 70
     8
177
     2
291
     0
 71
     2
176
     1
 72
     2
176
     1
 73
     0
176
     1
 90
        0
176
     1
 40
-0.6
176
     1
 41
-30.0
176
     1
 62
     5
 63
     7
421
 16777215
176
     1
 74
     1
176
     1
 91
        0
176
     1
 64
     7
176
     1
 65
   257
176
     1
 75
     1
176
     1
175
     1
176
     1
 42
1.0
176
     1
 92
        8
176
     1
 66
     8
424
  7895160
176
     1
 43
1.0
176
     1
 76
     1
176
     1
 77
     6
176
     1
 78
     2
176
     1
 67
     7
176
     1
 79
     5
176
     1
170
     0
176
     1
171
     0
176
     1
290
     0
176
     1
 93
       13
176
     1
 44
0.0
176
     1
173
     0
176
     1
  0
VISUALSTYLE
  5
37
102
{ACAD_REACTORS
330
2A
102
}
330
2A
100
AcDbVisualStyle
  2
Thicken
 70
    13
177
     2
291
     1
 71
     2
176
     1
 72
     2
176
     1
 73
     0
176
     1
 90
        0
176
     1
 40
-0.6
176
     1
 41
-30.0
176
     1
 62
     5
 63
     7
421
 16777215
176
     1
 74
     1
176
     1
 91
        4
176
     1
 64
     7
176
     1
 65
   257
176
     1
 75
     1
176
     1
175
     1
176
     1
 42
1.0
176
     1
 92
       12
176
     1
 66
     7
176
     1
 43
1.0
176
     1
 76
     1
176
     1
 77
     6
176
     1
 78
     2
176
     1
 67
     7
176
     1
 79
     5
176
     1
170
     0
176
     1
171
     0
176
     1
290
     0
176
     1
 93
        1
176
     1
 44
0.0
176
     1
173
     0
176
     1
  0
ENDSEC
  0
EOF
