  0
SECTION
  2
HEADER
  9
$ACADVER
  1
AC1024
  9
$ACADMAINTVER
 70
     6
  9
$DWGCODEPAGE
  3
UNDEFINED
  9
$INSBASE
 10
0.0
 20
0.0
 30
0.0
  9
$EXTMIN
 10
1.000000000000000E+20
 20
1.000000000000000E+20
 30
1.000000000000000E+20
  9
$EXTMAX
 10
-1.000000000000000E+20
 20
-1.000000000000000E+20
 30
-1.000000000000000E+20
  9
$LIMMIN
 10
0.0
 20
0.0
  9
$LIMMAX
 10
12.0
 20
9.0
  9
$ORTHOMODE
 70
     0
  9
$REGENMODE
 70
     1
  9
$FILLMODE
 70
     1
  9
$QTEXTMODE
 70
     0
  9
$MIRRTEXT
 70
     1
  9
$LTSCALE
 40
1.0
  9
$ATTMODE
 70
     1
  9
$TEXTSIZE
 40
0.2
  9
$TRACEWID
 40
0.05
  9
$TEXTSTYLE
  7
Standard
  9
$CLAYER
  8
0
  9
$CELTYPE
  6
ByLayer
  9
$CECOLOR
 62
   256
  9
$CELTSCALE
 40
1.0
  9
$DISPSILH
 70
     0
  9
$DIMSCALE
 40
1.0
  9
$DIMASZ
 40
0.18
  9
$DIMEXO
 40
0.0625
  9
$DIMDLI
 40
0.38
  9
$DIMRND
 40
0.0
  9
$DIMDLE
 40
0.0
  9
$DIMEXE
 40
0.18
  9
$DIMTP
 40
0.0
  9
$DIMTM
 40
0.0
  9
$DIMTXT
 40
0.18
  9
$DIMCEN
 40
0.09
  9
$DIMTSZ
 40
0.0
  9
$DIMTOL
 70
     0
  9
$DIMLIM
 70
     0
  9
$DIMTIH
 70
     1
  9
$DIMTOH
 70
     1
  9
$DIMSE1
 70
     0
  9
$DIMSE2
 70
     0
  9
$DIMTAD
 70
     0
  9
$DIMZIN
 70
     0
  9
$DIMBLK
  1

  9
$DIMASO
 70
     1
  9
$DIMSHO
 70
     1
  9
$DIMPOST
  1

  9
$DIMAPOST
  1

  9
$DIMALT
 70
     0
  9
$DIMALTD
 70
     2
  9
$DIMALTF
 40
25.4
  9
$DIMLFAC
 40
1.0
  9
$DIMTOFL
 70
     0
  9
$DIMTVP
 40
0.0
  9
$DIMTIX
 70
     0
  9
$DIMSOXD
 70
     0
  9
$DIMSAH
 70
     0
  9
$DIMBLK1
  1

  9
$DIMBLK2
  1

  9
$DIMSTYLE
  2
Standard
  9
$DIMCLRD
 70
     0
  9
$DIMCLRE
 70
     0
  9
$DIMCLRT
 70
     0
  9
$DIMTFAC
 40
1.0
  9
$DIMGAP
 40
0.09
  9
$DIMJUST
 70
     0
  9
$DIMSD1
 70
     0
  9
$DIMSD2
 70
     0
  9
$DIMTOLJ
 70
     1
  9
$DIMTZIN
 70
     0
  9
$DIMALTZ
 70
     0
  9
$DIMALTTZ
 70
     0
  9
$DIMUPT
 70
     0
  9
$DIMDEC
 70
     4
  9
$DIMTDEC
 70
     4
  9
$DIMALTU
 70
     2
  9
$DIMALTTD
 70
     2
  9
$DIMTXSTY
  7
Standard
  9
$DIMAUNIT
 70
     0
  9
$DIMADEC
 70
     0
  9
$DIMALTRND
 40
0.0
  9
$DIMAZIN
 70
     0
  9
$DIMDSEP
 70
    46
  9
$DIMATFIT
 70
     3
  9
$DIMFRAC
 70
     0
  9
$DIMLDRBLK
  1

  9
$DIMLUNIT
 70
     2
  9
$DIMLWD
 70
    -2
  9
$DIMLWE
 70
    -2
  9
$DIMTMOVE
 70
     0
  9
$DIMFXL
 40
1.0
  9
$DIMFXLON
 70
     0
  9
$DIMJOGANG
 40
0.7853981633974483
  9
$DIMTFILL
 70
     0
  9
$DIMTFILLCLR
 70
     0
  9
$DIMARCSYM
 70
     0
  9
$DIMLTYPE
  6

  9
$DIMLTEX1
  6

  9
$DIMLTEX2
  6

  9
$DIMTXTDIRECTION
 70
     0
  9
$LUNITS
 70
     2
  9
$LUPREC
 70
     4
  9
$SKETCHINC
 40
0.1
  9
$FILLETRAD
 40
0.5
  9
$AUNITS
 70
     0
  9
$AUPREC
 70
     0
  9
$MENU
  1
.
  9
$ELEVATION
 40
0.0
  9
$PELEVATION
 40
0.0
  9
$THICKNESS
 40
0.0
  9
$LIMCHECK
 70
     0
  9
$CHAMFERA
 40
0.5
  9
$CHAMFERB
 40
0.5
  9
$CHAMFERC
 40
1.0
  9
$CHAMFERD
 40
0.0
  9
$SKPOLY
 70
     0
  9
$TDCREATE
 40
2457917.586747674
  9
$TDUCREATE
 40
2457917.211747685
  9
$TDUPDATE
 40
2457917.586747674
  9
$TDUUPDATE
 40
2457917.211747685
  9
$TDINDWG
 40
0.0000000116
  9
$TDUSRTIMER
 40
0.0000000116
  9
$USRTIMER
 70
     1
  9
$ANGBASE
 50
0.0
  9
$ANGDIR
 70
     0
  9
$PDMODE
 70
     0
  9
$PDSIZE
 40
0.0
  9
$PLINEWID
 40
0.0
  9
$SPLFRAME
 70
     0
  9
$SPLINETYPE
 70
     6
  9
$SPLINESEGS
 70
     8
  9
$HANDSEED
  5
C6
  9
$SURFTAB1
 70
     6
  9
$SURFTAB2
 70
     6
  9
$SURFTYPE
 70
     6
  9
$SURFU
 70
     6
  9
$SURFV
 70
     6
  9
$UCSBASE
  2

  9
$UCSNAME
  2

  9
$UCSORG
 10
0.0
 20
0.0
 30
0.0
  9
$UCSXDIR
 10
1.0
 20
0.0
 30
0.0
  9
$UCSYDIR
 10
0.0
 20
1.0
 30
0.0
  9
$UCSORTHOREF
  2

  9
$UCSORTHOVIEW
 70
     0
  9
$UCSORGTOP
 10
0.0
 20
0.0
 30
0.0
  9
$UCSORGBOTTOM
 10
0.0
 20
0.0
 30
0.0
  9
$UCSORGLEFT
 10
0.0
 20
0.0
 30
0.0
  9
$UCSORGRIGHT
 10
0.0
 20
0.0
 30
0.0
  9
$UCSORGFRONT
 10
0.0
 20
0.0
 30
0.0
  9
$UCSORGBACK
 10
0.0
 20
0.0
 30
0.0
  9
$PUCSBASE
  2

  9
$PUCSNAME
  2

  9
$PUCSORG
 10
0.0
 20
0.0
 30
0.0
  9
$PUCSXDIR
 10
1.0
 20
0.0
 30
0.0
  9
$PUCSYDIR
 10
0.0
 20
1.0
 30
0.0
  9
$PUCSORTHOREF
  2

  9
$PUCSORTHOVIEW
 70
     0
  9
$PUCSORGTOP
 10
0.0
 20
0.0
 30
0.0
  9
$PUCSORGBOTTOM
 10
0.0
 20
0.0
 30
0.0
  9
$PUCSORGLEFT
 10
0.0
 20
0.0
 30
0.0
  9
$PUCSORGRIGHT
 10
0.0
 20
0.0
 30
0.0
  9
$PUCSORGFRONT
 10
0.0
 20
0.0
 30
0.0
  9
$PUCSORGBACK
 10
0.0
 20
0.0
 30
0.0
  9
$USERI1
 70
     0
  9
$USERI2
 70
     0
  9
$USERI3
 70
     0
  9
$USERI4
 70
     0
  9
$USERI5
 70
     0
  9
$USERR1
 40
0.0
  9
$USERR2
 40
0.0
  9
$USERR3
 40
0.0
  9
$USERR4
 40
0.0
  9
$USERR5
 40
0.0
  9
$WORLDVIEW
 70
     1
  9
$SHADEDGE
 70
     3
  9
$SHADEDIF
 70
    70
  9
$TILEMODE
 70
     1
  9
$MAXACTVP
 70
    64
  9
$PINSBASE
 10
0.0
 20
0.0
 30
0.0
  9
$PLIMCHECK
 70
     0
  9
$PEXTMIN
 10
1.000000000000000E+20
 20
1.000000000000000E+20
 30
1.000000000000000E+20
  9
$PEXTMAX
 10
-1.000000000000000E+20
 20
-1.000000000000000E+20
 30
-1.000000000000000E+20
  9
$PLIMMIN
 10
0.0
 20
0.0
  9
$PLIMMAX
 10
12.0
 20
9.0
  9
$UNITMODE
 70
     0
  9
$VISRETAIN
 70
     1
  9
$PLINEGEN
 70
     0
  9
$PSLTSCALE
 70
     1
  9
$TREEDEPTH
 70
  3020
  9
$CMLSTYLE
  2
Standard
  9
$CMLJUST
 70
     0
  9
$CMLSCALE
 40
1.0
  9
$PROXYGRAPHICS
 70
     1
  9
$MEASUREMENT
 70
     0
  9
$CELWEIGHT
370
    -1
  9
$ENDCAPS
280
     0
  9
$JOINSTYLE
280
     0
  9
$LWDISPLAY
290
     1
  9
$INSUNITS
 70
     1
  9
$HYPERLINKBASE
  1

  9
$STYLESHEET
  1

  9
$XEDIT
290
     1
  9
$CEPSNTYPE
380
     0
  9
$PSTYLEMODE
290
     1
  9
$FINGERPRINTGUID
  2
{96F2D6E9-A49E-019B-599F-53BB64ED9F28}
  9
$VERSIONGUID
  2
{FAEB1C32-E019-11D5-929B-00C0DF256EC4}
  9
$EXTNAMES
290
     1
  9
$PSVPSCALE
 40
0.0
  9
$OLESTARTUP
290
     0
  9
$SORTENTS
280
   127
  9
$INDEXCTL
280
     0
  9
$HIDETEXT
280
     1
  9
$XCLIPFRAME
280
     2
  9
$HALOGAP
280
     0
  9
$OBSCOLOR
 70
   257
  9
$OBSLTYPE
280
     0
  9
$INTERSECTIONDISPLAY
280
     0
  9
$INTERSECTIONCOLOR
 70
   257
  9
$DIMASSOC
280
     2
  9
$PROJECTNAME
  1

  9
$CAMERADISPLAY
290
     0
  9
$LENSLENGTH
 40
50.0
  9
$CAMERAHEIGHT
 40
0.0
  9
$STEPSPERSEC
 40
2.0
  9
$STEPSIZE
 40
6.0
  9
$3DDWFPREC
 40
2.0
  9
$PSOLWIDTH
 40
0.25
  9
$PSOLHEIGHT
 40
4.0
  9
$LOFTANG1
 40
1.570796326794897
  9
$LOFTANG2
 40
1.570796326794897
  9
$LOFTMAG1
 40
0.0
  9
$LOFTMAG2
 40
0.0
  9
$LOFTPARAM
 70
     7
  9
$LOFTNORMALS
280
     1
  9
$LATITUDE
 40
37.795
  9
$LONGITUDE
 40
-122.394
  9
$NORTHDIRECTION
 40
0.0
  9
$TIMEZONE
 70
 -8000
  9
$LIGHTGLYPHDISPLAY
280
     1
  9
$TILEMODELIGHTSYNCH
280
     1
  9
$CMATERIAL
347
3C
  9
$SOLIDHIST
280
     1
  9
$SHOWHIST
280
     1
  9
$DWFFRAME
280
     2
  9
$DGNFRAME
280
     2
  9
$REALWORLDSCALE
290
     1
  9
$INTERFERECOLOR
 62
   256
  9
$CSHADOW
280
     0
  9
$SHADOWPLANELOCATION
 40
0.0
  0
ENDSEC
  0
SECTION
  2
CLASSES
  0
CLASS
  1
ACDBDICTIONARYWDFLT
  2
AcDbDictionaryWithDefault
  3
ObjectDBX Classes
 90
        0
 91
        4
280
     0
281
     0
  0
CLASS
  1
VISUALSTYLE
  2
AcDbVisualStyle
  3
ObjectDBX Classes
 90
     4095
 91
        4
280
     0
281
     0
  0
CLASS
  1
MATERIAL
  2
AcDbMaterial
  3
ObjectDBX Classes
 90
     1153
 91
        4
280
     0
281
     0
  0
CLASS
  1
SUN
  2
AcDbSun
  3
SCENEOE
 90
     1024
 91
        4
280
     0
281
     0
  0
ENDSEC
  0
SECTION
  2
TABLES
  0
TABLE
  2
VPORT
  5
8
330
0
100
AcDbSymbolTable
 70
     1
  0
VPORT
  5
29
330
8
100
AcDbSymbolTableRecord
100
AcDbViewportTableRecord
  2
*Active
 70
     0
 10
0.0
 20
0.0
 11
1.0
 21
1.0
 12
0.0
 22
0.0
 13
0.0
 23
0.0
 14
0.5
 24
0.5
 15
0.5
 25
0.5
 16
0.0
 26
0.0
 36
1.0
 17
63.499999984125
 27
-89.00059456108309
 37
0.0
 40
178.0011891221662
 41
0.7134783795241226
 42
50.0
 43
0.0
 44
0.0
 50
0.0
 51
0.0
 71
     0
 72
   100
 73
     1
 74
     3
 75
     0
 76
     0
 77
     0
 78
     0
281
     0
 65
     1
110
0.0
120
0.0
130
0.0
111
1.0
121
0.0
131
0.0
112
0.0
122
1.0
132
0.0
 79
     0
146
0.0
 60
     3
 61
     5
292
     1
282
     1
141
0.0
142
0.0
 63
   250
361
3F
  0
ENDTAB
  0
TABLE
  2
LTYPE
  5
5
330
0
100
AcDbSymbolTable
 70
     1
  0
LTYPE
  5
14
330
5
100
AcDbSymbolTableRecord
100
AcDbLinetypeTableRecord
  2
ByBlock
 70
     0
  3

 72
    65
 73
     0
 40
0.0
  0
LTYPE
  5
15
330
5
100
AcDbSymbolTableRecord
100
AcDbLinetypeTableRecord
  2
ByLayer
 70
     0
  3

 72
    65
 73
     0
 40
0.0
  0
LTYPE
  5
16
330
5
100
AcDbSymbolTableRecord
100
AcDbLinetypeTableRecord
  2
Continuous
 70
     0
  3
Solid line
 72
    65
 73
     0
 40
0.0
  0
ENDTAB
  0
TABLE
  2
LAYER
  5
2
330
0
100
AcDbSymbolTable
 70
     2
  0
LAYER
  5
10
330
2
100
AcDbSymbolTableRecord
100
AcDbLayerTableRecord
  2
0
 70
     0
 62
     7
  6
Continuous
370
    -3
390
F
347
3E
  0
LAYER
  5
40
330
2
100
AcDbSymbolTableRecord
100
AcDbLayerTableRecord
  2
_U+30EC_U+30A4_U+30E4_U+30FC 1
 70
     0
 62
     7
  6
Continuous
370
    -3
390
F
347
3E
  0
ENDTAB
  0
TABLE
  2
STYLE
  5
3
330
0
100
AcDbSymbolTable
 70
     1
  0
STYLE
  5
11
330
3
100
AcDbSymbolTableRecord
100
AcDbTextStyleTableRecord
  2
Standard
 70
     0
 40
0.0
 41
1.0
 50
0.0
 71
     0
 42
0.2
  3
txt
  4

  0
ENDTAB
  0
TABLE
  2
VIEW
  5
6
330
0
100
AcDbSymbolTable
 70
     0
  0
ENDTAB
  0
TABLE
  2
UCS
  5
7
330
0
100
AcDbSymbolTable
 70
     0
  0
ENDTAB
  0
TABLE
  2
APPID
  5
9
330
0
100
AcDbSymbolTable
 70
     1
  0
APPID
  5
12
330
9
100
AcDbSymbolTableRecord
100
AcDbRegAppTableRecord
  2
ACAD
 70
     0
  0
ENDTAB
  0
TABLE
  2
DIMSTYLE
  5
A
330
0
100
AcDbSymbolTable
 70
     1
100
AcDbDimStyleTable
  0
DIMSTYLE
105
27
330
A
100
AcDbSymbolTableRecord
100
AcDbDimStyleTableRecord
  2
Standard
 70
     0
178
     0
340
11
  0
ENDTAB
  0
TABLE
  2
BLOCK_RECORD
  5
1
330
0
100
AcDbSymbolTable
 70
     6
  0
BLOCK_RECORD
  5
1F
330
1
100
AcDbSymbolTableRecord
100
AcDbBlockTableRecord
  2
*Model_Space
340
22
 70
     0
280
     1
281
     0
  0
BLOCK_RECORD
  5
1B
330
1
100
AcDbSymbolTableRecord
100
AcDbBlockTableRecord
  2
*Paper_Space
340
1E
 70
     0
280
     1
281
     0
  0
BLOCK_RECORD
  5
23
330
1
100
AcDbSymbolTableRecord
100
AcDbBlockTableRecord
  2
*Paper_Space0
340
26
 70
     0
280
     1
281
     0
  0
BLOCK_RECORD
  5
41
330
1
100
AcDbSymbolTableRecord
100
AcDbBlockTableRecord
  2
block 2
340
0
102
{BLKREFS
331
42
102
}
 70
     0
280
     1
281
     0
  0
BLOCK_RECORD
  5
67
330
1
100
AcDbSymbolTableRecord
100
AcDbBlockTableRecord
  2
block 3
340
0
102
{BLKREFS
331
68
102
}
 70
     0
280
     1
281
     0
  0
BLOCK_RECORD
  5
6F
330
1
100
AcDbSymbolTableRecord
100
AcDbBlockTableRecord
  2
block 4
340
0
102
{BLKREFS
331
70
102
}
 70
     0
280
     1
281
     0
  0
BLOCK_RECORD
  5
9B
330
1
100
AcDbSymbolTableRecord
100
AcDbBlockTableRecord
  2
block 5
340
0
102
{BLKREFS
331
9C
102
}
 70
     0
280
     1
281
     0
  0
BLOCK_RECORD
  5
BB
330
1
100
AcDbSymbolTableRecord
100
AcDbBlockTableRecord
  2
block 6
340
0
102
{BLKREFS
331
BC
102
}
 70
     0
280
     1
281
     0
  0
ENDTAB
  0
ENDSEC
  0
SECTION
  2
BLOCKS
  0
BLOCK
  5
20
330
1F
100
AcDbEntity
  8
0
100
AcDbBlockBegin
  2
*Model_Space
 70
     0
 10
0.0
 20
0.0
 30
0.0
  3
*Model_Space
  1

  0
ENDBLK
  5
21
330
1F
100
AcDbEntity
  8
0
100
AcDbBlockEnd
  0
BLOCK
  5
1C
330
1B
100
AcDbEntity
 67
     1
  8
0
100
AcDbBlockBegin
  2
*Paper_Space
 70
     0
 10
0.0
 20
0.0
 30
0.0
  3
*Paper_Space
  1

  0
ENDBLK
  5
1D
330
1B
100
AcDbEntity
 67
     1
  8
0
100
AcDbBlockEnd
  0
BLOCK
  5
24
330
23
100
AcDbEntity
  8
0
100
AcDbBlockBegin
  2
*Paper_Space0
 70
     0
 10
0.0
 20
0.0
 30
0.0
  3
*Paper_Space0
  1

  0
ENDBLK
  5
25
330
23
100
AcDbEntity
  8
0
100
AcDbBlockEnd
  0
BLOCK
  5
43
330
41
100
AcDbEntity
  8
0
100
AcDbBlockBegin
  2
block 2
 70
     0
 10
0.0
 20
0.0
 30
0.0
  3
block 2
  1

  0
SPLINE
  5
45
330
41
100
AcDbEntity
  8
_U+30EC_U+30A4_U+30E4_U+30FC 1
370
     0
100
AcDbSpline
210
0.0
220
0.0
230
1.0
 70
    11
 71
     3
 72
    26
 73
    22
 74
     0
 42
0.0000000001
 43
0.0000000001
 12
1.0
 22
0.0
 32
0.0
 13
1.0
 23
0.0
 33
0.0
 40
0.0
 40
0.0
 40
0.0
 40
0.0
 40
1.0
 40
1.0
 40
1.0
 40
2.0
 40
2.0
 40
2.0
 40
3.0
 40
3.0
 40
3.0
 40
4.0
 40
4.0
 40
4.0
 40
5.0
 40
5.0
 40
5.0
 40
6.0
 40
6.0
 40
6.0
 40
7.0
 40
7.0
 40
7.0
 40
7.0
 10
79.65990937678642
 20
-78.65204669257658
 30
0.0
 10
79.65990937678642
 20
-78.65204669257658
 30
0.0
 10
78.55575627376385
 20
-78.65204669257658
 30
0.0
 10
78.55575627376385
 20
-78.65204669257658
 30
0.0
 10
78.55575627376385
 20
-78.65204669257658
 30
0.0
 10
78.55575627376385
 20
-78.93747285352953
 30
0.0
 10
78.55575627376385
 20
-78.93747285352953
 30
0.0
 10
78.55575627376385
 20
-78.93747285352953
 30
0.0
 10
78.4076171678981
 20
-78.93747285352953
 30
0.0
 10
78.4076171678981
 20
-78.93747285352953
 30
0.0
 10
78.39280325731153
 20
-78.65015189005969
 30
0.0
 10
78.22985024085921
 20
-78.60984427288227
 30
0.0
 10
78.11547307074892
 20
-78.58435056629142
 30
0.0
 10
78.11547307074892
 20
-78.58435056629142
 30
0.0
 10
78.11547307074892
 20
-78.45791556198274
 30
0.0
 10
78.11547307074892
 20
-78.45791556198274
 30
0.0
 10
78.11547307074892
 20
-78.45791556198274
 30
0.0
 10
79.65990937678642
 20
-78.45791556198274
 30
0.0
 10
79.65990937678642
 20
-78.45791556198274
 30
0.0
 10
79.65990937678642
 20
-78.45791556198274
 30
0.0
 10
79.65990937678642
 20
-78.65204669257658
 30
0.0
 10
79.65990937678642
 20
-78.65204669257658
 30
0.0
  0
HATCH
  5
46
330
41
100
AcDbEntity
  8
_U+30EC_U+30A4_U+30E4_U+30FC 1
 62
   179
420
  2234388
100
AcDbHatch
 10
0.0
 20
0.0
 30
0.0
210
0.0
220
0.0
230
1.0
  2
SOLID
 70
     1
 71
     0
 91
        1
 92
        1
 93
        1
 72
     4
 94
        3
 73
     0
 74
     1
 95
       26
 96
       22
 40
0.0
 40
0.0
 40
0.0
 40
0.0
 40
1.0
 40
1.0
 40
1.0
 40
2.0
 40
2.0
 40
2.0
 40
3.0
 40
3.0
 40
3.0
 40
4.0
 40
4.0
 40
4.0
 40
5.0
 40
5.0
 40
5.0
 40
6.0
 40
6.0
 40
6.0
 40
7.0
 40
7.0
 40
7.0
 40
7.0
 10
79.65990937678642
 20
-78.65204669257658
 10
79.65990937678642
 20
-78.65204669257658
 10
78.55575627376385
 20
-78.65204669257658
 10
78.55575627376385
 20
-78.65204669257658
 10
78.55575627376385
 20
-78.65204669257658
 10
78.55575627376385
 20
-78.93747285352953
 10
78.55575627376385
 20
-78.93747285352953
 10
78.55575627376385
 20
-78.93747285352953
 10
78.4076171678981
 20
-78.93747285352953
 10
78.4076171678981
 20
-78.93747285352953
 10
78.39280325731153
 20
-78.65015189005969
 10
78.22985024085921
 20
-78.60984427288227
 10
78.11547307074892
 20
-78.58435056629142
 10
78.11547307074892
 20
-78.58435056629142
 10
78.11547307074892
 20
-78.45791556198274
 10
78.11547307074892
 20
-78.45791556198274
 10
78.11547307074892
 20
-78.45791556198274
 10
79.65990937678642
 20
-78.45791556198274
 10
79.65990937678642
 20
-78.45791556198274
 10
79.65990937678642
 20
-78.45791556198274
 10
79.65990937678642
 20
-78.65204669257658
 10
79.65990937678642
 20
-78.65204669257658
 97
        0
 97
        0
 75
     2
 76
     1
 98
        0
  0
ENDBLK
  5
44
330
41
100
AcDbEntity
  8
0
100
AcDbBlockEnd
  0
BLOCK
  5
69
330
67
100
AcDbEntity
  8
0
100
AcDbBlockBegin
  2
block 3
 70
     0
 10
0.0
 20
0.0
 30
0.0
  3
block 3
  1

  0
SPLINE
  5
6B
330
67
100
AcDbEntity
  8
_U+30EC_U+30A4_U+30E4_U+30FC 1
370
     0
100
AcDbSpline
210
0.0
220
0.0
230
1.0
 70
    11
 71
     3
 72
    26
 73
    22
 74
     0
 42
0.0000000001
 43
0.0000000001
 12
1.0
 22
0.0
 32
0.0
 13
1.0
 23
0.0
 33
0.0
 40
0.0
 40
0.0
 40
0.0
 40
0.0
 40
1.0
 40
1.0
 40
1.0
 40
2.0
 40
2.0
 40
2.0
 40
3.0
 40
3.0
 40
3.0
 40
4.0
 40
4.0
 40
4.0
 40
5.0
 40
5.0
 40
5.0
 40
6.0
 40
6.0
 40
6.0
 40
7.0
 40
7.0
 40
7.0
 40
7.0
 10
53.10011798802706
 20
-101.137323650931
 30
0.0
 10
53.10011798802706
 20
-101.137323650931
 30
0.0
 10
53.10011798802706
 20
-100.0331705479084
 30
0.0
 10
53.10011798802706
 20
-100.0331705479084
 30
0.0
 10
53.10011798802706
 20
-100.0331705479084
 30
0.0
 10
52.77007784054013
 20
-100.0331705479084
 30
0.0
 10
52.77007784054013
 20
-100.0331705479084
 30
0.0
 10
52.77007784054013
 20
-100.0331705479084
 30
0.0
 10
52.77007784054013
 20
-99.88503144204263
 30
0.0
 10
52.77007784054013
 20
-99.88503144204263
 30
0.0
 10
53.10218504531821
 20
-99.87021753145606
 30
0.0
 10
53.14869383436908
 20
-99.70726451500374
 30
0.0
 10
53.17832165554223
 20
-99.59288734489346
 30
0.0
 10
53.17832165554223
 20
-99.59288734489346
 30
0.0
 10
53.32439370411682
 20
-99.59288734489346
 30
0.0
 10
53.32439370411682
 20
-99.59288734489346
 30
0.0
 10
53.32439370411682
 20
-99.59288734489346
 30
0.0
 10
53.32439370411682
 20
-101.137323650931
 30
0.0
 10
53.32439370411682
 20
-101.137323650931
 30
0.0
 10
53.32439370411682
 20
-101.137323650931
 30
0.0
 10
53.10011798802706
 20
-101.137323650931
 30
0.0
 10
53.10011798802706
 20
-101.137323650931
 30
0.0
  0
HATCH
  5
6C
330
67
100
AcDbEntity
  8
_U+30EC_U+30A4_U+30E4_U+30FC 1
 62
   179
420
  2234388
100
AcDbHatch
 10
0.0
 20
0.0
 30
0.0
210
0.0
220
0.0
230
1.0
  2
SOLID
 70
     1
 71
     0
 91
        1
 92
        1
 93
        1
 72
     4
 94
        3
 73
     0
 74
     1
 95
       26
 96
       22
 40
0.0
 40
0.0
 40
0.0
 40
0.0
 40
1.0
 40
1.0
 40
1.0
 40
2.0
 40
2.0
 40
2.0
 40
3.0
 40
3.0
 40
3.0
 40
4.0
 40
4.0
 40
4.0
 40
5.0
 40
5.0
 40
5.0
 40
6.0
 40
6.0
 40
6.0
 40
7.0
 40
7.0
 40
7.0
 40
7.0
 10
53.10011798802706
 20
-101.137323650931
 10
53.10011798802706
 20
-101.137323650931
 10
53.10011798802706
 20
-100.0331705479084
 10
53.10011798802706
 20
-100.0331705479084
 10
53.10011798802706
 20
-100.0331705479084
 10
52.77007784054013
 20
-100.0331705479084
 10
52.77007784054013
 20
-100.0331705479084
 10
52.77007784054013
 20
-100.0331705479084
 10
52.77007784054013
 20
-99.88503144204263
 10
52.77007784054013
 20
-99.88503144204263
 10
53.10218504531821
 20
-99.87021753145606
 10
53.14869383436908
 20
-99.70726451500374
 10
53.17832165554223
 20
-99.59288734489346
 10
53.17832165554223
 20
-99.59288734489346
 10
53.32439370411682
 20
-99.59288734489346
 10
53.32439370411682
 20
-99.59288734489346
 10
53.32439370411682
 20
-99.59288734489346
 10
53.32439370411682
 20
-101.137323650931
 10
53.32439370411682
 20
-101.137323650931
 10
53.32439370411682
 20
-101.137323650931
 10
53.10011798802706
 20
-101.137323650931
 10
53.10011798802706
 20
-101.137323650931
 97
        0
 97
        0
 75
     2
 76
     1
 98
        0
  0
SPLINE
  5
6D
330
67
100
AcDbEntity
  8
_U+30EC_U+30A4_U+30E4_U+30FC 1
370
     0
100
AcDbSpline
210
0.0
220
0.0
230
1.0
 70
    11
 71
     3
 72
    53
 73
    49
 74
     0
 42
0.0000000001
 43
0.0000000001
 12
1.0
 22
0.0
 32
0.0
 13
1.0
 23
0.0
 33
0.0
 40
0.0
 40
0.0
 40
0.0
 40
0.0
 40
1.0
 40
1.0
 40
1.0
 40
2.0
 40
2.0
 40
2.0
 40
3.0
 40
3.0
 40
3.0
 40
4.0
 40
4.0
 40
4.0
 40
5.0
 40
5.0
 40
5.0
 40
6.0
 40
6.0
 40
6.0
 40
7.0
 40
7.0
 40
7.0
 40
8.0
 40
8.0
 40
8.0
 40
9.0
 40
9.0
 40
9.0
 40
10.0
 40
10.0
 40
10.0
 40
11.0
 40
11.0
 40
11.0
 40
12.0
 40
12.0
 40
12.0
 40
13.0
 40
13.0
 40
13.0
 40
14.0
 40
14.0
 40
14.0
 40
15.0
 40
15.0
 40
15.0
 40
16.0
 40
16.0
 40
16.0
 40
16.0
 10
54.30659042696155
 20
-101.1879665545641
 30
0.0
 10
54.22838675944638
 20
-101.1879665545641
 30
0.0
 10
54.12675644263151
 20
-101.1710855866864
 30
0.0
 10
54.02512612581664
 20
-101.1076958297578
 30
0.0
 10
53.85183782290857
 20
-100.9977972837783
 30
0.0
 10
53.83047823090002
 20
-100.8665391457903
 30
0.0
 10
53.81153020573115
 20
-100.758707657102
 30
0.0
 10
53.81153020573115
 20
-100.758707657102
 30
0.0
 10
54.03373886452976
 20
-100.758707657102
 30
0.0
 10
54.03373886452976
 20
-100.758707657102
 30
0.0
 10
54.08851588274523
 20
-100.9574896666009
 30
0.0
 10
54.21563990615095
 20
-100.9871174877741
 30
0.0
 10
54.3086574842527
 20
-100.9871174877741
 30
0.0
 10
54.44818385140532
 20
-100.9871174877741
 30
0.0
 10
54.60045707185336
 20
-100.8875542282503
 30
0.0
 10
54.60045707185336
 20
-100.655010282996
 30
0.0
 10
54.60045707185336
 20
-100.3990396884419
 30
0.0
 10
54.42062308752332
 20
-100.3291042500913
 30
0.0
 10
54.30004474553957
 20
-100.3291042500913
 30
0.0
 10
54.26834986707527
 20
-100.3291042500913
 30
0.0
 10
54.12675644263151
 20
-100.3291042500913
 30
0.0
 10
54.03787297911206
 20
-100.4582953307882
 30
0.0
 10
54.03787297911206
 20
-100.4582953307882
 30
0.0
 10
53.86217310936432
 20
-100.4393473056193
 30
0.0
 10
53.86217310936432
 20
-100.4393473056193
 30
0.0
 10
53.86217310936432
 20
-100.4393473056193
 30
0.0
 10
53.98275145134807
 20
-99.59288734489346
 30
0.0
 10
53.98275145134807
 20
-99.59288734489346
 30
0.0
 10
53.98275145134807
 20
-99.59288734489346
 30
0.0
 10
54.76134303101453
 20
-99.59288734489346
 30
0.0
 10
54.76134303101453
 20
-99.59288734489346
 30
0.0
 10
54.76134303101453
 20
-99.59288734489346
 30
0.0
 10
54.76134303101453
 20
-99.78753523981007
 30
0.0
 10
54.76134303101453
 20
-99.78753523981007
 30
0.0
 10
54.76134303101453
 20
-99.78753523981007
 30
0.0
 10
54.14570446780039
 20
-99.78753523981007
 30
0.0
 10
54.14570446780039
 20
-99.78753523981007
 30
0.0
 10
54.14570446780039
 20
-99.78753523981007
 30
0.0
 10
54.08024765358063
 20
-100.2105929653987
 30
0.0
 10
54.08024765358063
 20
-100.2105929653987
 30
0.0
 10
54.14157035321809
 20
-100.1768310296433
 30
0.0
 10
54.22390813531555
 20
-100.1365234124659
 30
0.0
 10
54.34241942000815
 20
-100.1365234124659
 30
0.0
 10
54.59632295727106
 20
-100.1365234124659
 30
0.0
 10
54.83334552665625
 20
-100.3229030782179
 30
0.0
 10
54.83334552665625
 20
-100.6360622578271
 30
0.0
 10
54.83334552665625
 20
-100.9533555520186
 30
0.0
 10
54.60906981056649
 20
-101.1879665545641
 30
0.0
 10
54.30659042696155
 20
-101.1879665545641
 30
0.0
  0
HATCH
  5
6E
330
67
100
AcDbEntity
  8
_U+30EC_U+30A4_U+30E4_U+30FC 1
 62
   179
420
  2234388
100
AcDbHatch
 10
0.0
 20
0.0
 30
0.0
210
0.0
220
0.0
230
1.0
  2
SOLID
 70
     1
 71
     0
 91
        1
 92
        1
 93
        1
 72
     4
 94
        3
 73
     0
 74
     1
 95
       53
 96
       49
 40
0.0
 40
0.0
 40
0.0
 40
0.0
 40
1.0
 40
1.0
 40
1.0
 40
2.0
 40
2.0
 40
2.0
 40
3.0
 40
3.0
 40
3.0
 40
4.0
 40
4.0
 40
4.0
 40
5.0
 40
5.0
 40
5.0
 40
6.0
 40
6.0
 40
6.0
 40
7.0
 40
7.0
 40
7.0
 40
8.0
 40
8.0
 40
8.0
 40
9.0
 40
9.0
 40
9.0
 40
10.0
 40
10.0
 40
10.0
 40
11.0
 40
11.0
 40
11.0
 40
12.0
 40
12.0
 40
12.0
 40
13.0
 40
13.0
 40
13.0
 40
14.0
 40
14.0
 40
14.0
 40
15.0
 40
15.0
 40
15.0
 40
16.0
 40
16.0
 40
16.0
 40
16.0
 10
54.30659042696155
 20
-101.1879665545641
 10
54.22838675944638
 20
-101.1879665545641
 10
54.12675644263151
 20
-101.1710855866864
 10
54.02512612581664
 20
-101.1076958297578
 10
53.85183782290857
 20
-100.9977972837783
 10
53.83047823090002
 20
-100.8665391457903
 10
53.81153020573115
 20
-100.758707657102
 10
53.81153020573115
 20
-100.758707657102
 10
54.03373886452976
 20
-100.758707657102
 10
54.03373886452976
 20
-100.758707657102
 10
54.08851588274523
 20
-100.9574896666009
 10
54.21563990615095
 20
-100.9871174877741
 10
54.3086574842527
 20
-100.9871174877741
 10
54.44818385140532
 20
-100.9871174877741
 10
54.60045707185336
 20
-100.8875542282503
 10
54.60045707185336
 20
-100.655010282996
 10
54.60045707185336
 20
-100.3990396884419
 10
54.42062308752332
 20
-100.3291042500913
 10
54.30004474553957
 20
-100.3291042500913
 10
54.26834986707527
 20
-100.3291042500913
 10
54.12675644263151
 20
-100.3291042500913
 10
54.03787297911206
 20
-100.4582953307882
 10
54.03787297911206
 20
-100.4582953307882
 10
53.86217310936432
 20
-100.4393473056193
 10
53.86217310936432
 20
-100.4393473056193
 10
53.86217310936432
 20
-100.4393473056193
 10
53.98275145134807
 20
-99.59288734489346
 10
53.98275145134807
 20
-99.59288734489346
 10
53.98275145134807
 20
-99.59288734489346
 10
54.76134303101453
 20
-99.59288734489346
 10
54.76134303101453
 20
-99.59288734489346
 10
54.76134303101453
 20
-99.59288734489346
 10
54.76134303101453
 20
-99.78753523981007
 10
54.76134303101453
 20
-99.78753523981007
 10
54.76134303101453
 20
-99.78753523981007
 10
54.14570446780039
 20
-99.78753523981007
 10
54.14570446780039
 20
-99.78753523981007
 10
54.14570446780039
 20
-99.78753523981007
 10
54.08024765358063
 20
-100.2105929653987
 10
54.08024765358063
 20
-100.2105929653987
 10
54.14157035321809
 20
-100.1768310296433
 10
54.22390813531555
 20
-100.1365234124659
 10
54.34241942000815
 20
-100.1365234124659
 10
54.59632295727106
 20
-100.1365234124659
 10
54.83334552665625
 20
-100.3229030782179
 10
54.83334552665625
 20
-100.6360622578271
 10
54.83334552665625
 20
-100.9533555520186
 10
54.60906981056649
 20
-101.1879665545641
 10
54.30659042696155
 20
-101.1879665545641
 97
        0
 97
        0
 75
     2
 76
     1
 98
        0
  0
ENDBLK
  5
6A
330
67
100
AcDbEntity
  8
0
100
AcDbBlockEnd
  0
BLOCK
  5
71
330
6F
100
AcDbEntity
  8
0
100
AcDbBlockBegin
  2
block 4
 70
     0
 10
0.0
 20
0.0
 30
0.0
  3
block 4
  1

  0
POLYLINE
  5
73
330
6F
100
AcDbEntity
  8
_U+30EC_U+30A4_U+30E4_U+30FC 1
370
     0
100
AcDb2dPolyline
 66
     1
 10
0.0
 20
0.0
 30
0.0
  0
VERTEX
  5
74
330
73
100
AcDbEntity
  8
_U+30EC_U+30A4_U+30E4_U+30FC 1
370
     0
100
AcDbVertex
100
AcDb2dVertex
 10
63.56941865815278
 20
-100.7904025355663
 30
0.0
  0
VERTEX
  5
75
330
73
100
AcDbEntity
  8
_U+30EC_U+30A4_U+30E4_U+30FC 1
370
     0
100
AcDbVertex
100
AcDb2dVertex
 10
63.56941865815278
 20
-101.137323650931
 30
0.0
  0
VERTEX
  5
76
330
73
100
AcDbEntity
  8
_U+30EC_U+30A4_U+30E4_U+30FC 1
370
     0
100
AcDbVertex
100
AcDb2dVertex
 10
63.351688623485
 20
-101.137323650931
 30
0.0
  0
VERTEX
  5
77
330
73
100
AcDbEntity
  8
_U+30EC_U+30A4_U+30E4_U+30FC 1
370
     0
100
AcDbVertex
100
AcDb2dVertex
 10
63.351688623485
 20
-100.7904025355663
 30
0.0
  0
VERTEX
  5
78
330
73
100
AcDbEntity
  8
_U+30EC_U+30A4_U+30E4_U+30FC 1
370
     0
100
AcDbVertex
100
AcDb2dVertex
 10
62.69574244309343
 20
-100.7904025355663
 30
0.0
  0
VERTEX
  5
79
330
73
100
AcDbEntity
  8
_U+30EC_U+30A4_U+30E4_U+30FC 1
370
     0
100
AcDbVertex
100
AcDb2dVertex
 10
62.69574244309343
 20
-100.5661268194765
 30
0.0
  0
VERTEX
  5
7A
330
73
100
AcDbEntity
  8
_U+30EC_U+30A4_U+30E4_U+30FC 1
370
     0
100
AcDbVertex
100
AcDb2dVertex
 10
63.37477076323617
 20
-99.59288734489346
 30
0.0
  0
VERTEX
  5
7B
330
73
100
AcDbEntity
  8
_U+30EC_U+30A4_U+30E4_U+30FC 1
370
     0
100
AcDbVertex
100
AcDb2dVertex
 10
63.56941865815278
 20
-99.59288734489346
 30
0.0
  0
VERTEX
  5
7C
330
73
100
AcDbEntity
  8
_U+30EC_U+30A4_U+30E4_U+30FC 1
370
     0
100
AcDbVertex
100
AcDb2dVertex
 10
63.56941865815278
 20
-100.5916205260674
 30
0.0
  0
VERTEX
  5
7D
330
73
100
AcDbEntity
  8
_U+30EC_U+30A4_U+30E4_U+30FC 1
370
     0
100
AcDbVertex
100
AcDb2dVertex
 10
63.77681340636483
 20
-100.5916205260674
 30
0.0
  0
VERTEX
  5
7E
330
73
100
AcDbEntity
  8
_U+30EC_U+30A4_U+30E4_U+30FC 1
370
     0
100
AcDbVertex
100
AcDb2dVertex
 10
63.77681340636483
 20
-100.7904025355663
 30
0.0
  0
VERTEX
  5
7F
330
73
100
AcDbEntity
  8
_U+30EC_U+30A4_U+30E4_U+30FC 1
370
     0
100
AcDbVertex
100
AcDb2dVertex
 10
63.56941865815278
 20
-100.7904025355663
 30
0.0
  0
SEQEND
  5
80
330
73
100
AcDbEntity
  8
_U+30EC_U+30A4_U+30E4_U+30FC 1
370
     0
  0
POLYLINE
  5
81
330
6F
100
AcDbEntity
  8
_U+30EC_U+30A4_U+30E4_U+30FC 1
370
     0
100
AcDb2dPolyline
 66
     1
 10
0.0
 20
0.0
 30
0.0
  0
VERTEX
  5
82
330
81
100
AcDbEntity
  8
_U+30EC_U+30A4_U+30E4_U+30FC 1
370
     0
100
AcDbVertex
100
AcDb2dVertex
 10
63.351688623485
 20
-99.9356743456758
 30
0.0
  0
VERTEX
  5
83
330
81
100
AcDbEntity
  8
_U+30EC_U+30A4_U+30E4_U+30FC 1
370
     0
100
AcDbVertex
100
AcDb2dVertex
 10
62.89452445259234
 20
-100.5916205260674
 30
0.0
  0
VERTEX
  5
84
330
81
100
AcDbEntity
  8
_U+30EC_U+30A4_U+30E4_U+30FC 1
370
     0
100
AcDbVertex
100
AcDb2dVertex
 10
63.351688623485
 20
-100.5916205260674
 30
0.0
  0
VERTEX
  5
85
330
81
100
AcDbEntity
  8
_U+30EC_U+30A4_U+30E4_U+30FC 1
370
     0
100
AcDbVertex
100
AcDb2dVertex
 10
63.351688623485
 20
-99.9356743456758
 30
0.0
  0
SEQEND
  5
86
330
81
100
AcDbEntity
  8
_U+30EC_U+30A4_U+30E4_U+30FC 1
370
     0
  0
HATCH
  5
87
330
6F
100
AcDbEntity
  8
_U+30EC_U+30A4_U+30E4_U+30FC 1
 62
   179
420
  2234388
100
AcDbHatch
 10
0.0
 20
0.0
 30
0.0
210
0.0
220
0.0
230
1.0
  2
SOLID
 70
     1
 71
     0
 91
        2
 92
        1
 93
       11
 72
     1
 10
63.56941865815278
 20
-100.7904025355663
 11
63.56941865815278
 21
-101.137323650931
 72
     1
 10
63.56941865815278
 20
-101.137323650931
 11
63.351688623485
 21
-101.137323650931
 72
     1
 10
63.351688623485
 20
-101.137323650931
 11
63.351688623485
 21
-100.7904025355663
 72
     1
 10
63.351688623485
 20
-100.7904025355663
 11
62.69574244309343
 21
-100.7904025355663
 72
     1
 10
62.69574244309343
 20
-100.7904025355663
 11
62.69574244309343
 21
-100.5661268194765
 72
     1
 10
62.69574244309343
 20
-100.5661268194765
 11
63.37477076323617
 21
-99.59288734489346
 72
     1
 10
63.37477076323617
 20
-99.59288734489346
 11
63.56941865815278
 21
-99.59288734489346
 72
     1
 10
63.56941865815278
 20
-99.59288734489346
 11
63.56941865815278
 21
-100.5916205260674
 72
     1
 10
63.56941865815278
 20
-100.5916205260674
 11
63.77681340636483
 21
-100.5916205260674
 72
     1
 10
63.77681340636483
 20
-100.5916205260674
 11
63.77681340636483
 21
-100.7904025355663
 72
     1
 10
63.77681340636483
 20
-100.7904025355663
 11
63.56941865815278
 21
-100.7904025355663
 97
        0
 92
        1
 93
        3
 72
     1
 10
63.351688623485
 20
-99.9356743456758
 11
62.89452445259234
 21
-100.5916205260674
 72
     1
 10
62.89452445259234
 20
-100.5916205260674
 11
63.351688623485
 21
-100.5916205260674
 72
     1
 10
63.351688623485
 20
-100.5916205260674
 11
63.351688623485
 21
-99.9356743456758
 97
        0
 75
     2
 76
     1
 98
        0
  0
ENDBLK
  5
72
330
6F
100
AcDbEntity
  8
0
100
AcDbBlockEnd
  0
BLOCK
  5
9D
330
9B
100
AcDbEntity
  8
0
100
AcDbBlockBegin
  2
block 5
 70
     0
 10
0.0
 20
0.0
 30
0.0
  3
block 5
  1

  0
SPLINE
  5
9F
330
9B
100
AcDbEntity
  8
_U+30EC_U+30A4_U+30E4_U+30FC 1
370
     0
100
AcDbSpline
210
0.0
220
0.0
230
1.0
 70
    11
 71
     3
 72
    26
 73
    22
 74
     0
 42
0.0000000001
 43
0.0000000001
 12
1.0
 22
0.0
 32
0.0
 13
1.0
 23
0.0
 33
0.0
 40
0.0
 40
0.0
 40
0.0
 40
0.0
 40
1.0
 40
1.0
 40
1.0
 40
2.0
 40
2.0
 40
2.0
 40
3.0
 40
3.0
 40
3.0
 40
4.0
 40
4.0
 40
4.0
 40
5.0
 40
5.0
 40
5.0
 40
6.0
 40
6.0
 40
6.0
 40
7.0
 40
7.0
 40
7.0
 40
7.0
 10
79.61822372141489
 20
-91.64918617500437
 30
0.0
 10
79.61822372141489
 20
-91.64918617500437
 30
0.0
 10
78.51441512794085
 20
-91.64918617500437
 30
0.0
 10
78.51441512794085
 20
-91.64918617500437
 30
0.0
 10
78.51441512794085
 20
-91.64918617500437
 30
0.0
 10
78.51441512794085
 20
-91.97922632249131
 30
0.0
 10
78.51441512794085
 20
-91.97922632249131
 30
0.0
 10
78.51441512794085
 20
-91.97922632249131
 30
0.0
 10
78.3662760220751
 20
-91.97922632249131
 30
0.0
 10
78.3662760220751
 20
-91.97922632249131
 30
0.0
 10
78.35111760194
 20
-91.64711911771323
 30
0.0
 10
78.18850909503621
 20
-91.60061032866236
 30
0.0
 10
78.07413192492592
 20
-91.5709825074892
 30
0.0
 10
78.07413192492592
 20
-91.5709825074892
 30
0.0
 10
78.07413192492592
 20
-91.42491045891461
 30
0.0
 10
78.07413192492592
 20
-91.42491045891461
 30
0.0
 10
78.07413192492592
 20
-91.42491045891461
 30
0.0
 10
79.61822372141489
 20
-91.42491045891461
 30
0.0
 10
79.61822372141489
 20
-91.42491045891461
 30
0.0
 10
79.61822372141489
 20
-91.42491045891461
 30
0.0
 10
79.61822372141489
 20
-91.64918617500437
 30
0.0
 10
79.61822372141489
 20
-91.64918617500437
 30
0.0
  0
HATCH
  5
A0
330
9B
100
AcDbEntity
  8
_U+30EC_U+30A4_U+30E4_U+30FC 1
 62
   179
420
  2234388
100
AcDbHatch
 10
0.0
 20
0.0
 30
0.0
210
0.0
220
0.0
230
1.0
  2
SOLID
 70
     1
 71
     0
 91
        1
 92
        1
 93
        1
 72
     4
 94
        3
 73
     0
 74
     1
 95
       26
 96
       22
 40
0.0
 40
0.0
 40
0.0
 40
0.0
 40
1.0
 40
1.0
 40
1.0
 40
2.0
 40
2.0
 40
2.0
 40
3.0
 40
3.0
 40
3.0
 40
4.0
 40
4.0
 40
4.0
 40
5.0
 40
5.0
 40
5.0
 40
6.0
 40
6.0
 40
6.0
 40
7.0
 40
7.0
 40
7.0
 40
7.0
 10
79.61822372141489
 20
-91.64918617500437
 10
79.61822372141489
 20
-91.64918617500437
 10
78.51441512794085
 20
-91.64918617500437
 10
78.51441512794085
 20
-91.64918617500437
 10
78.51441512794085
 20
-91.64918617500437
 10
78.51441512794085
 20
-91.97922632249131
 10
78.51441512794085
 20
-91.97922632249131
 10
78.51441512794085
 20
-91.97922632249131
 10
78.3662760220751
 20
-91.97922632249131
 10
78.3662760220751
 20
-91.97922632249131
 10
78.35111760194
 20
-91.64711911771323
 10
78.18850909503621
 20
-91.60061032866236
 10
78.07413192492592
 20
-91.5709825074892
 10
78.07413192492592
 20
-91.5709825074892
 10
78.07413192492592
 20
-91.42491045891461
 10
78.07413192492592
 20
-91.42491045891461
 10
78.07413192492592
 20
-91.42491045891461
 10
79.61822372141489
 20
-91.42491045891461
 10
79.61822372141489
 20
-91.42491045891461
 10
79.61822372141489
 20
-91.42491045891461
 10
79.61822372141489
 20
-91.64918617500437
 10
79.61822372141489
 20
-91.64918617500437
 97
        0
 97
        0
 75
     2
 76
     1
 98
        0
  0
SPLINE
  5
A1
330
9B
100
AcDbEntity
  8
_U+30EC_U+30A4_U+30E4_U+30FC 1
370
     0
100
AcDbSpline
210
0.0
220
0.0
230
1.0
 70
    11
 71
     3
 72
    53
 73
    49
 74
     0
 42
0.0000000001
 43
0.0000000001
 12
1.0
 22
0.0
 32
0.0
 13
1.0
 23
0.0
 33
0.0
 40
0.0
 40
0.0
 40
0.0
 40
0.0
 40
1.0
 40
1.0
 40
1.0
 40
2.0
 40
2.0
 40
2.0
 40
3.0
 40
3.0
 40
3.0
 40
4.0
 40
4.0
 40
4.0
 40
5.0
 40
5.0
 40
5.0
 40
6.0
 40
6.0
 40
6.0
 40
7.0
 40
7.0
 40
7.0
 40
8.0
 40
8.0
 40
8.0
 40
9.0
 40
9.0
 40
9.0
 40
10.0
 40
10.0
 40
10.0
 40
11.0
 40
11.0
 40
11.0
 40
12.0
 40
12.0
 40
12.0
 40
13.0
 40
13.0
 40
13.0
 40
14.0
 40
14.0
 40
14.0
 40
15.0
 40
15.0
 40
15.0
 40
16.0
 40
16.0
 40
16.0
 40
16.0
 10
79.6692111345966
 20
-90.44271373606988
 30
0.0
 10
79.6692111345966
 20
-90.52091740358506
 30
0.0
 10
79.65198565717034
 20
-90.62254772039992
 30
0.0
 10
79.58859590024174
 20
-90.7241780372148
 30
0.0
 10
79.47904186381079
 20
-90.89746634012286
 30
0.0
 10
79.34743921627425
 20
-90.91882593213141
 30
0.0
 10
79.23995223713446
 20
-90.93777395730028
 30
0.0
 10
79.23995223713446
 20
-90.93777395730028
 30
0.0
 10
79.23995223713446
 20
-90.71556529850167
 30
0.0
 10
79.23995223713446
 20
-90.71556529850167
 30
0.0
 10
79.43838973708485
 20
-90.6607882802862
 30
0.0
 10
79.468017558258
 20
-90.53366425688047
 30
0.0
 10
79.468017558258
 20
-90.44064667877873
 30
0.0
 10
79.468017558258
 20
-90.30112031162611
 30
0.0
 10
79.3687988082828
 20
-90.14884709117807
 30
0.0
 10
79.13591035347991
 20
-90.14884709117807
 30
0.0
 10
78.88028426847438
 20
-90.14884709117807
 30
0.0
 10
78.81000432057527
 20
-90.32868107550811
 30
0.0
 10
78.81000432057527
 20
-90.44925941749186
 30
0.0
 10
78.81000432057527
 20
-90.48095429595615
 30
0.0
 10
78.81000432057527
 20
-90.62254772039992
 30
0.0
 10
78.93953991082067
 20
-90.71143118391937
 30
0.0
 10
78.93953991082067
 20
-90.71143118391937
 30
0.0
 10
78.92024737610328
 20
-90.8871310536671
 30
0.0
 10
78.92024737610328
 20
-90.8871310536671
 30
0.0
 10
78.92024737610328
 20
-90.8871310536671
 30
0.0
 10
78.07413192492592
 20
-90.76655271168336
 30
0.0
 10
78.07413192492592
 20
-90.76655271168336
 30
0.0
 10
78.07413192492592
 20
-90.76655271168336
 30
0.0
 10
78.07413192492592
 20
-89.9879611320169
 30
0.0
 10
78.07413192492592
 20
-89.9879611320169
 30
0.0
 10
78.07413192492592
 20
-89.9879611320169
 30
0.0
 10
78.26843531029401
 20
-89.9879611320169
 30
0.0
 10
78.26843531029401
 20
-89.9879611320169
 30
0.0
 10
78.26843531029401
 20
-89.9879611320169
 30
0.0
 10
78.26843531029401
 20
-90.60359969523105
 30
0.0
 10
78.26843531029401
 20
-90.60359969523105
 30
0.0
 10
78.26843531029401
 20
-90.60359969523105
 30
0.0
 10
78.69149303588269
 20
-90.6690565094508
 30
0.0
 10
78.69149303588269
 20
-90.6690565094508
 30
0.0
 10
78.65773110012724
 20
-90.60773380981335
 30
0.0
 10
78.61776799249834
 20
-90.52539602771587
 30
0.0
 10
78.61776799249834
 20
-90.40688474302328
 30
0.0
 10
78.61776799249834
 20
-90.15298120576037
 30
0.0
 10
78.80380314870183
 20
-89.91595863637518
 30
0.0
 10
79.11730683785956
 20
-89.91595863637518
 30
0.0
 10
79.43425562250255
 20
-89.91595863637518
 30
0.0
 10
79.6692111345966
 20
-90.14023435246494
 30
0.0
 10
79.6692111345966
 20
-90.44271373606988
 30
0.0
  0
HATCH
  5
A2
330
9B
100
AcDbEntity
  8
_U+30EC_U+30A4_U+30E4_U+30FC 1
 62
   179
420
  2234388
100
AcDbHatch
 10
0.0
 20
0.0
 30
0.0
210
0.0
220
0.0
230
1.0
  2
SOLID
 70
     1
 71
     0
 91
        1
 92
        1
 93
        1
 72
     4
 94
        3
 73
     0
 74
     1
 95
       53
 96
       49
 40
0.0
 40
0.0
 40
0.0
 40
0.0
 40
1.0
 40
1.0
 40
1.0
 40
2.0
 40
2.0
 40
2.0
 40
3.0
 40
3.0
 40
3.0
 40
4.0
 40
4.0
 40
4.0
 40
5.0
 40
5.0
 40
5.0
 40
6.0
 40
6.0
 40
6.0
 40
7.0
 40
7.0
 40
7.0
 40
8.0
 40
8.0
 40
8.0
 40
9.0
 40
9.0
 40
9.0
 40
10.0
 40
10.0
 40
10.0
 40
11.0
 40
11.0
 40
11.0
 40
12.0
 40
12.0
 40
12.0
 40
13.0
 40
13.0
 40
13.0
 40
14.0
 40
14.0
 40
14.0
 40
15.0
 40
15.0
 40
15.0
 40
16.0
 40
16.0
 40
16.0
 40
16.0
 10
79.6692111345966
 20
-90.44271373606988
 10
79.6692111345966
 20
-90.52091740358506
 10
79.65198565717034
 20
-90.62254772039992
 10
79.58859590024174
 20
-90.7241780372148
 10
79.47904186381079
 20
-90.89746634012286
 10
79.34743921627425
 20
-90.91882593213141
 10
79.23995223713446
 20
-90.93777395730028
 10
79.23995223713446
 20
-90.93777395730028
 10
79.23995223713446
 20
-90.71556529850167
 10
79.23995223713446
 20
-90.71556529850167
 10
79.43838973708485
 20
-90.6607882802862
 10
79.468017558258
 20
-90.53366425688047
 10
79.468017558258
 20
-90.44064667877873
 10
79.468017558258
 20
-90.30112031162611
 10
79.3687988082828
 20
-90.14884709117807
 10
79.13591035347991
 20
-90.14884709117807
 10
78.88028426847438
 20
-90.14884709117807
 10
78.81000432057527
 20
-90.32868107550811
 10
78.81000432057527
 20
-90.44925941749186
 10
78.81000432057527
 20
-90.48095429595615
 10
78.81000432057527
 20
-90.62254772039992
 10
78.93953991082067
 20
-90.71143118391937
 10
78.93953991082067
 20
-90.71143118391937
 10
78.92024737610328
 20
-90.8871310536671
 10
78.92024737610328
 20
-90.8871310536671
 10
78.92024737610328
 20
-90.8871310536671
 10
78.07413192492592
 20
-90.76655271168336
 10
78.07413192492592
 20
-90.76655271168336
 10
78.07413192492592
 20
-90.76655271168336
 10
78.07413192492592
 20
-89.9879611320169
 10
78.07413192492592
 20
-89.9879611320169
 10
78.07413192492592
 20
-89.9879611320169
 10
78.26843531029401
 20
-89.9879611320169
 10
78.26843531029401
 20
-89.9879611320169
 10
78.26843531029401
 20
-89.9879611320169
 10
78.26843531029401
 20
-90.60359969523105
 10
78.26843531029401
 20
-90.60359969523105
 10
78.26843531029401
 20
-90.60359969523105
 10
78.69149303588269
 20
-90.6690565094508
 10
78.69149303588269
 20
-90.6690565094508
 10
78.65773110012724
 20
-90.60773380981335
 10
78.61776799249834
 20
-90.52539602771587
 10
78.61776799249834
 20
-90.40688474302328
 10
78.61776799249834
 20
-90.15298120576037
 10
78.80380314870183
 20
-89.91595863637518
 10
79.11730683785956
 20
-89.91595863637518
 10
79.43425562250255
 20
-89.91595863637518
 10
79.6692111345966
 20
-90.14023435246494
 10
79.6692111345966
 20
-90.44271373606988
 97
        0
 97
        0
 75
     2
 76
     1
 98
        0
  0
POLYLINE
  5
A3
330
9B
100
AcDbEntity
  8
_U+30EC_U+30A4_U+30E4_U+30FC 1
370
     0
100
AcDb2dPolyline
 66
     1
 10
0.0
 20
0.0
 30
0.0
  0
VERTEX
  5
A4
330
A3
100
AcDbEntity
  8
_U+30EC_U+30A4_U+30E4_U+30FC 1
370
     0
100
AcDbVertex
100
AcDb2dVertex
 10
79.61822372141489
 20
-89.68685978660606
 30
0.0
  0
VERTEX
  5
A5
330
A3
100
AcDbEntity
  8
_U+30EC_U+30A4_U+30E4_U+30FC 1
370
     0
100
AcDbVertex
100
AcDb2dVertex
 10
79.36673175099165
 20
-89.68685978660606
 30
0.0
  0
VERTEX
  5
A6
330
A3
100
AcDbEntity
  8
_U+30EC_U+30A4_U+30E4_U+30FC 1
370
     0
100
AcDbVertex
100
AcDb2dVertex
 10
79.36673175099165
 20
-89.4350233066343
 30
0.0
  0
VERTEX
  5
A7
330
A3
100
AcDbEntity
  8
_U+30EC_U+30A4_U+30E4_U+30FC 1
370
     0
100
AcDbVertex
100
AcDb2dVertex
 10
79.61822372141489
 20
-89.4350233066343
 30
0.0
  0
VERTEX
  5
A8
330
A3
100
AcDbEntity
  8
_U+30EC_U+30A4_U+30E4_U+30FC 1
370
     0
100
AcDbVertex
100
AcDb2dVertex
 10
79.61822372141489
 20
-89.68685978660606
 30
0.0
  0
SEQEND
  5
A9
330
A3
100
AcDbEntity
  8
_U+30EC_U+30A4_U+30E4_U+30FC 1
370
     0
  0
HATCH
  5
AA
330
9B
100
AcDbEntity
  8
_U+30EC_U+30A4_U+30E4_U+30FC 1
 62
   179
420
  2234388
100
AcDbHatch
 10
0.0
 20
0.0
 30
0.0
210
0.0
220
0.0
230
1.0
  2
SOLID
 70
     1
 71
     0
 91
        1
 92
        1
 93
        4
 72
     1
 10
79.61822372141489
 20
-89.68685978660606
 11
79.36673175099165
 21
-89.68685978660606
 72
     1
 10
79.36673175099165
 20
-89.68685978660606
 11
79.36673175099165
 21
-89.4350233066343
 72
     1
 10
79.36673175099165
 20
-89.4350233066343
 11
79.61822372141489
 21
-89.4350233066343
 72
     1
 10
79.61822372141489
 20
-89.4350233066343
 11
79.61822372141489
 21
-89.68685978660606
 97
        0
 75
     2
 76
     1
 98
        0
  0
SPLINE
  5
AB
330
9B
100
AcDbEntity
  8
_U+30EC_U+30A4_U+30E4_U+30FC 1
370
     0
100
AcDbSpline
210
0.0
220
0.0
230
1.0
 70
    11
 71
     3
 72
    44
 73
    40
 74
     0
 42
0.0000000001
 43
0.0000000001
 12
1.0
 22
0.0
 32
0.0
 13
1.0
 23
0.0
 33
0.0
 40
0.0
 40
0.0
 40
0.0
 40
0.0
 40
1.0
 40
1.0
 40
1.0
 40
2.0
 40
2.0
 40
2.0
 40
3.0
 40
3.0
 40
3.0
 40
4.0
 40
4.0
 40
4.0
 40
5.0
 40
5.0
 40
5.0
 40
6.0
 40
6.0
 40
6.0
 40
7.0
 40
7.0
 40
7.0
 40
8.0
 40
8.0
 40
8.0
 40
9.0
 40
9.0
 40
9.0
 40
10.0
 40
10.0
 40
10.0
 40
11.0
 40
11.0
 40
11.0
 40
12.0
 40
12.0
 40
12.0
 40
13.0
 40
13.0
 40
13.0
 40
13.0
 10
79.03669160350472
 20
-88.60578882333466
 30
0.0
 10
79.19516599582622
 20
-88.82351885800246
 30
0.0
 10
79.26958005830761
 20
-88.91653643610421
 30
0.0
 10
79.412896030494
 20
-88.96545679199475
 30
0.0
 10
79.412896030494
 20
-88.96545679199475
 30
0.0
 10
79.412896030494
 20
-88.18686521232829
 30
0.0
 10
79.412896030494
 20
-88.18686521232829
 30
0.0
 10
79.412896030494
 20
-88.18686521232829
 30
0.0
 10
79.61822372141489
 20
-88.18686521232829
 30
0.0
 10
79.61822372141489
 20
-88.18686521232829
 30
0.0
 10
79.61822372141489
 20
-88.18686521232829
 30
0.0
 10
79.61822372141489
 20
-89.21488170512684
 30
0.0
 10
79.61822372141489
 20
-89.21488170512684
 30
0.0
 10
79.26062281004596
 20
-89.18318682666253
 30
0.0
 10
79.18276365207932
 20
-89.11773001244279
 30
0.0
 10
78.88441838305668
 20
-88.73256833719186
 30
0.0
 10
78.68529186400923
 20
-88.4765977426378
 30
0.0
 10
78.61776799249834
 20
-88.41114092841805
 30
0.0
 10
78.47996417308835
 20
-88.41114092841805
 30
0.0
 10
78.36145288839575
 20
-88.41114092841805
 30
0.0
 10
78.23053925995626
 20
-88.48314342405978
 30
0.0
 10
78.23053925995626
 20
-88.67985837626755
 30
0.0
 10
78.23053925995626
 20
-88.9399630854039
 30
0.0
 10
78.46136065746799
 20
-88.9482313145685
 30
0.0
 10
78.57780488486944
 20
-88.95270993869933
 30
0.0
 10
78.57780488486944
 20
-88.95270993869933
 30
0.0
 10
78.57780488486944
 20
-89.17698565478909
 30
0.0
 10
78.57780488486944
 20
-89.17698565478909
 30
0.0
 10
78.4503363519152
 20
-89.16837291607597
 30
0.0
 10
78.3387152581931
 20
-89.1576931200717
 30
0.0
 10
78.2202039735005
 20
-89.07742239526537
 30
0.0
 10
78.05897350479081
 20
-88.9675238492859
 30
0.0
 10
78.02521156903536
 20
-88.78114418353388
 30
0.0
 10
78.02521156903536
 20
-88.66504446568096
 30
0.0
 10
78.02521156903536
 20
-88.38771427911836
 30
0.0
 10
78.20917966794771
 20
-88.18031953090632
 30
0.0
 10
78.48203123037949
 20
-88.18031953090632
 30
0.0
 10
78.71078557060008
 20
-88.18031953090632
 30
0.0
 10
78.81000432057527
 20
-88.29676375830776
 30
0.0
 10
79.03669160350472
 20
-88.60578882333466
 30
0.0
  0
HATCH
  5
AC
330
9B
100
AcDbEntity
  8
_U+30EC_U+30A4_U+30E4_U+30FC 1
 62
   179
420
  2234388
100
AcDbHatch
 10
0.0
 20
0.0
 30
0.0
210
0.0
220
0.0
230
1.0
  2
SOLID
 70
     1
 71
     0
 91
        1
 92
        1
 93
        1
 72
     4
 94
        3
 73
     0
 74
     1
 95
       44
 96
       40
 40
0.0
 40
0.0
 40
0.0
 40
0.0
 40
1.0
 40
1.0
 40
1.0
 40
2.0
 40
2.0
 40
2.0
 40
3.0
 40
3.0
 40
3.0
 40
4.0
 40
4.0
 40
4.0
 40
5.0
 40
5.0
 40
5.0
 40
6.0
 40
6.0
 40
6.0
 40
7.0
 40
7.0
 40
7.0
 40
8.0
 40
8.0
 40
8.0
 40
9.0
 40
9.0
 40
9.0
 40
10.0
 40
10.0
 40
10.0
 40
11.0
 40
11.0
 40
11.0
 40
12.0
 40
12.0
 40
12.0
 40
13.0
 40
13.0
 40
13.0
 40
13.0
 10
79.03669160350472
 20
-88.60578882333466
 10
79.19516599582622
 20
-88.82351885800246
 10
79.26958005830761
 20
-88.91653643610421
 10
79.412896030494
 20
-88.96545679199475
 10
79.412896030494
 20
-88.96545679199475
 10
79.412896030494
 20
-88.18686521232829
 10
79.412896030494
 20
-88.18686521232829
 10
79.412896030494
 20
-88.18686521232829
 10
79.61822372141489
 20
-88.18686521232829
 10
79.61822372141489
 20
-88.18686521232829
 10
79.61822372141489
 20
-88.18686521232829
 10
79.61822372141489
 20
-89.21488170512684
 10
79.61822372141489
 20
-89.21488170512684
 10
79.26062281004596
 20
-89.18318682666253
 10
79.18276365207932
 20
-89.11773001244279
 10
78.88441838305668
 20
-88.73256833719186
 10
78.68529186400923
 20
-88.4765977426378
 10
78.61776799249834
 20
-88.41114092841805
 10
78.47996417308835
 20
-88.41114092841805
 10
78.36145288839575
 20
-88.41114092841805
 10
78.23053925995626
 20
-88.48314342405978
 10
78.23053925995626
 20
-88.67985837626755
 10
78.23053925995626
 20
-88.9399630854039
 10
78.46136065746799
 20
-88.9482313145685
 10
78.57780488486944
 20
-88.95270993869933
 10
78.57780488486944
 20
-88.95270993869933
 10
78.57780488486944
 20
-89.17698565478909
 10
78.57780488486944
 20
-89.17698565478909
 10
78.4503363519152
 20
-89.16837291607597
 10
78.3387152581931
 20
-89.1576931200717
 10
78.2202039735005
 20
-89.07742239526537
 10
78.05897350479081
 20
-88.9675238492859
 10
78.02521156903536
 20
-88.78114418353388
 10
78.02521156903536
 20
-88.66504446568096
 10
78.02521156903536
 20
-88.38771427911836
 10
78.20917966794771
 20
-88.18031953090632
 10
78.48203123037949
 20
-88.18031953090632
 10
78.71078557060008
 20
-88.18031953090632
 10
78.81000432057527
 20
-88.29676375830776
 10
79.03669160350472
 20
-88.60578882333466
 97
        0
 97
        0
 75
     2
 76
     1
 98
        0
  0
ENDBLK
  5
9E
330
9B
100
AcDbEntity
  8
0
100
AcDbBlockEnd
  0
BLOCK
  5
BD
330
BB
100
AcDbEntity
  8
0
100
AcDbBlockBegin
  2
block 6
 70
     0
 10
0.0
 20
0.0
 30
0.0
  3
block 6
  1

  0
SPLINE
  5
BF
330
BB
100
AcDbEntity
  8
_U+30EC_U+30A4_U+30E4_U+30FC 1
370
     0
100
AcDbSpline
210
0.0
220
0.0
230
1.0
 70
    11
 71
     3
 72
    62
 73
    58
 74
     0
 42
0.0000000001
 43
0.0000000001
 12
1.0
 22
0.0
 32
0.0
 13
1.0
 23
0.0
 33
0.0
 40
0.0
 40
0.0
 40
0.0
 40
0.0
 40
1.0
 40
1.0
 40
1.0
 40
2.0
 40
2.0
 40
2.0
 40
3.0
 40
3.0
 40
3.0
 40
4.0
 40
4.0
 40
4.0
 40
5.0
 40
5.0
 40
5.0
 40
6.0
 40
6.0
 40
6.0
 40
7.0
 40
7.0
 40
7.0
 40
8.0
 40
8.0
 40
8.0
 40
9.0
 40
9.0
 40
9.0
 40
10.0
 40
10.0
 40
10.0
 40
11.0
 40
11.0
 40
11.0
 40
12.0
 40
12.0
 40
12.0
 40
13.0
 40
13.0
 40
13.0
 40
14.0
 40
14.0
 40
14.0
 40
15.0
 40
15.0
 40
15.0
 40
16.0
 40
16.0
 40
16.0
 40
17.0
 40
17.0
 40
17.0
 40
18.0
 40
18.0
 40
18.0
 40
19.0
 40
19.0
 40
19.0
 40
19.0
 10
60.61111516496875
 20
-77.22422686871478
 30
0.0
 10
60.51568602002733
 20
-77.22422686871478
 30
0.0
 10
60.29795598535954
 20
-77.20321178625476
 30
0.0
 10
60.17289901924497
 20
-77.01717663005127
 30
0.0
 10
60.0988294663121
 20
-76.90486651723212
 30
0.0
 10
60.0946953517298
 20
-76.80564776725693
 30
0.0
 10
60.0905612371475
 20
-76.72089841831978
 30
0.0
 10
60.0905612371475
 20
-76.72089841831978
 30
0.0
 10
60.31070283865497
 20
-76.72089841831978
 30
0.0
 10
60.31070283865497
 20
-76.72089841831978
 30
0.0
 10
60.31276989594612
 20
-76.79496797125265
 30
0.0
 10
60.32310518240187
 20
-77.02957897379817
 30
0.0
 10
60.60663654083793
 20
-77.02957897379817
 30
0.0
 10
60.7440958506994
 20
-77.02957897379817
 30
0.0
 10
60.89671358069597
 20
-76.95998804499612
 30
0.0
 10
60.89671358069597
 20
-76.73157821432406
 30
0.0
 10
60.89671358069597
 20
-76.61513398692261
 30
0.0
 10
60.85847302080969
 20
-76.56655814058058
 30
0.0
 10
60.82677814234539
 20
-76.53486326211629
 30
0.0
 10
60.75270858941252
 20
-76.46079370918342
 30
0.0
 10
60.63626436201108
 20
-76.448046855888
 30
0.0
 10
60.5814873437956
 20
-76.448046855888
 30
0.0
 10
60.56219480907821
 20
-76.448046855888
 30
0.0
 10
60.52636581603161
 20
-76.45011391317914
 30
0.0
 10
60.49880505214961
 20
-76.45424802776144
 30
0.0
 10
60.49880505214961
 20
-76.45424802776144
 30
0.0
 10
60.49880505214961
 20
-76.25960013284482
 30
0.0
 10
60.49880505214961
 20
-76.25960013284482
 30
0.0
 10
60.53704561203588
 20
-76.2661458142668
 30
0.0
 10
60.57907577695592
 20
-76.26821287155795
 30
0.0
 10
60.5856214583779
 20
-76.26821287155795
 30
0.0
 10
60.65107827259765
 20
-76.26821287155795
 30
0.0
 10
60.84986028209656
 20
-76.2468532795494
 30
0.0
 10
60.84986028209656
 20
-76.01017521971274
 30
0.0
 10
60.84986028209656
 20
-75.83240829267385
 30
0.0
 10
60.71894665365707
 20
-75.77728676490985
 30
0.0
 10
60.60870359812908
 20
-75.77728676490985
 30
0.0
 10
60.34446477441041
 20
-75.77728676490985
 30
0.0
 10
60.33585203569729
 20
-76.01017521971274
 30
0.0
 10
60.33171792111499
 20
-76.08183320580594
 30
0.0
 10
60.33171792111499
 20
-76.08183320580594
 30
0.0
 10
60.12845728748525
 20
-76.08183320580594
 30
0.0
 10
60.12845728748525
 20
-76.08183320580594
 30
0.0
 10
60.13707002619837
 20
-75.95712074923989
 30
0.0
 10
60.16463079008037
 20
-75.58057181270209
 30
0.0
 10
60.6214504514245
 20
-75.58057181270209
 30
0.0
 10
60.84572616751426
 20
-75.58057181270209
 30
0.0
 10
61.08688285148175
 20
-75.7076958361078
 30
0.0
 10
61.08688285148175
 20
-76.00362953829077
 30
0.0
 10
61.08688285148175
 20
-76.19000920404278
 30
0.0
 10
60.99179821608886
 20
-76.27234698614025
 30
0.0
 10
60.89223495656514
 20
-76.33366968577769
 30
0.0
 10
60.95355765620258
 20
-76.3612304496597
 30
0.0
 10
61.13545869782378
 20
-76.44150117446601
 30
0.0
 10
61.13545869782378
 20
-76.71883136102863
 30
0.0
 10
61.13545869782378
 20
-77.05713973768016
 30
0.0
 10
60.88810084198284
 20
-77.22422686871478
 30
0.0
 10
60.61111516496875
 20
-77.22422686871478
 30
0.0
  0
HATCH
  5
C0
330
BB
100
AcDbEntity
  8
_U+30EC_U+30A4_U+30E4_U+30FC 1
 62
   179
420
  2234388
100
AcDbHatch
 10
0.0
 20
0.0
 30
0.0
210
0.0
220
0.0
230
1.0
  2
SOLID
 70
     1
 71
     0
 91
        1
 92
        1
 93
        1
 72
     4
 94
        3
 73
     0
 74
     1
 95
       62
 96
       58
 40
0.0
 40
0.0
 40
0.0
 40
0.0
 40
1.0
 40
1.0
 40
1.0
 40
2.0
 40
2.0
 40
2.0
 40
3.0
 40
3.0
 40
3.0
 40
4.0
 40
4.0
 40
4.0
 40
5.0
 40
5.0
 40
5.0
 40
6.0
 40
6.0
 40
6.0
 40
7.0
 40
7.0
 40
7.0
 40
8.0
 40
8.0
 40
8.0
 40
9.0
 40
9.0
 40
9.0
 40
10.0
 40
10.0
 40
10.0
 40
11.0
 40
11.0
 40
11.0
 40
12.0
 40
12.0
 40
12.0
 40
13.0
 40
13.0
 40
13.0
 40
14.0
 40
14.0
 40
14.0
 40
15.0
 40
15.0
 40
15.0
 40
16.0
 40
16.0
 40
16.0
 40
17.0
 40
17.0
 40
17.0
 40
18.0
 40
18.0
 40
18.0
 40
19.0
 40
19.0
 40
19.0
 40
19.0
 10
60.61111516496875
 20
-77.22422686871478
 10
60.51568602002733
 20
-77.22422686871478
 10
60.29795598535954
 20
-77.20321178625476
 10
60.17289901924497
 20
-77.01717663005127
 10
60.0988294663121
 20
-76.90486651723212
 10
60.0946953517298
 20
-76.80564776725693
 10
60.0905612371475
 20
-76.72089841831978
 10
60.0905612371475
 20
-76.72089841831978
 10
60.31070283865497
 20
-76.72089841831978
 10
60.31070283865497
 20
-76.72089841831978
 10
60.31276989594612
 20
-76.79496797125265
 10
60.32310518240187
 20
-77.02957897379817
 10
60.60663654083793
 20
-77.02957897379817
 10
60.7440958506994
 20
-77.02957897379817
 10
60.89671358069597
 20
-76.95998804499612
 10
60.89671358069597
 20
-76.73157821432406
 10
60.89671358069597
 20
-76.61513398692261
 10
60.85847302080969
 20
-76.56655814058058
 10
60.82677814234539
 20
-76.53486326211629
 10
60.75270858941252
 20
-76.46079370918342
 10
60.63626436201108
 20
-76.448046855888
 10
60.5814873437956
 20
-76.448046855888
 10
60.56219480907821
 20
-76.448046855888
 10
60.52636581603161
 20
-76.45011391317914
 10
60.49880505214961
 20
-76.45424802776144
 10
60.49880505214961
 20
-76.45424802776144
 10
60.49880505214961
 20
-76.25960013284482
 10
60.49880505214961
 20
-76.25960013284482
 10
60.53704561203588
 20
-76.2661458142668
 10
60.57907577695592
 20
-76.26821287155795
 10
60.5856214583779
 20
-76.26821287155795
 10
60.65107827259765
 20
-76.26821287155795
 10
60.84986028209656
 20
-76.2468532795494
 10
60.84986028209656
 20
-76.01017521971274
 10
60.84986028209656
 20
-75.83240829267385
 10
60.71894665365707
 20
-75.77728676490985
 10
60.60870359812908
 20
-75.77728676490985
 10
60.34446477441041
 20
-75.77728676490985
 10
60.33585203569729
 20
-76.01017521971274
 10
60.33171792111499
 20
-76.08183320580594
 10
60.33171792111499
 20
-76.08183320580594
 10
60.12845728748525
 20
-76.08183320580594
 10
60.12845728748525
 20
-76.08183320580594
 10
60.13707002619837
 20
-75.95712074923989
 10
60.16463079008037
 20
-75.58057181270209
 10
60.6214504514245
 20
-75.58057181270209
 10
60.84572616751426
 20
-75.58057181270209
 10
61.08688285148175
 20
-75.7076958361078
 10
61.08688285148175
 20
-76.00362953829077
 10
61.08688285148175
 20
-76.19000920404278
 10
60.99179821608886
 20
-76.27234698614025
 10
60.89223495656514
 20
-76.33366968577769
 10
60.95355765620258
 20
-76.3612304496597
 10
61.13545869782378
 20
-76.44150117446601
 10
61.13545869782378
 20
-76.71883136102863
 10
61.13545869782378
 20
-77.05713973768016
 10
60.88810084198284
 20
-77.22422686871478
 10
60.61111516496875
 20
-77.22422686871478
 97
        0
 97
        0
 75
     2
 76
     1
 98
        0
  0
SPLINE
  5
C1
330
BB
100
AcDbEntity
  8
_U+30EC_U+30A4_U+30E4_U+30FC 1
370
     0
100
AcDbSpline
210
0.0
220
0.0
230
1.0
 70
    11
 71
     3
 72
    29
 73
    25
 74
     0
 42
0.0000000001
 43
0.0000000001
 12
1.0
 22
0.0
 32
0.0
 13
1.0
 23
0.0
 33
0.0
 40
0.0
 40
0.0
 40
0.0
 40
0.0
 40
1.0
 40
1.0
 40
1.0
 40
2.0
 40
2.0
 40
2.0
 40
3.0
 40
3.0
 40
3.0
 40
4.0
 40
4.0
 40
4.0
 40
5.0
 40
5.0
 40
5.0
 40
6.0
 40
6.0
 40
6.0
 40
7.0
 40
7.0
 40
7.0
 40
8.0
 40
8.0
 40
8.0
 40
8.0
 10
62.19413654044105
 20
-76.99581703804272
 30
0.0
 10
62.08596054220421
 20
-77.20527884354591
 30
0.0
 10
61.91267223929614
 20
-77.22422686871478
 30
0.0
 10
61.7962280118947
 20
-77.22422686871478
 30
0.0
 10
61.63534205273353
 20
-77.22422686871478
 30
0.0
 10
61.49374862828976
 20
-77.1777180796639
 30
0.0
 10
61.39866399289686
 20
-76.99581703804272
 30
0.0
 10
61.29496661879084
 20
-76.8011691431261
 30
0.0
 10
61.27567408407344
 20
-76.56449108328944
 30
0.0
 10
61.27567408407344
 20
-76.40153806683712
 30
0.0
 10
61.27567408407344
 20
-76.25753307555368
 30
0.0
 10
61.29289956149969
 20
-76.00569659558191
 30
0.0
 10
61.39866399289686
 20
-75.806914586083
 30
0.0
 10
61.50649548158518
 20
-75.60399846200178
 30
0.0
 10
61.66738144074635
 20
-75.58057181270209
 30
0.0
 10
61.7962280118947
 20
-75.58057181270209
 30
0.0
 10
61.95504691376471
 20
-75.58057181270209
 30
0.0
 10
62.09870739549963
 20
-75.62501354446181
 30
0.0
 10
62.19413654044105
 20
-75.806914586083
 30
0.0
 10
62.29335529041624
 20
-75.99949542370847
 30
0.0
 10
62.31678193971594
 20
-76.22790525438053
 30
0.0
 10
62.31678193971594
 20
-76.40153806683712
 30
0.0
 10
62.31678193971594
 20
-76.57275931245404
 30
0.0
 10
62.29542234770739
 20
-76.80323620041725
 30
0.0
 10
62.19413654044105
 20
-76.99581703804272
 30
0.0
  0
SPLINE
  5
C2
330
BB
100
AcDbEntity
  8
_U+30EC_U+30A4_U+30E4_U+30FC 1
370
     0
100
AcDbSpline
210
0.0
220
0.0
230
1.0
 70
    11
 71
     3
 72
    17
 73
    13
 74
     0
 42
0.0000000001
 43
0.0000000001
 12
1.0
 22
0.0
 32
0.0
 13
1.0
 23
0.0
 33
0.0
 40
0.0
 40
0.0
 40
0.0
 40
0.0
 40
1.0
 40
1.0
 40
1.0
 40
2.0
 40
2.0
 40
2.0
 40
3.0
 40
3.0
 40
3.0
 40
4.0
 40
4.0
 40
4.0
 40
4.0
 10
61.7962280118947
 20
-75.77315265032755
 30
0.0
 10
61.54645858921408
 20
-75.77315265032755
 30
0.0
 10
61.49994980016321
 20
-76.05668400876361
 30
0.0
 10
61.49994980016321
 20
-76.40153806683712
 30
0.0
 10
61.49994980016321
 20
-76.72089841831978
 30
0.0
 10
61.53612330275833
 20
-77.02957897379817
 30
0.0
 10
61.7962280118947
 20
-77.02957897379817
 30
0.0
 10
62.04393037728416
 20
-77.02957897379817
 30
0.0
 10
62.09250622362618
 20
-76.74845918220177
 30
0.0
 10
62.09250622362618
 20
-76.40153806683712
 30
0.0
 10
62.09250622362618
 20
-76.08183320580594
 30
0.0
 10
62.05426566373991
 20
-75.77315265032755
 30
0.0
 10
61.7962280118947
 20
-75.77315265032755
 30
0.0
  0
HATCH
  5
C3
330
BB
100
AcDbEntity
  8
_U+30EC_U+30A4_U+30E4_U+30FC 1
 62
   179
420
  2234388
100
AcDbHatch
 10
0.0
 20
0.0
 30
0.0
210
0.0
220
0.0
230
1.0
  2
SOLID
 70
     1
 71
     0
 91
        2
 92
        1
 93
        1
 72
     4
 94
        3
 73
     0
 74
     1
 95
       29
 96
       25
 40
0.0
 40
0.0
 40
0.0
 40
0.0
 40
1.0
 40
1.0
 40
1.0
 40
2.0
 40
2.0
 40
2.0
 40
3.0
 40
3.0
 40
3.0
 40
4.0
 40
4.0
 40
4.0
 40
5.0
 40
5.0
 40
5.0
 40
6.0
 40
6.0
 40
6.0
 40
7.0
 40
7.0
 40
7.0
 40
8.0
 40
8.0
 40
8.0
 40
8.0
 10
62.19413654044105
 20
-76.99581703804272
 10
62.08596054220421
 20
-77.20527884354591
 10
61.91267223929614
 20
-77.22422686871478
 10
61.7962280118947
 20
-77.22422686871478
 10
61.63534205273353
 20
-77.22422686871478
 10
61.49374862828976
 20
-77.1777180796639
 10
61.39866399289686
 20
-76.99581703804272
 10
61.29496661879084
 20
-76.8011691431261
 10
61.27567408407344
 20
-76.56449108328944
 10
61.27567408407344
 20
-76.40153806683712
 10
61.27567408407344
 20
-76.25753307555368
 10
61.29289956149969
 20
-76.00569659558191
 10
61.39866399289686
 20
-75.806914586083
 10
61.50649548158518
 20
-75.60399846200178
 10
61.66738144074635
 20
-75.58057181270209
 10
61.7962280118947
 20
-75.58057181270209
 10
61.95504691376471
 20
-75.58057181270209
 10
62.09870739549963
 20
-75.62501354446181
 10
62.19413654044105
 20
-75.806914586083
 10
62.29335529041624
 20
-75.99949542370847
 10
62.31678193971594
 20
-76.22790525438053
 10
62.31678193971594
 20
-76.40153806683712
 10
62.31678193971594
 20
-76.57275931245404
 10
62.29542234770739
 20
-76.80323620041725
 10
62.19413654044105
 20
-76.99581703804272
 97
        0
 97
        0
 92
        1
 93
        1
 72
     4
 94
        3
 73
     0
 74
     1
 95
       17
 96
       13
 40
0.0
 40
0.0
 40
0.0
 40
0.0
 40
1.0
 40
1.0
 40
1.0
 40
2.0
 40
2.0
 40
2.0
 40
3.0
 40
3.0
 40
3.0
 40
4.0
 40
4.0
 40
4.0
 40
4.0
 10
61.7962280118947
 20
-75.77315265032755
 10
61.54645858921408
 20
-75.77315265032755
 10
61.49994980016321
 20
-76.05668400876361
 10
61.49994980016321
 20
-76.40153806683712
 10
61.49994980016321
 20
-76.72089841831978
 10
61.53612330275833
 20
-77.02957897379817
 10
61.7962280118947
 20
-77.02957897379817
 10
62.04393037728416
 20
-77.02957897379817
 10
62.09250622362618
 20
-76.74845918220177
 10
62.09250622362618
 20
-76.40153806683712
 10
62.09250622362618
 20
-76.08183320580594
 10
62.05426566373991
 20
-75.77315265032755
 10
61.7962280118947
 20
-75.77315265032755
 97
        0
 97
        0
 75
     2
 76
     1
 98
        0
  0
ENDBLK
  5
BE
330
BB
100
AcDbEntity
  8
0
100
AcDbBlockEnd
  0
ENDSEC
  0
SECTION
  2
ENTITIES
  0
INSERT
  5
42
330
1F
100
AcDbEntity
  8
_U+30EC_U+30A4_U+30E4_U+30FC 1
100
AcDbBlockReference
  2
block 2
 10
0.0
 20
0.0
 30
0.0
  0
POLYLINE
  5
47
330
1F
100
AcDbEntity
  8
_U+30EC_U+30A4_U+30E4_U+30FC 1
 62
   179
420
  2234388
370
    25
100
AcDb2dPolyline
 66
     1
 10
0.0
 20
0.0
 30
0.0
  0
VERTEX
  5
48
330
47
100
AcDbEntity
  8
_U+30EC_U+30A4_U+30E4_U+30FC 1
 62
   179
420
  2234388
370
    25
100
AcDbVertex
100
AcDb2dVertex
 10
61.2558731594547
 20
-98.73297497531662
 30
0.0
  0
VERTEX
  5
49
330
47
100
AcDbEntity
  8
_U+30EC_U+30A4_U+30E4_U+30FC 1
 62
   179
420
  2234388
370
    25
100
AcDbVertex
100
AcDb2dVertex
 10
61.2558731594547
 20
-82.53310192381133
 30
0.0
  0
VERTEX
  5
4A
330
47
100
AcDbEntity
  8
_U+30EC_U+30A4_U+30E4_U+30FC 1
 62
   179
420
  2234388
370
    25
100
AcDbVertex
100
AcDb2dVertex
 10
46.25590354213581
 20
-82.53310192381133
 30
0.0
  0
VERTEX
  5
4B
330
47
100
AcDbEntity
  8
_U+30EC_U+30A4_U+30E4_U+30FC 1
 62
   179
420
  2234388
370
    25
100
AcDbVertex
100
AcDb2dVertex
 10
46.25590354213581
 20
-81.53301220183886
 30
0.0
  0
VERTEX
  5
4C
330
47
100
AcDbEntity
  8
_U+30EC_U+30A4_U+30E4_U+30FC 1
 62
   179
420
  2234388
370
    25
100
AcDbVertex
100
AcDb2dVertex
 10
76.25580749899672
 20
-81.53301220183886
 30
0.0
  0
VERTEX
  5
4D
330
47
100
AcDbEntity
  8
_U+30EC_U+30A4_U+30E4_U+30FC 1
 62
   179
420
  2234388
370
    25
100
AcDbVertex
100
AcDb2dVertex
 10
76.25580749899672
 20
-82.53310192381133
 30
0.0
  0
VERTEX
  5
4E
330
47
100
AcDbEntity
  8
_U+30EC_U+30A4_U+30E4_U+30FC 1
 62
   179
420
  2234388
370
    25
100
AcDbVertex
100
AcDb2dVertex
 10
62.25564535617061
 20
-82.53310192381133
 30
0.0
  0
VERTEX
  5
4F
330
47
100
AcDbEntity
  8
_U+30EC_U+30A4_U+30E4_U+30FC 1
 62
   179
420
  2234388
370
    25
100
AcDbVertex
100
AcDb2dVertex
 10
62.25564535617061
 20
-97.73323803112224
 30
0.0
  0
VERTEX
  5
50
330
47
100
AcDbEntity
  8
_U+30EC_U+30A4_U+30E4_U+30FC 1
 62
   179
420
  2234388
370
    25
100
AcDbVertex
100
AcDb2dVertex
 10
65.25563222407901
 20
-97.73323803112224
 30
0.0
  0
VERTEX
  5
51
330
47
100
AcDbEntity
  8
_U+30EC_U+30A4_U+30E4_U+30FC 1
 62
   179
420
  2234388
370
    25
100
AcDbVertex
100
AcDb2dVertex
 10
65.25563222407901
 20
-98.73297497531662
 30
0.0
  0
VERTEX
  5
52
330
47
100
AcDbEntity
  8
_U+30EC_U+30A4_U+30E4_U+30FC 1
 62
   179
420
  2234388
370
    25
100
AcDbVertex
100
AcDb2dVertex
 10
61.2558731594547
 20
-98.73297497531662
 30
0.0
  0
SEQEND
  5
53
330
47
100
AcDbEntity
  8
_U+30EC_U+30A4_U+30E4_U+30FC 1
 62
   179
420
  2234388
370
    25
  0
SPLINE
  5
54
330
1F
100
AcDbEntity
  8
_U+30EC_U+30A4_U+30E4_U+30FC 1
 62
   179
420
  2234388
370
     9
100
AcDbSpline
210
0.0
220
0.0
230
1.0
 70
    11
 71
     3
 72
    17
 73
    13
 74
     0
 42
0.0000000001
 43
0.0000000001
 12
1.0
 22
0.0
 32
0.0
 13
1.0
 23
0.0
 33
0.0
 40
0.0
 40
0.0
 40
0.0
 40
0.0
 40
1.0
 40
1.0
 40
1.0
 40
2.0
 40
2.0
 40
2.0
 40
3.0
 40
3.0
 40
3.0
 40
4.0
 40
4.0
 40
4.0
 40
4.0
 10
46.3565157617912
 20
-101.734373030122
 30
0.0
 10
46.3565157617912
 20
-101.6792338634689
 30
0.0
 10
46.31171298515643
 20
-101.6344663634804
 30
0.0
 10
46.25590354213581
 20
-101.6344663634804
 30
0.0
 10
46.20079965465274
 20
-101.6344663634804
 30
0.0
 10
46.15599687801797
 20
-101.6792338634689
 30
0.0
 10
46.15599687801797
 20
-101.734373030122
 30
0.0
 10
46.15599687801797
 20
-101.7894769189969
 30
0.0
 10
46.20079965465274
 20
-101.8342796967636
 30
0.0
 10
46.25590354213581
 20
-101.8342796967636
 30
0.0
 10
46.31171298515643
 20
-101.8342796967636
 30
0.0
 10
46.3565157617912
 20
-101.7894769189969
 30
0.0
 10
46.3565157617912
 20
-101.734373030122
 30
0.0
  0
POLYLINE
  5
55
330
1F
100
AcDbEntity
  8
_U+30EC_U+30A4_U+30E4_U+30FC 1
 62
   179
420
  2234388
370
     9
100
AcDb2dPolyline
 66
     1
 10
0.0
 20
0.0
 30
0.0
  0
VERTEX
  5
56
330
55
100
AcDbEntity
  8
_U+30EC_U+30A4_U+30E4_U+30FC 1
 62
   179
420
  2234388
370
     9
100
AcDbVertex
100
AcDb2dVertex
 10
46.25590354213581
 20
-101.734373030122
 30
0.0
  0
VERTEX
  5
57
330
55
100
AcDbEntity
  8
_U+30EC_U+30A4_U+30E4_U+30FC 1
 62
   179
420
  2234388
370
     9
100
AcDbVertex
100
AcDb2dVertex
 10
65.25594972407092
 20
-101.734373030122
 30
0.0
  0
SEQEND
  5
58
330
55
100
AcDbEntity
  8
_U+30EC_U+30A4_U+30E4_U+30FC 1
 62
   179
420
  2234388
370
     9
  0
POLYLINE
  5
59
330
1F
100
AcDbEntity
  8
_U+30EC_U+30A4_U+30E4_U+30FC 1
 62
   179
420
  2234388
370
     9
100
AcDb2dPolyline
 66
     1
 10
0.0
 20
0.0
 30
0.0
  0
VERTEX
  5
5A
330
59
100
AcDbEntity
  8
_U+30EC_U+30A4_U+30E4_U+30FC 1
 62
   179
420
  2234388
370
     9
100
AcDbVertex
100
AcDb2dVertex
 10
46.25590354213581
 20
-85.28300470090133
 30
0.0
  0
VERTEX
  5
5B
330
59
100
AcDbEntity
  8
_U+30EC_U+30A4_U+30E4_U+30FC 1
 62
   179
420
  2234388
370
     9
100
AcDbVertex
100
AcDb2dVertex
 10
46.25590354213581
 20
-102.7341099743164
 30
0.0
  0
SEQEND
  5
5C
330
59
100
AcDbEntity
  8
_U+30EC_U+30A4_U+30E4_U+30FC 1
 62
   179
420
  2234388
370
     9
  0
SPLINE
  5
5D
330
1F
100
AcDbEntity
  8
_U+30EC_U+30A4_U+30E4_U+30FC 1
 62
   179
420
  2234388
370
     9
100
AcDbSpline
210
0.0
220
0.0
230
1.0
 70
    11
 71
     3
 72
    17
 73
    13
 74
     0
 42
0.0000000001
 43
0.0000000001
 12
1.0
 22
0.0
 32
0.0
 13
1.0
 23
0.0
 33
0.0
 40
0.0
 40
0.0
 40
0.0
 40
0.0
 40
1.0
 40
1.0
 40
1.0
 40
2.0
 40
2.0
 40
2.0
 40
3.0
 40
3.0
 40
3.0
 40
4.0
 40
4.0
 40
4.0
 40
4.0
 10
65.3565619437263
 20
-101.734373030122
 30
0.0
 10
65.3565619437263
 20
-101.6792338634689
 30
0.0
 10
65.31175916709154
 20
-101.6344663634804
 30
0.0
 10
65.25594972407092
 20
-101.6344663634804
 30
0.0
 10
65.20084583658785
 20
-101.6344663634804
 30
0.0
 10
65.15604305995308
 20
-101.6792338634689
 30
0.0
 10
65.15604305995308
 20
-101.734373030122
 30
0.0
 10
65.15604305995308
 20
-101.7894769189969
 30
0.0
 10
65.20084583658785
 20
-101.8342796967636
 30
0.0
 10
65.25594972407092
 20
-101.8342796967636
 30
0.0
 10
65.31175916709154
 20
-101.8342796967636
 30
0.0
 10
65.3565619437263
 20
-101.7894769189969
 30
0.0
 10
65.3565619437263
 20
-101.734373030122
 30
0.0
  0
POLYLINE
  5
5E
330
1F
100
AcDbEntity
  8
_U+30EC_U+30A4_U+30E4_U+30FC 1
 62
   179
420
  2234388
370
     9
100
AcDb2dPolyline
 66
     1
 10
0.0
 20
0.0
 30
0.0
  0
VERTEX
  5
5F
330
5E
100
AcDbEntity
  8
_U+30EC_U+30A4_U+30E4_U+30FC 1
 62
   179
420
  2234388
370
     9
100
AcDbVertex
100
AcDb2dVertex
 10
65.25594972407092
 20
-100.3049880304796
 30
0.0
  0
VERTEX
  5
60
330
5E
100
AcDbEntity
  8
_U+30EC_U+30A4_U+30E4_U+30FC 1
 62
   179
420
  2234388
370
     9
100
AcDbVertex
100
AcDb2dVertex
 10
65.25594972407092
 20
-102.7341099743164
 30
0.0
  0
SEQEND
  5
61
330
5E
100
AcDbEntity
  8
_U+30EC_U+30A4_U+30E4_U+30FC 1
 62
   179
420
  2234388
370
     9
  0
SPLINE
  5
62
330
1F
100
AcDbEntity
  8
_U+30EC_U+30A4_U+30E4_U+30FC 1
 62
   179
420
  2234388
370
     9
100
AcDbSpline
210
0.0
220
0.0
230
1.0
 70
    11
 71
     3
 72
    17
 73
    13
 74
     0
 42
0.0000000001
 43
0.0000000001
 12
1.0
 22
0.0
 32
0.0
 13
1.0
 23
0.0
 33
0.0
 40
0.0
 40
0.0
 40
0.0
 40
0.0
 40
1.0
 40
1.0
 40
1.0
 40
2.0
 40
2.0
 40
2.0
 40
3.0
 40
3.0
 40
3.0
 40
4.0
 40
4.0
 40
4.0
 40
4.0
 10
61.35645010133322
 20
-101.734373030122
 30
0.0
 10
61.35645010133322
 20
-101.6792338634689
 30
0.0
 10
61.31168260247533
 20
-101.6344663634804
 30
0.0
 10
61.2558731594547
 20
-101.6344663634804
 30
0.0
 10
61.20073399419476
 20
-101.6344663634804
 30
0.0
 10
61.15596649533687
 20
-101.6792338634689
 30
0.0
 10
61.15596649533687
 20
-101.734373030122
 30
0.0
 10
61.15596649533687
 20
-101.7894769189969
 30
0.0
 10
61.20073399419476
 20
-101.8342796967636
 30
0.0
 10
61.2558731594547
 20
-101.8342796967636
 30
0.0
 10
61.31168260247533
 20
-101.8342796967636
 30
0.0
 10
61.35645010133322
 20
-101.7894769189969
 30
0.0
 10
61.35645010133322
 20
-101.734373030122
 30
0.0
  0
POLYLINE
  5
63
330
1F
100
AcDbEntity
  8
_U+30EC_U+30A4_U+30E4_U+30FC 1
 62
   179
420
  2234388
370
     9
100
AcDb2dPolyline
 66
     1
 10
0.0
 20
0.0
 30
0.0
  0
VERTEX
  5
64
330
63
100
AcDbEntity
  8
_U+30EC_U+30A4_U+30E4_U+30FC 1
 62
   179
420
  2234388
370
     9
100
AcDbVertex
100
AcDb2dVertex
 10
61.2558731594547
 20
-100.3049880304796
 30
0.0
  0
VERTEX
  5
65
330
63
100
AcDbEntity
  8
_U+30EC_U+30A4_U+30E4_U+30FC 1
 62
   179
420
  2234388
370
     9
100
AcDbVertex
100
AcDb2dVertex
 10
61.2558731594547
 20
-102.7341099743164
 30
0.0
  0
SEQEND
  5
66
330
63
100
AcDbEntity
  8
_U+30EC_U+30A4_U+30E4_U+30FC 1
 62
   179
420
  2234388
370
     9
  0
INSERT
  5
68
330
1F
100
AcDbEntity
  8
_U+30EC_U+30A4_U+30E4_U+30FC 1
100
AcDbBlockReference
  2
block 3
 10
0.0
 20
0.0
 30
0.0
  0
INSERT
  5
70
330
1F
100
AcDbEntity
  8
_U+30EC_U+30A4_U+30E4_U+30FC 1
100
AcDbBlockReference
  2
block 4
 10
0.0
 20
0.0
 30
0.0
  0
SPLINE
  5
88
330
1F
100
AcDbEntity
  8
_U+30EC_U+30A4_U+30E4_U+30FC 1
 62
   179
420
  2234388
370
     9
100
AcDbSpline
210
0.0
220
0.0
230
1.0
 70
    11
 71
     3
 72
    17
 73
    13
 74
     0
 42
0.0000000001
 43
0.0000000001
 12
1.0
 22
0.0
 32
0.0
 13
1.0
 23
0.0
 33
0.0
 40
0.0
 40
0.0
 40
0.0
 40
0.0
 40
1.0
 40
1.0
 40
1.0
 40
2.0
 40
2.0
 40
2.0
 40
3.0
 40
3.0
 40
3.0
 40
4.0
 40
4.0
 40
4.0
 40
4.0
 10
80.15601267727197
 20
-97.73323803112224
 30
0.0
 10
80.15601267727197
 20
-97.78834191999715
 30
0.0
 10
80.20078017612985
 20
-97.83314469776387
 30
0.0
 10
80.25591934138981
 20
-97.83314469776387
 30
0.0
 10
80.31102322887288
 20
-97.83314469776387
 30
0.0
 10
80.35582600550764
 20
-97.78834191999715
 30
0.0
 10
80.35582600550764
 20
-97.73323803112224
 30
0.0
 10
80.35582600550764
 20
-97.67809886446916
 30
0.0
 10
80.31102322887288
 20
-97.6333313644806
 30
0.0
 10
80.25591934138981
 20
-97.6333313644806
 30
0.0
 10
80.20078017612985
 20
-97.6333313644806
 30
0.0
 10
80.15601267727197
 20
-97.67809886446916
 30
0.0
 10
80.15601267727197
 20
-97.73323803112224
 30
0.0
  0
SPLINE
  5
89
330
1F
100
AcDbEntity
  8
_U+30EC_U+30A4_U+30E4_U+30FC 1
 62
   179
420
  2234388
370
     9
100
AcDbSpline
210
0.0
220
0.0
230
1.0
 70
    11
 71
     3
 72
    17
 73
    13
 74
     0
 42
0.0000000001
 43
0.0000000001
 12
1.0
 22
0.0
 32
0.0
 13
1.0
 23
0.0
 33
0.0
 40
0.0
 40
0.0
 40
0.0
 40
0.0
 40
1.0
 40
1.0
 40
1.0
 40
2.0
 40
2.0
 40
2.0
 40
3.0
 40
3.0
 40
3.0
 40
4.0
 40
4.0
 40
4.0
 40
4.0
 10
80.15601267727197
 20
-81.53301220183886
 30
0.0
 10
80.15601267727197
 20
-81.5881160907141
 30
0.0
 10
80.20078017612985
 20
-81.63291886848081
 30
0.0
 10
80.25591934138981
 20
-81.63291886848081
 30
0.0
 10
80.31102322887288
 20
-81.63291886848081
 30
0.0
 10
80.35582600550764
 20
-81.5881160907141
 30
0.0
 10
80.35582600550764
 20
-81.53301220183886
 30
0.0
 10
80.35582600550764
 20
-81.47720275740842
 30
0.0
 10
80.31102322887288
 20
-81.43239997964203
 30
0.0
 10
80.25591934138981
 20
-81.43239997964203
 30
0.0
 10
80.20078017612985
 20
-81.43239997964203
 30
0.0
 10
80.15601267727197
 20
-81.47720275740842
 30
0.0
 10
80.15601267727197
 20
-81.53301220183886
 30
0.0
  0
POLYLINE
  5
8A
330
1F
100
AcDbEntity
  8
_U+30EC_U+30A4_U+30E4_U+30FC 1
 62
   179
420
  2234388
370
     9
100
AcDb2dPolyline
 66
     1
 10
0.0
 20
0.0
 30
0.0
  0
VERTEX
  5
8B
330
8A
100
AcDbEntity
  8
_U+30EC_U+30A4_U+30E4_U+30FC 1
 62
   179
420
  2234388
370
     9
100
AcDbVertex
100
AcDb2dVertex
 10
80.25591934138981
 20
-78.05278886937585
 30
0.0
  0
VERTEX
  5
8C
330
8A
100
AcDbEntity
  8
_U+30EC_U+30A4_U+30E4_U+30FC 1
 62
   179
420
  2234388
370
     9
100
AcDbVertex
100
AcDb2dVertex
 10
80.25591934138981
 20
-97.73323803112224
 30
0.0
  0
SEQEND
  5
8D
330
8A
100
AcDbEntity
  8
_U+30EC_U+30A4_U+30E4_U+30FC 1
 62
   179
420
  2234388
370
     9
  0
POLYLINE
  5
8E
330
1F
100
AcDbEntity
  8
_U+30EC_U+30A4_U+30E4_U+30FC 1
 62
   179
420
  2234388
370
     9
100
AcDb2dPolyline
 66
     1
 10
0.0
 20
0.0
 30
0.0
  0
VERTEX
  5
8F
330
8E
100
AcDbEntity
  8
_U+30EC_U+30A4_U+30E4_U+30FC 1
 62
   179
420
  2234388
370
     9
100
AcDbVertex
100
AcDb2dVertex
 10
78.79587798974968
 20
-81.53301220183886
 30
0.0
  0
VERTEX
  5
90
330
8E
100
AcDbEntity
  8
_U+30EC_U+30A4_U+30E4_U+30FC 1
 62
   179
420
  2234388
370
     9
100
AcDbVertex
100
AcDb2dVertex
 10
81.25601109079723
 20
-81.53301220183886
 30
0.0
  0
SEQEND
  5
91
330
8E
100
AcDbEntity
  8
_U+30EC_U+30A4_U+30E4_U+30FC 1
 62
   179
420
  2234388
370
     9
  0
SPLINE
  5
92
330
1F
100
AcDbEntity
  8
_U+30EC_U+30A4_U+30E4_U+30FC 1
 62
   179
420
  2234388
370
     9
100
AcDbSpline
210
0.0
220
0.0
230
1.0
 70
    11
 71
     3
 72
    17
 73
    13
 74
     0
 42
0.0000000001
 43
0.0000000001
 12
1.0
 22
0.0
 32
0.0
 13
1.0
 23
0.0
 33
0.0
 40
0.0
 40
0.0
 40
0.0
 40
0.0
 40
1.0
 40
1.0
 40
1.0
 40
2.0
 40
2.0
 40
2.0
 40
3.0
 40
3.0
 40
3.0
 40
4.0
 40
4.0
 40
4.0
 40
4.0
 10
80.15601267727197
 20
-82.53310192381133
 30
0.0
 10
80.15601267727197
 20
-82.58824109046408
 30
0.0
 10
80.20078017612985
 20
-82.63304386823049
 30
0.0
 10
80.25591934138981
 20
-82.63304386823049
 30
0.0
 10
80.31102322887288
 20
-82.63304386823049
 30
0.0
 10
80.35582600550764
 20
-82.58824109046408
 30
0.0
 10
80.35582600550764
 20
-82.53310192381133
 30
0.0
 10
80.35582600550764
 20
-82.47729247938057
 30
0.0
 10
80.31102322887288
 20
-82.432524979392
 30
0.0
 10
80.25591934138981
 20
-82.432524979392
 30
0.0
 10
80.20078017612985
 20
-82.432524979392
 30
0.0
 10
80.15601267727197
 20
-82.47729247938057
 30
0.0
 10
80.15601267727197
 20
-82.53310192381133
 30
0.0
  0
POLYLINE
  5
93
330
1F
100
AcDbEntity
  8
_U+30EC_U+30A4_U+30E4_U+30FC 1
 62
   179
420
  2234388
370
     9
100
AcDb2dPolyline
 66
     1
 10
0.0
 20
0.0
 30
0.0
  0
VERTEX
  5
94
330
93
100
AcDbEntity
  8
_U+30EC_U+30A4_U+30E4_U+30FC 1
 62
   179
420
  2234388
370
     9
100
AcDbVertex
100
AcDb2dVertex
 10
78.79587798974968
 20
-82.53310192381133
 30
0.0
  0
VERTEX
  5
95
330
93
100
AcDbEntity
  8
_U+30EC_U+30A4_U+30E4_U+30FC 1
 62
   179
420
  2234388
370
     9
100
AcDbVertex
100
AcDb2dVertex
 10
81.25601109079723
 20
-82.53310192381133
 30
0.0
  0
SEQEND
  5
96
330
93
100
AcDbEntity
  8
_U+30EC_U+30A4_U+30E4_U+30FC 1
 62
   179
420
  2234388
370
     9
  0
POLYLINE
  5
97
330
1F
100
AcDbEntity
  8
_U+30EC_U+30A4_U+30E4_U+30FC 1
 62
   179
420
  2234388
370
     9
100
AcDb2dPolyline
 66
     1
 10
0.0
 20
0.0
 30
0.0
  0
VERTEX
  5
98
330
97
100
AcDbEntity
  8
_U+30EC_U+30A4_U+30E4_U+30FC 1
 62
   179
420
  2234388
370
     9
100
AcDbVertex
100
AcDb2dVertex
 10
67.79570271483198
 20
-97.73323803112224
 30
0.0
  0
VERTEX
  5
99
330
97
100
AcDbEntity
  8
_U+30EC_U+30A4_U+30E4_U+30FC 1
 62
   179
420
  2234388
370
     9
100
AcDbVertex
100
AcDb2dVertex
 10
81.25601109079723
 20
-97.73323803112224
 30
0.0
  0
SEQEND
  5
9A
330
97
100
AcDbEntity
  8
_U+30EC_U+30A4_U+30E4_U+30FC 1
 62
   179
420
  2234388
370
     9
  0
INSERT
  5
9C
330
1F
100
AcDbEntity
  8
_U+30EC_U+30A4_U+30E4_U+30FC 1
100
AcDbBlockReference
  2
block 5
 10
0.0
 20
0.0
 30
0.0
  0
POLYLINE
  5
AD
330
1F
100
AcDbEntity
  8
_U+30EC_U+30A4_U+30E4_U+30FC 1
 62
   179
420
  2234388
370
     9
100
AcDb2dPolyline
 66
     1
 10
0.0
 20
0.0
 30
0.0
  0
VERTEX
  5
AE
330
AD
100
AcDbEntity
  8
_U+30EC_U+30A4_U+30E4_U+30FC 1
 62
   179
420
  2234388
370
     9
100
AcDbVertex
100
AcDb2dVertex
 10
76.22515111088994
 20
-77.75271609167284
 30
0.0
  0
VERTEX
  5
AF
330
AD
100
AcDbEntity
  8
_U+30EC_U+30A4_U+30E4_U+30FC 1
 62
   179
420
  2234388
370
     9
100
AcDbVertex
100
AcDb2dVertex
 10
46.25590354213581
 20
-77.75271609167284
 30
0.0
  0
SEQEND
  5
B0
330
AD
100
AcDbEntity
  8
_U+30EC_U+30A4_U+30E4_U+30FC 1
 62
   179
420
  2234388
370
     9
  0
SPLINE
  5
B1
330
1F
100
AcDbEntity
  8
_U+30EC_U+30A4_U+30E4_U+30FC 1
 62
   179
420
  2234388
370
     9
100
AcDbSpline
210
0.0
220
0.0
230
1.0
 70
    11
 71
     3
 72
    17
 73
    13
 74
     0
 42
0.0000000001
 43
0.0000000001
 12
1.0
 22
0.0
 32
0.0
 13
1.0
 23
0.0
 33
0.0
 40
0.0
 40
0.0
 40
0.0
 40
0.0
 40
1.0
 40
1.0
 40
1.0
 40
2.0
 40
2.0
 40
2.0
 40
3.0
 40
3.0
 40
3.0
 40
4.0
 40
4.0
 40
4.0
 40
4.0
 10
46.22524715402903
 20
-77.65280942503121
 30
0.0
 10
46.17014443290198
 20
-77.65280942503121
 30
0.0
 10
46.12534165513526
 20
-77.69757692502009
 30
0.0
 10
46.12534165513526
 20
-77.75271609167284
 30
0.0
 10
46.12534165513526
 20
-77.80781998054808
 30
0.0
 10
46.17014443290198
 20
-77.85262275831448
 30
0.0
 10
46.22524715402903
 20
-77.85262275831448
 30
0.0
 10
46.28038631928898
 20
-77.85262275831448
 30
0.0
 10
46.32515381814687
 20
-77.80781998054808
 30
0.0
 10
46.32515381814687
 20
-77.75271609167284
 30
0.0
 10
46.32515381814687
 20
-77.69757692502009
 30
0.0
 10
46.28038631928898
 20
-77.65280942503121
 30
0.0
 10
46.22524715402903
 20
-77.65280942503121
 30
0.0
  0
POLYLINE
  5
B2
330
1F
100
AcDbEntity
  8
_U+30EC_U+30A4_U+30E4_U+30FC 1
 62
   179
420
  2234388
370
     9
100
AcDb2dPolyline
 66
     1
 10
0.0
 20
0.0
 30
0.0
  0
VERTEX
  5
B3
330
B2
100
AcDbEntity
  8
_U+30EC_U+30A4_U+30E4_U+30FC 1
 62
   179
420
  2234388
370
     9
100
AcDbVertex
100
AcDb2dVertex
 10
46.22524715402903
 20
-76.65233164750346
 30
0.0
  0
VERTEX
  5
B4
330
B2
100
AcDbEntity
  8
_U+30EC_U+30A4_U+30E4_U+30FC 1
 62
   179
420
  2234388
370
     9
100
AcDbVertex
100
AcDb2dVertex
 10
46.22524715402903
 20
-79.03291136913079
 30
0.0
  0
SEQEND
  5
B5
330
B2
100
AcDbEntity
  8
_U+30EC_U+30A4_U+30E4_U+30FC 1
 62
   179
420
  2234388
370
     9
  0
SPLINE
  5
B6
330
1F
100
AcDbEntity
  8
_U+30EC_U+30A4_U+30E4_U+30FC 1
 62
   179
420
  2234388
370
     9
100
AcDbSpline
210
0.0
220
0.0
230
1.0
 70
    11
 71
     3
 72
    17
 73
    13
 74
     0
 42
0.0000000001
 43
0.0000000001
 12
1.0
 22
0.0
 32
0.0
 13
1.0
 23
0.0
 33
0.0
 40
0.0
 40
0.0
 40
0.0
 40
0.0
 40
1.0
 40
1.0
 40
1.0
 40
2.0
 40
2.0
 40
2.0
 40
3.0
 40
3.0
 40
3.0
 40
4.0
 40
4.0
 40
4.0
 40
4.0
 10
76.22515111088994
 20
-77.65280942503121
 30
0.0
 10
76.1700138698467
 20
-77.65280942503121
 30
0.0
 10
76.1252444467721
 20
-77.69757692502009
 30
0.0
 10
76.1252444467721
 20
-77.75271609167284
 30
0.0
 10
76.1252444467721
 20
-77.80781998054808
 30
0.0
 10
76.1700138698467
 20
-77.85262275831448
 30
0.0
 10
76.22515111088994
 20
-77.85262275831448
 30
0.0
 10
76.28025499837301
 20
-77.85262275831448
 30
0.0
 10
76.32505777500778
 20
-77.80781998054808
 30
0.0
 10
76.32505777500778
 20
-77.75271609167284
 30
0.0
 10
76.32505777500778
 20
-77.69757692502009
 30
0.0
 10
76.28025499837301
 20
-77.65280942503121
 30
0.0
 10
76.22515111088994
 20
-77.65280942503121
 30
0.0
  0
POLYLINE
  5
B7
330
1F
100
AcDbEntity
  8
_U+30EC_U+30A4_U+30E4_U+30FC 1
 62
   179
420
  2234388
370
     9
100
AcDb2dPolyline
 66
     1
 10
0.0
 20
0.0
 30
0.0
  0
VERTEX
  5
B8
330
B7
100
AcDbEntity
  8
_U+30EC_U+30A4_U+30E4_U+30FC 1
 62
   179
420
  2234388
370
     9
100
AcDbVertex
100
AcDb2dVertex
 10
76.22515111088994
 20
-76.65233164750346
 30
0.0
  0
VERTEX
  5
B9
330
B7
100
AcDbEntity
  8
_U+30EC_U+30A4_U+30E4_U+30FC 1
 62
   179
420
  2234388
370
     9
100
AcDbVertex
100
AcDb2dVertex
 10
76.22515111088994
 20
-79.03291136913079
 30
0.0
  0
SEQEND
  5
BA
330
B7
100
AcDbEntity
  8
_U+30EC_U+30A4_U+30E4_U+30FC 1
 62
   179
420
  2234388
370
     9
  0
INSERT
  5
BC
330
1F
100
AcDbEntity
  8
_U+30EC_U+30A4_U+30E4_U+30FC 1
100
AcDbBlockReference
  2
block 6
 10
0.0
 20
0.0
 30
0.0
  0
ENDSEC
  0
SECTION
  2
OBJECTS
  0
DICTIONARY
  5
C
330
0
100
AcDbDictionary
281
     1
  3
ACAD_GROUP
350
D
  3
ACAD_LAYOUT
350
1A
  3
ACAD_MATERIAL
350
3B
  3
ACAD_MLEADERSTYLE
350
C5
  3
ACAD_MLINESTYLE
350
17
  3
ACAD_PLOTSETTINGS
350
19
  3
ACAD_PLOTSTYLENAME
350
E
  3
ACAD_TABLESTYLE
350
C4
  3
ACAD_VISUALSTYLE
350
2A
  0
SUN
  5
3F
330
29
100
AcDbSun
 90
        1
290
     0
 63
     7
421
 16777215
 40
1.0
291
     1
 91
  2455826
 92
 54000000
292
     0
 70
     2
 71
   256
280
     1
  0
DICTIONARY
  5
D
102
{ACAD_REACTORS
330
C
102
}
330
C
100
AcDbDictionary
281
     1
  0
DICTIONARY
  5
1A
102
{ACAD_REACTORS
330
C
102
}
330
C
100
AcDbDictionary
281
     1
  3
Layout1
350
1E
  3
Layout2
350
26
  3
Model
350
22
  0
DICTIONARY
  5
3B
102
{ACAD_REACTORS
330
C
102
}
330
C
100
AcDbDictionary
281
     1
  3
ByBlock
350
3D
  3
ByLayer
350
3C
  3
Global
350
3E
  0
DICTIONARY
  5
C5
102
{ACAD_REACTORS
330
C
102
}
330
C
100
AcDbDictionary
281
     1
  0
DICTIONARY
  5
17
102
{ACAD_REACTORS
330
C
102
}
330
C
100
AcDbDictionary
281
     1
  3
Standard
350
18
  0
DICTIONARY
  5
19
102
{ACAD_REACTORS
330
C
102
}
330
C
100
AcDbDictionary
281
     1
  0
ACDBDICTIONARYWDFLT
  5
E
102
{ACAD_REACTORS
330
C
102
}
330
C
100
AcDbDictionary
281
     1
  3
Normal
350
F
100
AcDbDictionaryWithDefault
340
F
  0
DICTIONARY
  5
C4
102
{ACAD_REACTORS
330
C
102
}
330
C
100
AcDbDictionary
281
     1
  0
DICTIONARY
  5
2A
102
{ACAD_REACTORS
330
C
102
}
330
C
100
AcDbDictionary
281
     1
  3
2dWireframe
350
2F
  3
3D Hidden
350
31
  3
3dWireframe
350
30
  3
Basic
350
32
  3
Brighten
350
36
  3
ColorChange
350
3A
  3
Conceptual
350
34
  3
Dim
350
35
  3
Facepattern
350
39
  3
Flat
350
2B
  3
FlatWithEdges
350
2C
  3
Gouraud
350
2D
  3
GouraudWithEdges
350
2E
  3
Linepattern
350
38
  3
Realistic
350
33
  3
Thicken
350
37
  0
LAYOUT
  5
1E
102
{ACAD_REACTORS
330
1A
102
}
330
1A
100
AcDbPlotSettings
  1

  2
none_device
  4

  6

 40
0.0
 41
0.0
 42
0.0
 43
0.0
 44
0.0
 45
0.0
 46
0.0
 47
0.0
 48
0.0
 49
0.0
140
0.0
141
0.0
142
1.0
143
1.0
 70
   688
 72
     0
 73
     0
 74
     5
  7

 75
    16
 76
     0
 77
     2
 78
   300
147
1.0
148
0.0
149
0.0
100
AcDbLayout
  1
Layout1
 70
     1
 71
     1
 10
0.0
 20
0.0
 11
12.0
 21
9.0
 12
0.0
 22
0.0
 32
0.0
 14
1.000000000000000E+20
 24
1.000000000000000E+20
 34
1.000000000000000E+20
 15
-1.000000000000000E+20
 25
-1.000000000000000E+20
 35
-1.000000000000000E+20
146
0.0
 13
0.0
 23
0.0
 33
0.0
 16
1.0
 26
0.0
 36
0.0
 17
0.0
 27
1.0
 37
0.0
 76
     0
330
1B
  0
LAYOUT
  5
26
102
{ACAD_REACTORS
330
1A
102
}
330
1A
100
AcDbPlotSettings
  1

  2
none_device
  4

  6

 40
0.0
 41
0.0
 42
0.0
 43
0.0
 44
0.0
 45
0.0
 46
0.0
 47
0.0
 48
0.0
 49
0.0
140
0.0
141
0.0
142
1.0
143
1.0
 70
   688
 72
     0
 73
     0
 74
     5
  7

 75
    16
 76
     0
 77
     2
 78
   300
147
1.0
148
0.0
149
0.0
100
AcDbLayout
  1
Layout2
 70
     1
 71
     2
 10
0.0
 20
0.0
 11
0.0
 21
0.0
 12
0.0
 22
0.0
 32
0.0
 14
0.0
 24
0.0
 34
0.0
 15
0.0
 25
0.0
 35
0.0
146
0.0
 13
0.0
 23
0.0
 33
0.0
 16
1.0
 26
0.0
 36
0.0
 17
0.0
 27
1.0
 37
0.0
 76
     0
330
23
  0
LAYOUT
  5
22
102
{ACAD_REACTORS
330
1A
102
}
330
1A
100
AcDbPlotSettings
  1

  2
none_device
  4

  6

 40
0.0
 41
0.0
 42
0.0
 43
0.0
 44
0.0
 45
0.0
 46
0.0
 47
0.0
 48
0.0
 49
0.0
140
0.0
141
0.0
142
1.0
143
1.0
 70
  1712
 72
     0
 73
     0
 74
     0
  7

 75
     0
 76
     0
 77
     2
 78
   300
147
1.0
148
0.0
149
0.0
100
AcDbLayout
  1
Model
 70
     1
 71
     0
 10
0.0
 20
0.0
 11
12.0
 21
9.0
 12
0.0
 22
0.0
 32
0.0
 14
1.000000000000000E+20
 24
1.000000000000000E+20
 34
1.000000000000000E+20
 15
-1.000000000000000E+20
 25
-1.000000000000000E+20
 35
-1.000000000000000E+20
146
0.0
 13
0.0
 23
0.0
 33
0.0
 16
1.0
 26
0.0
 36
0.0
 17
0.0
 27
1.0
 37
0.0
 76
     0
330
1F
331
29
  0
MATERIAL
  5
3D
102
{ACAD_REACTORS
330
3B
102
}
330
3B
100
AcDbMaterial
  1
ByBlock
 72
     1
 94
      127
  0
MATERIAL
  5
3C
102
{ACAD_REACTORS
330
3B
102
}
330
3B
100
AcDbMaterial
  1
ByLayer
 72
     1
 94
      127
  0
MATERIAL
  5
3E
102
{ACAD_REACTORS
330
3B
102
}
330
3B
100
AcDbMaterial
  1
Global
 72
     1
 94
      127
  0
MLINESTYLE
  5
18
102
{ACAD_REACTORS
330
17
102
}
330
17
100
AcDbMlineStyle
  2
Standard
 70
     0
  3

 62
   256
 51
90.0
 52
90.0
 71
     2
 49
0.5
 62
   256
  6
BYLAYER
 49
-0.5
 62
   256
  6
BYLAYER
  0
ACDBPLACEHOLDER
  5
F
102
{ACAD_REACTORS
330
E
102
}
330
E
  0
VISUALSTYLE
  5
2F
102
{ACAD_REACTORS
330
2A
102
}
330
2A
100
AcDbVisualStyle
  2
2dWireframe
 70
     4
177
     2
291
     0
 71
     0
176
     1
 72
     2
176
     1
 73
     0
176
     1
 90
        0
176
     1
 40
-0.6
176
     1
 41
-30.0
176
     1
 62
     5
 63
     7
421
 16777215
176
     1
 74
     1
176
     1
 91
        4
176
     1
 64
     7
176
     1
 65
   257
176
     1
 75
     1
176
     1
175
     1
176
     1
 42
1.0
176
     1
 92
        0
176
     1
 66
   257
176
     1
 43
1.0
176
     1
 76
     1
176
     1
 77
     6
176
     1
 78
     2
176
     1
 67
     7
176
     1
 79
     5
176
     1
170
     0
176
     1
171
     0
176
     1
290
     0
176
     1
 93
        1
176
     1
 44
0.0
176
     1
173
     0
176
     1
  0
VISUALSTYLE
  5
31
102
{ACAD_REACTORS
330
2A
102
}
330
2A
100
AcDbVisualStyle
  2
3D Hidden
 70
     6
177
     2
291
     0
 71
     1
176
     1
 72
     2
176
     1
 73
     2
176
     1
 90
        0
176
     1
 40
-0.6
176
     1
 41
-30.0
176
     1
 62
     5
 63
     7
421
 16777215
176
     1
 74
     2
176
     1
 91
        2
176
     1
 64
     7
176
     1
 65
   257
176
     1
 75
     2
176
     1
175
     1
176
     1
 42
40.0
176
     1
 92
        0
176
     1
 66
   257
176
     1
 43
1.0
176
     1
 76
     1
176
     1
 77
     6
176
     1
 78
     2
176
     1
 67
     7
176
     1
 79
     3
176
     1
170
     0
176
     1
171
     0
176
     1
290
     0
176
     1
 93
        1
176
     1
 44
0.0
176
     1
173
     0
176
     1
  0
VISUALSTYLE
  5
30
102
{ACAD_REACTORS
330
2A
102
}
330
2A
100
AcDbVisualStyle
  2
3dWireframe
 70
     5
177
     2
291
     0
 71
     0
176
     1
 72
     2
176
     1
 73
     0
176
     1
 90
        0
176
     1
 40
-0.6
176
     1
 41
-30.0
176
     1
 62
     5
 63
     7
421
 16777215
176
     1
 74
     1
176
     1
 91
        4
176
     1
 64
     7
176
     1
 65
   257
176
     1
 75
     1
176
     1
175
     1
176
     1
 42
1.0
176
     1
 92
        0
176
     1
 66
   257
176
     1
 43
1.0
176
     1
 76
     1
176
     1
 77
     6
176
     1
 78
     2
176
     1
 67
     7
176
     1
 79
     5
176
     1
170
     0
176
     1
171
     0
176
     1
290
     0
176
     1
 93
        1
176
     1
 44
0.0
176
     1
173
     0
176
     1
  0
VISUALSTYLE
  5
32
102
{ACAD_REACTORS
330
2A
102
}
330
2A
100
AcDbVisualStyle
  2
Basic
 70
     7
177
     2
291
     1
 71
     1
176
     1
 72
     0
176
     1
 73
     1
176
     1
 90
        0
176
     1
 40
-0.6
176
     1
 41
-30.0
176
     1
 62
     5
 63
     7
421
 16777215
176
     1
 74
     0
176
     1
 91
        4
176
     1
 64
     7
176
     1
 65
   257
176
     1
 75
     1
176
     1
175
     1
176
     1
 42
1.0
176
     1
 92
        8
176
     1
 66
     7
176
     1
 43
1.0
176
     1
 76
     1
176
     1
 77
     6
176
     1
 78
     2
176
     1
 67
     7
176
     1
 79
     5
176
     1
170
     0
176
     1
171
     0
176
     1
290
     0
176
     1
 93
        1
176
     1
 44
0.0
176
     1
173
     0
176
     1
  0
VISUALSTYLE
  5
36
102
{ACAD_REACTORS
330
2A
102
}
330
2A
100
AcDbVisualStyle
  2
Brighten
 70
    12
177
     2
291
     1
 71
     2
176
     1
 72
     2
176
     1
 73
     0
176
     1
 90
        0
176
     1
 40
-0.6
176
     1
 41
-30.0
176
     1
 62
     5
 63
     7
421
 16777215
176
     1
 74
     1
176
     1
 91
        4
176
     1
 64
     7
176
     1
 65
   257
176
     1
 75
     1
176
     1
175
     1
176
     1
 42
1.0
176
     1
 92
        8
176
     1
 66
     7
176
     1
 43
1.0
176
     1
 76
     1
176
     1
 77
     6
176
     1
 78
     2
176
     1
 67
     7
176
     1
 79
     5
176
     1
170
     0
176
     1
171
     0
176
     1
290
     0
176
     1
 93
        1
176
     1
 44
50.0
176
     1
173
     0
176
     1
  0
VISUALSTYLE
  5
3A
102
{ACAD_REACTORS
330
2A
102
}
330
2A
100
AcDbVisualStyle
  2
ColorChange
 70
    16
177
     2
291
     1
 71
     2
176
     1
 72
     2
176
     1
 73
     3
176
     1
 90
        0
176
     1
 40
-0.6
176
     1
 41
-30.0
176
     1
 62
     5
 63
     8
421
  8421504
176
     1
 74
     1
176
     1
 91
        4
176
     1
 64
     7
176
     1
 65
   257
176
     1
 75
     1
176
     1
175
     1
176
     1
 42
1.0
176
     1
 92
        8
176
     1
 66
     8
424
  8421504
176
     1
 43
1.0
176
     1
 76
     1
176
     1
 77
     6
176
     1
 78
     2
176
     1
 67
     7
176
     1
 79
     5
176
     1
170
     0
176
     1
171
     0
176
     1
290
     0
176
     1
 93
        1
176
     1
 44
0.0
176
     1
173
     0
176
     1
  0
VISUALSTYLE
  5
34
102
{ACAD_REACTORS
330
2A
102
}
330
2A
100
AcDbVisualStyle
  2
Conceptual
 70
     9
177
     2
291
     0
 71
     3
176
     1
 72
     2
176
     1
 73
     0
176
     1
 90
        0
176
     1
 40
-0.6
176
     1
 41
-30.0
176
     1
 62
     5
 63
     7
421
 16777215
176
     1
 74
     2
176
     1
 91
        2
176
     1
 64
     7
176
     1
 65
   257
176
     1
 75
     1
176
     1
175
     1
176
     1
 42
40.0
176
     1
 92
        8
176
     1
 66
     7
176
     1
 43
1.0
176
     1
 76
     1
176
     1
 77
     6
176
     1
 78
     2
176
     1
 67
     7
176
     1
 79
     3
176
     1
170
     0
176
     1
171
     0
176
     1
290
     0
176
     1
 93
        1
176
     1
 44
0.0
176
     1
173
     0
176
     1
  0
VISUALSTYLE
  5
35
102
{ACAD_REACTORS
330
2A
102
}
330
2A
100
AcDbVisualStyle
  2
Dim
 70
    11
177
     2
291
     1
 71
     2
176
     1
 72
     2
176
     1
 73
     0
176
     1
 90
        0
176
     1
 40
-0.6
176
     1
 41
-30.0
176
     1
 62
     5
 63
     7
421
 16777215
176
     1
 74
     1
176
     1
 91
        4
176
     1
 64
     7
176
     1
 65
   257
176
     1
 75
     1
176
     1
175
     1
176
     1
 42
1.0
176
     1
 92
        8
176
     1
 66
     7
176
     1
 43
1.0
176
     1
 76
     1
176
     1
 77
     6
176
     1
 78
     2
176
     1
 67
     7
176
     1
 79
     5
176
     1
170
     0
176
     1
171
     0
176
     1
290
     0
176
     1
 93
        1
176
     1
 44
-50.0
176
     1
173
     0
176
     1
  0
VISUALSTYLE
  5
39
102
{ACAD_REACTORS
330
2A
102
}
330
2A
100
AcDbVisualStyle
  2
Facepattern
 70
    15
177
     2
291
     1
 71
     2
176
     1
 72
     2
176
     1
 73
     0
176
     1
 90
        0
176
     1
 40
-0.6
176
     1
 41
-30.0
176
     1
 62
     5
 63
     7
421
 16777215
176
     1
 74
     1
176
     1
 91
        4
176
     1
 64
     7
176
     1
 65
   257
176
     1
 75
     1
176
     1
175
     1
176
     1
 42
1.0
176
     1
 92
        8
176
     1
 66
     7
176
     1
 43
1.0
176
     1
 76
     1
176
     1
 77
     6
176
     1
 78
     2
176
     1
 67
     7
176
     1
 79
     5
176
     1
170
     0
176
     1
171
     0
176
     1
290
     0
176
     1
 93
        1
176
     1
 44
0.0
176
     1
173
     0
176
     1
  0
VISUALSTYLE
  5
2B
102
{ACAD_REACTORS
330
2A
102
}
330
2A
100
AcDbVisualStyle
  2
Flat
 70
     0
177
     2
291
     1
 71
     2
176
     1
 72
     1
176
     1
 73
     1
176
     1
 90
        2
176
     1
 40
-0.6
176
     1
 41
30.0
176
     1
 62
     5
 63
     7
421
 16777215
176
     1
 74
     0
176
     1
 91
        4
176
     1
 64
     7
176
     1
 65
   257
176
     1
 75
     1
176
     1
175
     1
176
     1
 42
1.0
176
     1
 92
        8
176
     1
 66
     7
176
     1
 43
1.0
176
     1
 76
     1
176
     1
 77
     6
176
     1
 78
     2
176
     1
 67
     7
176
     1
 79
     5
176
     1
170
     0
176
     1
171
     0
176
     1
290
     0
176
     1
 93
       13
176
     1
 44
0.0
176
     1
173
     0
176
     1
  0
VISUALSTYLE
  5
2C
102
{ACAD_REACTORS
330
2A
102
}
330
2A
100
AcDbVisualStyle
  2
FlatWithEdges
 70
     1
177
     2
291
     1
 71
     2
176
     1
 72
     1
176
     1
 73
     1
176
     1
 90
        2
176
     1
 40
-0.6
176
     1
 41
30.0
176
     1
 62
     5
 63
     7
421
 16777215
176
     1
 74
     1
176
     1
 91
        4
176
     1
 64
     7
176
     1
 65
   257
176
     1
 75
     1
176
     1
175
     1
176
     1
 42
1.0
176
     1
 92
        0
176
     1
 66
   257
176
     1
 43
1.0
176
     1
 76
     1
176
     1
 77
     6
176
     1
 78
     2
176
     1
 67
     7
176
     1
 79
     5
176
     1
170
     0
176
     1
171
     0
176
     1
290
     0
176
     1
 93
       13
176
     1
 44
0.0
176
     1
173
     0
176
     1
  0
VISUALSTYLE
  5
2D
102
{ACAD_REACTORS
330
2A
102
}
330
2A
100
AcDbVisualStyle
  2
Gouraud
 70
     2
177
     2
291
     1
 71
     2
176
     1
 72
     2
176
     1
 73
     1
176
     1
 90
        2
176
     1
 40
-0.6
176
     1
 41
30.0
176
     1
 62
     5
 63
     7
421
 16777215
176
     1
 74
     0
176
     1
 91
        4
176
     1
 64
     7
176
     1
 65
   257
176
     1
 75
     1
176
     1
175
     1
176
     1
 42
1.0
176
     1
 92
        0
176
     1
 66
     7
176
     1
 43
1.0
176
     1
 76
     1
176
     1
 77
     6
176
     1
 78
     2
176
     1
 67
     7
176
     1
 79
     5
176
     1
170
     0
176
     1
171
     0
176
     1
290
     0
176
     1
 93
       13
176
     1
 44
0.0
176
     1
173
     0
176
     1
  0
VISUALSTYLE
  5
2E
102
{ACAD_REACTORS
330
2A
102
}
330
2A
100
AcDbVisualStyle
  2
GouraudWithEdges
 70
     3
177
     2
291
     1
 71
     2
176
     1
 72
     2
176
     1
 73
     1
176
     1
 90
        2
176
     1
 40
-0.6
176
     1
 41
30.0
176
     1
 62
     5
 63
     7
421
 16777215
176
     1
 74
     1
176
     1
 91
        4
176
     1
 64
     7
176
     1
 65
   257
176
     1
 75
     1
176
     1
175
     1
176
     1
 42
1.0
176
     1
 92
        0
176
     1
 66
   257
176
     1
 43
1.0
176
     1
 76
     1
176
     1
 77
     6
176
     1
 78
     2
176
     1
 67
     7
176
     1
 79
     5
176
     1
170
     0
176
     1
171
     0
176
     1
290
     0
176
     1
 93
       13
176
     1
 44
0.0
176
     1
173
     0
176
     1
  0
VISUALSTYLE
  5
38
102
{ACAD_REACTORS
330
2A
102
}
330
2A
100
AcDbVisualStyle
  2
Linepattern
 70
    14
177
     2
291
     1
 71
     2
176
     1
 72
     2
176
     1
 73
     0
176
     1
 90
        0
176
     1
 40
-0.6
176
     1
 41
-30.0
176
     1
 62
     5
 63
     7
421
 16777215
176
     1
 74
     1
176
     1
 91
        4
176
     1
 64
     7
176
     1
 65
   257
176
     1
 75
     7
176
     1
175
     7
176
     1
 42
1.0
176
     1
 92
        8
176
     1
 66
     7
176
     1
 43
1.0
176
     1
 76
     1
176
     1
 77
     6
176
     1
 78
     2
176
     1
 67
     7
176
     1
 79
     5
176
     1
170
     0
176
     1
171
     0
176
     1
290
     0
176
     1
 93
        1
176
     1
 44
0.0
176
     1
173
     0
176
     1
  0
VISUALSTYLE
  5
33
102
{ACAD_REACTORS
330
2A
102
}
330
2A
100
AcDbVisualStyle
  2
Realistic
 70
     8
177
     2
291
     0
 71
     2
176
     1
 72
     2
176
     1
 73
     0
176
     1
 90
        0
176
     1
 40
-0.6
176
     1
 41
-30.0
176
     1
 62
     5
 63
     7
421
 16777215
176
     1
 74
     1
176
     1
 91
        0
176
     1
 64
     7
176
     1
 65
   257
176
     1
 75
     1
176
     1
175
     1
176
     1
 42
1.0
176
     1
 92
        8
176
     1
 66
     8
424
  7895160
176
     1
 43
1.0
176
     1
 76
     1
176
     1
 77
     6
176
     1
 78
     2
176
     1
 67
     7
176
     1
 79
     5
176
     1
170
     0
176
     1
171
     0
176
     1
290
     0
176
     1
 93
       13
176
     1
 44
0.0
176
     1
173
     0
176
     1
  0
VISUALSTYLE
  5
37
102
{ACAD_REACTORS
330
2A
102
}
330
2A
100
AcDbVisualStyle
  2
Thicken
 70
    13
177
     2
291
     1
 71
     2
176
     1
 72
     2
176
     1
 73
     0
176
     1
 90
        0
176
     1
 40
-0.6
176
     1
 41
-30.0
176
     1
 62
     5
 63
     7
421
 16777215
176
     1
 74
     1
176
     1
 91
        4
176
     1
 64
     7
176
     1
 65
   257
176
     1
 75
     1
176
     1
175
     1
176
     1
 42
1.0
176
     1
 92
       12
176
     1
 66
     7
176
     1
 43
1.0
176
     1
 76
     1
176
     1
 77
     6
176
     1
 78
     2
176
     1
 67
     7
176
     1
 79
     5
176
     1
170
     0
176
     1
171
     0
176
     1
290
     0
176
     1
 93
        1
176
     1
 44
0.0
176
     1
173
     0
176
     1
  0
ENDSEC
  0
EOF
