  0
SECTION
  2
HEADER
  9
$ACADVER
  1
AC1024
  9
$ACADMAINTVER
 70
     6
  9
$DWGCODEPAGE
  3
UNDEFINED
  9
$INSBASE
 10
0.0
 20
0.0
 30
0.0
  9
$EXTMIN
 10
1.000000000000000E+20
 20
1.000000000000000E+20
 30
1.000000000000000E+20
  9
$EXTMAX
 10
-1.000000000000000E+20
 20
-1.000000000000000E+20
 30
-1.000000000000000E+20
  9
$LIMMIN
 10
0.0
 20
0.0
  9
$LIMMAX
 10
12.0
 20
9.0
  9
$ORTHOMODE
 70
     0
  9
$REGENMODE
 70
     1
  9
$FILLMODE
 70
     1
  9
$QTEXTMODE
 70
     0
  9
$MIRRTEXT
 70
     1
  9
$LTSCALE
 40
1.0
  9
$ATTMODE
 70
     1
  9
$TEXTSIZE
 40
0.2
  9
$TRACEWID
 40
0.05
  9
$TEXTSTYLE
  7
Standard
  9
$CLAYER
  8
0
  9
$CELTYPE
  6
ByLayer
  9
$CECOLOR
 62
   256
  9
$CELTSCALE
 40
1.0
  9
$DISPSILH
 70
     0
  9
$DIMSCALE
 40
1.0
  9
$DIMASZ
 40
0.18
  9
$DIMEXO
 40
0.0625
  9
$DIMDLI
 40
0.38
  9
$DIMRND
 40
0.0
  9
$DIMDLE
 40
0.0
  9
$DIMEXE
 40
0.18
  9
$DIMTP
 40
0.0
  9
$DIMTM
 40
0.0
  9
$DIMTXT
 40
0.18
  9
$DIMCEN
 40
0.09
  9
$DIMTSZ
 40
0.0
  9
$DIMTOL
 70
     0
  9
$DIMLIM
 70
     0
  9
$DIMTIH
 70
     1
  9
$DIMTOH
 70
     1
  9
$DIMSE1
 70
     0
  9
$DIMSE2
 70
     0
  9
$DIMTAD
 70
     0
  9
$DIMZIN
 70
     0
  9
$DIMBLK
  1

  9
$DIMASO
 70
     1
  9
$DIMSHO
 70
     1
  9
$DIMPOST
  1

  9
$DIMAPOST
  1

  9
$DIMALT
 70
     0
  9
$DIMALTD
 70
     2
  9
$DIMALTF
 40
25.4
  9
$DIMLFAC
 40
1.0
  9
$DIMTOFL
 70
     0
  9
$DIMTVP
 40
0.0
  9
$DIMTIX
 70
     0
  9
$DIMSOXD
 70
     0
  9
$DIMSAH
 70
     0
  9
$DIMBLK1
  1

  9
$DIMBLK2
  1

  9
$DIMSTYLE
  2
Standard
  9
$DIMCLRD
 70
     0
  9
$DIMCLRE
 70
     0
  9
$DIMCLRT
 70
     0
  9
$DIMTFAC
 40
1.0
  9
$DIMGAP
 40
0.09
  9
$DIMJUST
 70
     0
  9
$DIMSD1
 70
     0
  9
$DIMSD2
 70
     0
  9
$DIMTOLJ
 70
     1
  9
$DIMTZIN
 70
     0
  9
$DIMALTZ
 70
     0
  9
$DIMALTTZ
 70
     0
  9
$DIMUPT
 70
     0
  9
$DIMDEC
 70
     4
  9
$DIMTDEC
 70
     4
  9
$DIMALTU
 70
     2
  9
$DIMALTTD
 70
     2
  9
$DIMTXSTY
  7
Standard
  9
$DIMAUNIT
 70
     0
  9
$DIMADEC
 70
     0
  9
$DIMALTRND
 40
0.0
  9
$DIMAZIN
 70
     0
  9
$DIMDSEP
 70
    46
  9
$DIMATFIT
 70
     3
  9
$DIMFRAC
 70
     0
  9
$DIMLDRBLK
  1

  9
$DIMLUNIT
 70
     2
  9
$DIMLWD
 70
    -2
  9
$DIMLWE
 70
    -2
  9
$DIMTMOVE
 70
     0
  9
$DIMFXL
 40
1.0
  9
$DIMFXLON
 70
     0
  9
$DIMJOGANG
 40
0.7853981633974483
  9
$DIMTFILL
 70
     0
  9
$DIMTFILLCLR
 70
     0
  9
$DIMARCSYM
 70
     0
  9
$DIMLTYPE
  6

  9
$DIMLTEX1
  6

  9
$DIMLTEX2
  6

  9
$DIMTXTDIRECTION
 70
     0
  9
$LUNITS
 70
     2
  9
$LUPREC
 70
     4
  9
$SKETCHINC
 40
0.1
  9
$FILLETRAD
 40
0.5
  9
$AUNITS
 70
     0
  9
$AUPREC
 70
     0
  9
$MENU
  1
.
  9
$ELEVATION
 40
0.0
  9
$PELEVATION
 40
0.0
  9
$THICKNESS
 40
0.0
  9
$LIMCHECK
 70
     0
  9
$CHAMFERA
 40
0.5
  9
$CHAMFERB
 40
0.5
  9
$CHAMFERC
 40
1.0
  9
$CHAMFERD
 40
0.0
  9
$SKPOLY
 70
     0
  9
$TDCREATE
 40
2457917.586712951
  9
$TDUCREATE
 40
2457917.211712963
  9
$TDUPDATE
 40
2457917.586712951
  9
$TDUUPDATE
 40
2457917.211712963
  9
$TDINDWG
 40
0.0000000116
  9
$TDUSRTIMER
 40
0.0000000116
  9
$USRTIMER
 70
     1
  9
$ANGBASE
 50
0.0
  9
$ANGDIR
 70
     0
  9
$PDMODE
 70
     0
  9
$PDSIZE
 40
0.0
  9
$PLINEWID
 40
0.0
  9
$SPLFRAME
 70
     0
  9
$SPLINETYPE
 70
     6
  9
$SPLINESEGS
 70
     8
  9
$HANDSEED
  5
EA
  9
$SURFTAB1
 70
     6
  9
$SURFTAB2
 70
     6
  9
$SURFTYPE
 70
     6
  9
$SURFU
 70
     6
  9
$SURFV
 70
     6
  9
$UCSBASE
  2

  9
$UCSNAME
  2

  9
$UCSORG
 10
0.0
 20
0.0
 30
0.0
  9
$UCSXDIR
 10
1.0
 20
0.0
 30
0.0
  9
$UCSYDIR
 10
0.0
 20
1.0
 30
0.0
  9
$UCSORTHOREF
  2

  9
$UCSORTHOVIEW
 70
     0
  9
$UCSORGTOP
 10
0.0
 20
0.0
 30
0.0
  9
$UCSORGBOTTOM
 10
0.0
 20
0.0
 30
0.0
  9
$UCSORGLEFT
 10
0.0
 20
0.0
 30
0.0
  9
$UCSORGRIGHT
 10
0.0
 20
0.0
 30
0.0
  9
$UCSORGFRONT
 10
0.0
 20
0.0
 30
0.0
  9
$UCSORGBACK
 10
0.0
 20
0.0
 30
0.0
  9
$PUCSBASE
  2

  9
$PUCSNAME
  2

  9
$PUCSORG
 10
0.0
 20
0.0
 30
0.0
  9
$PUCSXDIR
 10
1.0
 20
0.0
 30
0.0
  9
$PUCSYDIR
 10
0.0
 20
1.0
 30
0.0
  9
$PUCSORTHOREF
  2

  9
$PUCSORTHOVIEW
 70
     0
  9
$PUCSORGTOP
 10
0.0
 20
0.0
 30
0.0
  9
$PUCSORGBOTTOM
 10
0.0
 20
0.0
 30
0.0
  9
$PUCSORGLEFT
 10
0.0
 20
0.0
 30
0.0
  9
$PUCSORGRIGHT
 10
0.0
 20
0.0
 30
0.0
  9
$PUCSORGFRONT
 10
0.0
 20
0.0
 30
0.0
  9
$PUCSORGBACK
 10
0.0
 20
0.0
 30
0.0
  9
$USERI1
 70
     0
  9
$USERI2
 70
     0
  9
$USERI3
 70
     0
  9
$USERI4
 70
     0
  9
$USERI5
 70
     0
  9
$USERR1
 40
0.0
  9
$USERR2
 40
0.0
  9
$USERR3
 40
0.0
  9
$USERR4
 40
0.0
  9
$USERR5
 40
0.0
  9
$WORLDVIEW
 70
     1
  9
$SHADEDGE
 70
     3
  9
$SHADEDIF
 70
    70
  9
$TILEMODE
 70
     1
  9
$MAXACTVP
 70
    64
  9
$PINSBASE
 10
0.0
 20
0.0
 30
0.0
  9
$PLIMCHECK
 70
     0
  9
$PEXTMIN
 10
1.000000000000000E+20
 20
1.000000000000000E+20
 30
1.000000000000000E+20
  9
$PEXTMAX
 10
-1.000000000000000E+20
 20
-1.000000000000000E+20
 30
-1.000000000000000E+20
  9
$PLIMMIN
 10
0.0
 20
0.0
  9
$PLIMMAX
 10
12.0
 20
9.0
  9
$UNITMODE
 70
     0
  9
$VISRETAIN
 70
     1
  9
$PLINEGEN
 70
     0
  9
$PSLTSCALE
 70
     1
  9
$TREEDEPTH
 70
  3020
  9
$CMLSTYLE
  2
Standard
  9
$CMLJUST
 70
     0
  9
$CMLSCALE
 40
1.0
  9
$PROXYGRAPHICS
 70
     1
  9
$MEASUREMENT
 70
     0
  9
$CELWEIGHT
370
    -1
  9
$ENDCAPS
280
     0
  9
$JOINSTYLE
280
     0
  9
$LWDISPLAY
290
     1
  9
$INSUNITS
 70
     1
  9
$HYPERLINKBASE
  1

  9
$STYLESHEET
  1

  9
$XEDIT
290
     1
  9
$CEPSNTYPE
380
     0
  9
$PSTYLEMODE
290
     1
  9
$FINGERPRINTGUID
  2
{F5CBCCAA-869C-F67F-A96B-0A08AB055739}
  9
$VERSIONGUID
  2
{FAEB1C32-E019-11D5-929B-00C0DF256EC4}
  9
$EXTNAMES
290
     1
  9
$PSVPSCALE
 40
0.0
  9
$OLESTARTUP
290
     0
  9
$SORTENTS
280
   127
  9
$INDEXCTL
280
     0
  9
$HIDETEXT
280
     1
  9
$XCLIPFRAME
280
     2
  9
$HALOGAP
280
     0
  9
$OBSCOLOR
 70
   257
  9
$OBSLTYPE
280
     0
  9
$INTERSECTIONDISPLAY
280
     0
  9
$INTERSECTIONCOLOR
 70
   257
  9
$DIMASSOC
280
     2
  9
$PROJECTNAME
  1

  9
$CAMERADISPLAY
290
     0
  9
$LENSLENGTH
 40
50.0
  9
$CAMERAHEIGHT
 40
0.0
  9
$STEPSPERSEC
 40
2.0
  9
$STEPSIZE
 40
6.0
  9
$3DDWFPREC
 40
2.0
  9
$PSOLWIDTH
 40
0.25
  9
$PSOLHEIGHT
 40
4.0
  9
$LOFTANG1
 40
1.570796326794897
  9
$LOFTANG2
 40
1.570796326794897
  9
$LOFTMAG1
 40
0.0
  9
$LOFTMAG2
 40
0.0
  9
$LOFTPARAM
 70
     7
  9
$LOFTNORMALS
280
     1
  9
$LATITUDE
 40
37.795
  9
$LONGITUDE
 40
-122.394
  9
$NORTHDIRECTION
 40
0.0
  9
$TIMEZONE
 70
 -8000
  9
$LIGHTGLYPHDISPLAY
280
     1
  9
$TILEMODELIGHTSYNCH
280
     1
  9
$CMATERIAL
347
3C
  9
$SOLIDHIST
280
     1
  9
$SHOWHIST
280
     1
  9
$DWFFRAME
280
     2
  9
$DGNFRAME
280
     2
  9
$REALWORLDSCALE
290
     1
  9
$INTERFERECOLOR
 62
   256
  9
$CSHADOW
280
     0
  9
$SHADOWPLANELOCATION
 40
0.0
  0
ENDSEC
  0
SECTION
  2
CLASSES
  0
CLASS
  1
ACDBDICTIONARYWDFLT
  2
AcDbDictionaryWithDefault
  3
ObjectDBX Classes
 90
        0
 91
        4
280
     0
281
     0
  0
CLASS
  1
VISUALSTYLE
  2
AcDbVisualStyle
  3
ObjectDBX Classes
 90
     4095
 91
        4
280
     0
281
     0
  0
CLASS
  1
MATERIAL
  2
AcDbMaterial
  3
ObjectDBX Classes
 90
     1153
 91
        4
280
     0
281
     0
  0
CLASS
  1
SUN
  2
AcDbSun
  3
SCENEOE
 90
     1024
 91
        4
280
     0
281
     0
  0
ENDSEC
  0
SECTION
  2
TABLES
  0
TABLE
  2
VPORT
  5
8
330
0
100
AcDbSymbolTable
 70
     1
  0
VPORT
  5
29
330
8
100
AcDbSymbolTableRecord
100
AcDbViewportTableRecord
  2
*Active
 70
     0
 10
0.0
 20
0.0
 11
1.0
 21
1.0
 12
0.0
 22
0.0
 13
0.0
 23
0.0
 14
0.5
 24
0.5
 15
0.5
 25
0.5
 16
0.0
 26
0.0
 36
1.0
 17
63.499999984125
 27
-89.00059456108309
 37
0.0
 40
178.0011891221662
 41
0.7134783795241226
 42
50.0
 43
0.0
 44
0.0
 50
0.0
 51
0.0
 71
     0
 72
   100
 73
     1
 74
     3
 75
     0
 76
     0
 77
     0
 78
     0
281
     0
 65
     1
110
0.0
120
0.0
130
0.0
111
1.0
121
0.0
131
0.0
112
0.0
122
1.0
132
0.0
 79
     0
146
0.0
 60
     3
 61
     5
292
     1
282
     1
141
0.0
142
0.0
 63
   250
361
3F
  0
ENDTAB
  0
TABLE
  2
LTYPE
  5
5
330
0
100
AcDbSymbolTable
 70
     1
  0
LTYPE
  5
14
330
5
100
AcDbSymbolTableRecord
100
AcDbLinetypeTableRecord
  2
ByBlock
 70
     0
  3

 72
    65
 73
     0
 40
0.0
  0
LTYPE
  5
15
330
5
100
AcDbSymbolTableRecord
100
AcDbLinetypeTableRecord
  2
ByLayer
 70
     0
  3

 72
    65
 73
     0
 40
0.0
  0
LTYPE
  5
16
330
5
100
AcDbSymbolTableRecord
100
AcDbLinetypeTableRecord
  2
Continuous
 70
     0
  3
Solid line
 72
    65
 73
     0
 40
0.0
  0
ENDTAB
  0
TABLE
  2
LAYER
  5
2
330
0
100
AcDbSymbolTable
 70
     2
  0
LAYER
  5
10
330
2
100
AcDbSymbolTableRecord
100
AcDbLayerTableRecord
  2
0
 70
     0
 62
     7
  6
Continuous
370
    -3
390
F
347
3E
  0
LAYER
  5
40
330
2
100
AcDbSymbolTableRecord
100
AcDbLayerTableRecord
  2
_U+30EC_U+30A4_U+30E4_U+30FC 1
 70
     0
 62
     7
  6
Continuous
370
    -3
390
F
347
3E
  0
ENDTAB
  0
TABLE
  2
STYLE
  5
3
330
0
100
AcDbSymbolTable
 70
     1
  0
STYLE
  5
11
330
3
100
AcDbSymbolTableRecord
100
AcDbTextStyleTableRecord
  2
Standard
 70
     0
 40
0.0
 41
1.0
 50
0.0
 71
     0
 42
0.2
  3
txt
  4

  0
ENDTAB
  0
TABLE
  2
VIEW
  5
6
330
0
100
AcDbSymbolTable
 70
     0
  0
ENDTAB
  0
TABLE
  2
UCS
  5
7
330
0
100
AcDbSymbolTable
 70
     0
  0
ENDTAB
  0
TABLE
  2
APPID
  5
9
330
0
100
AcDbSymbolTable
 70
     1
  0
APPID
  5
12
330
9
100
AcDbSymbolTableRecord
100
AcDbRegAppTableRecord
  2
ACAD
 70
     0
  0
ENDTAB
  0
TABLE
  2
DIMSTYLE
  5
A
330
0
100
AcDbSymbolTable
 70
     1
100
AcDbDimStyleTable
  0
DIMSTYLE
105
27
330
A
100
AcDbSymbolTableRecord
100
AcDbDimStyleTableRecord
  2
Standard
 70
     0
178
     0
340
11
  0
ENDTAB
  0
TABLE
  2
BLOCK_RECORD
  5
1
330
0
100
AcDbSymbolTable
 70
     7
  0
BLOCK_RECORD
  5
1F
330
1
100
AcDbSymbolTableRecord
100
AcDbBlockTableRecord
  2
*Model_Space
340
22
 70
     0
280
     1
281
     0
  0
BLOCK_RECORD
  5
1B
330
1
100
AcDbSymbolTableRecord
100
AcDbBlockTableRecord
  2
*Paper_Space
340
1E
 70
     0
280
     1
281
     0
  0
BLOCK_RECORD
  5
23
330
1
100
AcDbSymbolTableRecord
100
AcDbBlockTableRecord
  2
*Paper_Space0
340
26
 70
     0
280
     1
281
     0
  0
BLOCK_RECORD
  5
41
330
1
100
AcDbSymbolTableRecord
100
AcDbBlockTableRecord
  2
block 2
340
0
102
{BLKREFS
331
42
102
}
 70
     0
280
     1
281
     0
  0
BLOCK_RECORD
  5
45
330
1
100
AcDbSymbolTableRecord
100
AcDbBlockTableRecord
  2
block 3
340
0
102
{BLKREFS
331
46
102
}
 70
     0
280
     1
281
     0
  0
BLOCK_RECORD
  5
95
330
1
100
AcDbSymbolTableRecord
100
AcDbBlockTableRecord
  2
block 4
340
0
102
{BLKREFS
331
96
102
}
 70
     0
280
     1
281
     0
  0
BLOCK_RECORD
  5
A7
330
1
100
AcDbSymbolTableRecord
100
AcDbBlockTableRecord
  2
block 5
340
0
102
{BLKREFS
331
A8
102
}
 70
     0
280
     1
281
     0
  0
BLOCK_RECORD
  5
BB
330
1
100
AcDbSymbolTableRecord
100
AcDbBlockTableRecord
  2
block 6
340
0
102
{BLKREFS
331
BC
102
}
 70
     0
280
     1
281
     0
  0
BLOCK_RECORD
  5
D7
330
1
100
AcDbSymbolTableRecord
100
AcDbBlockTableRecord
  2
block 7
340
0
102
{BLKREFS
331
D8
102
}
 70
     0
280
     1
281
     0
  0
ENDTAB
  0
ENDSEC
  0
SECTION
  2
BLOCKS
  0
BLOCK
  5
20
330
1F
100
AcDbEntity
  8
0
100
AcDbBlockBegin
  2
*Model_Space
 70
     0
 10
0.0
 20
0.0
 30
0.0
  3
*Model_Space
  1

  0
ENDBLK
  5
21
330
1F
100
AcDbEntity
  8
0
100
AcDbBlockEnd
  0
BLOCK
  5
1C
330
1B
100
AcDbEntity
 67
     1
  8
0
100
AcDbBlockBegin
  2
*Paper_Space
 70
     0
 10
0.0
 20
0.0
 30
0.0
  3
*Paper_Space
  1

  0
ENDBLK
  5
1D
330
1B
100
AcDbEntity
 67
     1
  8
0
100
AcDbBlockEnd
  0
BLOCK
  5
24
330
23
100
AcDbEntity
  8
0
100
AcDbBlockBegin
  2
*Paper_Space0
 70
     0
 10
0.0
 20
0.0
 30
0.0
  3
*Paper_Space0
  1

  0
ENDBLK
  5
25
330
23
100
AcDbEntity
  8
0
100
AcDbBlockEnd
  0
BLOCK
  5
43
330
41
100
AcDbEntity
  8
0
100
AcDbBlockBegin
  2
block 2
 70
     0
 10
0.0
 20
0.0
 30
0.0
  3
block 2
  1

  0
INSERT
  5
46
330
41
100
AcDbEntity
  8
_U+30EC_U+30A4_U+30E4_U+30FC 1
100
AcDbBlockReference
  2
block 3
 10
0.0
 20
0.0
 30
0.0
  0
POLYLINE
  5
55
330
41
100
AcDbEntity
  8
_U+30EC_U+30A4_U+30E4_U+30FC 1
 62
     7
420
 16777215
370
    25
100
AcDb2dPolyline
 66
     1
 10
0.0
 20
0.0
 30
0.0
  0
VERTEX
  5
56
330
55
100
AcDbEntity
  8
_U+30EC_U+30A4_U+30E4_U+30FC 1
 62
     7
420
 16777215
370
    25
100
AcDbVertex
100
AcDb2dVertex
 10
45.10129718270338
 20
-85.59062692304676
 30
0.0
  0
VERTEX
  5
57
330
55
100
AcDbEntity
  8
_U+30EC_U+30A4_U+30E4_U+30FC 1
 62
     7
420
 16777215
370
    25
100
AcDbVertex
100
AcDb2dVertex
 10
77.10123942187239
 20
-85.59062692304676
 30
0.0
  0
SEQEND
  5
58
330
55
100
AcDbEntity
  8
_U+30EC_U+30A4_U+30E4_U+30FC 1
 62
     7
420
 16777215
370
    25
  0
POLYLINE
  5
59
330
41
100
AcDbEntity
  8
_U+30EC_U+30A4_U+30E4_U+30FC 1
 62
     7
420
 16777215
370
    25
100
AcDb2dPolyline
 66
     1
 10
0.0
 20
0.0
 30
0.0
  0
VERTEX
  5
5A
330
59
100
AcDbEntity
  8
_U+30EC_U+30A4_U+30E4_U+30FC 1
 62
     7
420
 16777215
370
    25
100
AcDbVertex
100
AcDb2dVertex
 10
45.10129718270338
 20
-86.59039914501898
 30
0.0
  0
VERTEX
  5
5B
330
59
100
AcDbEntity
  8
_U+30EC_U+30A4_U+30E4_U+30FC 1
 62
     7
420
 16777215
370
    25
100
AcDbVertex
100
AcDb2dVertex
 10
57.10124465433699
 20
-86.59039914501898
 30
0.0
  0
SEQEND
  5
5C
330
59
100
AcDbEntity
  8
_U+30EC_U+30A4_U+30E4_U+30FC 1
 62
     7
420
 16777215
370
    25
  0
POLYLINE
  5
5D
330
41
100
AcDbEntity
  8
_U+30EC_U+30A4_U+30E4_U+30FC 1
 62
     7
420
 16777215
370
    25
100
AcDb2dPolyline
 66
     1
 10
0.0
 20
0.0
 30
0.0
  0
VERTEX
  5
5E
330
5D
100
AcDbEntity
  8
_U+30EC_U+30A4_U+30E4_U+30FC 1
 62
     7
420
 16777215
370
    25
100
AcDbVertex
100
AcDb2dVertex
 10
58.1010168510529
 20
-86.59039914501898
 30
0.0
  0
VERTEX
  5
5F
330
5D
100
AcDbEntity
  8
_U+30EC_U+30A4_U+30E4_U+30FC 1
 62
     7
420
 16777215
370
    25
100
AcDbVertex
100
AcDb2dVertex
 10
77.10123942187239
 20
-86.59039914501898
 30
0.0
  0
SEQEND
  5
60
330
5D
100
AcDbEntity
  8
_U+30EC_U+30A4_U+30E4_U+30FC 1
 62
     7
420
 16777215
370
    25
  0
POLYLINE
  5
61
330
41
100
AcDbEntity
  8
_U+30EC_U+30A4_U+30E4_U+30FC 1
 62
     7
420
 16777215
370
    25
100
AcDb2dPolyline
 66
     1
 10
0.0
 20
0.0
 30
0.0
  0
VERTEX
  5
62
330
61
100
AcDbEntity
  8
_U+30EC_U+30A4_U+30E4_U+30FC 1
 62
     7
420
 16777215
370
    25
100
AcDbVertex
100
AcDb2dVertex
 10
45.10129718270338
 20
-85.59062692304676
 30
0.0
  0
VERTEX
  5
63
330
61
100
AcDbEntity
  8
_U+30EC_U+30A4_U+30E4_U+30FC 1
 62
     7
420
 16777215
370
    25
100
AcDbVertex
100
AcDb2dVertex
 10
45.10129718270338
 20
-86.59039914501898
 30
0.0
  0
SEQEND
  5
64
330
61
100
AcDbEntity
  8
_U+30EC_U+30A4_U+30E4_U+30FC 1
 62
     7
420
 16777215
370
    25
  0
POLYLINE
  5
65
330
41
100
AcDbEntity
  8
_U+30EC_U+30A4_U+30E4_U+30FC 1
 62
     7
420
 16777215
370
    25
100
AcDb2dPolyline
 66
     1
 10
0.0
 20
0.0
 30
0.0
  0
VERTEX
  5
66
330
65
100
AcDbEntity
  8
_U+30EC_U+30A4_U+30E4_U+30FC 1
 62
     7
420
 16777215
370
    25
100
AcDbVertex
100
AcDb2dVertex
 10
77.10123942187239
 20
-85.59062692304676
 30
0.0
  0
VERTEX
  5
67
330
65
100
AcDbEntity
  8
_U+30EC_U+30A4_U+30E4_U+30FC 1
 62
     7
420
 16777215
370
    25
100
AcDbVertex
100
AcDb2dVertex
 10
77.10123942187239
 20
-86.59039914501898
 30
0.0
  0
SEQEND
  5
68
330
65
100
AcDbEntity
  8
_U+30EC_U+30A4_U+30E4_U+30FC 1
 62
     7
420
 16777215
370
    25
  0
POLYLINE
  5
69
330
41
100
AcDbEntity
  8
_U+30EC_U+30A4_U+30E4_U+30FC 1
 62
     7
420
 16777215
370
    25
100
AcDb2dPolyline
 66
     1
 10
0.0
 20
0.0
 30
0.0
  0
VERTEX
  5
6A
330
69
100
AcDbEntity
  8
_U+30EC_U+30A4_U+30E4_U+30FC 1
 62
     7
420
 16777215
370
    25
100
AcDbVertex
100
AcDb2dVertex
 10
58.1010168510529
 20
-92.89182164344354
 30
0.0
  0
VERTEX
  5
6B
330
69
100
AcDbEntity
  8
_U+30EC_U+30A4_U+30E4_U+30FC 1
 62
     7
420
 16777215
370
    25
100
AcDbVertex
100
AcDb2dVertex
 10
59.60102792389554
 20
-92.89182164344354
 30
0.0
  0
SEQEND
  5
6C
330
69
100
AcDbEntity
  8
_U+30EC_U+30A4_U+30E4_U+30FC 1
 62
     7
420
 16777215
370
    25
  0
POLYLINE
  5
6D
330
41
100
AcDbEntity
  8
_U+30EC_U+30A4_U+30E4_U+30FC 1
 62
     7
420
 16777215
370
    25
100
AcDb2dPolyline
 66
     1
 10
0.0
 20
0.0
 30
0.0
  0
VERTEX
  5
6E
330
6D
100
AcDbEntity
  8
_U+30EC_U+30A4_U+30E4_U+30FC 1
 62
     7
420
 16777215
370
    25
100
AcDbVertex
100
AcDb2dVertex
 10
57.10124465433699
 20
-93.89194664319385
 30
0.0
  0
VERTEX
  5
6F
330
6D
100
AcDbEntity
  8
_U+30EC_U+30A4_U+30E4_U+30FC 1
 62
     7
420
 16777215
370
    25
100
AcDbVertex
100
AcDb2dVertex
 10
59.60102792389554
 20
-93.89194664319385
 30
0.0
  0
SEQEND
  5
70
330
6D
100
AcDbEntity
  8
_U+30EC_U+30A4_U+30E4_U+30FC 1
 62
     7
420
 16777215
370
    25
  0
POLYLINE
  5
71
330
41
100
AcDbEntity
  8
_U+30EC_U+30A4_U+30E4_U+30FC 1
 62
     7
420
 16777215
370
    25
100
AcDb2dPolyline
 66
     1
 10
0.0
 20
0.0
 30
0.0
  0
VERTEX
  5
72
330
71
100
AcDbEntity
  8
_U+30EC_U+30A4_U+30E4_U+30FC 1
 62
     7
420
 16777215
370
    25
100
AcDbVertex
100
AcDb2dVertex
 10
57.10124465433699
 20
-86.69203442277158
 30
0.0
  0
VERTEX
  5
73
330
71
100
AcDbEntity
  8
_U+30EC_U+30A4_U+30E4_U+30FC 1
 62
     7
420
 16777215
370
    25
100
AcDbVertex
100
AcDb2dVertex
 10
57.10124465433699
 20
-93.89194664319385
 30
0.0
  0
SEQEND
  5
74
330
71
100
AcDbEntity
  8
_U+30EC_U+30A4_U+30E4_U+30FC 1
 62
     7
420
 16777215
370
    25
  0
POLYLINE
  5
75
330
41
100
AcDbEntity
  8
_U+30EC_U+30A4_U+30E4_U+30FC 1
 62
     7
420
 16777215
370
    25
100
AcDb2dPolyline
 66
     1
 10
0.0
 20
0.0
 30
0.0
  0
VERTEX
  5
76
330
75
100
AcDbEntity
  8
_U+30EC_U+30A4_U+30E4_U+30FC 1
 62
     7
420
 16777215
370
    25
100
AcDbVertex
100
AcDb2dVertex
 10
59.60102792389554
 20
-92.89182164344354
 30
0.0
  0
VERTEX
  5
77
330
75
100
AcDbEntity
  8
_U+30EC_U+30A4_U+30E4_U+30FC 1
 62
     7
420
 16777215
370
    25
100
AcDbVertex
100
AcDb2dVertex
 10
59.60102792389554
 20
-93.89194664319385
 30
0.0
  0
SEQEND
  5
78
330
75
100
AcDbEntity
  8
_U+30EC_U+30A4_U+30E4_U+30FC 1
 62
     7
420
 16777215
370
    25
  0
POLYLINE
  5
79
330
41
100
AcDbEntity
  8
_U+30EC_U+30A4_U+30E4_U+30FC 1
 62
     7
420
 16777215
370
    25
100
AcDb2dPolyline
 66
     1
 10
0.0
 20
0.0
 30
0.0
  0
VERTEX
  5
7A
330
79
100
AcDbEntity
  8
_U+30EC_U+30A4_U+30E4_U+30FC 1
 62
     7
420
 16777215
370
    25
100
AcDbVertex
100
AcDb2dVertex
 10
58.1010168510529
 20
-86.69168164499382
 30
0.0
  0
VERTEX
  5
7B
330
79
100
AcDbEntity
  8
_U+30EC_U+30A4_U+30E4_U+30FC 1
 62
     7
420
 16777215
370
    25
100
AcDbVertex
100
AcDb2dVertex
 10
58.1010168510529
 20
-92.89182164344354
 30
0.0
  0
SEQEND
  5
7C
330
79
100
AcDbEntity
  8
_U+30EC_U+30A4_U+30E4_U+30FC 1
 62
     7
420
 16777215
370
    25
  0
SPLINE
  5
7D
330
41
100
AcDbEntity
  8
_U+30EC_U+30A4_U+30E4_U+30FC 1
 62
     7
420
 16777215
370
     9
100
AcDbSpline
210
0.0
220
0.0
230
1.0
 70
    11
 71
     3
 72
    17
 73
    13
 74
     0
 42
0.0000000001
 43
0.0000000001
 12
1.0
 22
0.0
 32
0.0
 13
1.0
 23
0.0
 33
0.0
 40
0.0
 40
0.0
 40
0.0
 40
0.0
 40
1.0
 40
1.0
 40
1.0
 40
2.0
 40
2.0
 40
2.0
 40
3.0
 40
3.0
 40
3.0
 40
4.0
 40
4.0
 40
4.0
 40
4.0
 10
81.20090515061455
 20
-85.59062692304676
 30
0.0
 10
81.20090515061455
 20
-85.53481747861632
 30
0.0
 10
81.15610237397978
 20
-85.49004997862743
 30
0.0
 10
81.1009984864967
 20
-85.49004997862743
 30
0.0
 10
81.04585932123676
 20
-85.49004997862743
 30
0.0
 10
81.00109182237887
 20
-85.53481747861632
 30
0.0
 10
81.00109182237887
 20
-85.59062692304676
 30
0.0
 10
81.00109182237887
 20
-85.64576608969983
 30
0.0
 10
81.04585932123676
 20
-85.69053358968839
 30
0.0
 10
81.1009984864967
 20
-85.69053358968839
 30
0.0
 10
81.15610237397978
 20
-85.69053358968839
 30
0.0
 10
81.20090515061455
 20
-85.64576608969983
 30
0.0
 10
81.20090515061455
 20
-85.59062692304676
 30
0.0
  0
SPLINE
  5
7E
330
41
100
AcDbEntity
  8
_U+30EC_U+30A4_U+30E4_U+30FC 1
 62
     7
420
 16777215
370
     9
100
AcDbSpline
210
0.0
220
0.0
230
1.0
 70
    11
 71
     3
 72
    17
 73
    13
 74
     0
 42
0.0000000001
 43
0.0000000001
 12
1.0
 22
0.0
 32
0.0
 13
1.0
 23
0.0
 33
0.0
 40
0.0
 40
0.0
 40
0.0
 40
0.0
 40
1.0
 40
1.0
 40
1.0
 40
2.0
 40
2.0
 40
2.0
 40
3.0
 40
3.0
 40
3.0
 40
4.0
 40
4.0
 40
4.0
 40
4.0
 10
81.20090515061455
 20
-86.59039914501898
 30
0.0
 10
81.20090515061455
 20
-86.53529525614405
 30
0.0
 10
81.15610237397978
 20
-86.49049247837733
 30
0.0
 10
81.1009984864967
 20
-86.49049247837733
 30
0.0
 10
81.04585932123676
 20
-86.49049247837733
 30
0.0
 10
81.00109182237887
 20
-86.53529525614405
 30
0.0
 10
81.00109182237887
 20
-86.59039914501898
 30
0.0
 10
81.00109182237887
 20
-86.64553831167206
 30
0.0
 10
81.04585932123676
 20
-86.69030581166061
 30
0.0
 10
81.1009984864967
 20
-86.69030581166061
 30
0.0
 10
81.15610237397978
 20
-86.69030581166061
 30
0.0
 10
81.20090515061455
 20
-86.64553831167206
 30
0.0
 10
81.20090515061455
 20
-86.59039914501898
 30
0.0
  0
SPLINE
  5
7F
330
41
100
AcDbEntity
  8
_U+30EC_U+30A4_U+30E4_U+30FC 1
 62
     7
420
 16777215
370
     9
100
AcDbSpline
210
0.0
220
0.0
230
1.0
 70
    11
 71
     3
 72
    17
 73
    13
 74
     0
 42
0.0000000001
 43
0.0000000001
 12
1.0
 22
0.0
 32
0.0
 13
1.0
 23
0.0
 33
0.0
 40
0.0
 40
0.0
 40
0.0
 40
0.0
 40
1.0
 40
1.0
 40
1.0
 40
2.0
 40
2.0
 40
2.0
 40
3.0
 40
3.0
 40
3.0
 40
4.0
 40
4.0
 40
4.0
 40
4.0
 10
77.20114608599023
 20
-81.59019747960251
 30
0.0
 10
77.20114608599023
 20
-81.53505831294943
 30
0.0
 10
77.15634330935546
 20
-81.49029081296086
 30
0.0
 10
77.10123942187239
 20
-81.49029081296086
 30
0.0
 10
77.04610025661245
 20
-81.49029081296086
 30
0.0
 10
77.00133275775457
 20
-81.53505831294943
 30
0.0
 10
77.00133275775457
 20
-81.59019747960251
 30
0.0
 10
77.00133275775457
 20
-81.64565414625518
 30
0.0
 10
77.04610025661245
 20
-81.6904569240219
 30
0.0
 10
77.10123942187239
 20
-81.6904569240219
 30
0.0
 10
77.15634330935546
 20
-81.6904569240219
 30
0.0
 10
77.20114608599023
 20
-81.64565414625518
 30
0.0
 10
77.20114608599023
 20
-81.59019747960251
 30
0.0
  0
SPLINE
  5
80
330
41
100
AcDbEntity
  8
_U+30EC_U+30A4_U+30E4_U+30FC 1
 62
     7
420
 16777215
370
     9
100
AcDbSpline
210
0.0
220
0.0
230
1.0
 70
    11
 71
     3
 72
    17
 73
    13
 74
     0
 42
0.0000000001
 43
0.0000000001
 12
1.0
 22
0.0
 32
0.0
 13
1.0
 23
0.0
 33
0.0
 40
0.0
 40
0.0
 40
0.0
 40
0.0
 40
1.0
 40
1.0
 40
1.0
 40
2.0
 40
2.0
 40
2.0
 40
3.0
 40
3.0
 40
3.0
 40
4.0
 40
4.0
 40
4.0
 40
4.0
 10
45.20120384682122
 20
-81.59019747960251
 30
0.0
 10
45.20120384682122
 20
-81.53505831294943
 30
0.0
 10
45.15640107018645
 20
-81.49029081296086
 30
0.0
 10
45.10129718270338
 20
-81.49029081296086
 30
0.0
 10
45.04615801744343
 20
-81.49029081296086
 30
0.0
 10
45.00139165541636
 20
-81.53505831294943
 30
0.0
 10
45.00139165541636
 20
-81.59019747960251
 30
0.0
 10
45.00139165541636
 20
-81.64565414625518
 30
0.0
 10
45.04615801744343
 20
-81.6904569240219
 30
0.0
 10
45.10129718270338
 20
-81.6904569240219
 30
0.0
 10
45.15640107018645
 20
-81.6904569240219
 30
0.0
 10
45.20120384682122
 20
-81.64565414625518
 30
0.0
 10
45.20120384682122
 20
-81.59019747960251
 30
0.0
  0
SPLINE
  5
81
330
41
100
AcDbEntity
  8
_U+30EC_U+30A4_U+30E4_U+30FC 1
 62
     7
420
 16777215
370
     9
100
AcDbSpline
210
0.0
220
0.0
230
1.0
 70
    11
 71
     3
 72
    17
 73
    13
 74
     0
 42
0.0000000001
 43
0.0000000001
 12
1.0
 22
0.0
 32
0.0
 13
1.0
 23
0.0
 33
0.0
 40
0.0
 40
0.0
 40
0.0
 40
0.0
 40
1.0
 40
1.0
 40
1.0
 40
2.0
 40
2.0
 40
2.0
 40
3.0
 40
3.0
 40
3.0
 40
4.0
 40
4.0
 40
4.0
 40
4.0
 10
45.20120384682122
 20
-97.89205858663784
 30
0.0
 10
45.20120384682122
 20
-97.83656664220764
 30
0.0
 10
45.15640107018645
 20
-97.79179914221845
 30
0.0
 10
45.10129718270338
 20
-97.79179914221845
 30
0.0
 10
45.04615801744343
 20
-97.79179914221845
 30
0.0
 10
45.00139165541636
 20
-97.83656664220764
 30
0.0
 10
45.00139165541636
 20
-97.89205858663784
 30
0.0
 10
45.00139165541636
 20
-97.94716247551341
 30
0.0
 10
45.04615801744343
 20
-97.99196525327949
 30
0.0
 10
45.10129718270338
 20
-97.99196525327949
 30
0.0
 10
45.15640107018645
 20
-97.99196525327949
 30
0.0
 10
45.20120384682122
 20
-97.94716247551341
 30
0.0
 10
45.20120384682122
 20
-97.89205858663784
 30
0.0
  0
SPLINE
  5
82
330
41
100
AcDbEntity
  8
_U+30EC_U+30A4_U+30E4_U+30FC 1
 62
     7
420
 16777215
370
     9
100
AcDbSpline
210
0.0
220
0.0
230
1.0
 70
    11
 71
     3
 72
    17
 73
    13
 74
     0
 42
0.0000000001
 43
0.0000000001
 12
1.0
 22
0.0
 32
0.0
 13
1.0
 23
0.0
 33
0.0
 40
0.0
 40
0.0
 40
0.0
 40
0.0
 40
1.0
 40
1.0
 40
1.0
 40
2.0
 40
2.0
 40
2.0
 40
3.0
 40
3.0
 40
3.0
 40
4.0
 40
4.0
 40
4.0
 40
4.0
 10
57.20115276347764
 20
-97.89205858663784
 30
0.0
 10
57.20115276347764
 20
-97.83656664220764
 30
0.0
 10
57.15638381959695
 20
-97.79179914221845
 30
0.0
 10
57.10124465433699
 20
-97.79179914221845
 30
0.0
 10
57.04614076685392
 20
-97.79179914221845
 30
0.0
 10
57.00133799021916
 20
-97.83656664220764
 30
0.0
 10
57.00133799021916
 20
-97.89205858663784
 30
0.0
 10
57.00133799021916
 20
-97.94716247551341
 30
0.0
 10
57.04614076685392
 20
-97.99196525327949
 30
0.0
 10
57.10124465433699
 20
-97.99196525327949
 30
0.0
 10
57.15638381959695
 20
-97.99196525327949
 30
0.0
 10
57.20115276347764
 20
-97.94716247551341
 30
0.0
 10
57.20115276347764
 20
-97.89205858663784
 30
0.0
  0
SPLINE
  5
83
330
41
100
AcDbEntity
  8
_U+30EC_U+30A4_U+30E4_U+30FC 1
 62
     7
420
 16777215
370
     9
100
AcDbSpline
210
0.0
220
0.0
230
1.0
 70
    11
 71
     3
 72
    17
 73
    13
 74
     0
 42
0.0000000001
 43
0.0000000001
 12
1.0
 22
0.0
 32
0.0
 13
1.0
 23
0.0
 33
0.0
 40
0.0
 40
0.0
 40
0.0
 40
0.0
 40
1.0
 40
1.0
 40
1.0
 40
2.0
 40
2.0
 40
2.0
 40
3.0
 40
3.0
 40
3.0
 40
4.0
 40
4.0
 40
4.0
 40
4.0
 10
59.70160486577406
 20
-97.89205858663784
 30
0.0
 10
59.70160486577406
 20
-97.83656664220764
 30
0.0
 10
59.6568388739746
 20
-97.79179914221845
 30
0.0
 10
59.60102792389554
 20
-97.79179914221845
 30
0.0
 10
59.54588875863559
 20
-97.79179914221845
 30
0.0
 10
59.50112125977771
 20
-97.83656664220764
 30
0.0
 10
59.50112125977771
 20
-97.89205858663784
 30
0.0
 10
59.50112125977771
 20
-97.94716247551341
 30
0.0
 10
59.54588875863559
 20
-97.99196525327949
 30
0.0
 10
59.60102792389554
 20
-97.99196525327949
 30
0.0
 10
59.6568388739746
 20
-97.99196525327949
 30
0.0
 10
59.70160486577406
 20
-97.94716247551341
 30
0.0
 10
59.70160486577406
 20
-97.89205858663784
 30
0.0
  0
SPLINE
  5
84
330
41
100
AcDbEntity
  8
_U+30EC_U+30A4_U+30E4_U+30FC 1
 62
     7
420
 16777215
370
     9
100
AcDbSpline
210
0.0
220
0.0
230
1.0
 70
    11
 71
     3
 72
    17
 73
    13
 74
     0
 42
0.0000000001
 43
0.0000000001
 12
1.0
 22
0.0
 32
0.0
 13
1.0
 23
0.0
 33
0.0
 40
0.0
 40
0.0
 40
0.0
 40
0.0
 40
1.0
 40
1.0
 40
1.0
 40
2.0
 40
2.0
 40
2.0
 40
3.0
 40
3.0
 40
3.0
 40
4.0
 40
4.0
 40
4.0
 40
4.0
 10
81.20090515061455
 20
-92.89182164344354
 30
0.0
 10
81.20090515061455
 20
-92.83671775456862
 30
0.0
 10
81.15610237397978
 20
-92.7919149768019
 30
0.0
 10
81.1009984864967
 20
-92.7919149768019
 30
0.0
 10
81.04585932123676
 20
-92.7919149768019
 30
0.0
 10
81.00109182237887
 20
-92.83671775456862
 30
0.0
 10
81.00109182237887
 20
-92.89182164344354
 30
0.0
 10
81.00109182237887
 20
-92.94731358787438
 30
0.0
 10
81.04585932123676
 20
-92.99208108786294
 30
0.0
 10
81.1009984864967
 20
-92.99208108786294
 30
0.0
 10
81.15610237397978
 20
-92.99208108786294
 30
0.0
 10
81.20090515061455
 20
-92.94731358787438
 30
0.0
 10
81.20090515061455
 20
-92.89182164344354
 30
0.0
  0
POLYLINE
  5
85
330
41
100
AcDbEntity
  8
_U+30EC_U+30A4_U+30E4_U+30FC 1
 62
     7
420
 16777215
370
     9
100
AcDb2dPolyline
 66
     1
 10
0.0
 20
0.0
 30
0.0
  0
VERTEX
  5
86
330
85
100
AcDbEntity
  8
_U+30EC_U+30A4_U+30E4_U+30FC 1
 62
     7
420
 16777215
370
     9
100
AcDbVertex
100
AcDb2dVertex
 10
81.1009984864967
 20
-85.59062692304676
 30
0.0
  0
VERTEX
  5
87
330
85
100
AcDbEntity
  8
_U+30EC_U+30A4_U+30E4_U+30FC 1
 62
     7
420
 16777215
370
     9
100
AcDbVertex
100
AcDb2dVertex
 10
81.1009984864967
 20
-81.82031442398933
 30
0.0
  0
SEQEND
  5
88
330
85
100
AcDbEntity
  8
_U+30EC_U+30A4_U+30E4_U+30FC 1
 62
     7
420
 16777215
370
     9
  0
POLYLINE
  5
89
330
41
100
AcDbEntity
  8
_U+30EC_U+30A4_U+30E4_U+30FC 1
 62
     7
420
 16777215
370
     9
100
AcDb2dPolyline
 66
     1
 10
0.0
 20
0.0
 30
0.0
  0
VERTEX
  5
8A
330
89
100
AcDbEntity
  8
_U+30EC_U+30A4_U+30E4_U+30FC 1
 62
     7
420
 16777215
370
     9
100
AcDbVertex
100
AcDb2dVertex
 10
81.1009984864967
 20
-85.59062692304676
 30
0.0
  0
VERTEX
  5
8B
330
89
100
AcDbEntity
  8
_U+30EC_U+30A4_U+30E4_U+30FC 1
 62
     7
420
 16777215
370
     9
100
AcDbVertex
100
AcDb2dVertex
 10
81.1009984864967
 20
-86.59039914501898
 30
0.0
  0
SEQEND
  5
8C
330
89
100
AcDbEntity
  8
_U+30EC_U+30A4_U+30E4_U+30FC 1
 62
     7
420
 16777215
370
     9
  0
POLYLINE
  5
8D
330
41
100
AcDbEntity
  8
_U+30EC_U+30A4_U+30E4_U+30FC 1
 62
     7
420
 16777215
370
     9
100
AcDb2dPolyline
 66
     1
 10
0.0
 20
0.0
 30
0.0
  0
VERTEX
  5
8E
330
8D
100
AcDbEntity
  8
_U+30EC_U+30A4_U+30E4_U+30FC 1
 62
     7
420
 16777215
370
     9
100
AcDbVertex
100
AcDb2dVertex
 10
79.64095713485658
 20
-85.59062692304676
 30
0.0
  0
VERTEX
  5
8F
330
8D
100
AcDbEntity
  8
_U+30EC_U+30A4_U+30E4_U+30FC 1
 62
     7
420
 16777215
370
     9
100
AcDbVertex
100
AcDb2dVertex
 10
82.10077068321262
 20
-85.59062692304676
 30
0.0
  0
SEQEND
  5
90
330
8D
100
AcDbEntity
  8
_U+30EC_U+30A4_U+30E4_U+30FC 1
 62
     7
420
 16777215
370
     9
  0
POLYLINE
  5
91
330
41
100
AcDbEntity
  8
_U+30EC_U+30A4_U+30E4_U+30FC 1
 62
     7
420
 16777215
370
     9
100
AcDb2dPolyline
 66
     1
 10
0.0
 20
0.0
 30
0.0
  0
VERTEX
  5
92
330
91
100
AcDbEntity
  8
_U+30EC_U+30A4_U+30E4_U+30FC 1
 62
     7
420
 16777215
370
     9
100
AcDbVertex
100
AcDb2dVertex
 10
79.64095713485658
 20
-86.6196797005674
 30
0.0
  0
VERTEX
  5
93
330
91
100
AcDbEntity
  8
_U+30EC_U+30A4_U+30E4_U+30FC 1
 62
     7
420
 16777215
370
     9
100
AcDbVertex
100
AcDb2dVertex
 10
82.10077068321262
 20
-86.6196797005674
 30
0.0
  0
SEQEND
  5
94
330
91
100
AcDbEntity
  8
_U+30EC_U+30A4_U+30E4_U+30FC 1
 62
     7
420
 16777215
370
     9
  0
INSERT
  5
96
330
41
100
AcDbEntity
  8
_U+30EC_U+30A4_U+30E4_U+30FC 1
100
AcDbBlockReference
  2
block 4
 10
0.0
 20
0.0
 30
0.0
  0
POLYLINE
  5
9B
330
41
100
AcDbEntity
  8
_U+30EC_U+30A4_U+30E4_U+30FC 1
 62
     7
420
 16777215
370
     9
100
AcDb2dPolyline
 66
     1
 10
0.0
 20
0.0
 30
0.0
  0
VERTEX
  5
9C
330
9B
100
AcDbEntity
  8
_U+30EC_U+30A4_U+30E4_U+30FC 1
 62
     7
420
 16777215
370
     9
100
AcDbVertex
100
AcDb2dVertex
 10
45.10129718270338
 20
-81.59019747960251
 30
0.0
  0
VERTEX
  5
9D
330
9B
100
AcDbEntity
  8
_U+30EC_U+30A4_U+30E4_U+30FC 1
 62
     7
420
 16777215
370
     9
100
AcDbVertex
100
AcDb2dVertex
 10
77.10123942187239
 20
-81.59019747960251
 30
0.0
  0
SEQEND
  5
9E
330
9B
100
AcDbEntity
  8
_U+30EC_U+30A4_U+30E4_U+30FC 1
 62
     7
420
 16777215
370
     9
  0
POLYLINE
  5
9F
330
41
100
AcDbEntity
  8
_U+30EC_U+30A4_U+30E4_U+30FC 1
 62
     7
420
 16777215
370
     9
100
AcDb2dPolyline
 66
     1
 10
0.0
 20
0.0
 30
0.0
  0
VERTEX
  5
A0
330
9F
100
AcDbEntity
  8
_U+30EC_U+30A4_U+30E4_U+30FC 1
 62
     7
420
 16777215
370
     9
100
AcDbVertex
100
AcDb2dVertex
 10
45.10129718270338
 20
-83.05023886812621
 30
0.0
  0
VERTEX
  5
A1
330
9F
100
AcDbEntity
  8
_U+30EC_U+30A4_U+30E4_U+30FC 1
 62
     7
420
 16777215
370
     9
100
AcDbVertex
100
AcDb2dVertex
 10
45.10129718270338
 20
-80.59042525763029
 30
0.0
  0
SEQEND
  5
A2
330
9F
100
AcDbEntity
  8
_U+30EC_U+30A4_U+30E4_U+30FC 1
 62
     7
420
 16777215
370
     9
  0
POLYLINE
  5
A3
330
41
100
AcDbEntity
  8
_U+30EC_U+30A4_U+30E4_U+30FC 1
 62
     7
420
 16777215
370
     9
100
AcDb2dPolyline
 66
     1
 10
0.0
 20
0.0
 30
0.0
  0
VERTEX
  5
A4
330
A3
100
AcDbEntity
  8
_U+30EC_U+30A4_U+30E4_U+30FC 1
 62
     7
420
 16777215
370
     9
100
AcDbVertex
100
AcDb2dVertex
 10
77.10123942187239
 20
-83.05023886812621
 30
0.0
  0
VERTEX
  5
A5
330
A3
100
AcDbEntity
  8
_U+30EC_U+30A4_U+30E4_U+30FC 1
 62
     7
420
 16777215
370
     9
100
AcDbVertex
100
AcDb2dVertex
 10
77.10123942187239
 20
-80.59042525763029
 30
0.0
  0
SEQEND
  5
A6
330
A3
100
AcDbEntity
  8
_U+30EC_U+30A4_U+30E4_U+30FC 1
 62
     7
420
 16777215
370
     9
  0
INSERT
  5
A8
330
41
100
AcDbEntity
  8
_U+30EC_U+30A4_U+30E4_U+30FC 1
100
AcDbBlockReference
  2
block 5
 10
0.0
 20
0.0
 30
0.0
  0
POLYLINE
  5
AF
330
41
100
AcDbEntity
  8
_U+30EC_U+30A4_U+30E4_U+30FC 1
 62
     7
420
 16777215
370
     9
100
AcDb2dPolyline
 66
     1
 10
0.0
 20
0.0
 30
0.0
  0
VERTEX
  5
B0
330
AF
100
AcDbEntity
  8
_U+30EC_U+30A4_U+30E4_U+30FC 1
 62
     7
420
 16777215
370
     9
100
AcDbVertex
100
AcDb2dVertex
 10
45.10129718270338
 20
-97.89205858663784
 30
0.0
  0
VERTEX
  5
B1
330
AF
100
AcDbEntity
  8
_U+30EC_U+30A4_U+30E4_U+30FC 1
 62
     7
420
 16777215
370
     9
100
AcDbVertex
100
AcDb2dVertex
 10
57.10124465433699
 20
-97.89205858663784
 30
0.0
  0
SEQEND
  5
B2
330
AF
100
AcDbEntity
  8
_U+30EC_U+30A4_U+30E4_U+30FC 1
 62
     7
420
 16777215
370
     9
  0
POLYLINE
  5
B3
330
41
100
AcDbEntity
  8
_U+30EC_U+30A4_U+30E4_U+30FC 1
 62
     7
420
 16777215
370
     9
100
AcDb2dPolyline
 66
     1
 10
0.0
 20
0.0
 30
0.0
  0
VERTEX
  5
B4
330
B3
100
AcDbEntity
  8
_U+30EC_U+30A4_U+30E4_U+30FC 1
 62
     7
420
 16777215
370
     9
100
AcDbVertex
100
AcDb2dVertex
 10
45.10129718270338
 20
-87.89574747802605
 30
0.0
  0
VERTEX
  5
B5
330
B3
100
AcDbEntity
  8
_U+30EC_U+30A4_U+30E4_U+30FC 1
 62
     7
420
 16777215
370
     9
100
AcDbVertex
100
AcDb2dVertex
 10
45.10129718270338
 20
-98.89179553083287
 30
0.0
  0
SEQEND
  5
B6
330
B3
100
AcDbEntity
  8
_U+30EC_U+30A4_U+30E4_U+30FC 1
 62
     7
420
 16777215
370
     9
  0
POLYLINE
  5
B7
330
41
100
AcDbEntity
  8
_U+30EC_U+30A4_U+30E4_U+30FC 1
 62
     7
420
 16777215
370
     9
100
AcDb2dPolyline
 66
     1
 10
0.0
 20
0.0
 30
0.0
  0
VERTEX
  5
B8
330
B7
100
AcDbEntity
  8
_U+30EC_U+30A4_U+30E4_U+30FC 1
 62
     7
420
 16777215
370
     9
100
AcDbVertex
100
AcDb2dVertex
 10
57.10124465433699
 20
-96.43201719811414
 30
0.0
  0
VERTEX
  5
B9
330
B7
100
AcDbEntity
  8
_U+30EC_U+30A4_U+30E4_U+30FC 1
 62
     7
420
 16777215
370
     9
100
AcDbVertex
100
AcDb2dVertex
 10
57.10124465433699
 20
-98.89179553083287
 30
0.0
  0
SEQEND
  5
BA
330
B7
100
AcDbEntity
  8
_U+30EC_U+30A4_U+30E4_U+30FC 1
 62
     7
420
 16777215
370
     9
  0
INSERT
  5
BC
330
41
100
AcDbEntity
  8
_U+30EC_U+30A4_U+30E4_U+30FC 1
100
AcDbBlockReference
  2
block 6
 10
0.0
 20
0.0
 30
0.0
  0
POLYLINE
  5
C3
330
41
100
AcDbEntity
  8
_U+30EC_U+30A4_U+30E4_U+30FC 1
 62
     7
420
 16777215
370
     9
100
AcDb2dPolyline
 66
     1
 10
0.0
 20
0.0
 30
0.0
  0
VERTEX
  5
C4
330
C3
100
AcDbEntity
  8
_U+30EC_U+30A4_U+30E4_U+30FC 1
 62
     7
420
 16777215
370
     9
100
AcDbVertex
100
AcDb2dVertex
 10
59.60102792389554
 20
-97.89205858663784
 30
0.0
  0
VERTEX
  5
C5
330
C3
100
AcDbEntity
  8
_U+30EC_U+30A4_U+30E4_U+30FC 1
 62
     7
420
 16777215
370
     9
100
AcDbVertex
100
AcDb2dVertex
 10
64.85875723420413
 20
-97.89205858663784
 30
0.0
  0
SEQEND
  5
C6
330
C3
100
AcDbEntity
  8
_U+30EC_U+30A4_U+30E4_U+30FC 1
 62
     7
420
 16777215
370
     9
  0
POLYLINE
  5
C7
330
41
100
AcDbEntity
  8
_U+30EC_U+30A4_U+30E4_U+30FC 1
 62
     7
420
 16777215
370
     9
100
AcDb2dPolyline
 66
     1
 10
0.0
 20
0.0
 30
0.0
  0
VERTEX
  5
C8
330
C7
100
AcDbEntity
  8
_U+30EC_U+30A4_U+30E4_U+30FC 1
 62
     7
420
 16777215
370
     9
100
AcDbVertex
100
AcDb2dVertex
 10
57.10124465433699
 20
-97.89205858663784
 30
0.0
  0
VERTEX
  5
C9
330
C7
100
AcDbEntity
  8
_U+30EC_U+30A4_U+30E4_U+30FC 1
 62
     7
420
 16777215
370
     9
100
AcDbVertex
100
AcDb2dVertex
 10
59.60102792389554
 20
-97.89205858663784
 30
0.0
  0
SEQEND
  5
CA
330
C7
100
AcDbEntity
  8
_U+30EC_U+30A4_U+30E4_U+30FC 1
 62
     7
420
 16777215
370
     9
  0
POLYLINE
  5
CB
330
41
100
AcDbEntity
  8
_U+30EC_U+30A4_U+30E4_U+30FC 1
 62
     7
420
 16777215
370
     9
100
AcDb2dPolyline
 66
     1
 10
0.0
 20
0.0
 30
0.0
  0
VERTEX
  5
CC
330
CB
100
AcDbEntity
  8
_U+30EC_U+30A4_U+30E4_U+30FC 1
 62
     7
420
 16777215
370
     9
100
AcDbVertex
100
AcDb2dVertex
 10
59.60102792389554
 20
-96.43201719811414
 30
0.0
  0
VERTEX
  5
CD
330
CB
100
AcDbEntity
  8
_U+30EC_U+30A4_U+30E4_U+30FC 1
 62
     7
420
 16777215
370
     9
100
AcDbVertex
100
AcDb2dVertex
 10
59.60102792389554
 20
-98.89179553083287
 30
0.0
  0
SEQEND
  5
CE
330
CB
100
AcDbEntity
  8
_U+30EC_U+30A4_U+30E4_U+30FC 1
 62
     7
420
 16777215
370
     9
  0
POLYLINE
  5
CF
330
41
100
AcDbEntity
  8
_U+30EC_U+30A4_U+30E4_U+30FC 1
 62
     7
420
 16777215
370
     9
100
AcDb2dPolyline
 66
     1
 10
0.0
 20
0.0
 30
0.0
  0
VERTEX
  5
D0
330
CF
100
AcDbEntity
  8
_U+30EC_U+30A4_U+30E4_U+30FC 1
 62
     7
420
 16777215
370
     9
100
AcDbVertex
100
AcDb2dVertex
 10
81.1009984864967
 20
-86.69168164499382
 30
0.0
  0
VERTEX
  5
D1
330
CF
100
AcDbEntity
  8
_U+30EC_U+30A4_U+30E4_U+30FC 1
 62
     7
420
 16777215
370
     9
100
AcDbVertex
100
AcDb2dVertex
 10
81.1009984864967
 20
-92.89182164344354
 30
0.0
  0
SEQEND
  5
D2
330
CF
100
AcDbEntity
  8
_U+30EC_U+30A4_U+30E4_U+30FC 1
 62
     7
420
 16777215
370
     9
  0
POLYLINE
  5
D3
330
41
100
AcDbEntity
  8
_U+30EC_U+30A4_U+30E4_U+30FC 1
 62
     7
420
 16777215
370
     9
100
AcDb2dPolyline
 66
     1
 10
0.0
 20
0.0
 30
0.0
  0
VERTEX
  5
D4
330
D3
100
AcDbEntity
  8
_U+30EC_U+30A4_U+30E4_U+30FC 1
 62
     7
420
 16777215
370
     9
100
AcDbVertex
100
AcDb2dVertex
 10
62.1414159146404
 20
-92.89182164344354
 30
0.0
  0
VERTEX
  5
D5
330
D3
100
AcDbEntity
  8
_U+30EC_U+30A4_U+30E4_U+30FC 1
 62
     7
420
 16777215
370
     9
100
AcDbVertex
100
AcDb2dVertex
 10
82.10077068321262
 20
-92.89182164344354
 30
0.0
  0
SEQEND
  5
D6
330
D3
100
AcDbEntity
  8
_U+30EC_U+30A4_U+30E4_U+30FC 1
 62
     7
420
 16777215
370
     9
  0
INSERT
  5
D8
330
41
100
AcDbEntity
  8
_U+30EC_U+30A4_U+30E4_U+30FC 1
100
AcDbBlockReference
  2
block 7
 10
0.0
 20
0.0
 30
0.0
  0
ENDBLK
  5
44
330
41
100
AcDbEntity
  8
0
100
AcDbBlockEnd
  0
BLOCK
  5
47
330
45
100
AcDbEntity
  8
0
100
AcDbBlockBegin
  2
block 3
 70
     0
 10
0.0
 20
0.0
 30
0.0
  3
block 3
  1

  0
SPLINE
  5
49
330
45
100
AcDbEntity
  8
_U+30EC_U+30A4_U+30E4_U+30FC 1
370
     0
100
AcDbSpline
210
0.0
220
0.0
230
1.0
 70
    11
 71
     3
 72
    44
 73
    40
 74
     0
 42
0.0000000001
 43
0.0000000001
 12
1.0
 22
0.0
 32
0.0
 13
1.0
 23
0.0
 33
0.0
 40
0.0
 40
0.0
 40
0.0
 40
0.0
 40
1.0
 40
1.0
 40
1.0
 40
2.0
 40
2.0
 40
2.0
 40
3.0
 40
3.0
 40
3.0
 40
4.0
 40
4.0
 40
4.0
 40
5.0
 40
5.0
 40
5.0
 40
6.0
 40
6.0
 40
6.0
 40
7.0
 40
7.0
 40
7.0
 40
8.0
 40
8.0
 40
8.0
 40
9.0
 40
9.0
 40
9.0
 40
10.0
 40
10.0
 40
10.0
 40
11.0
 40
11.0
 40
11.0
 40
12.0
 40
12.0
 40
12.0
 40
13.0
 40
13.0
 40
13.0
 40
13.0
 10
57.60475258976548
 20
-96.18603241952988
 30
0.0
 10
57.41596135717379
 20
-96.3448513213999
 30
0.0
 10
57.33569063236747
 20
-96.41892087433277
 30
0.0
 10
57.29366046744742
 20
-96.5625813560677
 30
0.0
 10
57.29366046744742
 20
-96.5625813560677
 30
0.0
 10
57.96683212526524
 20
-96.5625813560677
 30
0.0
 10
57.96683212526524
 20
-96.5625813560677
 30
0.0
 10
57.96683212526524
 20
-96.5625813560677
 30
0.0
 10
57.96683212526524
 20
-96.76790904698858
 30
0.0
 10
57.96683212526524
 20
-96.76790904698858
 30
0.0
 10
57.96683212526524
 20
-96.76790904698858
 30
0.0
 10
57.07765298052226
 20
-96.76790904698858
 30
0.0
 10
57.07765298052226
 20
-96.76790904698858
 30
0.0
 10
57.10486923485573
 20
-96.41030813561964
 30
0.0
 10
57.16171331036235
 20
-96.33210446810448
 30
0.0
 10
57.49485404378601
 20
-96.03375919908184
 30
0.0
 10
57.71637368348757
 20
-95.83497718958293
 30
0.0
 10
57.77287324944567
 20
-95.7671088085235
 30
0.0
 10
57.77287324944567
 20
-95.62964949866203
 30
0.0
 10
57.77287324944567
 20
-95.51113821396945
 30
0.0
 10
57.71086153071118
 20
-95.38022458552994
 30
0.0
 10
57.54067381373984
 20
-95.38022458552994
 30
0.0
 10
57.31536456900449
 20
-95.38022458552994
 30
0.0
 10
57.30812986848547
 20
-95.61070147349317
 30
0.0
 10
57.30434026345169
 20
-95.72714570089461
 30
0.0
 10
57.30434026345169
 20
-95.72714570089461
 30
0.0
 10
57.11038138763213
 20
-95.72714570089461
 30
0.0
 10
57.11038138763213
 20
-95.72714570089461
 30
0.0
 10
57.11796059769968
 20
-95.60002167748888
 30
0.0
 10
57.12691784596133
 20
-95.48805607421826
 30
0.0
 10
57.19650877476337
 20
-95.36954478952568
 30
0.0
 10
57.29159341015627
 20
-95.20865883036451
 30
0.0
 10
57.45282387886596
 20
-95.17489689460906
 30
0.0
 10
57.55342066703526
 20
-95.17489689460906
 30
0.0
 10
57.79319931280865
 20
-95.17489689460906
 30
0.0
 10
57.97234427804164
 20
-95.3588649935214
 30
0.0
 10
57.97234427804164
 20
-95.63171655595319
 30
0.0
 10
57.97234427804164
 20
-95.86047089617378
 30
0.0
 10
57.87174748987234
 20
-95.95968964614897
 30
0.0
 10
57.60475258976548
 20
-96.18603241952988
 30
0.0
  0
HATCH
  5
4A
330
45
100
AcDbEntity
  8
_U+30EC_U+30A4_U+30E4_U+30FC 1
 62
     7
420
 16777215
100
AcDbHatch
 10
0.0
 20
0.0
 30
0.0
210
0.0
220
0.0
230
1.0
  2
SOLID
 70
     1
 71
     0
 91
        1
 92
        1
 93
        1
 72
     4
 94
        3
 73
     0
 74
     1
 95
       44
 96
       40
 40
0.0
 40
0.0
 40
0.0
 40
0.0
 40
1.0
 40
1.0
 40
1.0
 40
2.0
 40
2.0
 40
2.0
 40
3.0
 40
3.0
 40
3.0
 40
4.0
 40
4.0
 40
4.0
 40
5.0
 40
5.0
 40
5.0
 40
6.0
 40
6.0
 40
6.0
 40
7.0
 40
7.0
 40
7.0
 40
8.0
 40
8.0
 40
8.0
 40
9.0
 40
9.0
 40
9.0
 40
10.0
 40
10.0
 40
10.0
 40
11.0
 40
11.0
 40
11.0
 40
12.0
 40
12.0
 40
12.0
 40
13.0
 40
13.0
 40
13.0
 40
13.0
 10
57.60475258976548
 20
-96.18603241952988
 10
57.41596135717379
 20
-96.3448513213999
 10
57.33569063236747
 20
-96.41892087433277
 10
57.29366046744742
 20
-96.5625813560677
 10
57.29366046744742
 20
-96.5625813560677
 10
57.96683212526524
 20
-96.5625813560677
 10
57.96683212526524
 20
-96.5625813560677
 10
57.96683212526524
 20
-96.5625813560677
 10
57.96683212526524
 20
-96.76790904698858
 10
57.96683212526524
 20
-96.76790904698858
 10
57.96683212526524
 20
-96.76790904698858
 10
57.07765298052226
 20
-96.76790904698858
 10
57.07765298052226
 20
-96.76790904698858
 10
57.10486923485573
 20
-96.41030813561964
 10
57.16171331036235
 20
-96.33210446810448
 10
57.49485404378601
 20
-96.03375919908184
 10
57.71637368348757
 20
-95.83497718958293
 10
57.77287324944567
 20
-95.7671088085235
 10
57.77287324944567
 20
-95.62964949866203
 10
57.77287324944567
 20
-95.51113821396945
 10
57.71086153071118
 20
-95.38022458552994
 10
57.54067381373984
 20
-95.38022458552994
 10
57.31536456900449
 20
-95.38022458552994
 10
57.30812986848547
 20
-95.61070147349317
 10
57.30434026345169
 20
-95.72714570089461
 10
57.30434026345169
 20
-95.72714570089461
 10
57.11038138763213
 20
-95.72714570089461
 10
57.11038138763213
 20
-95.72714570089461
 10
57.11796059769968
 20
-95.60002167748888
 10
57.12691784596133
 20
-95.48805607421826
 10
57.19650877476337
 20
-95.36954478952568
 10
57.29159341015627
 20
-95.20865883036451
 10
57.45282387886596
 20
-95.17489689460906
 10
57.55342066703526
 20
-95.17489689460906
 10
57.79319931280865
 20
-95.17489689460906
 10
57.97234427804164
 20
-95.3588649935214
 10
57.97234427804164
 20
-95.63171655595319
 10
57.97234427804164
 20
-95.86047089617378
 10
57.87174748987234
 20
-95.95968964614897
 10
57.60475258976548
 20
-96.18603241952988
 97
        0
 97
        0
 75
     2
 76
     1
 98
        0
  0
POLYLINE
  5
4B
330
45
100
AcDbEntity
  8
_U+30EC_U+30A4_U+30E4_U+30FC 1
370
     0
100
AcDb2dPolyline
 66
     1
 10
0.0
 20
0.0
 30
0.0
  0
VERTEX
  5
4C
330
4B
100
AcDbEntity
  8
_U+30EC_U+30A4_U+30E4_U+30FC 1
370
     0
100
AcDbVertex
100
AcDb2dVertex
 10
58.1607910010848
 20
-96.76790904698858
 30
0.0
  0
VERTEX
  5
4D
330
4B
100
AcDbEntity
  8
_U+30EC_U+30A4_U+30E4_U+30FC 1
370
     0
100
AcDbVertex
100
AcDb2dVertex
 10
58.1607910010848
 20
-96.51607256701682
 30
0.0
  0
VERTEX
  5
4E
330
4B
100
AcDbEntity
  8
_U+30EC_U+30A4_U+30E4_U+30FC 1
370
     0
100
AcDbVertex
100
AcDb2dVertex
 10
58.37852103575259
 20
-96.51607256701682
 30
0.0
  0
VERTEX
  5
4F
330
4B
100
AcDbEntity
  8
_U+30EC_U+30A4_U+30E4_U+30FC 1
370
     0
100
AcDbVertex
100
AcDb2dVertex
 10
58.37852103575259
 20
-96.76790904698858
 30
0.0
  0
VERTEX
  5
50
330
4B
100
AcDbEntity
  8
_U+30EC_U+30A4_U+30E4_U+30FC 1
370
     0
100
AcDbVertex
100
AcDb2dVertex
 10
58.1607910010848
 20
-96.76790904698858
 30
0.0
  0
SEQEND
  5
51
330
4B
100
AcDbEntity
  8
_U+30EC_U+30A4_U+30E4_U+30FC 1
370
     0
  0
HATCH
  5
52
330
45
100
AcDbEntity
  8
_U+30EC_U+30A4_U+30E4_U+30FC 1
 62
     7
420
 16777215
100
AcDbHatch
 10
0.0
 20
0.0
 30
0.0
210
0.0
220
0.0
230
1.0
  2
SOLID
 70
     1
 71
     0
 91
        1
 92
        1
 93
        4
 72
     1
 10
58.1607910010848
 20
-96.76790904698858
 11
58.1607910010848
 21
-96.51607256701682
 72
     1
 10
58.1607910010848
 20
-96.51607256701682
 11
58.37852103575259
 21
-96.51607256701682
 72
     1
 10
58.37852103575259
 20
-96.51607256701682
 11
58.37852103575259
 21
-96.76790904698858
 72
     1
 10
58.37852103575259
 20
-96.76790904698858
 11
58.1607910010848
 21
-96.76790904698858
 97
        0
 75
     2
 76
     1
 98
        0
  0
SPLINE
  5
53
330
45
100
AcDbEntity
  8
_U+30EC_U+30A4_U+30E4_U+30FC 1
370
     0
100
AcDbSpline
210
0.0
220
0.0
230
1.0
 70
    11
 71
     3
 72
    53
 73
    49
 74
     0
 42
0.0000000001
 43
0.0000000001
 12
1.0
 22
0.0
 32
0.0
 13
1.0
 23
0.0
 33
0.0
 40
0.0
 40
0.0
 40
0.0
 40
0.0
 40
1.0
 40
1.0
 40
1.0
 40
2.0
 40
2.0
 40
2.0
 40
3.0
 40
3.0
 40
3.0
 40
4.0
 40
4.0
 40
4.0
 40
5.0
 40
5.0
 40
5.0
 40
6.0
 40
6.0
 40
6.0
 40
7.0
 40
7.0
 40
7.0
 40
8.0
 40
8.0
 40
8.0
 40
9.0
 40
9.0
 40
9.0
 40
10.0
 40
10.0
 40
10.0
 40
11.0
 40
11.0
 40
11.0
 40
12.0
 40
12.0
 40
12.0
 40
13.0
 40
13.0
 40
13.0
 40
14.0
 40
14.0
 40
14.0
 40
15.0
 40
15.0
 40
15.0
 40
16.0
 40
16.0
 40
16.0
 40
16.0
 10
58.99863822309757
 20
-96.81855195062175
 30
0.0
 10
58.93076984203815
 20
-96.81855195062175
 30
0.0
 10
58.8432644167128
 20
-96.80167098274403
 30
0.0
 10
58.7550699722904
 20
-96.73828122581543
 30
0.0
 10
58.60520831868203
 20
-96.62838267983597
 30
0.0
 10
58.58694931261021
 20
-96.49712454184794
 30
0.0
 10
58.57041285428101
 20
-96.38929305315962
 30
0.0
 10
58.57041285428101
 20
-96.38929305315962
 30
0.0
 10
58.76264918235795
 20
-96.38929305315962
 30
0.0
 10
58.76264918235795
 20
-96.38929305315962
 30
0.0
 10
58.8101915000544
 20
-96.58807506265855
 30
0.0
 10
58.92009004603387
 20
-96.61770288383168
 30
0.0
 10
59.00036077084019
 20
-96.61770288383168
 30
0.0
 10
59.12128362237246
 20
-96.61770288383168
 30
0.0
 10
59.25323077945753
 20
-96.51813962430796
 30
0.0
 10
59.25323077945753
 20
-96.2855956790536
 30
0.0
 10
59.25323077945753
 20
-96.02962508449954
 30
0.0
 10
59.09751246352423
 20
-95.95968964614897
 30
0.0
 10
58.99312607032117
 20
-95.95968964614897
 30
0.0
 10
58.96556530643917
 20
-95.95968964614897
 30
0.0
 10
58.8432644167128
 20
-95.95968964614897
 30
0.0
 10
58.7660942778432
 20
-96.08888072684584
 30
0.0
 10
58.7660942778432
 20
-96.08888072684584
 30
0.0
 10
58.61416556694368
 20
-96.06993270167696
 30
0.0
 10
58.61416556694368
 20
-96.06993270167696
 30
0.0
 10
58.61416556694368
 20
-96.06993270167696
 30
0.0
 10
58.71855196014675
 20
-95.22347274095108
 30
0.0
 10
58.71855196014675
 20
-95.22347274095108
 30
0.0
 10
58.71855196014675
 20
-95.22347274095108
 30
0.0
 10
59.3920681275131
 20
-95.22347274095108
 30
0.0
 10
59.3920681275131
 20
-95.22347274095108
 30
0.0
 10
59.3920681275131
 20
-95.22347274095108
 30
0.0
 10
59.3920681275131
 20
-95.4181206358677
 30
0.0
 10
59.3920681275131
 20
-95.4181206358677
 30
0.0
 10
59.3920681275131
 20
-95.4181206358677
 30
0.0
 10
58.85945636549347
 20
-95.4181206358677
 30
0.0
 10
58.85945636549347
 20
-95.4181206358677
 30
0.0
 10
58.85945636549347
 20
-95.4181206358677
 30
0.0
 10
58.80295679953537
 20
-95.84117836145637
 30
0.0
 10
58.80295679953537
 20
-95.84117836145637
 30
0.0
 10
58.85601127000822
 20
-95.80741642570092
 30
0.0
 10
58.92732474655289
 20
-95.7671088085235
 30
0.0
 10
59.02964408246481
 20
-95.7671088085235
 30
0.0
 10
59.24944117442375
 20
-95.7671088085235
 30
0.0
 10
59.45442435579612
 20
-95.95348847427552
 30
0.0
 10
59.45442435579612
 20
-96.26664765388473
 30
0.0
 10
59.45442435579612
 20
-96.58394094807625
 30
0.0
 10
59.26046547997655
 20
-96.81855195062175
 30
0.0
 10
58.99863822309757
 20
-96.81855195062175
 30
0.0
  0
HATCH
  5
54
330
45
100
AcDbEntity
  8
_U+30EC_U+30A4_U+30E4_U+30FC 1
 62
     7
420
 16777215
100
AcDbHatch
 10
0.0
 20
0.0
 30
0.0
210
0.0
220
0.0
230
1.0
  2
SOLID
 70
     1
 71
     0
 91
        1
 92
        1
 93
        1
 72
     4
 94
        3
 73
     0
 74
     1
 95
       53
 96
       49
 40
0.0
 40
0.0
 40
0.0
 40
0.0
 40
1.0
 40
1.0
 40
1.0
 40
2.0
 40
2.0
 40
2.0
 40
3.0
 40
3.0
 40
3.0
 40
4.0
 40
4.0
 40
4.0
 40
5.0
 40
5.0
 40
5.0
 40
6.0
 40
6.0
 40
6.0
 40
7.0
 40
7.0
 40
7.0
 40
8.0
 40
8.0
 40
8.0
 40
9.0
 40
9.0
 40
9.0
 40
10.0
 40
10.0
 40
10.0
 40
11.0
 40
11.0
 40
11.0
 40
12.0
 40
12.0
 40
12.0
 40
13.0
 40
13.0
 40
13.0
 40
14.0
 40
14.0
 40
14.0
 40
15.0
 40
15.0
 40
15.0
 40
16.0
 40
16.0
 40
16.0
 40
16.0
 10
58.99863822309757
 20
-96.81855195062175
 10
58.93076984203815
 20
-96.81855195062175
 10
58.8432644167128
 20
-96.80167098274403
 10
58.7550699722904
 20
-96.73828122581543
 10
58.60520831868203
 20
-96.62838267983597
 10
58.58694931261021
 20
-96.49712454184794
 10
58.57041285428101
 20
-96.38929305315962
 10
58.57041285428101
 20
-96.38929305315962
 10
58.76264918235795
 20
-96.38929305315962
 10
58.76264918235795
 20
-96.38929305315962
 10
58.8101915000544
 20
-96.58807506265855
 10
58.92009004603387
 20
-96.61770288383168
 10
59.00036077084019
 20
-96.61770288383168
 10
59.12128362237246
 20
-96.61770288383168
 10
59.25323077945753
 20
-96.51813962430796
 10
59.25323077945753
 20
-96.2855956790536
 10
59.25323077945753
 20
-96.02962508449954
 10
59.09751246352423
 20
-95.95968964614897
 10
58.99312607032117
 20
-95.95968964614897
 10
58.96556530643917
 20
-95.95968964614897
 10
58.8432644167128
 20
-95.95968964614897
 10
58.7660942778432
 20
-96.08888072684584
 10
58.7660942778432
 20
-96.08888072684584
 10
58.61416556694368
 20
-96.06993270167696
 10
58.61416556694368
 20
-96.06993270167696
 10
58.61416556694368
 20
-96.06993270167696
 10
58.71855196014675
 20
-95.22347274095108
 10
58.71855196014675
 20
-95.22347274095108
 10
58.71855196014675
 20
-95.22347274095108
 10
59.3920681275131
 20
-95.22347274095108
 10
59.3920681275131
 20
-95.22347274095108
 10
59.3920681275131
 20
-95.22347274095108
 10
59.3920681275131
 20
-95.4181206358677
 10
59.3920681275131
 20
-95.4181206358677
 10
59.3920681275131
 20
-95.4181206358677
 10
58.85945636549347
 20
-95.4181206358677
 10
58.85945636549347
 20
-95.4181206358677
 10
58.85945636549347
 20
-95.4181206358677
 10
58.80295679953537
 20
-95.84117836145637
 10
58.80295679953537
 20
-95.84117836145637
 10
58.85601127000822
 20
-95.80741642570092
 10
58.92732474655289
 20
-95.7671088085235
 10
59.02964408246481
 20
-95.7671088085235
 10
59.24944117442375
 20
-95.7671088085235
 10
59.45442435579612
 20
-95.95348847427552
 10
59.45442435579612
 20
-96.26664765388473
 10
59.45442435579612
 20
-96.58394094807625
 10
59.26046547997655
 20
-96.81855195062175
 10
58.99863822309757
 20
-96.81855195062175
 97
        0
 97
        0
 75
     2
 76
     1
 98
        0
  0
ENDBLK
  5
48
330
45
100
AcDbEntity
  8
0
100
AcDbBlockEnd
  0
BLOCK
  5
97
330
95
100
AcDbEntity
  8
0
100
AcDbBlockBegin
  2
block 4
 70
     0
 10
0.0
 20
0.0
 30
0.0
  3
block 4
  1

  0
SPLINE
  5
99
330
95
100
AcDbEntity
  8
_U+30EC_U+30A4_U+30E4_U+30FC 1
370
     0
100
AcDbSpline
210
0.0
220
0.0
230
1.0
 70
    11
 71
     3
 72
    26
 73
    22
 74
     0
 42
0.0000000001
 43
0.0000000001
 12
1.0
 22
0.0
 32
0.0
 13
1.0
 23
0.0
 33
0.0
 40
0.0
 40
0.0
 40
0.0
 40
0.0
 40
1.0
 40
1.0
 40
1.0
 40
2.0
 40
2.0
 40
2.0
 40
3.0
 40
3.0
 40
3.0
 40
4.0
 40
4.0
 40
4.0
 40
5.0
 40
5.0
 40
5.0
 40
6.0
 40
6.0
 40
6.0
 40
7.0
 40
7.0
 40
7.0
 40
7.0
 10
80.5049912993182
 20
-82.70968015510384
 30
0.0
 10
80.5049912993182
 20
-82.70968015510384
 30
0.0
 10
79.40083819629562
 20
-82.70968015510384
 30
0.0
 10
79.40083819629562
 20
-82.70968015510384
 30
0.0
 10
79.40083819629562
 20
-82.70968015510384
 30
0.0
 10
79.40083819629562
 20
-82.99510631605678
 30
0.0
 10
79.40083819629562
 20
-82.99510631605678
 30
0.0
 10
79.40083819629562
 20
-82.99510631605678
 30
0.0
 10
79.25269909042989
 20
-82.99510631605678
 30
0.0
 10
79.25269909042989
 20
-82.99510631605678
 30
0.0
 10
79.2378851798433
 20
-82.70778535258695
 30
0.0
 10
79.074932163391
 20
-82.66747773540952
 30
0.0
 10
78.9605549932807
 20
-82.64198402881867
 30
0.0
 10
78.9605549932807
 20
-82.64198402881867
 30
0.0
 10
78.9605549932807
 20
-82.51554902451001
 30
0.0
 10
78.9605549932807
 20
-82.51554902451001
 30
0.0
 10
78.9605549932807
 20
-82.51554902451001
 30
0.0
 10
80.5049912993182
 20
-82.51554902451001
 30
0.0
 10
80.5049912993182
 20
-82.51554902451001
 30
0.0
 10
80.5049912993182
 20
-82.51554902451001
 30
0.0
 10
80.5049912993182
 20
-82.70968015510384
 30
0.0
 10
80.5049912993182
 20
-82.70968015510384
 30
0.0
  0
HATCH
  5
9A
330
95
100
AcDbEntity
  8
_U+30EC_U+30A4_U+30E4_U+30FC 1
 62
     7
420
 16777215
100
AcDbHatch
 10
0.0
 20
0.0
 30
0.0
210
0.0
220
0.0
230
1.0
  2
SOLID
 70
     1
 71
     0
 91
        1
 92
        1
 93
        1
 72
     4
 94
        3
 73
     0
 74
     1
 95
       26
 96
       22
 40
0.0
 40
0.0
 40
0.0
 40
0.0
 40
1.0
 40
1.0
 40
1.0
 40
2.0
 40
2.0
 40
2.0
 40
3.0
 40
3.0
 40
3.0
 40
4.0
 40
4.0
 40
4.0
 40
5.0
 40
5.0
 40
5.0
 40
6.0
 40
6.0
 40
6.0
 40
7.0
 40
7.0
 40
7.0
 40
7.0
 10
80.5049912993182
 20
-82.70968015510384
 10
80.5049912993182
 20
-82.70968015510384
 10
79.40083819629562
 20
-82.70968015510384
 10
79.40083819629562
 20
-82.70968015510384
 10
79.40083819629562
 20
-82.70968015510384
 10
79.40083819629562
 20
-82.99510631605678
 10
79.40083819629562
 20
-82.99510631605678
 10
79.40083819629562
 20
-82.99510631605678
 10
79.25269909042989
 20
-82.99510631605678
 10
79.25269909042989
 20
-82.99510631605678
 10
79.2378851798433
 20
-82.70778535258695
 10
79.074932163391
 20
-82.66747773540952
 10
78.9605549932807
 20
-82.64198402881867
 10
78.9605549932807
 20
-82.64198402881867
 10
78.9605549932807
 20
-82.51554902451001
 10
78.9605549932807
 20
-82.51554902451001
 10
78.9605549932807
 20
-82.51554902451001
 10
80.5049912993182
 20
-82.51554902451001
 10
80.5049912993182
 20
-82.51554902451001
 10
80.5049912993182
 20
-82.51554902451001
 10
80.5049912993182
 20
-82.70968015510384
 10
80.5049912993182
 20
-82.70968015510384
 97
        0
 97
        0
 75
     2
 76
     1
 98
        0
  0
ENDBLK
  5
98
330
95
100
AcDbEntity
  8
0
100
AcDbBlockEnd
  0
BLOCK
  5
A9
330
A7
100
AcDbEntity
  8
0
100
AcDbBlockBegin
  2
block 5
 70
     0
 10
0.0
 20
0.0
 30
0.0
  3
block 5
  1

  0
SPLINE
  5
AB
330
A7
100
AcDbEntity
  8
_U+30EC_U+30A4_U+30E4_U+30FC 1
370
     0
100
AcDbSpline
210
0.0
220
0.0
230
1.0
 70
    11
 71
     3
 72
    62
 73
    58
 74
     0
 42
0.0000000001
 43
0.0000000001
 12
1.0
 22
0.0
 32
0.0
 13
1.0
 23
0.0
 33
0.0
 40
0.0
 40
0.0
 40
0.0
 40
0.0
 40
1.0
 40
1.0
 40
1.0
 40
2.0
 40
2.0
 40
2.0
 40
3.0
 40
3.0
 40
3.0
 40
4.0
 40
4.0
 40
4.0
 40
5.0
 40
5.0
 40
5.0
 40
6.0
 40
6.0
 40
6.0
 40
7.0
 40
7.0
 40
7.0
 40
8.0
 40
8.0
 40
8.0
 40
9.0
 40
9.0
 40
9.0
 40
10.0
 40
10.0
 40
10.0
 40
11.0
 40
11.0
 40
11.0
 40
12.0
 40
12.0
 40
12.0
 40
13.0
 40
13.0
 40
13.0
 40
14.0
 40
14.0
 40
14.0
 40
15.0
 40
15.0
 40
15.0
 40
16.0
 40
16.0
 40
16.0
 40
17.0
 40
17.0
 40
17.0
 40
18.0
 40
18.0
 40
18.0
 40
19.0
 40
19.0
 40
19.0
 40
19.0
 10
60.35014918196108
 20
-81.0455267809539
 30
0.0
 10
60.2678113998636
 20
-81.0455267809539
 30
0.0
 10
60.07902016727191
 20
-81.02451169849388
 30
0.0
 10
59.97118867858359
 20
-80.83847654229038
 30
0.0
 10
59.90710990255795
 20
-80.72616642947123
 30
0.0
 10
59.90332029752417
 20
-80.62694767949604
 30
0.0
 10
59.89987520203892
 20
-80.5421983305589
 30
0.0
 10
59.89987520203892
 20
-80.5421983305589
 30
0.0
 10
60.09004447282472
 20
-80.5421983305589
 30
0.0
 10
60.09004447282472
 20
-80.5421983305589
 30
0.0
 10
60.09211153011587
 20
-80.61626788349177
 30
0.0
 10
60.10106877837752
 20
-80.85087888603728
 30
0.0
 10
60.3463595769273
 20
-80.85087888603728
 30
0.0
 10
60.46521537116842
 20
-80.85087888603728
 30
0.0
 10
60.59716252825349
 20
-80.78128795723524
 30
0.0
 10
60.59716252825349
 20
-80.55287812656317
 30
0.0
 10
60.59716252825349
 20
-80.43643389916173
 30
0.0
 10
60.56408961159509
 20
-80.38785805281971
 30
0.0
 10
60.53652884771309
 20
-80.3561631743554
 30
0.0
 10
60.47279458123597
 20
-80.28209362142253
 30
0.0
 10
60.37185328351815
 20
-80.26934676812711
 30
0.0
 10
60.3243109658217
 20
-80.26934676812711
 30
0.0
 10
60.3077745074925
 20
-80.26934676812711
 30
0.0
 10
60.27676864812526
 20
-80.27141382541826
 30
0.0
 10
60.25299748927703
 20
-80.27554794000056
 30
0.0
 10
60.25299748927703
 20
-80.27554794000056
 30
0.0
 10
60.25299748927703
 20
-80.08090004508395
 30
0.0
 10
60.25299748927703
 20
-80.08090004508395
 30
0.0
 10
60.28607040593543
 20
-80.08727347173166
 30
0.0
 10
60.32258841807908
 20
-80.08951278379708
 30
0.0
 10
60.32810057085548
 20
-80.08951278379708
 30
0.0
 10
60.3849446463621
 20
-80.08951278379708
 30
0.0
 10
60.55685491107607
 20
-80.06832544656278
 30
0.0
 10
60.55685491107607
 20
-79.83130287717759
 30
0.0
 10
60.55685491107607
 20
-79.65370820491296
 30
0.0
 10
60.44351126961135
 20
-79.59858667714897
 30
0.0
 10
60.34808212466993
 20
-79.59858667714897
 30
0.0
 10
60.11932778444934
 20
-79.59858667714897
 30
0.0
 10
60.11209308393031
 20
-79.83130287717759
 30
0.0
 10
60.10830347889654
 20
-79.90330537281932
 30
0.0
 10
60.10830347889654
 20
-79.90330537281932
 30
0.0
 10
59.9326036091488
 20
-79.90330537281932
 30
0.0
 10
59.9326036091488
 20
-79.90330537281932
 30
0.0
 10
59.94018281921635
 20
-79.778420661479
 30
0.0
 10
59.96395397806457
 20
-79.4018717249412
 30
0.0
 10
60.35910643022272
 20
-79.4018717249412
 30
0.0
 10
60.55306530604229
 20
-79.4018717249412
 30
0.0
 10
60.76183809244844
 20
-79.52882349357266
 30
0.0
 10
60.76183809244844
 20
-79.82492945052988
 30
0.0
 10
60.76183809244844
 20
-80.01113686150764
 30
0.0
 10
60.67950031035096
 20
-80.09364689837938
 30
0.0
 10
60.59337292321972
 20
-80.15496959801682
 30
0.0
 10
60.64642739369256
 20
-80.18253036189881
 30
0.0
 10
60.80386825736848
 20
-80.26280108670514
 30
0.0
 10
60.80386825736848
 20
-80.54013127326775
 30
0.0
 10
60.80386825736848
 20
-80.87843964991929
 30
0.0
 10
60.58992782773446
 20
-81.0455267809539
 30
0.0
 10
60.35014918196108
 20
-81.0455267809539
 30
0.0
  0
HATCH
  5
AC
330
A7
100
AcDbEntity
  8
_U+30EC_U+30A4_U+30E4_U+30FC 1
 62
     7
420
 16777215
100
AcDbHatch
 10
0.0
 20
0.0
 30
0.0
210
0.0
220
0.0
230
1.0
  2
SOLID
 70
     1
 71
     0
 91
        1
 92
        1
 93
        1
 72
     4
 94
        3
 73
     0
 74
     1
 95
       62
 96
       58
 40
0.0
 40
0.0
 40
0.0
 40
0.0
 40
1.0
 40
1.0
 40
1.0
 40
2.0
 40
2.0
 40
2.0
 40
3.0
 40
3.0
 40
3.0
 40
4.0
 40
4.0
 40
4.0
 40
5.0
 40
5.0
 40
5.0
 40
6.0
 40
6.0
 40
6.0
 40
7.0
 40
7.0
 40
7.0
 40
8.0
 40
8.0
 40
8.0
 40
9.0
 40
9.0
 40
9.0
 40
10.0
 40
10.0
 40
10.0
 40
11.0
 40
11.0
 40
11.0
 40
12.0
 40
12.0
 40
12.0
 40
13.0
 40
13.0
 40
13.0
 40
14.0
 40
14.0
 40
14.0
 40
15.0
 40
15.0
 40
15.0
 40
16.0
 40
16.0
 40
16.0
 40
17.0
 40
17.0
 40
17.0
 40
18.0
 40
18.0
 40
18.0
 40
19.0
 40
19.0
 40
19.0
 40
19.0
 10
60.35014918196108
 20
-81.0455267809539
 10
60.2678113998636
 20
-81.0455267809539
 10
60.07902016727191
 20
-81.02451169849388
 10
59.97118867858359
 20
-80.83847654229038
 10
59.90710990255795
 20
-80.72616642947123
 10
59.90332029752417
 20
-80.62694767949604
 10
59.89987520203892
 20
-80.5421983305589
 10
59.89987520203892
 20
-80.5421983305589
 10
60.09004447282472
 20
-80.5421983305589
 10
60.09004447282472
 20
-80.5421983305589
 10
60.09211153011587
 20
-80.61626788349177
 10
60.10106877837752
 20
-80.85087888603728
 10
60.3463595769273
 20
-80.85087888603728
 10
60.46521537116842
 20
-80.85087888603728
 10
60.59716252825349
 20
-80.78128795723524
 10
60.59716252825349
 20
-80.55287812656317
 10
60.59716252825349
 20
-80.43643389916173
 10
60.56408961159509
 20
-80.38785805281971
 10
60.53652884771309
 20
-80.3561631743554
 10
60.47279458123597
 20
-80.28209362142253
 10
60.37185328351815
 20
-80.26934676812711
 10
60.3243109658217
 20
-80.26934676812711
 10
60.3077745074925
 20
-80.26934676812711
 10
60.27676864812526
 20
-80.27141382541826
 10
60.25299748927703
 20
-80.27554794000056
 10
60.25299748927703
 20
-80.27554794000056
 10
60.25299748927703
 20
-80.08090004508395
 10
60.25299748927703
 20
-80.08090004508395
 10
60.28607040593543
 20
-80.08727347173166
 10
60.32258841807908
 20
-80.08951278379708
 10
60.32810057085548
 20
-80.08951278379708
 10
60.3849446463621
 20
-80.08951278379708
 10
60.55685491107607
 20
-80.06832544656278
 10
60.55685491107607
 20
-79.83130287717759
 10
60.55685491107607
 20
-79.65370820491296
 10
60.44351126961135
 20
-79.59858667714897
 10
60.34808212466993
 20
-79.59858667714897
 10
60.11932778444934
 20
-79.59858667714897
 10
60.11209308393031
 20
-79.83130287717759
 10
60.10830347889654
 20
-79.90330537281932
 10
60.10830347889654
 20
-79.90330537281932
 10
59.9326036091488
 20
-79.90330537281932
 10
59.9326036091488
 20
-79.90330537281932
 10
59.94018281921635
 20
-79.778420661479
 10
59.96395397806457
 20
-79.4018717249412
 10
60.35910643022272
 20
-79.4018717249412
 10
60.55306530604229
 20
-79.4018717249412
 10
60.76183809244844
 20
-79.52882349357266
 10
60.76183809244844
 20
-79.82492945052988
 10
60.76183809244844
 20
-80.01113686150764
 10
60.67950031035096
 20
-80.09364689837938
 10
60.59337292321972
 20
-80.15496959801682
 10
60.64642739369256
 20
-80.18253036189881
 10
60.80386825736848
 20
-80.26280108670514
 10
60.80386825736848
 20
-80.54013127326775
 10
60.80386825736848
 20
-80.87843964991929
 10
60.58992782773446
 20
-81.0455267809539
 10
60.35014918196108
 20
-81.0455267809539
 97
        0
 97
        0
 75
     2
 76
     1
 98
        0
  0
SPLINE
  5
AD
330
A7
100
AcDbEntity
  8
_U+30EC_U+30A4_U+30E4_U+30FC 1
370
     0
100
AcDbSpline
210
0.0
220
0.0
230
1.0
 70
    11
 71
     3
 72
    44
 73
    40
 74
     0
 42
0.0000000001
 43
0.0000000001
 12
1.0
 22
0.0
 32
0.0
 13
1.0
 23
0.0
 33
0.0
 40
0.0
 40
0.0
 40
0.0
 40
0.0
 40
1.0
 40
1.0
 40
1.0
 40
2.0
 40
2.0
 40
2.0
 40
3.0
 40
3.0
 40
3.0
 40
4.0
 40
4.0
 40
4.0
 40
5.0
 40
5.0
 40
5.0
 40
6.0
 40
6.0
 40
6.0
 40
7.0
 40
7.0
 40
7.0
 40
8.0
 40
8.0
 40
8.0
 40
9.0
 40
9.0
 40
9.0
 40
10.0
 40
10.0
 40
10.0
 40
11.0
 40
11.0
 40
11.0
 40
12.0
 40
12.0
 40
12.0
 40
13.0
 40
13.0
 40
13.0
 40
13.0
 10
61.45533581362923
 20
-80.41300724986203
 30
0.0
 10
61.26654458103754
 20
-80.57182615173205
 30
0.0
 10
61.18627385623121
 20
-80.64589570466492
 30
0.0
 10
61.14424369131116
 20
-80.78955618639984
 30
0.0
 10
61.14424369131116
 20
-80.78955618639984
 30
0.0
 10
61.81741534912899
 20
-80.78955618639984
 30
0.0
 10
61.81741534912899
 20
-80.78955618639984
 30
0.0
 10
61.81741534912899
 20
-80.78955618639984
 30
0.0
 10
61.81741534912899
 20
-80.99488387732073
 30
0.0
 10
61.81741534912899
 20
-80.99488387732073
 30
0.0
 10
61.81741534912899
 20
-80.99488387732073
 30
0.0
 10
60.928236204386
 20
-80.99488387732073
 30
0.0
 10
60.928236204386
 20
-80.99488387732073
 30
0.0
 10
60.95545245871947
 20
-80.6372829659518
 30
0.0
 10
61.0122965342261
 20
-80.55907929843663
 30
0.0
 10
61.34543726764976
 20
-80.26073402941398
 30
0.0
 10
61.56695690735132
 20
-80.06195201991507
 30
0.0
 10
61.62345647330942
 20
-79.99425589362991
 30
0.0
 10
61.62345647330942
 20
-79.85679658376844
 30
0.0
 10
61.62345647330942
 20
-79.73828529907586
 30
0.0
 10
61.56144475457492
 20
-79.6071994158621
 30
0.0
 10
61.39125703760358
 20
-79.6071994158621
 30
0.0
 10
61.16594779286824
 20
-79.6071994158621
 30
0.0
 10
61.15871309234922
 20
-79.8376763038253
 30
0.0
 10
61.15492348731544
 20
-79.95412053122675
 30
0.0
 10
61.15492348731544
 20
-79.95412053122675
 30
0.0
 10
60.96096461149587
 20
-79.95412053122675
 30
0.0
 10
60.96096461149587
 20
-79.95412053122675
 30
0.0
 10
60.96854382156342
 20
-79.82716876259529
 30
0.0
 10
60.97750106982507
 20
-79.71503090455042
 30
0.0
 10
61.04709199862712
 20
-79.59651961985782
 30
0.0
 10
61.14217663402001
 20
-79.43580591547091
 30
0.0
 10
61.30340710272971
 20
-79.4018717249412
 30
0.0
 10
61.404003890899
 20
-79.4018717249412
 30
0.0
 10
61.64378253667239
 20
-79.4018717249412
 30
0.0
 10
61.82292750190538
 20
-79.5860120786278
 30
0.0
 10
61.82292750190538
 20
-79.8588636410596
 30
0.0
 10
61.82292750190538
 20
-80.08727347173166
 30
0.0
 10
61.72233071373608
 20
-80.18666447648111
 30
0.0
 10
61.45533581362923
 20
-80.41300724986203
 30
0.0
  0
HATCH
  5
AE
330
A7
100
AcDbEntity
  8
_U+30EC_U+30A4_U+30E4_U+30FC 1
 62
     7
420
 16777215
100
AcDbHatch
 10
0.0
 20
0.0
 30
0.0
210
0.0
220
0.0
230
1.0
  2
SOLID
 70
     1
 71
     0
 91
        1
 92
        1
 93
        1
 72
     4
 94
        3
 73
     0
 74
     1
 95
       44
 96
       40
 40
0.0
 40
0.0
 40
0.0
 40
0.0
 40
1.0
 40
1.0
 40
1.0
 40
2.0
 40
2.0
 40
2.0
 40
3.0
 40
3.0
 40
3.0
 40
4.0
 40
4.0
 40
4.0
 40
5.0
 40
5.0
 40
5.0
 40
6.0
 40
6.0
 40
6.0
 40
7.0
 40
7.0
 40
7.0
 40
8.0
 40
8.0
 40
8.0
 40
9.0
 40
9.0
 40
9.0
 40
10.0
 40
10.0
 40
10.0
 40
11.0
 40
11.0
 40
11.0
 40
12.0
 40
12.0
 40
12.0
 40
13.0
 40
13.0
 40
13.0
 40
13.0
 10
61.45533581362923
 20
-80.41300724986203
 10
61.26654458103754
 20
-80.57182615173205
 10
61.18627385623121
 20
-80.64589570466492
 10
61.14424369131116
 20
-80.78955618639984
 10
61.14424369131116
 20
-80.78955618639984
 10
61.81741534912899
 20
-80.78955618639984
 10
61.81741534912899
 20
-80.78955618639984
 10
61.81741534912899
 20
-80.78955618639984
 10
61.81741534912899
 20
-80.99488387732073
 10
61.81741534912899
 20
-80.99488387732073
 10
61.81741534912899
 20
-80.99488387732073
 10
60.928236204386
 20
-80.99488387732073
 10
60.928236204386
 20
-80.99488387732073
 10
60.95545245871947
 20
-80.6372829659518
 10
61.0122965342261
 20
-80.55907929843663
 10
61.34543726764976
 20
-80.26073402941398
 10
61.56695690735132
 20
-80.06195201991507
 10
61.62345647330942
 20
-79.99425589362991
 10
61.62345647330942
 20
-79.85679658376844
 10
61.62345647330942
 20
-79.73828529907586
 10
61.56144475457492
 20
-79.6071994158621
 10
61.39125703760358
 20
-79.6071994158621
 10
61.16594779286824
 20
-79.6071994158621
 10
61.15871309234922
 20
-79.8376763038253
 10
61.15492348731544
 20
-79.95412053122675
 10
61.15492348731544
 20
-79.95412053122675
 10
60.96096461149587
 20
-79.95412053122675
 10
60.96096461149587
 20
-79.95412053122675
 10
60.96854382156342
 20
-79.82716876259529
 10
60.97750106982507
 20
-79.71503090455042
 10
61.04709199862712
 20
-79.59651961985782
 10
61.14217663402001
 20
-79.43580591547091
 10
61.30340710272971
 20
-79.4018717249412
 10
61.404003890899
 20
-79.4018717249412
 10
61.64378253667239
 20
-79.4018717249412
 10
61.82292750190538
 20
-79.5860120786278
 10
61.82292750190538
 20
-79.8588636410596
 10
61.82292750190538
 20
-80.08727347173166
 10
61.72233071373608
 20
-80.18666447648111
 10
61.45533581362923
 20
-80.41300724986203
 97
        0
 97
        0
 75
     2
 76
     1
 98
        0
  0
ENDBLK
  5
AA
330
A7
100
AcDbEntity
  8
0
100
AcDbBlockEnd
  0
BLOCK
  5
BD
330
BB
100
AcDbEntity
  8
0
100
AcDbBlockBegin
  2
block 6
 70
     0
 10
0.0
 20
0.0
 30
0.0
  3
block 6
  1

  0
SPLINE
  5
BF
330
BB
100
AcDbEntity
  8
_U+30EC_U+30A4_U+30E4_U+30FC 1
370
     0
100
AcDbSpline
210
0.0
220
0.0
230
1.0
 70
    11
 71
     3
 72
    26
 73
    22
 74
     0
 42
0.0000000001
 43
0.0000000001
 12
1.0
 22
0.0
 32
0.0
 13
1.0
 23
0.0
 33
0.0
 40
0.0
 40
0.0
 40
0.0
 40
0.0
 40
1.0
 40
1.0
 40
1.0
 40
2.0
 40
2.0
 40
2.0
 40
3.0
 40
3.0
 40
3.0
 40
4.0
 40
4.0
 40
4.0
 40
5.0
 40
5.0
 40
5.0
 40
6.0
 40
6.0
 40
6.0
 40
7.0
 40
7.0
 40
7.0
 40
7.0
 10
50.31510279775109
 20
-96.76790904698858
 30
0.0
 10
50.31510279775109
 20
-96.76790904698858
 30
0.0
 10
50.31510279775109
 20
-95.66375594396601
 30
0.0
 10
50.31510279775109
 20
-95.66375594396601
 30
0.0
 10
50.31510279775109
 20
-95.66375594396601
 30
0.0
 10
50.02967663679814
 20
-95.66375594396601
 30
0.0
 10
50.02967663679814
 20
-95.66375594396601
 30
0.0
 10
50.02967663679814
 20
-95.66375594396601
 30
0.0
 10
50.02967663679814
 20
-95.51561683810027
 30
0.0
 10
50.02967663679814
 20
-95.51561683810027
 30
0.0
 10
50.31699760026797
 20
-95.50080292751369
 30
0.0
 10
50.3573052174454
 20
-95.33784991106137
 30
0.0
 10
50.38279892403624
 20
-95.22347274095108
 30
0.0
 10
50.38279892403624
 20
-95.22347274095108
 30
0.0
 10
50.50923392834492
 20
-95.22347274095108
 30
0.0
 10
50.50923392834492
 20
-95.22347274095108
 30
0.0
 10
50.50923392834492
 20
-95.22347274095108
 30
0.0
 10
50.50923392834492
 20
-96.76790904698858
 30
0.0
 10
50.50923392834492
 20
-96.76790904698858
 30
0.0
 10
50.50923392834492
 20
-96.76790904698858
 30
0.0
 10
50.31510279775109
 20
-96.76790904698858
 30
0.0
 10
50.31510279775109
 20
-96.76790904698858
 30
0.0
  0
HATCH
  5
C0
330
BB
100
AcDbEntity
  8
_U+30EC_U+30A4_U+30E4_U+30FC 1
 62
     7
420
 16777215
100
AcDbHatch
 10
0.0
 20
0.0
 30
0.0
210
0.0
220
0.0
230
1.0
  2
SOLID
 70
     1
 71
     0
 91
        1
 92
        1
 93
        1
 72
     4
 94
        3
 73
     0
 74
     1
 95
       26
 96
       22
 40
0.0
 40
0.0
 40
0.0
 40
0.0
 40
1.0
 40
1.0
 40
1.0
 40
2.0
 40
2.0
 40
2.0
 40
3.0
 40
3.0
 40
3.0
 40
4.0
 40
4.0
 40
4.0
 40
5.0
 40
5.0
 40
5.0
 40
6.0
 40
6.0
 40
6.0
 40
7.0
 40
7.0
 40
7.0
 40
7.0
 10
50.31510279775109
 20
-96.76790904698858
 10
50.31510279775109
 20
-96.76790904698858
 10
50.31510279775109
 20
-95.66375594396601
 10
50.31510279775109
 20
-95.66375594396601
 10
50.31510279775109
 20
-95.66375594396601
 10
50.02967663679814
 20
-95.66375594396601
 10
50.02967663679814
 20
-95.66375594396601
 10
50.02967663679814
 20
-95.66375594396601
 10
50.02967663679814
 20
-95.51561683810027
 10
50.02967663679814
 20
-95.51561683810027
 10
50.31699760026797
 20
-95.50080292751369
 10
50.3573052174454
 20
-95.33784991106137
 10
50.38279892403624
 20
-95.22347274095108
 10
50.38279892403624
 20
-95.22347274095108
 10
50.50923392834492
 20
-95.22347274095108
 10
50.50923392834492
 20
-95.22347274095108
 10
50.50923392834492
 20
-95.22347274095108
 10
50.50923392834492
 20
-96.76790904698858
 10
50.50923392834492
 20
-96.76790904698858
 10
50.50923392834492
 20
-96.76790904698858
 10
50.31510279775109
 20
-96.76790904698858
 10
50.31510279775109
 20
-96.76790904698858
 97
        0
 97
        0
 75
     2
 76
     1
 98
        0
  0
SPLINE
  5
C1
330
BB
100
AcDbEntity
  8
_U+30EC_U+30A4_U+30E4_U+30FC 1
370
     0
100
AcDbSpline
210
0.0
220
0.0
230
1.0
 70
    11
 71
     3
 72
    44
 73
    40
 74
     0
 42
0.0000000001
 43
0.0000000001
 12
1.0
 22
0.0
 32
0.0
 13
1.0
 23
0.0
 33
0.0
 40
0.0
 40
0.0
 40
0.0
 40
0.0
 40
1.0
 40
1.0
 40
1.0
 40
2.0
 40
2.0
 40
2.0
 40
3.0
 40
3.0
 40
3.0
 40
4.0
 40
4.0
 40
4.0
 40
5.0
 40
5.0
 40
5.0
 40
6.0
 40
6.0
 40
6.0
 40
7.0
 40
7.0
 40
7.0
 40
8.0
 40
8.0
 40
8.0
 40
9.0
 40
9.0
 40
9.0
 40
10.0
 40
10.0
 40
10.0
 40
11.0
 40
11.0
 40
11.0
 40
12.0
 40
12.0
 40
12.0
 40
13.0
 40
13.0
 40
13.0
 40
13.0
 10
51.45508489382026
 20
-96.18603241952988
 30
0.0
 10
51.26663817077709
 20
-96.3448513213999
 30
0.0
 10
51.18602293642225
 20
-96.41892087433277
 30
0.0
 10
51.1439927715022
 20
-96.5625813560677
 30
0.0
 10
51.1439927715022
 20
-96.5625813560677
 30
0.0
 10
51.81750893886854
 20
-96.5625813560677
 30
0.0
 10
51.81750893886854
 20
-96.5625813560677
 30
0.0
 10
51.81750893886854
 20
-96.5625813560677
 30
0.0
 10
51.81750893886854
 20
-96.76790904698858
 30
0.0
 10
51.81750893886854
 20
-96.76790904698858
 30
0.0
 10
51.81750893886854
 20
-96.76790904698858
 30
0.0
 10
50.92798528457703
 20
-96.76790904698858
 30
0.0
 10
50.92798528457703
 20
-96.76790904698858
 30
0.0
 10
50.95554604845903
 20
-96.41030813561964
 30
0.0
 10
51.01221786919139
 20
-96.33210446810448
 30
0.0
 10
51.34535860261505
 20
-96.03375919908184
 30
0.0
 10
51.56670598754236
 20
-95.83497718958293
 30
0.0
 10
51.62355006304897
 20
-95.7671088085235
 30
0.0
 10
51.62355006304897
 20
-95.62964949866203
 30
0.0
 10
51.62355006304897
 20
-95.51113821396945
 30
0.0
 10
51.56136608954021
 20
-95.38022458552994
 30
0.0
 10
51.39100611779461
 20
-95.38022458552994
 30
0.0
 10
51.16586912783354
 20
-95.38022458552994
 30
0.0
 10
51.15863442731451
 20
-95.61070147349317
 30
0.0
 10
51.155017077055
 20
-95.72714570089461
 30
0.0
 10
51.155017077055
 20
-95.72714570089461
 30
0.0
 10
50.96088594646117
 20
-95.72714570089461
 30
0.0
 10
50.96088594646117
 20
-95.72714570089461
 30
0.0
 10
50.96829290175446
 20
-95.60002167748888
 30
0.0
 10
50.97742240479037
 20
-95.48805607421826
 30
0.0
 10
51.04701333359242
 20
-95.36954478952568
 30
0.0
 10
51.14209796898531
 20
-95.20865883036451
 30
0.0
 10
51.30315618292074
 20
-95.17489689460906
 30
0.0
 10
51.4039252258643
 20
-95.17489689460906
 30
0.0
 10
51.64370387163769
 20
-95.17489689460906
 30
0.0
 10
51.82302109164494
 20
-95.3588649935214
 30
0.0
 10
51.82302109164494
 20
-95.63171655595319
 30
0.0
 10
51.82302109164494
 20
-95.86047089617378
 30
0.0
 10
51.72225204870139
 20
-95.95968964614897
 30
0.0
 10
51.45508489382026
 20
-96.18603241952988
 30
0.0
  0
HATCH
  5
C2
330
BB
100
AcDbEntity
  8
_U+30EC_U+30A4_U+30E4_U+30FC 1
 62
     7
420
 16777215
100
AcDbHatch
 10
0.0
 20
0.0
 30
0.0
210
0.0
220
0.0
230
1.0
  2
SOLID
 70
     1
 71
     0
 91
        1
 92
        1
 93
        1
 72
     4
 94
        3
 73
     0
 74
     1
 95
       44
 96
       40
 40
0.0
 40
0.0
 40
0.0
 40
0.0
 40
1.0
 40
1.0
 40
1.0
 40
2.0
 40
2.0
 40
2.0
 40
3.0
 40
3.0
 40
3.0
 40
4.0
 40
4.0
 40
4.0
 40
5.0
 40
5.0
 40
5.0
 40
6.0
 40
6.0
 40
6.0
 40
7.0
 40
7.0
 40
7.0
 40
8.0
 40
8.0
 40
8.0
 40
9.0
 40
9.0
 40
9.0
 40
10.0
 40
10.0
 40
10.0
 40
11.0
 40
11.0
 40
11.0
 40
12.0
 40
12.0
 40
12.0
 40
13.0
 40
13.0
 40
13.0
 40
13.0
 10
51.45508489382026
 20
-96.18603241952988
 10
51.26663817077709
 20
-96.3448513213999
 10
51.18602293642225
 20
-96.41892087433277
 10
51.1439927715022
 20
-96.5625813560677
 10
51.1439927715022
 20
-96.5625813560677
 10
51.81750893886854
 20
-96.5625813560677
 10
51.81750893886854
 20
-96.5625813560677
 10
51.81750893886854
 20
-96.5625813560677
 10
51.81750893886854
 20
-96.76790904698858
 10
51.81750893886854
 20
-96.76790904698858
 10
51.81750893886854
 20
-96.76790904698858
 10
50.92798528457703
 20
-96.76790904698858
 10
50.92798528457703
 20
-96.76790904698858
 10
50.95554604845903
 20
-96.41030813561964
 10
51.01221786919139
 20
-96.33210446810448
 10
51.34535860261505
 20
-96.03375919908184
 10
51.56670598754236
 20
-95.83497718958293
 10
51.62355006304897
 20
-95.7671088085235
 10
51.62355006304897
 20
-95.62964949866203
 10
51.62355006304897
 20
-95.51113821396945
 10
51.56136608954021
 20
-95.38022458552994
 10
51.39100611779461
 20
-95.38022458552994
 10
51.16586912783354
 20
-95.38022458552994
 10
51.15863442731451
 20
-95.61070147349317
 10
51.155017077055
 20
-95.72714570089461
 10
51.155017077055
 20
-95.72714570089461
 10
50.96088594646117
 20
-95.72714570089461
 10
50.96088594646117
 20
-95.72714570089461
 10
50.96829290175446
 20
-95.60002167748888
 10
50.97742240479037
 20
-95.48805607421826
 10
51.04701333359242
 20
-95.36954478952568
 10
51.14209796898531
 20
-95.20865883036451
 10
51.30315618292074
 20
-95.17489689460906
 10
51.4039252258643
 20
-95.17489689460906
 10
51.64370387163769
 20
-95.17489689460906
 10
51.82302109164494
 20
-95.3588649935214
 10
51.82302109164494
 20
-95.63171655595319
 10
51.82302109164494
 20
-95.86047089617378
 10
51.72225204870139
 20
-95.95968964614897
 10
51.45508489382026
 20
-96.18603241952988
 97
        0
 97
        0
 75
     2
 76
     1
 98
        0
  0
ENDBLK
  5
BE
330
BB
100
AcDbEntity
  8
0
100
AcDbBlockEnd
  0
BLOCK
  5
D9
330
D7
100
AcDbEntity
  8
0
100
AcDbBlockBegin
  2
block 7
 70
     0
 10
0.0
 20
0.0
 30
0.0
  3
block 7
  1

  0
SPLINE
  5
DB
330
D7
100
AcDbEntity
  8
_U+30EC_U+30A4_U+30E4_U+30FC 1
370
     0
100
AcDbSpline
210
0.0
220
0.0
230
1.0
 70
    11
 71
     3
 72
    32
 73
    28
 74
     0
 42
0.0000000001
 43
0.0000000001
 12
1.0
 22
0.0
 32
0.0
 13
1.0
 23
0.0
 33
0.0
 40
0.0
 40
0.0
 40
0.0
 40
0.0
 40
1.0
 40
1.0
 40
1.0
 40
2.0
 40
2.0
 40
2.0
 40
3.0
 40
3.0
 40
3.0
 40
4.0
 40
4.0
 40
4.0
 40
5.0
 40
5.0
 40
5.0
 40
6.0
 40
6.0
 40
6.0
 40
7.0
 40
7.0
 40
7.0
 40
8.0
 40
8.0
 40
8.0
 40
9.0
 40
9.0
 40
9.0
 40
9.0
 10
80.55528969340284
 20
-90.53366425688047
 30
0.0
 10
80.55528969340284
 20
-90.98049314131738
 30
0.0
 10
80.00131833937468
 20
-90.9877278418364
 30
0.0
 10
79.78737790974066
 20
-90.9877278418364
 30
0.0
 10
79.55690102177745
 20
-90.9877278418364
 30
0.0
 10
78.909567580099
 20
-90.9711913835072
 30
0.0
 10
78.909567580099
 20
-90.5009358497706
 30
0.0
 10
78.909567580099
 20
-90.3507296866137
 30
0.0
 10
78.97950301844958
 20
-90.13851180472233
 30
0.0
 10
79.31161022322766
 20
-90.10543888806392
 30
0.0
 10
79.31161022322766
 20
-90.10543888806392
 30
0.0
 10
79.31161022322766
 20
-90.29044051562184
 30
0.0
 10
79.31161022322766
 20
-90.29044051562184
 30
0.0
 10
79.25442163817252
 20
-90.29939776388349
 30
0.0
 10
79.10628253230676
 20
-90.32695852776548
 30
0.0
 10
79.10628253230676
 20
-90.50265839751323
 30
0.0
 10
79.10628253230676
 20
-90.75518389658204
 30
0.0
 10
79.43425562250255
 20
-90.78997936098307
 30
0.0
 10
79.63923880387492
 20
-90.80100366653586
 30
0.0
 10
79.56103513635975
 20
-90.72038843218102
 30
0.0
 10
79.50177949401345
 20
-90.66182180893178
 30
0.0
 10
79.50177949401345
 20
-90.50472545480437
 30
0.0
 10
79.50177949401345
 20
-90.34900713887109
 30
0.0
 10
79.6099554922503
 20
-90.0871798819921
 30
0.0
 10
80.01613224996125
 20
-90.0871798819921
 30
0.0
 10
80.3354926014439
 20
-90.0871798819921
 30
0.0
 10
80.55528969340284
 20
-90.25943465625458
 30
0.0
 10
80.55528969340284
 20
-90.53366425688047
 30
0.0
  0
SPLINE
  5
DC
330
D7
100
AcDbEntity
  8
_U+30EC_U+30A4_U+30E4_U+30FC 1
370
     0
100
AcDbSpline
210
0.0
220
0.0
230
1.0
 70
    11
 71
     3
 72
    17
 73
    13
 74
     0
 42
0.0000000001
 43
0.0000000001
 12
1.0
 22
0.0
 32
0.0
 13
1.0
 23
0.0
 33
0.0
 40
0.0
 40
0.0
 40
0.0
 40
0.0
 40
1.0
 40
1.0
 40
1.0
 40
2.0
 40
2.0
 40
2.0
 40
3.0
 40
3.0
 40
3.0
 40
4.0
 40
4.0
 40
4.0
 40
4.0
 10
79.69642738893006
 20
-90.51919485584243
 30
0.0
 10
79.69642738893006
 20
-90.74622664832039
 30
0.0
 10
79.9079562517244
 20
-90.77895505543026
 30
0.0
 10
80.02440047912584
 20
-90.77895505543026
 30
0.0
 10
80.20010034887359
 20
-90.77895505543026
 30
0.0
 10
80.36305336532591
 20
-90.69661727333279
 30
0.0
 10
80.36305336532591
 20
-90.53745386191426
 30
0.0
 10
80.36305336532591
 20
-90.43306746871119
 30
0.0
 10
80.30379772297961
 20
-90.28113875781166
 30
0.0
 10
80.0181993072524
 20
-90.28113875781166
 30
0.0
 10
79.79392359116264
 20
-90.28113875781166
 30
0.0
 10
79.69642738893006
 20
-90.40206160934393
 30
0.0
 10
79.69642738893006
 20
-90.51919485584243
 30
0.0
  0
HATCH
  5
DD
330
D7
100
AcDbEntity
  8
_U+30EC_U+30A4_U+30E4_U+30FC 1
 62
     7
420
 16777215
100
AcDbHatch
 10
0.0
 20
0.0
 30
0.0
210
0.0
220
0.0
230
1.0
  2
SOLID
 70
     1
 71
     0
 91
        2
 92
        1
 93
        1
 72
     4
 94
        3
 73
     0
 74
     1
 95
       32
 96
       28
 40
0.0
 40
0.0
 40
0.0
 40
0.0
 40
1.0
 40
1.0
 40
1.0
 40
2.0
 40
2.0
 40
2.0
 40
3.0
 40
3.0
 40
3.0
 40
4.0
 40
4.0
 40
4.0
 40
5.0
 40
5.0
 40
5.0
 40
6.0
 40
6.0
 40
6.0
 40
7.0
 40
7.0
 40
7.0
 40
8.0
 40
8.0
 40
8.0
 40
9.0
 40
9.0
 40
9.0
 40
9.0
 10
80.55528969340284
 20
-90.53366425688047
 10
80.55528969340284
 20
-90.98049314131738
 10
80.00131833937468
 20
-90.9877278418364
 10
79.78737790974066
 20
-90.9877278418364
 10
79.55690102177745
 20
-90.9877278418364
 10
78.909567580099
 20
-90.9711913835072
 10
78.909567580099
 20
-90.5009358497706
 10
78.909567580099
 20
-90.3507296866137
 10
78.97950301844958
 20
-90.13851180472233
 10
79.31161022322766
 20
-90.10543888806392
 10
79.31161022322766
 20
-90.10543888806392
 10
79.31161022322766
 20
-90.29044051562184
 10
79.31161022322766
 20
-90.29044051562184
 10
79.25442163817252
 20
-90.29939776388349
 10
79.10628253230676
 20
-90.32695852776548
 10
79.10628253230676
 20
-90.50265839751323
 10
79.10628253230676
 20
-90.75518389658204
 10
79.43425562250255
 20
-90.78997936098307
 10
79.63923880387492
 20
-90.80100366653586
 10
79.56103513635975
 20
-90.72038843218102
 10
79.50177949401345
 20
-90.66182180893178
 10
79.50177949401345
 20
-90.50472545480437
 10
79.50177949401345
 20
-90.34900713887109
 10
79.6099554922503
 20
-90.0871798819921
 10
80.01613224996125
 20
-90.0871798819921
 10
80.3354926014439
 20
-90.0871798819921
 10
80.55528969340284
 20
-90.25943465625458
 10
80.55528969340284
 20
-90.53366425688047
 97
        0
 97
        0
 92
        1
 93
        1
 72
     4
 94
        3
 73
     0
 74
     1
 95
       17
 96
       13
 40
0.0
 40
0.0
 40
0.0
 40
0.0
 40
1.0
 40
1.0
 40
1.0
 40
2.0
 40
2.0
 40
2.0
 40
3.0
 40
3.0
 40
3.0
 40
4.0
 40
4.0
 40
4.0
 40
4.0
 10
79.69642738893006
 20
-90.51919485584243
 10
79.69642738893006
 20
-90.74622664832039
 10
79.9079562517244
 20
-90.77895505543026
 10
80.02440047912584
 20
-90.77895505543026
 10
80.20010034887359
 20
-90.77895505543026
 10
80.36305336532591
 20
-90.69661727333279
 10
80.36305336532591
 20
-90.53745386191426
 10
80.36305336532591
 20
-90.43306746871119
 10
80.30379772297961
 20
-90.28113875781166
 10
80.0181993072524
 20
-90.28113875781166
 10
79.79392359116264
 20
-90.28113875781166
 10
79.69642738893006
 20
-90.40206160934393
 10
79.69642738893006
 20
-90.51919485584243
 97
        0
 97
        0
 75
     2
 76
     1
 98
        0
  0
POLYLINE
  5
DE
330
D7
100
AcDbEntity
  8
_U+30EC_U+30A4_U+30E4_U+30FC 1
370
     0
100
AcDb2dPolyline
 66
     1
 10
0.0
 20
0.0
 30
0.0
  0
VERTEX
  5
DF
330
DE
100
AcDbEntity
  8
_U+30EC_U+30A4_U+30E4_U+30FC 1
370
     0
100
AcDbVertex
100
AcDb2dVertex
 10
80.50464678976968
 20
-89.90080021624009
 30
0.0
  0
VERTEX
  5
E0
330
DE
100
AcDbEntity
  8
_U+30EC_U+30A4_U+30E4_U+30FC 1
370
     0
100
AcDbVertex
100
AcDb2dVertex
 10
80.25281030979791
 20
-89.90080021624009
 30
0.0
  0
VERTEX
  5
E1
330
DE
100
AcDbEntity
  8
_U+30EC_U+30A4_U+30E4_U+30FC 1
370
     0
100
AcDbVertex
100
AcDb2dVertex
 10
80.25281030979791
 20
-89.68307018157229
 30
0.0
  0
VERTEX
  5
E2
330
DE
100
AcDbEntity
  8
_U+30EC_U+30A4_U+30E4_U+30FC 1
370
     0
100
AcDbVertex
100
AcDb2dVertex
 10
80.50464678976968
 20
-89.68307018157229
 30
0.0
  0
VERTEX
  5
E3
330
DE
100
AcDbEntity
  8
_U+30EC_U+30A4_U+30E4_U+30FC 1
370
     0
100
AcDbVertex
100
AcDb2dVertex
 10
80.50464678976968
 20
-89.90080021624009
 30
0.0
  0
SEQEND
  5
E4
330
DE
100
AcDbEntity
  8
_U+30EC_U+30A4_U+30E4_U+30FC 1
370
     0
  0
HATCH
  5
E5
330
D7
100
AcDbEntity
  8
_U+30EC_U+30A4_U+30E4_U+30FC 1
 62
     7
420
 16777215
100
AcDbHatch
 10
0.0
 20
0.0
 30
0.0
210
0.0
220
0.0
230
1.0
  2
SOLID
 70
     1
 71
     0
 91
        1
 92
        1
 93
        4
 72
     1
 10
80.50464678976968
 20
-89.90080021624009
 11
80.25281030979791
 21
-89.90080021624009
 72
     1
 10
80.25281030979791
 20
-89.90080021624009
 11
80.25281030979791
 21
-89.68307018157229
 72
     1
 10
80.25281030979791
 20
-89.68307018157229
 11
80.50464678976968
 21
-89.68307018157229
 72
     1
 10
80.50464678976968
 20
-89.68307018157229
 11
80.50464678976968
 21
-89.90080021624009
 97
        0
 75
     2
 76
     1
 98
        0
  0
SPLINE
  5
E6
330
D7
100
AcDbEntity
  8
_U+30EC_U+30A4_U+30E4_U+30FC 1
370
     0
100
AcDbSpline
210
0.0
220
0.0
230
1.0
 70
    11
 71
     3
 72
    44
 73
    40
 74
     0
 42
0.0000000001
 43
0.0000000001
 12
1.0
 22
0.0
 32
0.0
 13
1.0
 23
0.0
 33
0.0
 40
0.0
 40
0.0
 40
0.0
 40
0.0
 40
1.0
 40
1.0
 40
1.0
 40
2.0
 40
2.0
 40
2.0
 40
3.0
 40
3.0
 40
3.0
 40
4.0
 40
4.0
 40
4.0
 40
5.0
 40
5.0
 40
5.0
 40
6.0
 40
6.0
 40
6.0
 40
7.0
 40
7.0
 40
7.0
 40
8.0
 40
8.0
 40
8.0
 40
9.0
 40
9.0
 40
9.0
 40
10.0
 40
10.0
 40
10.0
 40
11.0
 40
11.0
 40
11.0
 40
12.0
 40
12.0
 40
12.0
 40
13.0
 40
13.0
 40
13.0
 40
13.0
 10
79.92277016231098
 20
-88.96580130154328
 30
0.0
 10
80.08158906418099
 20
-89.15459253413496
 30
0.0
 10
80.15565861711387
 20
-89.23486325894129
 30
0.0
 10
80.29931909884878
 20
-89.27689342386134
 30
0.0
 10
80.29931909884878
 20
-89.27689342386134
 30
0.0
 10
80.29931909884878
 20
-88.60372176604352
 30
0.0
 10
80.29931909884878
 20
-88.60372176604352
 30
0.0
 10
80.29931909884878
 20
-88.60372176604352
 30
0.0
 10
80.50464678976968
 20
-88.60372176604352
 30
0.0
 10
80.50464678976968
 20
-88.60372176604352
 30
0.0
 10
80.50464678976968
 20
-88.60372176604352
 30
0.0
 10
80.50464678976968
 20
-89.4929009107865
 30
0.0
 10
80.50464678976968
 20
-89.4929009107865
 30
0.0
 10
80.14704587840075
 20
-89.46568465645302
 30
0.0
 10
80.06884221088558
 20
-89.4088405809464
 30
0.0
 10
79.77049694186293
 20
-89.07569984752274
 30
0.0
 10
79.57171493236402
 20
-88.85418020782119
 30
0.0
 10
79.50384655130459
 20
-88.79768064186308
 30
0.0
 10
79.36638724144314
 20
-88.79768064186308
 30
0.0
 10
79.24787595675053
 20
-88.79768064186308
 30
0.0
 10
79.11696232831105
 20
-88.85969236059758
 30
0.0
 10
79.11696232831105
 20
-89.02988007756892
 30
0.0
 10
79.11696232831105
 20
-89.25518932230426
 30
0.0
 10
79.34743921627425
 20
-89.26242402282328
 30
0.0
 10
79.4638834436757
 20
-89.26621362785706
 30
0.0
 10
79.4638834436757
 20
-89.26621362785706
 30
0.0
 10
79.4638834436757
 20
-89.46017250367663
 30
0.0
 10
79.4638834436757
 20
-89.46017250367663
 30
0.0
 10
79.33675942026998
 20
-89.45259329360908
 30
0.0
 10
79.22479381699937
 20
-89.44363604534743
 30
0.0
 10
79.10628253230676
 20
-89.37404511654537
 30
0.0
 10
78.9453965731456
 20
-89.27896048115248
 30
0.0
 10
78.91163463739015
 20
-89.11773001244279
 30
0.0
 10
78.91163463739015
 20
-89.0171332242735
 30
0.0
 10
78.91163463739015
 20
-88.77735457850011
 30
0.0
 10
79.0956027363025
 20
-88.59820961326712
 30
0.0
 10
79.36845429873428
 20
-88.59820961326712
 30
0.0
 10
79.59720863895487
 20
-88.59820961326712
 30
0.0
 10
79.69642738893006
 20
-88.69880640143641
 30
0.0
 10
79.92277016231098
 20
-88.96580130154328
 30
0.0
  0
HATCH
  5
E7
330
D7
100
AcDbEntity
  8
_U+30EC_U+30A4_U+30E4_U+30FC 1
 62
     7
420
 16777215
100
AcDbHatch
 10
0.0
 20
0.0
 30
0.0
210
0.0
220
0.0
230
1.0
  2
SOLID
 70
     1
 71
     0
 91
        1
 92
        1
 93
        1
 72
     4
 94
        3
 73
     0
 74
     1
 95
       44
 96
       40
 40
0.0
 40
0.0
 40
0.0
 40
0.0
 40
1.0
 40
1.0
 40
1.0
 40
2.0
 40
2.0
 40
2.0
 40
3.0
 40
3.0
 40
3.0
 40
4.0
 40
4.0
 40
4.0
 40
5.0
 40
5.0
 40
5.0
 40
6.0
 40
6.0
 40
6.0
 40
7.0
 40
7.0
 40
7.0
 40
8.0
 40
8.0
 40
8.0
 40
9.0
 40
9.0
 40
9.0
 40
10.0
 40
10.0
 40
10.0
 40
11.0
 40
11.0
 40
11.0
 40
12.0
 40
12.0
 40
12.0
 40
13.0
 40
13.0
 40
13.0
 40
13.0
 10
79.92277016231098
 20
-88.96580130154328
 10
80.08158906418099
 20
-89.15459253413496
 10
80.15565861711387
 20
-89.23486325894129
 10
80.29931909884878
 20
-89.27689342386134
 10
80.29931909884878
 20
-89.27689342386134
 10
80.29931909884878
 20
-88.60372176604352
 10
80.29931909884878
 20
-88.60372176604352
 10
80.29931909884878
 20
-88.60372176604352
 10
80.50464678976968
 20
-88.60372176604352
 10
80.50464678976968
 20
-88.60372176604352
 10
80.50464678976968
 20
-88.60372176604352
 10
80.50464678976968
 20
-89.4929009107865
 10
80.50464678976968
 20
-89.4929009107865
 10
80.14704587840075
 20
-89.46568465645302
 10
80.06884221088558
 20
-89.4088405809464
 10
79.77049694186293
 20
-89.07569984752274
 10
79.57171493236402
 20
-88.85418020782119
 10
79.50384655130459
 20
-88.79768064186308
 10
79.36638724144314
 20
-88.79768064186308
 10
79.24787595675053
 20
-88.79768064186308
 10
79.11696232831105
 20
-88.85969236059758
 10
79.11696232831105
 20
-89.02988007756892
 10
79.11696232831105
 20
-89.25518932230426
 10
79.34743921627425
 20
-89.26242402282328
 10
79.4638834436757
 20
-89.26621362785706
 10
79.4638834436757
 20
-89.26621362785706
 10
79.4638834436757
 20
-89.46017250367663
 10
79.4638834436757
 20
-89.46017250367663
 10
79.33675942026998
 20
-89.45259329360908
 10
79.22479381699937
 20
-89.44363604534743
 10
79.10628253230676
 20
-89.37404511654537
 10
78.9453965731456
 20
-89.27896048115248
 10
78.91163463739015
 20
-89.11773001244279
 10
78.91163463739015
 20
-89.0171332242735
 10
78.91163463739015
 20
-88.77735457850011
 10
79.0956027363025
 20
-88.59820961326712
 10
79.36845429873428
 20
-88.59820961326712
 10
79.59720863895487
 20
-88.59820961326712
 10
79.69642738893006
 20
-88.69880640143641
 10
79.92277016231098
 20
-88.96580130154328
 97
        0
 97
        0
 75
     2
 76
     1
 98
        0
  0
ENDBLK
  5
DA
330
D7
100
AcDbEntity
  8
0
100
AcDbBlockEnd
  0
ENDSEC
  0
SECTION
  2
ENTITIES
  0
INSERT
  5
42
330
1F
100
AcDbEntity
  8
_U+30EC_U+30A4_U+30E4_U+30FC 1
100
AcDbBlockReference
  2
block 2
 10
0.0
 20
0.0
 30
0.0
  0
ENDSEC
  0
SECTION
  2
OBJECTS
  0
DICTIONARY
  5
C
330
0
100
AcDbDictionary
281
     1
  3
ACAD_GROUP
350
D
  3
ACAD_LAYOUT
350
1A
  3
ACAD_MATERIAL
350
3B
  3
ACAD_MLEADERSTYLE
350
E9
  3
ACAD_MLINESTYLE
350
17
  3
ACAD_PLOTSETTINGS
350
19
  3
ACAD_PLOTSTYLENAME
350
E
  3
ACAD_TABLESTYLE
350
E8
  3
ACAD_VISUALSTYLE
350
2A
  0
SUN
  5
3F
330
29
100
AcDbSun
 90
        1
290
     0
 63
     7
421
 16777215
 40
1.0
291
     1
 91
  2455826
 92
 54000000
292
     0
 70
     2
 71
   256
280
     1
  0
DICTIONARY
  5
D
102
{ACAD_REACTORS
330
C
102
}
330
C
100
AcDbDictionary
281
     1
  0
DICTIONARY
  5
1A
102
{ACAD_REACTORS
330
C
102
}
330
C
100
AcDbDictionary
281
     1
  3
Layout1
350
1E
  3
Layout2
350
26
  3
Model
350
22
  0
DICTIONARY
  5
3B
102
{ACAD_REACTORS
330
C
102
}
330
C
100
AcDbDictionary
281
     1
  3
ByBlock
350
3D
  3
ByLayer
350
3C
  3
Global
350
3E
  0
DICTIONARY
  5
E9
102
{ACAD_REACTORS
330
C
102
}
330
C
100
AcDbDictionary
281
     1
  0
DICTIONARY
  5
17
102
{ACAD_REACTORS
330
C
102
}
330
C
100
AcDbDictionary
281
     1
  3
Standard
350
18
  0
DICTIONARY
  5
19
102
{ACAD_REACTORS
330
C
102
}
330
C
100
AcDbDictionary
281
     1
  0
ACDBDICTIONARYWDFLT
  5
E
102
{ACAD_REACTORS
330
C
102
}
330
C
100
AcDbDictionary
281
     1
  3
Normal
350
F
100
AcDbDictionaryWithDefault
340
F
  0
DICTIONARY
  5
E8
102
{ACAD_REACTORS
330
C
102
}
330
C
100
AcDbDictionary
281
     1
  0
DICTIONARY
  5
2A
102
{ACAD_REACTORS
330
C
102
}
330
C
100
AcDbDictionary
281
     1
  3
2dWireframe
350
2F
  3
3D Hidden
350
31
  3
3dWireframe
350
30
  3
Basic
350
32
  3
Brighten
350
36
  3
ColorChange
350
3A
  3
Conceptual
350
34
  3
Dim
350
35
  3
Facepattern
350
39
  3
Flat
350
2B
  3
FlatWithEdges
350
2C
  3
Gouraud
350
2D
  3
GouraudWithEdges
350
2E
  3
Linepattern
350
38
  3
Realistic
350
33
  3
Thicken
350
37
  0
LAYOUT
  5
1E
102
{ACAD_REACTORS
330
1A
102
}
330
1A
100
AcDbPlotSettings
  1

  2
none_device
  4

  6

 40
0.0
 41
0.0
 42
0.0
 43
0.0
 44
0.0
 45
0.0
 46
0.0
 47
0.0
 48
0.0
 49
0.0
140
0.0
141
0.0
142
1.0
143
1.0
 70
   688
 72
     0
 73
     0
 74
     5
  7

 75
    16
 76
     0
 77
     2
 78
   300
147
1.0
148
0.0
149
0.0
100
AcDbLayout
  1
Layout1
 70
     1
 71
     1
 10
0.0
 20
0.0
 11
12.0
 21
9.0
 12
0.0
 22
0.0
 32
0.0
 14
1.000000000000000E+20
 24
1.000000000000000E+20
 34
1.000000000000000E+20
 15
-1.000000000000000E+20
 25
-1.000000000000000E+20
 35
-1.000000000000000E+20
146
0.0
 13
0.0
 23
0.0
 33
0.0
 16
1.0
 26
0.0
 36
0.0
 17
0.0
 27
1.0
 37
0.0
 76
     0
330
1B
  0
LAYOUT
  5
26
102
{ACAD_REACTORS
330
1A
102
}
330
1A
100
AcDbPlotSettings
  1

  2
none_device
  4

  6

 40
0.0
 41
0.0
 42
0.0
 43
0.0
 44
0.0
 45
0.0
 46
0.0
 47
0.0
 48
0.0
 49
0.0
140
0.0
141
0.0
142
1.0
143
1.0
 70
   688
 72
     0
 73
     0
 74
     5
  7

 75
    16
 76
     0
 77
     2
 78
   300
147
1.0
148
0.0
149
0.0
100
AcDbLayout
  1
Layout2
 70
     1
 71
     2
 10
0.0
 20
0.0
 11
0.0
 21
0.0
 12
0.0
 22
0.0
 32
0.0
 14
0.0
 24
0.0
 34
0.0
 15
0.0
 25
0.0
 35
0.0
146
0.0
 13
0.0
 23
0.0
 33
0.0
 16
1.0
 26
0.0
 36
0.0
 17
0.0
 27
1.0
 37
0.0
 76
     0
330
23
  0
LAYOUT
  5
22
102
{ACAD_REACTORS
330
1A
102
}
330
1A
100
AcDbPlotSettings
  1

  2
none_device
  4

  6

 40
0.0
 41
0.0
 42
0.0
 43
0.0
 44
0.0
 45
0.0
 46
0.0
 47
0.0
 48
0.0
 49
0.0
140
0.0
141
0.0
142
1.0
143
1.0
 70
  1712
 72
     0
 73
     0
 74
     0
  7

 75
     0
 76
     0
 77
     2
 78
   300
147
1.0
148
0.0
149
0.0
100
AcDbLayout
  1
Model
 70
     1
 71
     0
 10
0.0
 20
0.0
 11
12.0
 21
9.0
 12
0.0
 22
0.0
 32
0.0
 14
1.000000000000000E+20
 24
1.000000000000000E+20
 34
1.000000000000000E+20
 15
-1.000000000000000E+20
 25
-1.000000000000000E+20
 35
-1.000000000000000E+20
146
0.0
 13
0.0
 23
0.0
 33
0.0
 16
1.0
 26
0.0
 36
0.0
 17
0.0
 27
1.0
 37
0.0
 76
     0
330
1F
331
29
  0
MATERIAL
  5
3D
102
{ACAD_REACTORS
330
3B
102
}
330
3B
100
AcDbMaterial
  1
ByBlock
 72
     1
 94
      127
  0
MATERIAL
  5
3C
102
{ACAD_REACTORS
330
3B
102
}
330
3B
100
AcDbMaterial
  1
ByLayer
 72
     1
 94
      127
  0
MATERIAL
  5
3E
102
{ACAD_REACTORS
330
3B
102
}
330
3B
100
AcDbMaterial
  1
Global
 72
     1
 94
      127
  0
MLINESTYLE
  5
18
102
{ACAD_REACTORS
330
17
102
}
330
17
100
AcDbMlineStyle
  2
Standard
 70
     0
  3

 62
   256
 51
90.0
 52
90.0
 71
     2
 49
0.5
 62
   256
  6
BYLAYER
 49
-0.5
 62
   256
  6
BYLAYER
  0
ACDBPLACEHOLDER
  5
F
102
{ACAD_REACTORS
330
E
102
}
330
E
  0
VISUALSTYLE
  5
2F
102
{ACAD_REACTORS
330
2A
102
}
330
2A
100
AcDbVisualStyle
  2
2dWireframe
 70
     4
177
     2
291
     0
 71
     0
176
     1
 72
     2
176
     1
 73
     0
176
     1
 90
        0
176
     1
 40
-0.6
176
     1
 41
-30.0
176
     1
 62
     5
 63
     7
421
 16777215
176
     1
 74
     1
176
     1
 91
        4
176
     1
 64
     7
176
     1
 65
   257
176
     1
 75
     1
176
     1
175
     1
176
     1
 42
1.0
176
     1
 92
        0
176
     1
 66
   257
176
     1
 43
1.0
176
     1
 76
     1
176
     1
 77
     6
176
     1
 78
     2
176
     1
 67
     7
176
     1
 79
     5
176
     1
170
     0
176
     1
171
     0
176
     1
290
     0
176
     1
 93
        1
176
     1
 44
0.0
176
     1
173
     0
176
     1
  0
VISUALSTYLE
  5
31
102
{ACAD_REACTORS
330
2A
102
}
330
2A
100
AcDbVisualStyle
  2
3D Hidden
 70
     6
177
     2
291
     0
 71
     1
176
     1
 72
     2
176
     1
 73
     2
176
     1
 90
        0
176
     1
 40
-0.6
176
     1
 41
-30.0
176
     1
 62
     5
 63
     7
421
 16777215
176
     1
 74
     2
176
     1
 91
        2
176
     1
 64
     7
176
     1
 65
   257
176
     1
 75
     2
176
     1
175
     1
176
     1
 42
40.0
176
     1
 92
        0
176
     1
 66
   257
176
     1
 43
1.0
176
     1
 76
     1
176
     1
 77
     6
176
     1
 78
     2
176
     1
 67
     7
176
     1
 79
     3
176
     1
170
     0
176
     1
171
     0
176
     1
290
     0
176
     1
 93
        1
176
     1
 44
0.0
176
     1
173
     0
176
     1
  0
VISUALSTYLE
  5
30
102
{ACAD_REACTORS
330
2A
102
}
330
2A
100
AcDbVisualStyle
  2
3dWireframe
 70
     5
177
     2
291
     0
 71
     0
176
     1
 72
     2
176
     1
 73
     0
176
     1
 90
        0
176
     1
 40
-0.6
176
     1
 41
-30.0
176
     1
 62
     5
 63
     7
421
 16777215
176
     1
 74
     1
176
     1
 91
        4
176
     1
 64
     7
176
     1
 65
   257
176
     1
 75
     1
176
     1
175
     1
176
     1
 42
1.0
176
     1
 92
        0
176
     1
 66
   257
176
     1
 43
1.0
176
     1
 76
     1
176
     1
 77
     6
176
     1
 78
     2
176
     1
 67
     7
176
     1
 79
     5
176
     1
170
     0
176
     1
171
     0
176
     1
290
     0
176
     1
 93
        1
176
     1
 44
0.0
176
     1
173
     0
176
     1
  0
VISUALSTYLE
  5
32
102
{ACAD_REACTORS
330
2A
102
}
330
2A
100
AcDbVisualStyle
  2
Basic
 70
     7
177
     2
291
     1
 71
     1
176
     1
 72
     0
176
     1
 73
     1
176
     1
 90
        0
176
     1
 40
-0.6
176
     1
 41
-30.0
176
     1
 62
     5
 63
     7
421
 16777215
176
     1
 74
     0
176
     1
 91
        4
176
     1
 64
     7
176
     1
 65
   257
176
     1
 75
     1
176
     1
175
     1
176
     1
 42
1.0
176
     1
 92
        8
176
     1
 66
     7
176
     1
 43
1.0
176
     1
 76
     1
176
     1
 77
     6
176
     1
 78
     2
176
     1
 67
     7
176
     1
 79
     5
176
     1
170
     0
176
     1
171
     0
176
     1
290
     0
176
     1
 93
        1
176
     1
 44
0.0
176
     1
173
     0
176
     1
  0
VISUALSTYLE
  5
36
102
{ACAD_REACTORS
330
2A
102
}
330
2A
100
AcDbVisualStyle
  2
Brighten
 70
    12
177
     2
291
     1
 71
     2
176
     1
 72
     2
176
     1
 73
     0
176
     1
 90
        0
176
     1
 40
-0.6
176
     1
 41
-30.0
176
     1
 62
     5
 63
     7
421
 16777215
176
     1
 74
     1
176
     1
 91
        4
176
     1
 64
     7
176
     1
 65
   257
176
     1
 75
     1
176
     1
175
     1
176
     1
 42
1.0
176
     1
 92
        8
176
     1
 66
     7
176
     1
 43
1.0
176
     1
 76
     1
176
     1
 77
     6
176
     1
 78
     2
176
     1
 67
     7
176
     1
 79
     5
176
     1
170
     0
176
     1
171
     0
176
     1
290
     0
176
     1
 93
        1
176
     1
 44
50.0
176
     1
173
     0
176
     1
  0
VISUALSTYLE
  5
3A
102
{ACAD_REACTORS
330
2A
102
}
330
2A
100
AcDbVisualStyle
  2
ColorChange
 70
    16
177
     2
291
     1
 71
     2
176
     1
 72
     2
176
     1
 73
     3
176
     1
 90
        0
176
     1
 40
-0.6
176
     1
 41
-30.0
176
     1
 62
     5
 63
     8
421
  8421504
176
     1
 74
     1
176
     1
 91
        4
176
     1
 64
     7
176
     1
 65
   257
176
     1
 75
     1
176
     1
175
     1
176
     1
 42
1.0
176
     1
 92
        8
176
     1
 66
     8
424
  8421504
176
     1
 43
1.0
176
     1
 76
     1
176
     1
 77
     6
176
     1
 78
     2
176
     1
 67
     7
176
     1
 79
     5
176
     1
170
     0
176
     1
171
     0
176
     1
290
     0
176
     1
 93
        1
176
     1
 44
0.0
176
     1
173
     0
176
     1
  0
VISUALSTYLE
  5
34
102
{ACAD_REACTORS
330
2A
102
}
330
2A
100
AcDbVisualStyle
  2
Conceptual
 70
     9
177
     2
291
     0
 71
     3
176
     1
 72
     2
176
     1
 73
     0
176
     1
 90
        0
176
     1
 40
-0.6
176
     1
 41
-30.0
176
     1
 62
     5
 63
     7
421
 16777215
176
     1
 74
     2
176
     1
 91
        2
176
     1
 64
     7
176
     1
 65
   257
176
     1
 75
     1
176
     1
175
     1
176
     1
 42
40.0
176
     1
 92
        8
176
     1
 66
     7
176
     1
 43
1.0
176
     1
 76
     1
176
     1
 77
     6
176
     1
 78
     2
176
     1
 67
     7
176
     1
 79
     3
176
     1
170
     0
176
     1
171
     0
176
     1
290
     0
176
     1
 93
        1
176
     1
 44
0.0
176
     1
173
     0
176
     1
  0
VISUALSTYLE
  5
35
102
{ACAD_REACTORS
330
2A
102
}
330
2A
100
AcDbVisualStyle
  2
Dim
 70
    11
177
     2
291
     1
 71
     2
176
     1
 72
     2
176
     1
 73
     0
176
     1
 90
        0
176
     1
 40
-0.6
176
     1
 41
-30.0
176
     1
 62
     5
 63
     7
421
 16777215
176
     1
 74
     1
176
     1
 91
        4
176
     1
 64
     7
176
     1
 65
   257
176
     1
 75
     1
176
     1
175
     1
176
     1
 42
1.0
176
     1
 92
        8
176
     1
 66
     7
176
     1
 43
1.0
176
     1
 76
     1
176
     1
 77
     6
176
     1
 78
     2
176
     1
 67
     7
176
     1
 79
     5
176
     1
170
     0
176
     1
171
     0
176
     1
290
     0
176
     1
 93
        1
176
     1
 44
-50.0
176
     1
173
     0
176
     1
  0
VISUALSTYLE
  5
39
102
{ACAD_REACTORS
330
2A
102
}
330
2A
100
AcDbVisualStyle
  2
Facepattern
 70
    15
177
     2
291
     1
 71
     2
176
     1
 72
     2
176
     1
 73
     0
176
     1
 90
        0
176
     1
 40
-0.6
176
     1
 41
-30.0
176
     1
 62
     5
 63
     7
421
 16777215
176
     1
 74
     1
176
     1
 91
        4
176
     1
 64
     7
176
     1
 65
   257
176
     1
 75
     1
176
     1
175
     1
176
     1
 42
1.0
176
     1
 92
        8
176
     1
 66
     7
176
     1
 43
1.0
176
     1
 76
     1
176
     1
 77
     6
176
     1
 78
     2
176
     1
 67
     7
176
     1
 79
     5
176
     1
170
     0
176
     1
171
     0
176
     1
290
     0
176
     1
 93
        1
176
     1
 44
0.0
176
     1
173
     0
176
     1
  0
VISUALSTYLE
  5
2B
102
{ACAD_REACTORS
330
2A
102
}
330
2A
100
AcDbVisualStyle
  2
Flat
 70
     0
177
     2
291
     1
 71
     2
176
     1
 72
     1
176
     1
 73
     1
176
     1
 90
        2
176
     1
 40
-0.6
176
     1
 41
30.0
176
     1
 62
     5
 63
     7
421
 16777215
176
     1
 74
     0
176
     1
 91
        4
176
     1
 64
     7
176
     1
 65
   257
176
     1
 75
     1
176
     1
175
     1
176
     1
 42
1.0
176
     1
 92
        8
176
     1
 66
     7
176
     1
 43
1.0
176
     1
 76
     1
176
     1
 77
     6
176
     1
 78
     2
176
     1
 67
     7
176
     1
 79
     5
176
     1
170
     0
176
     1
171
     0
176
     1
290
     0
176
     1
 93
       13
176
     1
 44
0.0
176
     1
173
     0
176
     1
  0
VISUALSTYLE
  5
2C
102
{ACAD_REACTORS
330
2A
102
}
330
2A
100
AcDbVisualStyle
  2
FlatWithEdges
 70
     1
177
     2
291
     1
 71
     2
176
     1
 72
     1
176
     1
 73
     1
176
     1
 90
        2
176
     1
 40
-0.6
176
     1
 41
30.0
176
     1
 62
     5
 63
     7
421
 16777215
176
     1
 74
     1
176
     1
 91
        4
176
     1
 64
     7
176
     1
 65
   257
176
     1
 75
     1
176
     1
175
     1
176
     1
 42
1.0
176
     1
 92
        0
176
     1
 66
   257
176
     1
 43
1.0
176
     1
 76
     1
176
     1
 77
     6
176
     1
 78
     2
176
     1
 67
     7
176
     1
 79
     5
176
     1
170
     0
176
     1
171
     0
176
     1
290
     0
176
     1
 93
       13
176
     1
 44
0.0
176
     1
173
     0
176
     1
  0
VISUALSTYLE
  5
2D
102
{ACAD_REACTORS
330
2A
102
}
330
2A
100
AcDbVisualStyle
  2
Gouraud
 70
     2
177
     2
291
     1
 71
     2
176
     1
 72
     2
176
     1
 73
     1
176
     1
 90
        2
176
     1
 40
-0.6
176
     1
 41
30.0
176
     1
 62
     5
 63
     7
421
 16777215
176
     1
 74
     0
176
     1
 91
        4
176
     1
 64
     7
176
     1
 65
   257
176
     1
 75
     1
176
     1
175
     1
176
     1
 42
1.0
176
     1
 92
        0
176
     1
 66
     7
176
     1
 43
1.0
176
     1
 76
     1
176
     1
 77
     6
176
     1
 78
     2
176
     1
 67
     7
176
     1
 79
     5
176
     1
170
     0
176
     1
171
     0
176
     1
290
     0
176
     1
 93
       13
176
     1
 44
0.0
176
     1
173
     0
176
     1
  0
VISUALSTYLE
  5
2E
102
{ACAD_REACTORS
330
2A
102
}
330
2A
100
AcDbVisualStyle
  2
GouraudWithEdges
 70
     3
177
     2
291
     1
 71
     2
176
     1
 72
     2
176
     1
 73
     1
176
     1
 90
        2
176
     1
 40
-0.6
176
     1
 41
30.0
176
     1
 62
     5
 63
     7
421
 16777215
176
     1
 74
     1
176
     1
 91
        4
176
     1
 64
     7
176
     1
 65
   257
176
     1
 75
     1
176
     1
175
     1
176
     1
 42
1.0
176
     1
 92
        0
176
     1
 66
   257
176
     1
 43
1.0
176
     1
 76
     1
176
     1
 77
     6
176
     1
 78
     2
176
     1
 67
     7
176
     1
 79
     5
176
     1
170
     0
176
     1
171
     0
176
     1
290
     0
176
     1
 93
       13
176
     1
 44
0.0
176
     1
173
     0
176
     1
  0
VISUALSTYLE
  5
38
102
{ACAD_REACTORS
330
2A
102
}
330
2A
100
AcDbVisualStyle
  2
Linepattern
 70
    14
177
     2
291
     1
 71
     2
176
     1
 72
     2
176
     1
 73
     0
176
     1
 90
        0
176
     1
 40
-0.6
176
     1
 41
-30.0
176
     1
 62
     5
 63
     7
421
 16777215
176
     1
 74
     1
176
     1
 91
        4
176
     1
 64
     7
176
     1
 65
   257
176
     1
 75
     7
176
     1
175
     7
176
     1
 42
1.0
176
     1
 92
        8
176
     1
 66
     7
176
     1
 43
1.0
176
     1
 76
     1
176
     1
 77
     6
176
     1
 78
     2
176
     1
 67
     7
176
     1
 79
     5
176
     1
170
     0
176
     1
171
     0
176
     1
290
     0
176
     1
 93
        1
176
     1
 44
0.0
176
     1
173
     0
176
     1
  0
VISUALSTYLE
  5
33
102
{ACAD_REACTORS
330
2A
102
}
330
2A
100
AcDbVisualStyle
  2
Realistic
 70
     8
177
     2
291
     0
 71
     2
176
     1
 72
     2
176
     1
 73
     0
176
     1
 90
        0
176
     1
 40
-0.6
176
     1
 41
-30.0
176
     1
 62
     5
 63
     7
421
 16777215
176
     1
 74
     1
176
     1
 91
        0
176
     1
 64
     7
176
     1
 65
   257
176
     1
 75
     1
176
     1
175
     1
176
     1
 42
1.0
176
     1
 92
        8
176
     1
 66
     8
424
  7895160
176
     1
 43
1.0
176
     1
 76
     1
176
     1
 77
     6
176
     1
 78
     2
176
     1
 67
     7
176
     1
 79
     5
176
     1
170
     0
176
     1
171
     0
176
     1
290
     0
176
     1
 93
       13
176
     1
 44
0.0
176
     1
173
     0
176
     1
  0
VISUALSTYLE
  5
37
102
{ACAD_REACTORS
330
2A
102
}
330
2A
100
AcDbVisualStyle
  2
Thicken
 70
    13
177
     2
291
     1
 71
     2
176
     1
 72
     2
176
     1
 73
     0
176
     1
 90
        0
176
     1
 40
-0.6
176
     1
 41
-30.0
176
     1
 62
     5
 63
     7
421
 16777215
176
     1
 74
     1
176
     1
 91
        4
176
     1
 64
     7
176
     1
 65
   257
176
     1
 75
     1
176
     1
175
     1
176
     1
 42
1.0
176
     1
 92
       12
176
     1
 66
     7
176
     1
 43
1.0
176
     1
 76
     1
176
     1
 77
     6
176
     1
 78
     2
176
     1
 67
     7
176
     1
 79
     5
176
     1
170
     0
176
     1
171
     0
176
     1
290
     0
176
     1
 93
        1
176
     1
 44
0.0
176
     1
173
     0
176
     1
  0
ENDSEC
  0
EOF
