  0
SECTION
  2
HEADER
  9
$ACADVER
  1
AC1024
  9
$ACADMAINTVER
 70
     6
  9
$DWGCODEPAGE
  3
UNDEFINED
  9
$INSBASE
 10
0.0
 20
0.0
 30
0.0
  9
$EXTMIN
 10
1.000000000000000E+20
 20
1.000000000000000E+20
 30
1.000000000000000E+20
  9
$EXTMAX
 10
-1.000000000000000E+20
 20
-1.000000000000000E+20
 30
-1.000000000000000E+20
  9
$LIMMIN
 10
0.0
 20
0.0
  9
$LIMMAX
 10
12.0
 20
9.0
  9
$ORTHOMODE
 70
     0
  9
$REGENMODE
 70
     1
  9
$FILLMODE
 70
     1
  9
$QTEXTMODE
 70
     0
  9
$MIRRTEXT
 70
     1
  9
$LTSCALE
 40
1.0
  9
$ATTMODE
 70
     1
  9
$TEXTSIZE
 40
0.2
  9
$TRACEWID
 40
0.05
  9
$TEXTSTYLE
  7
Standard
  9
$CLAYER
  8
0
  9
$CELTYPE
  6
ByLayer
  9
$CECOLOR
 62
   256
  9
$CELTSCALE
 40
1.0
  9
$DISPSILH
 70
     0
  9
$DIMSCALE
 40
1.0
  9
$DIMASZ
 40
0.18
  9
$DIMEXO
 40
0.0625
  9
$DIMDLI
 40
0.38
  9
$DIMRND
 40
0.0
  9
$DIMDLE
 40
0.0
  9
$DIMEXE
 40
0.18
  9
$DIMTP
 40
0.0
  9
$DIMTM
 40
0.0
  9
$DIMTXT
 40
0.18
  9
$DIMCEN
 40
0.09
  9
$DIMTSZ
 40
0.0
  9
$DIMTOL
 70
     0
  9
$DIMLIM
 70
     0
  9
$DIMTIH
 70
     1
  9
$DIMTOH
 70
     1
  9
$DIMSE1
 70
     0
  9
$DIMSE2
 70
     0
  9
$DIMTAD
 70
     0
  9
$DIMZIN
 70
     0
  9
$DIMBLK
  1

  9
$DIMASO
 70
     1
  9
$DIMSHO
 70
     1
  9
$DIMPOST
  1

  9
$DIMAPOST
  1

  9
$DIMALT
 70
     0
  9
$DIMALTD
 70
     2
  9
$DIMALTF
 40
25.4
  9
$DIMLFAC
 40
1.0
  9
$DIMTOFL
 70
     0
  9
$DIMTVP
 40
0.0
  9
$DIMTIX
 70
     0
  9
$DIMSOXD
 70
     0
  9
$DIMSAH
 70
     0
  9
$DIMBLK1
  1

  9
$DIMBLK2
  1

  9
$DIMSTYLE
  2
Standard
  9
$DIMCLRD
 70
     0
  9
$DIMCLRE
 70
     0
  9
$DIMCLRT
 70
     0
  9
$DIMTFAC
 40
1.0
  9
$DIMGAP
 40
0.09
  9
$DIMJUST
 70
     0
  9
$DIMSD1
 70
     0
  9
$DIMSD2
 70
     0
  9
$DIMTOLJ
 70
     1
  9
$DIMTZIN
 70
     0
  9
$DIMALTZ
 70
     0
  9
$DIMALTTZ
 70
     0
  9
$DIMUPT
 70
     0
  9
$DIMDEC
 70
     4
  9
$DIMTDEC
 70
     4
  9
$DIMALTU
 70
     2
  9
$DIMALTTD
 70
     2
  9
$DIMTXSTY
  7
Standard
  9
$DIMAUNIT
 70
     0
  9
$DIMADEC
 70
     0
  9
$DIMALTRND
 40
0.0
  9
$DIMAZIN
 70
     0
  9
$DIMDSEP
 70
    46
  9
$DIMATFIT
 70
     3
  9
$DIMFRAC
 70
     0
  9
$DIMLDRBLK
  1

  9
$DIMLUNIT
 70
     2
  9
$DIMLWD
 70
    -2
  9
$DIMLWE
 70
    -2
  9
$DIMTMOVE
 70
     0
  9
$DIMFXL
 40
1.0
  9
$DIMFXLON
 70
     0
  9
$DIMJOGANG
 40
0.7853981633974483
  9
$DIMTFILL
 70
     0
  9
$DIMTFILLCLR
 70
     0
  9
$DIMARCSYM
 70
     0
  9
$DIMLTYPE
  6

  9
$DIMLTEX1
  6

  9
$DIMLTEX2
  6

  9
$DIMTXTDIRECTION
 70
     0
  9
$LUNITS
 70
     2
  9
$LUPREC
 70
     4
  9
$SKETCHINC
 40
0.1
  9
$FILLETRAD
 40
0.5
  9
$AUNITS
 70
     0
  9
$AUPREC
 70
     0
  9
$MENU
  1
.
  9
$ELEVATION
 40
0.0
  9
$PELEVATION
 40
0.0
  9
$THICKNESS
 40
0.0
  9
$LIMCHECK
 70
     0
  9
$CHAMFERA
 40
0.5
  9
$CHAMFERB
 40
0.5
  9
$CHAMFERC
 40
1.0
  9
$CHAMFERD
 40
0.0
  9
$SKPOLY
 70
     0
  9
$TDCREATE
 40
2457917.586689815
  9
$TDUCREATE
 40
2457917.211689815
  9
$TDUPDATE
 40
2457917.586689815
  9
$TDUUPDATE
 40
2457917.211689815
  9
$TDINDWG
 40
0.0000000116
  9
$TDUSRTIMER
 40
0.0000000116
  9
$USRTIMER
 70
     1
  9
$ANGBASE
 50
0.0
  9
$ANGDIR
 70
     0
  9
$PDMODE
 70
     0
  9
$PDSIZE
 40
0.0
  9
$PLINEWID
 40
0.0
  9
$SPLFRAME
 70
     0
  9
$SPLINETYPE
 70
     6
  9
$SPLINESEGS
 70
     8
  9
$HANDSEED
  5
111
  9
$SURFTAB1
 70
     6
  9
$SURFTAB2
 70
     6
  9
$SURFTYPE
 70
     6
  9
$SURFU
 70
     6
  9
$SURFV
 70
     6
  9
$UCSBASE
  2

  9
$UCSNAME
  2

  9
$UCSORG
 10
0.0
 20
0.0
 30
0.0
  9
$UCSXDIR
 10
1.0
 20
0.0
 30
0.0
  9
$UCSYDIR
 10
0.0
 20
1.0
 30
0.0
  9
$UCSORTHOREF
  2

  9
$UCSORTHOVIEW
 70
     0
  9
$UCSORGTOP
 10
0.0
 20
0.0
 30
0.0
  9
$UCSORGBOTTOM
 10
0.0
 20
0.0
 30
0.0
  9
$UCSORGLEFT
 10
0.0
 20
0.0
 30
0.0
  9
$UCSORGRIGHT
 10
0.0
 20
0.0
 30
0.0
  9
$UCSORGFRONT
 10
0.0
 20
0.0
 30
0.0
  9
$UCSORGBACK
 10
0.0
 20
0.0
 30
0.0
  9
$PUCSBASE
  2

  9
$PUCSNAME
  2

  9
$PUCSORG
 10
0.0
 20
0.0
 30
0.0
  9
$PUCSXDIR
 10
1.0
 20
0.0
 30
0.0
  9
$PUCSYDIR
 10
0.0
 20
1.0
 30
0.0
  9
$PUCSORTHOREF
  2

  9
$PUCSORTHOVIEW
 70
     0
  9
$PUCSORGTOP
 10
0.0
 20
0.0
 30
0.0
  9
$PUCSORGBOTTOM
 10
0.0
 20
0.0
 30
0.0
  9
$PUCSORGLEFT
 10
0.0
 20
0.0
 30
0.0
  9
$PUCSORGRIGHT
 10
0.0
 20
0.0
 30
0.0
  9
$PUCSORGFRONT
 10
0.0
 20
0.0
 30
0.0
  9
$PUCSORGBACK
 10
0.0
 20
0.0
 30
0.0
  9
$USERI1
 70
     0
  9
$USERI2
 70
     0
  9
$USERI3
 70
     0
  9
$USERI4
 70
     0
  9
$USERI5
 70
     0
  9
$USERR1
 40
0.0
  9
$USERR2
 40
0.0
  9
$USERR3
 40
0.0
  9
$USERR4
 40
0.0
  9
$USERR5
 40
0.0
  9
$WORLDVIEW
 70
     1
  9
$SHADEDGE
 70
     3
  9
$SHADEDIF
 70
    70
  9
$TILEMODE
 70
     1
  9
$MAXACTVP
 70
    64
  9
$PINSBASE
 10
0.0
 20
0.0
 30
0.0
  9
$PLIMCHECK
 70
     0
  9
$PEXTMIN
 10
1.000000000000000E+20
 20
1.000000000000000E+20
 30
1.000000000000000E+20
  9
$PEXTMAX
 10
-1.000000000000000E+20
 20
-1.000000000000000E+20
 30
-1.000000000000000E+20
  9
$PLIMMIN
 10
0.0
 20
0.0
  9
$PLIMMAX
 10
12.0
 20
9.0
  9
$UNITMODE
 70
     0
  9
$VISRETAIN
 70
     1
  9
$PLINEGEN
 70
     0
  9
$PSLTSCALE
 70
     1
  9
$TREEDEPTH
 70
  3020
  9
$CMLSTYLE
  2
Standard
  9
$CMLJUST
 70
     0
  9
$CMLSCALE
 40
1.0
  9
$PROXYGRAPHICS
 70
     1
  9
$MEASUREMENT
 70
     0
  9
$CELWEIGHT
370
    -1
  9
$ENDCAPS
280
     0
  9
$JOINSTYLE
280
     0
  9
$LWDISPLAY
290
     1
  9
$INSUNITS
 70
     1
  9
$HYPERLINKBASE
  1

  9
$STYLESHEET
  1

  9
$XEDIT
290
     1
  9
$CEPSNTYPE
380
     0
  9
$PSTYLEMODE
290
     1
  9
$FINGERPRINTGUID
  2
{5C8FEE39-D1E3-D221-022C-53B22D930A0A}
  9
$VERSIONGUID
  2
{FAEB1C32-E019-11D5-929B-00C0DF256EC4}
  9
$EXTNAMES
290
     1
  9
$PSVPSCALE
 40
0.0
  9
$OLESTARTUP
290
     0
  9
$SORTENTS
280
   127
  9
$INDEXCTL
280
     0
  9
$HIDETEXT
280
     1
  9
$XCLIPFRAME
280
     2
  9
$HALOGAP
280
     0
  9
$OBSCOLOR
 70
   257
  9
$OBSLTYPE
280
     0
  9
$INTERSECTIONDISPLAY
280
     0
  9
$INTERSECTIONCOLOR
 70
   257
  9
$DIMASSOC
280
     2
  9
$PROJECTNAME
  1

  9
$CAMERADISPLAY
290
     0
  9
$LENSLENGTH
 40
50.0
  9
$CAMERAHEIGHT
 40
0.0
  9
$STEPSPERSEC
 40
2.0
  9
$STEPSIZE
 40
6.0
  9
$3DDWFPREC
 40
2.0
  9
$PSOLWIDTH
 40
0.25
  9
$PSOLHEIGHT
 40
4.0
  9
$LOFTANG1
 40
1.570796326794897
  9
$LOFTANG2
 40
1.570796326794897
  9
$LOFTMAG1
 40
0.0
  9
$LOFTMAG2
 40
0.0
  9
$LOFTPARAM
 70
     7
  9
$LOFTNORMALS
280
     1
  9
$LATITUDE
 40
37.795
  9
$LONGITUDE
 40
-122.394
  9
$NORTHDIRECTION
 40
0.0
  9
$TIMEZONE
 70
 -8000
  9
$LIGHTGLYPHDISPLAY
280
     1
  9
$TILEMODELIGHTSYNCH
280
     1
  9
$CMATERIAL
347
3C
  9
$SOLIDHIST
280
     1
  9
$SHOWHIST
280
     1
  9
$DWFFRAME
280
     2
  9
$DGNFRAME
280
     2
  9
$REALWORLDSCALE
290
     1
  9
$INTERFERECOLOR
 62
   256
  9
$CSHADOW
280
     0
  9
$SHADOWPLANELOCATION
 40
0.0
  0
ENDSEC
  0
SECTION
  2
CLASSES
  0
CLASS
  1
ACDBDICTIONARYWDFLT
  2
AcDbDictionaryWithDefault
  3
ObjectDBX Classes
 90
        0
 91
        4
280
     0
281
     0
  0
CLASS
  1
VISUALSTYLE
  2
AcDbVisualStyle
  3
ObjectDBX Classes
 90
     4095
 91
        4
280
     0
281
     0
  0
CLASS
  1
MATERIAL
  2
AcDbMaterial
  3
ObjectDBX Classes
 90
     1153
 91
        4
280
     0
281
     0
  0
CLASS
  1
SUN
  2
AcDbSun
  3
SCENEOE
 90
     1024
 91
        4
280
     0
281
     0
  0
ENDSEC
  0
SECTION
  2
TABLES
  0
TABLE
  2
VPORT
  5
8
330
0
100
AcDbSymbolTable
 70
     1
  0
VPORT
  5
29
330
8
100
AcDbSymbolTableRecord
100
AcDbViewportTableRecord
  2
*Active
 70
     0
 10
0.0
 20
0.0
 11
1.0
 21
1.0
 12
0.0
 22
0.0
 13
0.0
 23
0.0
 14
0.5
 24
0.5
 15
0.5
 25
0.5
 16
0.0
 26
0.0
 36
1.0
 17
105.0008280156501
 27
-148.4999710739862
 37
0.0
 40
296.9999421479724
 41
0.7070764206636528
 42
50.0
 43
0.0
 44
0.0
 50
0.0
 51
0.0
 71
     0
 72
   100
 73
     1
 74
     3
 75
     0
 76
     0
 77
     0
 78
     0
281
     0
 65
     1
110
0.0
120
0.0
130
0.0
111
1.0
121
0.0
131
0.0
112
0.0
122
1.0
132
0.0
 79
     0
146
0.0
 60
     3
 61
     5
292
     1
282
     1
141
0.0
142
0.0
 63
   250
361
3F
  0
ENDTAB
  0
TABLE
  2
LTYPE
  5
5
330
0
100
AcDbSymbolTable
 70
     1
  0
LTYPE
  5
14
330
5
100
AcDbSymbolTableRecord
100
AcDbLinetypeTableRecord
  2
ByBlock
 70
     0
  3

 72
    65
 73
     0
 40
0.0
  0
LTYPE
  5
15
330
5
100
AcDbSymbolTableRecord
100
AcDbLinetypeTableRecord
  2
ByLayer
 70
     0
  3

 72
    65
 73
     0
 40
0.0
  0
LTYPE
  5
16
330
5
100
AcDbSymbolTableRecord
100
AcDbLinetypeTableRecord
  2
Continuous
 70
     0
  3
Solid line
 72
    65
 73
     0
 40
0.0
  0
ENDTAB
  0
TABLE
  2
LAYER
  5
2
330
0
100
AcDbSymbolTable
 70
     2
  0
LAYER
  5
10
330
2
100
AcDbSymbolTableRecord
100
AcDbLayerTableRecord
  2
0
 70
     0
 62
     7
  6
Continuous
370
    -3
390
F
347
3E
  0
LAYER
  5
40
330
2
100
AcDbSymbolTableRecord
100
AcDbLayerTableRecord
  2
_U+30EC_U+30A4_U+30E4_U+30FC 1
 70
     0
 62
     7
  6
Continuous
370
    -3
390
F
347
3E
  0
ENDTAB
  0
TABLE
  2
STYLE
  5
3
330
0
100
AcDbSymbolTable
 70
     1
  0
STYLE
  5
11
330
3
100
AcDbSymbolTableRecord
100
AcDbTextStyleTableRecord
  2
Standard
 70
     0
 40
0.0
 41
1.0
 50
0.0
 71
     0
 42
0.2
  3
txt
  4

  0
ENDTAB
  0
TABLE
  2
VIEW
  5
6
330
0
100
AcDbSymbolTable
 70
     0
  0
ENDTAB
  0
TABLE
  2
UCS
  5
7
330
0
100
AcDbSymbolTable
 70
     0
  0
ENDTAB
  0
TABLE
  2
APPID
  5
9
330
0
100
AcDbSymbolTable
 70
     1
  0
APPID
  5
12
330
9
100
AcDbSymbolTableRecord
100
AcDbRegAppTableRecord
  2
ACAD
 70
     0
  0
ENDTAB
  0
TABLE
  2
DIMSTYLE
  5
A
330
0
100
AcDbSymbolTable
 70
     1
100
AcDbDimStyleTable
  0
DIMSTYLE
105
27
330
A
100
AcDbSymbolTableRecord
100
AcDbDimStyleTableRecord
  2
Standard
 70
     0
178
     0
340
11
  0
ENDTAB
  0
TABLE
  2
BLOCK_RECORD
  5
1
330
0
100
AcDbSymbolTable
 70
     8
  0
BLOCK_RECORD
  5
1F
330
1
100
AcDbSymbolTableRecord
100
AcDbBlockTableRecord
  2
*Model_Space
340
22
 70
     0
280
     1
281
     0
  0
BLOCK_RECORD
  5
1B
330
1
100
AcDbSymbolTableRecord
100
AcDbBlockTableRecord
  2
*Paper_Space
340
1E
 70
     0
280
     1
281
     0
  0
BLOCK_RECORD
  5
23
330
1
100
AcDbSymbolTableRecord
100
AcDbBlockTableRecord
  2
*Paper_Space0
340
26
 70
     0
280
     1
281
     0
  0
BLOCK_RECORD
  5
41
330
1
100
AcDbSymbolTableRecord
100
AcDbBlockTableRecord
  2
block 2
340
0
102
{BLKREFS
331
42
102
}
 70
     0
280
     1
281
     0
  0
BLOCK_RECORD
  5
96
330
1
100
AcDbSymbolTableRecord
100
AcDbBlockTableRecord
  2
block 3
340
0
102
{BLKREFS
331
97
102
}
 70
     0
280
     1
281
     0
  0
BLOCK_RECORD
  5
A8
330
1
100
AcDbSymbolTableRecord
100
AcDbBlockTableRecord
  2
block 4
340
0
102
{BLKREFS
331
A9
102
}
 70
     0
280
     1
281
     0
  0
BLOCK_RECORD
  5
B9
330
1
100
AcDbSymbolTableRecord
100
AcDbBlockTableRecord
  2
block 5
340
0
102
{BLKREFS
331
BA
102
}
 70
     0
280
     1
281
     0
  0
BLOCK_RECORD
  5
D0
330
1
100
AcDbSymbolTableRecord
100
AcDbBlockTableRecord
  2
block 6
340
0
102
{BLKREFS
331
D1
102
}
 70
     0
280
     1
281
     0
  0
BLOCK_RECORD
  5
ED
330
1
100
AcDbSymbolTableRecord
100
AcDbBlockTableRecord
  2
block 7
340
0
102
{BLKREFS
331
EE
102
}
 70
     0
280
     1
281
     0
  0
BLOCK_RECORD
  5
FE
330
1
100
AcDbSymbolTableRecord
100
AcDbBlockTableRecord
  2
block 8
340
0
102
{BLKREFS
331
FF
102
}
 70
     0
280
     1
281
     0
  0
ENDTAB
  0
ENDSEC
  0
SECTION
  2
BLOCKS
  0
BLOCK
  5
20
330
1F
100
AcDbEntity
  8
0
100
AcDbBlockBegin
  2
*Model_Space
 70
     0
 10
0.0
 20
0.0
 30
0.0
  3
*Model_Space
  1

  0
ENDBLK
  5
21
330
1F
100
AcDbEntity
  8
0
100
AcDbBlockEnd
  0
BLOCK
  5
1C
330
1B
100
AcDbEntity
 67
     1
  8
0
100
AcDbBlockBegin
  2
*Paper_Space
 70
     0
 10
0.0
 20
0.0
 30
0.0
  3
*Paper_Space
  1

  0
ENDBLK
  5
1D
330
1B
100
AcDbEntity
 67
     1
  8
0
100
AcDbBlockEnd
  0
BLOCK
  5
24
330
23
100
AcDbEntity
  8
0
100
AcDbBlockBegin
  2
*Paper_Space0
 70
     0
 10
0.0
 20
0.0
 30
0.0
  3
*Paper_Space0
  1

  0
ENDBLK
  5
25
330
23
100
AcDbEntity
  8
0
100
AcDbBlockEnd
  0
BLOCK
  5
43
330
41
100
AcDbEntity
  8
0
100
AcDbBlockBegin
  2
block 2
 70
     0
 10
0.0
 20
0.0
 30
0.0
  3
block 2
  1

  0
POLYLINE
  5
45
330
41
100
AcDbEntity
  8
_U+30EC_U+30A4_U+30E4_U+30FC 1
 62
   179
420
  2234388
370
    25
100
AcDb2dPolyline
 66
     1
 10
0.0
 20
0.0
 30
0.0
  0
VERTEX
  5
46
330
45
100
AcDbEntity
  8
_U+30EC_U+30A4_U+30E4_U+30FC 1
 62
   179
420
  2234388
370
    25
100
AcDbVertex
100
AcDb2dVertex
 10
87.78084553830183
 20
-145.4640007969672
 30
0.0
  0
VERTEX
  5
47
330
45
100
AcDbEntity
  8
_U+30EC_U+30A4_U+30E4_U+30FC 1
 62
   179
420
  2234388
370
    25
100
AcDbVertex
100
AcDb2dVertex
 10
94.78076785971894
 20
-145.4640007969672
 30
0.0
  0
SEQEND
  5
48
330
45
100
AcDbEntity
  8
_U+30EC_U+30A4_U+30E4_U+30FC 1
 62
   179
420
  2234388
370
    25
  0
POLYLINE
  5
49
330
41
100
AcDbEntity
  8
_U+30EC_U+30A4_U+30E4_U+30FC 1
 62
   179
420
  2234388
370
    25
100
AcDb2dPolyline
 66
     1
 10
0.0
 20
0.0
 30
0.0
  0
VERTEX
  5
4A
330
49
100
AcDbEntity
  8
_U+30EC_U+30A4_U+30E4_U+30FC 1
 62
   179
420
  2234388
370
    25
100
AcDbVertex
100
AcDb2dVertex
 10
96.78084141980392
 20
-146.4637730189395
 30
0.0
  0
VERTEX
  5
4B
330
49
100
AcDbEntity
  8
_U+30EC_U+30A4_U+30E4_U+30FC 1
 62
   179
420
  2234388
370
    25
100
AcDbVertex
100
AcDb2dVertex
 10
117.7809258840471
 20
-146.4637730189395
 30
0.0
  0
SEQEND
  5
4C
330
49
100
AcDbEntity
  8
_U+30EC_U+30A4_U+30E4_U+30FC 1
 62
   179
420
  2234388
370
    25
  0
POLYLINE
  5
4D
330
41
100
AcDbEntity
  8
_U+30EC_U+30A4_U+30E4_U+30FC 1
 62
   179
420
  2234388
370
    25
100
AcDb2dPolyline
 66
     1
 10
0.0
 20
0.0
 30
0.0
  0
VERTEX
  5
4E
330
4D
100
AcDbEntity
  8
_U+30EC_U+30A4_U+30E4_U+30FC 1
 62
   179
420
  2234388
370
    25
100
AcDbVertex
100
AcDb2dVertex
 10
93.78081927411864
 20
-146.4637730189395
 30
0.0
  0
VERTEX
  5
4F
330
4D
100
AcDbEntity
  8
_U+30EC_U+30A4_U+30E4_U+30FC 1
 62
   179
420
  2234388
370
    25
100
AcDbVertex
100
AcDb2dVertex
 10
93.78081927411864
 20
-153.9637227392869
 30
0.0
  0
SEQEND
  5
50
330
4D
100
AcDbEntity
  8
_U+30EC_U+30A4_U+30E4_U+30FC 1
 62
   179
420
  2234388
370
    25
  0
POLYLINE
  5
51
330
41
100
AcDbEntity
  8
_U+30EC_U+30A4_U+30E4_U+30FC 1
 62
   179
420
  2234388
370
    25
100
AcDb2dPolyline
 66
     1
 10
0.0
 20
0.0
 30
0.0
  0
VERTEX
  5
52
330
51
100
AcDbEntity
  8
_U+30EC_U+30A4_U+30E4_U+30FC 1
 62
   179
420
  2234388
370
    25
100
AcDbVertex
100
AcDb2dVertex
 10
103.7809048523285
 20
-152.9639505173143
 30
0.0
  0
VERTEX
  5
53
330
51
100
AcDbEntity
  8
_U+30EC_U+30A4_U+30E4_U+30FC 1
 62
   179
420
  2234388
370
    25
100
AcDbVertex
100
AcDb2dVertex
 10
103.7809048523285
 20
-153.4634838505232
 30
0.0
  0
SEQEND
  5
54
330
51
100
AcDbEntity
  8
_U+30EC_U+30A4_U+30E4_U+30FC 1
 62
   179
420
  2234388
370
    25
  0
POLYLINE
  5
55
330
41
100
AcDbEntity
  8
_U+30EC_U+30A4_U+30E4_U+30FC 1
 62
   179
420
  2234388
370
    25
100
AcDb2dPolyline
 66
     1
 10
0.0
 20
0.0
 30
0.0
  0
VERTEX
  5
56
330
55
100
AcDbEntity
  8
_U+30EC_U+30A4_U+30E4_U+30FC 1
 62
   179
420
  2234388
370
    25
100
AcDbVertex
100
AcDb2dVertex
 10
96.78084141980392
 20
-152.9639505173143
 30
0.0
  0
VERTEX
  5
57
330
55
100
AcDbEntity
  8
_U+30EC_U+30A4_U+30E4_U+30FC 1
 62
   179
420
  2234388
370
    25
100
AcDbVertex
100
AcDb2dVertex
 10
103.7809048523285
 20
-152.9639505173143
 30
0.0
  0
SEQEND
  5
58
330
55
100
AcDbEntity
  8
_U+30EC_U+30A4_U+30E4_U+30FC 1
 62
   179
420
  2234388
370
    25
  0
POLYLINE
  5
59
330
41
100
AcDbEntity
  8
_U+30EC_U+30A4_U+30E4_U+30FC 1
 62
   179
420
  2234388
370
    25
100
AcDb2dPolyline
 66
     1
 10
0.0
 20
0.0
 30
0.0
  0
VERTEX
  5
5A
330
59
100
AcDbEntity
  8
_U+30EC_U+30A4_U+30E4_U+30FC 1
 62
   179
420
  2234388
370
    25
100
AcDbVertex
100
AcDb2dVertex
 10
95.78071644531924
 20
-145.4640007969672
 30
0.0
  0
VERTEX
  5
5B
330
59
100
AcDbEntity
  8
_U+30EC_U+30A4_U+30E4_U+30FC 1
 62
   179
420
  2234388
370
    25
100
AcDbVertex
100
AcDb2dVertex
 10
117.7809258840471
 20
-145.4640007969672
 30
0.0
  0
SEQEND
  5
5C
330
59
100
AcDbEntity
  8
_U+30EC_U+30A4_U+30E4_U+30FC 1
 62
   179
420
  2234388
370
    25
  0
POLYLINE
  5
5D
330
41
100
AcDbEntity
  8
_U+30EC_U+30A4_U+30E4_U+30FC 1
 62
   179
420
  2234388
370
    25
100
AcDb2dPolyline
 66
     1
 10
0.0
 20
0.0
 30
0.0
  0
VERTEX
  5
5E
330
5D
100
AcDbEntity
  8
_U+30EC_U+30A4_U+30E4_U+30FC 1
 62
   179
420
  2234388
370
    25
100
AcDbVertex
100
AcDb2dVertex
 10
94.78076785971894
 20
-145.4640007969672
 30
0.0
  0
VERTEX
  5
5F
330
5D
100
AcDbEntity
  8
_U+30EC_U+30A4_U+30E4_U+30FC 1
 62
   179
420
  2234388
370
    25
100
AcDbVertex
100
AcDb2dVertex
 10
94.78076785971894
 20
-152.9639505173143
 30
0.0
  0
SEQEND
  5
60
330
5D
100
AcDbEntity
  8
_U+30EC_U+30A4_U+30E4_U+30FC 1
 62
   179
420
  2234388
370
    25
  0
POLYLINE
  5
61
330
41
100
AcDbEntity
  8
_U+30EC_U+30A4_U+30E4_U+30FC 1
 62
   179
420
  2234388
370
    25
100
AcDb2dPolyline
 66
     1
 10
0.0
 20
0.0
 30
0.0
  0
VERTEX
  5
62
330
61
100
AcDbEntity
  8
_U+30EC_U+30A4_U+30E4_U+30FC 1
 62
   179
420
  2234388
370
    25
100
AcDbVertex
100
AcDb2dVertex
 10
95.78071644531924
 20
-145.4640007969672
 30
0.0
  0
VERTEX
  5
63
330
61
100
AcDbEntity
  8
_U+30EC_U+30A4_U+30E4_U+30FC 1
 62
   179
420
  2234388
370
    25
100
AcDbVertex
100
AcDb2dVertex
 10
95.78071644531924
 20
-152.9639505173143
 30
0.0
  0
SEQEND
  5
64
330
61
100
AcDbEntity
  8
_U+30EC_U+30A4_U+30E4_U+30FC 1
 62
   179
420
  2234388
370
    25
  0
POLYLINE
  5
65
330
41
100
AcDbEntity
  8
_U+30EC_U+30A4_U+30E4_U+30FC 1
 62
   179
420
  2234388
370
    25
100
AcDb2dPolyline
 66
     1
 10
0.0
 20
0.0
 30
0.0
  0
VERTEX
  5
66
330
65
100
AcDbEntity
  8
_U+30EC_U+30A4_U+30E4_U+30FC 1
 62
   179
420
  2234388
370
    25
100
AcDbVertex
100
AcDb2dVertex
 10
96.78084141980392
 20
-146.4637730189395
 30
0.0
  0
VERTEX
  5
67
330
65
100
AcDbEntity
  8
_U+30EC_U+30A4_U+30E4_U+30FC 1
 62
   179
420
  2234388
370
    25
100
AcDbVertex
100
AcDb2dVertex
 10
96.78084141980392
 20
-152.9639505173143
 30
0.0
  0
SEQEND
  5
68
330
65
100
AcDbEntity
  8
_U+30EC_U+30A4_U+30E4_U+30FC 1
 62
   179
420
  2234388
370
    25
  0
POLYLINE
  5
69
330
41
100
AcDbEntity
  8
_U+30EC_U+30A4_U+30E4_U+30FC 1
 62
   179
420
  2234388
370
    25
100
AcDb2dPolyline
 66
     1
 10
0.0
 20
0.0
 30
0.0
  0
VERTEX
  5
6A
330
69
100
AcDbEntity
  8
_U+30EC_U+30A4_U+30E4_U+30FC 1
 62
   179
420
  2234388
370
    25
100
AcDbVertex
100
AcDb2dVertex
 10
94.78076785971894
 20
-152.9639505173143
 30
0.0
  0
VERTEX
  5
6B
330
69
100
AcDbEntity
  8
_U+30EC_U+30A4_U+30E4_U+30FC 1
 62
   179
420
  2234388
370
    25
100
AcDbVertex
100
AcDb2dVertex
 10
95.78071644531924
 20
-152.9639505173143
 30
0.0
  0
SEQEND
  5
6C
330
69
100
AcDbEntity
  8
_U+30EC_U+30A4_U+30E4_U+30FC 1
 62
   179
420
  2234388
370
    25
  0
POLYLINE
  5
6D
330
41
100
AcDbEntity
  8
_U+30EC_U+30A4_U+30E4_U+30FC 1
 62
   179
420
  2234388
370
    25
100
AcDb2dPolyline
 66
     1
 10
0.0
 20
0.0
 30
0.0
  0
VERTEX
  5
6E
330
6D
100
AcDbEntity
  8
_U+30EC_U+30A4_U+30E4_U+30FC 1
 62
   179
420
  2234388
370
    25
100
AcDbVertex
100
AcDb2dVertex
 10
87.78084553830183
 20
-145.4640007969672
 30
0.0
  0
VERTEX
  5
6F
330
6D
100
AcDbEntity
  8
_U+30EC_U+30A4_U+30E4_U+30FC 1
 62
   179
420
  2234388
370
    25
100
AcDbVertex
100
AcDb2dVertex
 10
87.78084553830183
 20
-146.4637730189395
 30
0.0
  0
SEQEND
  5
70
330
6D
100
AcDbEntity
  8
_U+30EC_U+30A4_U+30E4_U+30FC 1
 62
   179
420
  2234388
370
    25
  0
POLYLINE
  5
71
330
41
100
AcDbEntity
  8
_U+30EC_U+30A4_U+30E4_U+30FC 1
 62
   179
420
  2234388
370
    25
100
AcDb2dPolyline
 66
     1
 10
0.0
 20
0.0
 30
0.0
  0
VERTEX
  5
72
330
71
100
AcDbEntity
  8
_U+30EC_U+30A4_U+30E4_U+30FC 1
 62
   179
420
  2234388
370
    25
100
AcDbVertex
100
AcDb2dVertex
 10
87.78084553830183
 20
-146.4637730189395
 30
0.0
  0
VERTEX
  5
73
330
71
100
AcDbEntity
  8
_U+30EC_U+30A4_U+30E4_U+30FC 1
 62
   179
420
  2234388
370
    25
100
AcDbVertex
100
AcDb2dVertex
 10
93.78081927411864
 20
-146.4637730189395
 30
0.0
  0
SEQEND
  5
74
330
71
100
AcDbEntity
  8
_U+30EC_U+30A4_U+30E4_U+30FC 1
 62
   179
420
  2234388
370
    25
  0
POLYLINE
  5
75
330
41
100
AcDbEntity
  8
_U+30EC_U+30A4_U+30E4_U+30FC 1
 62
   179
420
  2234388
370
    25
100
AcDb2dPolyline
 66
     1
 10
0.0
 20
0.0
 30
0.0
  0
VERTEX
  5
76
330
75
100
AcDbEntity
  8
_U+30EC_U+30A4_U+30E4_U+30FC 1
 62
   179
420
  2234388
370
    25
100
AcDbVertex
100
AcDb2dVertex
 10
93.78081927411864
 20
-153.9637227392869
 30
0.0
  0
VERTEX
  5
77
330
75
100
AcDbEntity
  8
_U+30EC_U+30A4_U+30E4_U+30FC 1
 62
   179
420
  2234388
370
    25
100
AcDbVertex
100
AcDb2dVertex
 10
103.7809048523285
 20
-153.4634838505232
 30
0.0
  0
SEQEND
  5
78
330
75
100
AcDbEntity
  8
_U+30EC_U+30A4_U+30E4_U+30FC 1
 62
   179
420
  2234388
370
    25
  0
POLYLINE
  5
79
330
41
100
AcDbEntity
  8
_U+30EC_U+30A4_U+30E4_U+30FC 1
 62
   179
420
  2234388
370
    25
100
AcDb2dPolyline
 66
     1
 10
0.0
 20
0.0
 30
0.0
  0
VERTEX
  5
7A
330
79
100
AcDbEntity
  8
_U+30EC_U+30A4_U+30E4_U+30FC 1
 62
   179
420
  2234388
370
    25
100
AcDbVertex
100
AcDb2dVertex
 10
117.7809258840471
 20
-145.4640007969672
 30
0.0
  0
VERTEX
  5
7B
330
79
100
AcDbEntity
  8
_U+30EC_U+30A4_U+30E4_U+30FC 1
 62
   179
420
  2234388
370
    25
100
AcDbVertex
100
AcDb2dVertex
 10
117.7809258840471
 20
-146.4637730189395
 30
0.0
  0
SEQEND
  5
7C
330
79
100
AcDbEntity
  8
_U+30EC_U+30A4_U+30E4_U+30FC 1
 62
   179
420
  2234388
370
    25
  0
SPLINE
  5
7D
330
41
100
AcDbEntity
  8
_U+30EC_U+30A4_U+30E4_U+30FC 1
 62
   179
420
  2234388
370
     9
100
AcDbSpline
210
0.0
220
0.0
230
1.0
 70
    11
 71
     3
 72
    17
 73
    13
 74
     0
 42
0.0000000001
 43
0.0000000001
 12
1.0
 22
0.0
 32
0.0
 13
1.0
 23
0.0
 33
0.0
 40
0.0
 40
0.0
 40
0.0
 40
0.0
 40
1.0
 40
1.0
 40
1.0
 40
2.0
 40
2.0
 40
2.0
 40
3.0
 40
3.0
 40
3.0
 40
4.0
 40
4.0
 40
4.0
 40
4.0
 10
121.8805916127893
 20
-145.4640007969672
 30
0.0
 10
121.8805916127893
 20
-145.4081913525368
 30
0.0
 10
121.8357888361545
 20
-145.3633885747704
 30
0.0
 10
121.7806849486714
 20
-145.3633885747704
 30
0.0
 10
121.7255457834115
 20
-145.3633885747704
 30
0.0
 10
121.6807782845536
 20
-145.4081913525368
 30
0.0
 10
121.6807782845536
 20
-145.4640007969672
 30
0.0
 10
121.6807782845536
 20
-145.5191046858425
 30
0.0
 10
121.7255457834115
 20
-145.5639074636092
 30
0.0
 10
121.7806849486714
 20
-145.5639074636092
 30
0.0
 10
121.8357888361545
 20
-145.5639074636092
 30
0.0
 10
121.8805916127893
 20
-145.5191046858425
 30
0.0
 10
121.8805916127893
 20
-145.4640007969672
 30
0.0
  0
SPLINE
  5
7E
330
41
100
AcDbEntity
  8
_U+30EC_U+30A4_U+30E4_U+30FC 1
 62
   179
420
  2234388
370
     9
100
AcDbSpline
210
0.0
220
0.0
230
1.0
 70
    11
 71
     3
 72
    17
 73
    13
 74
     0
 42
0.0000000001
 43
0.0000000001
 12
1.0
 22
0.0
 32
0.0
 13
1.0
 23
0.0
 33
0.0
 40
0.0
 40
0.0
 40
0.0
 40
0.0
 40
1.0
 40
1.0
 40
1.0
 40
2.0
 40
2.0
 40
2.0
 40
3.0
 40
3.0
 40
3.0
 40
4.0
 40
4.0
 40
4.0
 40
4.0
 10
121.8805916127893
 20
-146.4637730189395
 30
0.0
 10
121.8805916127893
 20
-146.4086338522867
 30
0.0
 10
121.8357888361545
 20
-146.3638310745203
 30
0.0
 10
121.7806849486714
 20
-146.3638310745203
 30
0.0
 10
121.7255457834115
 20
-146.3638310745203
 30
0.0
 10
121.6807782845536
 20
-146.4086338522867
 30
0.0
 10
121.6807782845536
 20
-146.4637730189395
 30
0.0
 10
121.6807782845536
 20
-146.5188769078147
 30
0.0
 10
121.7255457834115
 20
-146.5636796855814
 30
0.0
 10
121.7806849486714
 20
-146.5636796855814
 30
0.0
 10
121.8357888361545
 20
-146.5636796855814
 30
0.0
 10
121.8805916127893
 20
-146.5188769078147
 30
0.0
 10
121.8805916127893
 20
-146.4637730189395
 30
0.0
  0
SPLINE
  5
7F
330
41
100
AcDbEntity
  8
_U+30EC_U+30A4_U+30E4_U+30FC 1
 62
   179
420
  2234388
370
     9
100
AcDbSpline
210
0.0
220
0.0
230
1.0
 70
    11
 71
     3
 72
    17
 73
    13
 74
     0
 42
0.0000000001
 43
0.0000000001
 12
1.0
 22
0.0
 32
0.0
 13
1.0
 23
0.0
 33
0.0
 40
0.0
 40
0.0
 40
0.0
 40
0.0
 40
1.0
 40
1.0
 40
1.0
 40
2.0
 40
2.0
 40
2.0
 40
3.0
 40
3.0
 40
3.0
 40
4.0
 40
4.0
 40
4.0
 40
4.0
 10
103.8808115164464
 20
-157.9634819049538
 30
0.0
 10
103.8808115164464
 20
-157.9083780160782
 30
0.0
 10
103.8360440175885
 20
-157.8635752383121
 30
0.0
 10
103.7809048523285
 20
-157.8635752383121
 30
0.0
 10
103.7258009648455
 20
-157.8635752383121
 30
0.0
 10
103.6809981882107
 20
-157.9083780160782
 30
0.0
 10
103.6809981882107
 20
-157.9634819049538
 30
0.0
 10
103.6809981882107
 20
-158.0186210716062
 30
0.0
 10
103.7258009648455
 20
-158.0633885715954
 30
0.0
 10
103.7809048523285
 20
-158.0633885715954
 30
0.0
 10
103.8360440175885
 20
-158.0633885715954
 30
0.0
 10
103.8808115164464
 20
-158.0186210716062
 30
0.0
 10
103.8808115164464
 20
-157.9634819049538
 30
0.0
  0
SPLINE
  5
80
330
41
100
AcDbEntity
  8
_U+30EC_U+30A4_U+30E4_U+30FC 1
 62
   179
420
  2234388
370
     9
100
AcDbSpline
210
0.0
220
0.0
230
1.0
 70
    11
 71
     3
 72
    17
 73
    13
 74
     0
 42
0.0000000001
 43
0.0000000001
 12
1.0
 22
0.0
 32
0.0
 13
1.0
 23
0.0
 33
0.0
 40
0.0
 40
0.0
 40
0.0
 40
0.0
 40
1.0
 40
1.0
 40
1.0
 40
2.0
 40
2.0
 40
2.0
 40
3.0
 40
3.0
 40
3.0
 40
4.0
 40
4.0
 40
4.0
 40
4.0
 10
93.88076121601335
 20
-157.9634819049538
 30
0.0
 10
93.88076121601335
 20
-157.9083780160782
 30
0.0
 10
93.83595843937859
 20
-157.8635752383121
 30
0.0
 10
93.78081927411864
 20
-157.8635752383121
 30
0.0
 10
93.72553899775119
 20
-157.8635752383121
 30
0.0
 10
93.6807714988933
 20
-157.9083780160782
 30
0.0
 10
93.6807714988933
 20
-157.9634819049538
 30
0.0
 10
93.6807714988933
 20
-158.0186210716062
 30
0.0
 10
93.72553899775119
 20
-158.0633885715954
 30
0.0
 10
93.78081927411864
 20
-158.0633885715954
 30
0.0
 10
93.83595843937859
 20
-158.0633885715954
 30
0.0
 10
93.88076121601335
 20
-158.0186210716062
 30
0.0
 10
93.88076121601335
 20
-157.9634819049538
 30
0.0
  0
SPLINE
  5
81
330
41
100
AcDbEntity
  8
_U+30EC_U+30A4_U+30E4_U+30FC 1
 62
   179
420
  2234388
370
     9
100
AcDbSpline
210
0.0
220
0.0
230
1.0
 70
    11
 71
     3
 72
    17
 73
    13
 74
     0
 42
0.0000000001
 43
0.0000000001
 12
1.0
 22
0.0
 32
0.0
 13
1.0
 23
0.0
 33
0.0
 40
0.0
 40
0.0
 40
0.0
 40
0.0
 40
1.0
 40
1.0
 40
1.0
 40
2.0
 40
2.0
 40
2.0
 40
3.0
 40
3.0
 40
3.0
 40
4.0
 40
4.0
 40
4.0
 40
4.0
 10
107.8803941921863
 20
-152.9639505173143
 30
0.0
 10
107.8803941921863
 20
-152.9081410728839
 30
0.0
 10
107.8356266933284
 20
-152.8633735728953
 30
0.0
 10
107.7804875280685
 20
-152.8633735728953
 30
0.0
 10
107.7253836405854
 20
-152.8633735728953
 30
0.0
 10
107.6805808639506
 20
-152.9081410728839
 30
0.0
 10
107.6805808639506
 20
-152.9639505173143
 30
0.0
 10
107.6805808639506
 20
-153.0190896839674
 30
0.0
 10
107.7253836405854
 20
-153.063857183956
 30
0.0
 10
107.7804875280685
 20
-153.063857183956
 30
0.0
 10
107.8356266933284
 20
-153.063857183956
 30
0.0
 10
107.8803941921863
 20
-153.0190896839674
 30
0.0
 10
107.8803941921863
 20
-152.9639505173143
 30
0.0
  0
SPLINE
  5
82
330
41
100
AcDbEntity
  8
_U+30EC_U+30A4_U+30E4_U+30FC 1
 62
   179
420
  2234388
370
     9
100
AcDbSpline
210
0.0
220
0.0
230
1.0
 70
    11
 71
     3
 72
    17
 73
    13
 74
     0
 42
0.0000000001
 43
0.0000000001
 12
1.0
 22
0.0
 32
0.0
 13
1.0
 23
0.0
 33
0.0
 40
0.0
 40
0.0
 40
0.0
 40
0.0
 40
1.0
 40
1.0
 40
1.0
 40
2.0
 40
2.0
 40
2.0
 40
3.0
 40
3.0
 40
3.0
 40
4.0
 40
4.0
 40
4.0
 40
4.0
 10
121.8805916127893
 20
-152.9639505173143
 30
0.0
 10
121.8805916127893
 20
-152.9081410728839
 30
0.0
 10
121.8357888361545
 20
-152.8633735728953
 30
0.0
 10
121.7806849486714
 20
-152.8633735728953
 30
0.0
 10
121.7255457834115
 20
-152.8633735728953
 30
0.0
 10
121.6807782845536
 20
-152.9081410728839
 30
0.0
 10
121.6807782845536
 20
-152.9639505173143
 30
0.0
 10
121.6807782845536
 20
-153.0190896839674
 30
0.0
 10
121.7255457834115
 20
-153.063857183956
 30
0.0
 10
121.7806849486714
 20
-153.063857183956
 30
0.0
 10
121.8357888361545
 20
-153.063857183956
 30
0.0
 10
121.8805916127893
 20
-153.0190896839674
 30
0.0
 10
121.8805916127893
 20
-152.9639505173143
 30
0.0
  0
SPLINE
  5
83
330
41
100
AcDbEntity
  8
_U+30EC_U+30A4_U+30E4_U+30FC 1
 62
   179
420
  2234388
370
     9
100
AcDbSpline
210
0.0
220
0.0
230
1.0
 70
    11
 71
     3
 72
    17
 73
    13
 74
     0
 42
0.0000000001
 43
0.0000000001
 12
1.0
 22
0.0
 32
0.0
 13
1.0
 23
0.0
 33
0.0
 40
0.0
 40
0.0
 40
0.0
 40
0.0
 40
1.0
 40
1.0
 40
1.0
 40
2.0
 40
2.0
 40
2.0
 40
3.0
 40
3.0
 40
3.0
 40
4.0
 40
4.0
 40
4.0
 40
4.0
 10
107.8803941921863
 20
-153.4634838505232
 30
0.0
 10
107.8803941921863
 20
-153.4083799616476
 30
0.0
 10
107.8356266933284
 20
-153.3635771838815
 30
0.0
 10
107.7804875280685
 20
-153.3635771838815
 30
0.0
 10
107.7253836405854
 20
-153.3635771838815
 30
0.0
 10
107.6805808639506
 20
-153.4083799616476
 30
0.0
 10
107.6805808639506
 20
-153.4634838505232
 30
0.0
 10
107.6805808639506
 20
-153.5186230171756
 30
0.0
 10
107.7253836405854
 20
-153.5634257949423
 30
0.0
 10
107.7804875280685
 20
-153.5634257949423
 30
0.0
 10
107.8356266933284
 20
-153.5634257949423
 30
0.0
 10
107.8803941921863
 20
-153.5186230171756
 30
0.0
 10
107.8803941921863
 20
-153.4634838505232
 30
0.0
  0
SPLINE
  5
84
330
41
100
AcDbEntity
  8
_U+30EC_U+30A4_U+30E4_U+30FC 1
 62
   179
420
  2234388
370
     9
100
AcDbSpline
210
0.0
220
0.0
230
1.0
 70
    11
 71
     3
 72
    17
 73
    13
 74
     0
 42
0.0000000001
 43
0.0000000001
 12
1.0
 22
0.0
 32
0.0
 13
1.0
 23
0.0
 33
0.0
 40
0.0
 40
0.0
 40
0.0
 40
0.0
 40
1.0
 40
1.0
 40
1.0
 40
2.0
 40
2.0
 40
2.0
 40
3.0
 40
3.0
 40
3.0
 40
4.0
 40
4.0
 40
4.0
 40
4.0
 10
87.88075220241967
 20
-141.4635360757452
 30
0.0
 10
87.88075220241967
 20
-141.4084321868702
 30
0.0
 10
87.83598470356179
 20
-141.3636294091035
 30
0.0
 10
87.78084553830183
 20
-141.3636294091035
 30
0.0
 10
87.72556526193438
 20
-141.3636294091035
 30
0.0
 10
87.68076248529961
 20
-141.4084321868702
 30
0.0
 10
87.68076248529961
 20
-141.4635360757452
 30
0.0
 10
87.68076248529961
 20
-141.5186752423982
 30
0.0
 10
87.72556526193438
 20
-141.5634427423868
 30
0.0
 10
87.78084553830183
 20
-141.5634427423868
 30
0.0
 10
87.83598470356179
 20
-141.5634427423868
 30
0.0
 10
87.88075220241967
 20
-141.5186752423982
 30
0.0
 10
87.88075220241967
 20
-141.4635360757452
 30
0.0
  0
SPLINE
  5
85
330
41
100
AcDbEntity
  8
_U+30EC_U+30A4_U+30E4_U+30FC 1
 62
   179
420
  2234388
370
     9
100
AcDbSpline
210
0.0
220
0.0
230
1.0
 70
    11
 71
     3
 72
    17
 73
    13
 74
     0
 42
0.0000000001
 43
0.0000000001
 12
1.0
 22
0.0
 32
0.0
 13
1.0
 23
0.0
 33
0.0
 40
0.0
 40
0.0
 40
0.0
 40
0.0
 40
1.0
 40
1.0
 40
1.0
 40
2.0
 40
2.0
 40
2.0
 40
3.0
 40
3.0
 40
3.0
 40
4.0
 40
4.0
 40
4.0
 40
4.0
 10
87.88075220241967
 20
-157.9634819049538
 30
0.0
 10
87.88075220241967
 20
-157.9083780160782
 30
0.0
 10
87.83598470356179
 20
-157.8635752383121
 30
0.0
 10
87.78084553830183
 20
-157.8635752383121
 30
0.0
 10
87.72556526193438
 20
-157.8635752383121
 30
0.0
 10
87.68076248529961
 20
-157.9083780160782
 30
0.0
 10
87.68076248529961
 20
-157.9634819049538
 30
0.0
 10
87.68076248529961
 20
-158.0186210716062
 30
0.0
 10
87.72556526193438
 20
-158.0633885715954
 30
0.0
 10
87.78084553830183
 20
-158.0633885715954
 30
0.0
 10
87.83598470356179
 20
-158.0633885715954
 30
0.0
 10
87.88075220241967
 20
-158.0186210716062
 30
0.0
 10
87.88075220241967
 20
-157.9634819049538
 30
0.0
  0
POLYLINE
  5
86
330
41
100
AcDbEntity
  8
_U+30EC_U+30A4_U+30E4_U+30FC 1
 62
   179
420
  2234388
370
     9
100
AcDb2dPolyline
 66
     1
 10
0.0
 20
0.0
 30
0.0
  0
VERTEX
  5
87
330
86
100
AcDbEntity
  8
_U+30EC_U+30A4_U+30E4_U+30FC 1
 62
   179
420
  2234388
370
     9
100
AcDbVertex
100
AcDb2dVertex
 10
121.7806849486714
 20
-145.4640007969672
 30
0.0
  0
VERTEX
  5
88
330
86
100
AcDbEntity
  8
_U+30EC_U+30A4_U+30E4_U+30FC 1
 62
   179
420
  2234388
370
     9
100
AcDbVertex
100
AcDb2dVertex
 10
121.7806849486714
 20
-141.6936882979098
 30
0.0
  0
SEQEND
  5
89
330
86
100
AcDbEntity
  8
_U+30EC_U+30A4_U+30E4_U+30FC 1
 62
   179
420
  2234388
370
     9
  0
POLYLINE
  5
8A
330
41
100
AcDbEntity
  8
_U+30EC_U+30A4_U+30E4_U+30FC 1
 62
   179
420
  2234388
370
     9
100
AcDb2dPolyline
 66
     1
 10
0.0
 20
0.0
 30
0.0
  0
VERTEX
  5
8B
330
8A
100
AcDbEntity
  8
_U+30EC_U+30A4_U+30E4_U+30FC 1
 62
   179
420
  2234388
370
     9
100
AcDbVertex
100
AcDb2dVertex
 10
121.7806849486714
 20
-145.4640007969672
 30
0.0
  0
VERTEX
  5
8C
330
8A
100
AcDbEntity
  8
_U+30EC_U+30A4_U+30E4_U+30FC 1
 62
   179
420
  2234388
370
     9
100
AcDbVertex
100
AcDb2dVertex
 10
121.7806849486714
 20
-146.4637730189395
 30
0.0
  0
SEQEND
  5
8D
330
8A
100
AcDbEntity
  8
_U+30EC_U+30A4_U+30E4_U+30FC 1
 62
   179
420
  2234388
370
     9
  0
POLYLINE
  5
8E
330
41
100
AcDbEntity
  8
_U+30EC_U+30A4_U+30E4_U+30FC 1
 62
   179
420
  2234388
370
     9
100
AcDb2dPolyline
 66
     1
 10
0.0
 20
0.0
 30
0.0
  0
VERTEX
  5
8F
330
8E
100
AcDbEntity
  8
_U+30EC_U+30A4_U+30E4_U+30FC 1
 62
   179
420
  2234388
370
     9
100
AcDbVertex
100
AcDb2dVertex
 10
120.3206435970313
 20
-145.4640007969672
 30
0.0
  0
VERTEX
  5
90
330
8E
100
AcDbEntity
  8
_U+30EC_U+30A4_U+30E4_U+30FC 1
 62
   179
420
  2234388
370
     9
100
AcDbVertex
100
AcDb2dVertex
 10
122.78113052486
 20
-145.4640007969672
 30
0.0
  0
SEQEND
  5
91
330
8E
100
AcDbEntity
  8
_U+30EC_U+30A4_U+30E4_U+30FC 1
 62
   179
420
  2234388
370
     9
  0
POLYLINE
  5
92
330
41
100
AcDbEntity
  8
_U+30EC_U+30A4_U+30E4_U+30FC 1
 62
   179
420
  2234388
370
     9
100
AcDb2dPolyline
 66
     1
 10
0.0
 20
0.0
 30
0.0
  0
VERTEX
  5
93
330
92
100
AcDbEntity
  8
_U+30EC_U+30A4_U+30E4_U+30FC 1
 62
   179
420
  2234388
370
     9
100
AcDbVertex
100
AcDb2dVertex
 10
120.3206435970313
 20
-146.4637730189395
 30
0.0
  0
VERTEX
  5
94
330
92
100
AcDbEntity
  8
_U+30EC_U+30A4_U+30E4_U+30FC 1
 62
   179
420
  2234388
370
     9
100
AcDbVertex
100
AcDb2dVertex
 10
122.78113052486
 20
-146.4637730189395
 30
0.0
  0
SEQEND
  5
95
330
92
100
AcDbEntity
  8
_U+30EC_U+30A4_U+30E4_U+30FC 1
 62
   179
420
  2234388
370
     9
  0
INSERT
  5
97
330
41
100
AcDbEntity
  8
_U+30EC_U+30A4_U+30E4_U+30FC 1
100
AcDbBlockReference
  2
block 3
 10
0.0
 20
0.0
 30
0.0
  0
POLYLINE
  5
9C
330
41
100
AcDbEntity
  8
_U+30EC_U+30A4_U+30E4_U+30FC 1
 62
   179
420
  2234388
370
     9
100
AcDb2dPolyline
 66
     1
 10
0.0
 20
0.0
 30
0.0
  0
VERTEX
  5
9D
330
9C
100
AcDbEntity
  8
_U+30EC_U+30A4_U+30E4_U+30FC 1
 62
   179
420
  2234388
370
     9
100
AcDbVertex
100
AcDb2dVertex
 10
93.78081927411864
 20
-157.9634819049538
 30
0.0
  0
VERTEX
  5
9E
330
9C
100
AcDbEntity
  8
_U+30EC_U+30A4_U+30E4_U+30FC 1
 62
   179
420
  2234388
370
     9
100
AcDbVertex
100
AcDb2dVertex
 10
103.7809048523285
 20
-157.9634819049538
 30
0.0
  0
SEQEND
  5
9F
330
9C
100
AcDbEntity
  8
_U+30EC_U+30A4_U+30E4_U+30FC 1
 62
   179
420
  2234388
370
     9
  0
POLYLINE
  5
A0
330
41
100
AcDbEntity
  8
_U+30EC_U+30A4_U+30E4_U+30FC 1
 62
   179
420
  2234388
370
     9
100
AcDb2dPolyline
 66
     1
 10
0.0
 20
0.0
 30
0.0
  0
VERTEX
  5
A1
330
A0
100
AcDbEntity
  8
_U+30EC_U+30A4_U+30E4_U+30FC 1
 62
   179
420
  2234388
370
     9
100
AcDbVertex
100
AcDb2dVertex
 10
93.78081927411864
 20
-156.5034405164294
 30
0.0
  0
VERTEX
  5
A2
330
A0
100
AcDbEntity
  8
_U+30EC_U+30A4_U+30E4_U+30FC 1
 62
   179
420
  2234388
370
     9
100
AcDbVertex
100
AcDb2dVertex
 10
93.78081927411864
 20
-158.9639244047037
 30
0.0
  0
SEQEND
  5
A3
330
A0
100
AcDbEntity
  8
_U+30EC_U+30A4_U+30E4_U+30FC 1
 62
   179
420
  2234388
370
     9
  0
POLYLINE
  5
A4
330
41
100
AcDbEntity
  8
_U+30EC_U+30A4_U+30E4_U+30FC 1
 62
   179
420
  2234388
370
     9
100
AcDb2dPolyline
 66
     1
 10
0.0
 20
0.0
 30
0.0
  0
VERTEX
  5
A5
330
A4
100
AcDbEntity
  8
_U+30EC_U+30A4_U+30E4_U+30FC 1
 62
   179
420
  2234388
370
     9
100
AcDbVertex
100
AcDb2dVertex
 10
103.7809048523285
 20
-155.8034235721599
 30
0.0
  0
VERTEX
  5
A6
330
A4
100
AcDbEntity
  8
_U+30EC_U+30A4_U+30E4_U+30FC 1
 62
   179
420
  2234388
370
     9
100
AcDbVertex
100
AcDb2dVertex
 10
103.7809048523285
 20
-158.9639244047037
 30
0.0
  0
SEQEND
  5
A7
330
A4
100
AcDbEntity
  8
_U+30EC_U+30A4_U+30E4_U+30FC 1
 62
   179
420
  2234388
370
     9
  0
INSERT
  5
A9
330
41
100
AcDbEntity
  8
_U+30EC_U+30A4_U+30E4_U+30FC 1
100
AcDbBlockReference
  2
block 4
 10
0.0
 20
0.0
 30
0.0
  0
POLYLINE
  5
B1
330
41
100
AcDbEntity
  8
_U+30EC_U+30A4_U+30E4_U+30FC 1
 62
   179
420
  2234388
370
     9
100
AcDb2dPolyline
 66
     1
 10
0.0
 20
0.0
 30
0.0
  0
VERTEX
  5
B2
330
B1
100
AcDbEntity
  8
_U+30EC_U+30A4_U+30E4_U+30FC 1
 62
   179
420
  2234388
370
     9
100
AcDbVertex
100
AcDb2dVertex
 10
87.78084553830183
 20
-157.9634819049538
 30
0.0
  0
VERTEX
  5
B3
330
B1
100
AcDbEntity
  8
_U+30EC_U+30A4_U+30E4_U+30FC 1
 62
   179
420
  2234388
370
     9
100
AcDbVertex
100
AcDb2dVertex
 10
93.78081927411864
 20
-157.9634819049538
 30
0.0
  0
SEQEND
  5
B4
330
B1
100
AcDbEntity
  8
_U+30EC_U+30A4_U+30E4_U+30FC 1
 62
   179
420
  2234388
370
     9
  0
POLYLINE
  5
B5
330
41
100
AcDbEntity
  8
_U+30EC_U+30A4_U+30E4_U+30FC 1
 62
   179
420
  2234388
370
     9
100
AcDb2dPolyline
 66
     1
 10
0.0
 20
0.0
 30
0.0
  0
VERTEX
  5
B6
330
B5
100
AcDbEntity
  8
_U+30EC_U+30A4_U+30E4_U+30FC 1
 62
   179
420
  2234388
370
     9
100
AcDbVertex
100
AcDb2dVertex
 10
87.78084553830183
 20
-149.0034907960826
 30
0.0
  0
VERTEX
  5
B7
330
B5
100
AcDbEntity
  8
_U+30EC_U+30A4_U+30E4_U+30FC 1
 62
   179
420
  2234388
370
     9
100
AcDbVertex
100
AcDb2dVertex
 10
87.78084553830183
 20
-158.9639244047037
 30
0.0
  0
SEQEND
  5
B8
330
B5
100
AcDbEntity
  8
_U+30EC_U+30A4_U+30E4_U+30FC 1
 62
   179
420
  2234388
370
     9
  0
INSERT
  5
BA
330
41
100
AcDbEntity
  8
_U+30EC_U+30A4_U+30E4_U+30FC 1
100
AcDbBlockReference
  2
block 5
 10
0.0
 20
0.0
 30
0.0
  0
POLYLINE
  5
C0
330
41
100
AcDbEntity
  8
_U+30EC_U+30A4_U+30E4_U+30FC 1
 62
   179
420
  2234388
370
     9
100
AcDb2dPolyline
 66
     1
 10
0.0
 20
0.0
 30
0.0
  0
VERTEX
  5
C1
330
C0
100
AcDbEntity
  8
_U+30EC_U+30A4_U+30E4_U+30FC 1
 62
   179
420
  2234388
370
     9
100
AcDbVertex
100
AcDb2dVertex
 10
107.7804875280685
 20
-152.9639505173143
 30
0.0
  0
VERTEX
  5
C2
330
C0
100
AcDbEntity
  8
_U+30EC_U+30A4_U+30E4_U+30FC 1
 62
   179
420
  2234388
370
     9
100
AcDbVertex
100
AcDb2dVertex
 10
107.7804875280685
 20
-147.7060446852958
 30
0.0
  0
SEQEND
  5
C3
330
C0
100
AcDbEntity
  8
_U+30EC_U+30A4_U+30E4_U+30FC 1
 62
   179
420
  2234388
370
     9
  0
POLYLINE
  5
C4
330
41
100
AcDbEntity
  8
_U+30EC_U+30A4_U+30E4_U+30FC 1
 62
   179
420
  2234388
370
     9
100
AcDb2dPolyline
 66
     1
 10
0.0
 20
0.0
 30
0.0
  0
VERTEX
  5
C5
330
C4
100
AcDbEntity
  8
_U+30EC_U+30A4_U+30E4_U+30FC 1
 62
   179
420
  2234388
370
     9
100
AcDbVertex
100
AcDb2dVertex
 10
107.7804875280685
 20
-152.9639505173143
 30
0.0
  0
VERTEX
  5
C6
330
C4
100
AcDbEntity
  8
_U+30EC_U+30A4_U+30E4_U+30FC 1
 62
   179
420
  2234388
370
     9
100
AcDbVertex
100
AcDb2dVertex
 10
107.7804875280685
 20
-154.4639616280506
 30
0.0
  0
SEQEND
  5
C7
330
C4
100
AcDbEntity
  8
_U+30EC_U+30A4_U+30E4_U+30FC 1
 62
   179
420
  2234388
370
     9
  0
POLYLINE
  5
C8
330
41
100
AcDbEntity
  8
_U+30EC_U+30A4_U+30E4_U+30FC 1
 62
   179
420
  2234388
370
     9
100
AcDb2dPolyline
 66
     1
 10
0.0
 20
0.0
 30
0.0
  0
VERTEX
  5
C9
330
C8
100
AcDbEntity
  8
_U+30EC_U+30A4_U+30E4_U+30FC 1
 62
   179
420
  2234388
370
     9
100
AcDbVertex
100
AcDb2dVertex
 10
106.3204814542052
 20
-152.9639505173143
 30
0.0
  0
VERTEX
  5
CA
330
C8
100
AcDbEntity
  8
_U+30EC_U+30A4_U+30E4_U+30FC 1
 62
   179
420
  2234388
370
     9
100
AcDbVertex
100
AcDb2dVertex
 10
108.7809652803219
 20
-152.9639505173143
 30
0.0
  0
SEQEND
  5
CB
330
C8
100
AcDbEntity
  8
_U+30EC_U+30A4_U+30E4_U+30FC 1
 62
   179
420
  2234388
370
     9
  0
POLYLINE
  5
CC
330
41
100
AcDbEntity
  8
_U+30EC_U+30A4_U+30E4_U+30FC 1
 62
   179
420
  2234388
370
     9
100
AcDb2dPolyline
 66
     1
 10
0.0
 20
0.0
 30
0.0
  0
VERTEX
  5
CD
330
CC
100
AcDbEntity
  8
_U+30EC_U+30A4_U+30E4_U+30FC 1
 62
   179
420
  2234388
370
     9
100
AcDbVertex
100
AcDb2dVertex
 10
106.3204814542052
 20
-153.4634838505232
 30
0.0
  0
VERTEX
  5
CE
330
CC
100
AcDbEntity
  8
_U+30EC_U+30A4_U+30E4_U+30FC 1
 62
   179
420
  2234388
370
     9
100
AcDbVertex
100
AcDb2dVertex
 10
108.7809652803219
 20
-153.4634838505232
 30
0.0
  0
SEQEND
  5
CF
330
CC
100
AcDbEntity
  8
_U+30EC_U+30A4_U+30E4_U+30FC 1
 62
   179
420
  2234388
370
     9
  0
INSERT
  5
D1
330
41
100
AcDbEntity
  8
_U+30EC_U+30A4_U+30E4_U+30FC 1
100
AcDbBlockReference
  2
block 6
 10
0.0
 20
0.0
 30
0.0
  0
POLYLINE
  5
E1
330
41
100
AcDbEntity
  8
_U+30EC_U+30A4_U+30E4_U+30FC 1
 62
   179
420
  2234388
370
     9
100
AcDb2dPolyline
 66
     1
 10
0.0
 20
0.0
 30
0.0
  0
VERTEX
  5
E2
330
E1
100
AcDbEntity
  8
_U+30EC_U+30A4_U+30E4_U+30FC 1
 62
   179
420
  2234388
370
     9
100
AcDbVertex
100
AcDb2dVertex
 10
87.78084553830183
 20
-141.4635360757452
 30
0.0
  0
VERTEX
  5
E3
330
E1
100
AcDbEntity
  8
_U+30EC_U+30A4_U+30E4_U+30FC 1
 62
   179
420
  2234388
370
     9
100
AcDbVertex
100
AcDb2dVertex
 10
117.7809258840471
 20
-141.4635360757452
 30
0.0
  0
SEQEND
  5
E4
330
E1
100
AcDbEntity
  8
_U+30EC_U+30A4_U+30E4_U+30FC 1
 62
   179
420
  2234388
370
     9
  0
POLYLINE
  5
E5
330
41
100
AcDbEntity
  8
_U+30EC_U+30A4_U+30E4_U+30FC 1
 62
   179
420
  2234388
370
     9
100
AcDb2dPolyline
 66
     1
 10
0.0
 20
0.0
 30
0.0
  0
VERTEX
  5
E6
330
E5
100
AcDbEntity
  8
_U+30EC_U+30A4_U+30E4_U+30FC 1
 62
   179
420
  2234388
370
     9
100
AcDbVertex
100
AcDb2dVertex
 10
87.78084553830183
 20
-142.9235774642692
 30
0.0
  0
VERTEX
  5
E7
330
E5
100
AcDbEntity
  8
_U+30EC_U+30A4_U+30E4_U+30FC 1
 62
   179
420
  2234388
370
     9
100
AcDbVertex
100
AcDb2dVertex
 10
87.78084553830183
 20
-140.4637638537729
 30
0.0
  0
SEQEND
  5
E8
330
E5
100
AcDbEntity
  8
_U+30EC_U+30A4_U+30E4_U+30FC 1
 62
   179
420
  2234388
370
     9
  0
POLYLINE
  5
E9
330
41
100
AcDbEntity
  8
_U+30EC_U+30A4_U+30E4_U+30FC 1
 62
   179
420
  2234388
370
     9
100
AcDb2dPolyline
 66
     1
 10
0.0
 20
0.0
 30
0.0
  0
VERTEX
  5
EA
330
E9
100
AcDbEntity
  8
_U+30EC_U+30A4_U+30E4_U+30FC 1
 62
   179
420
  2234388
370
     9
100
AcDbVertex
100
AcDb2dVertex
 10
117.7809258840471
 20
-142.9235774642692
 30
0.0
  0
VERTEX
  5
EB
330
E9
100
AcDbEntity
  8
_U+30EC_U+30A4_U+30E4_U+30FC 1
 62
   179
420
  2234388
370
     9
100
AcDbVertex
100
AcDb2dVertex
 10
117.7809258840471
 20
-140.4637638537729
 30
0.0
  0
SEQEND
  5
EC
330
E9
100
AcDbEntity
  8
_U+30EC_U+30A4_U+30E4_U+30FC 1
 62
   179
420
  2234388
370
     9
  0
INSERT
  5
EE
330
41
100
AcDbEntity
  8
_U+30EC_U+30A4_U+30E4_U+30FC 1
100
AcDbBlockReference
  2
block 7
 10
0.0
 20
0.0
 30
0.0
  0
POLYLINE
  5
F6
330
41
100
AcDbEntity
  8
_U+30EC_U+30A4_U+30E4_U+30FC 1
 62
   179
420
  2234388
370
     9
100
AcDb2dPolyline
 66
     1
 10
0.0
 20
0.0
 30
0.0
  0
VERTEX
  5
F7
330
F6
100
AcDbEntity
  8
_U+30EC_U+30A4_U+30E4_U+30FC 1
 62
   179
420
  2234388
370
     9
100
AcDbVertex
100
AcDb2dVertex
 10
121.7806849486714
 20
-146.4637730189395
 30
0.0
  0
VERTEX
  5
F8
330
F6
100
AcDbEntity
  8
_U+30EC_U+30A4_U+30E4_U+30FC 1
 62
   179
420
  2234388
370
     9
100
AcDbVertex
100
AcDb2dVertex
 10
121.7806849486714
 20
-152.9639505173143
 30
0.0
  0
SEQEND
  5
F9
330
F6
100
AcDbEntity
  8
_U+30EC_U+30A4_U+30E4_U+30FC 1
 62
   179
420
  2234388
370
     9
  0
POLYLINE
  5
FA
330
41
100
AcDbEntity
  8
_U+30EC_U+30A4_U+30E4_U+30FC 1
 62
   179
420
  2234388
370
     9
100
AcDb2dPolyline
 66
     1
 10
0.0
 20
0.0
 30
0.0
  0
VERTEX
  5
FB
330
FA
100
AcDbEntity
  8
_U+30EC_U+30A4_U+30E4_U+30FC 1
 62
   179
420
  2234388
370
     9
100
AcDbVertex
100
AcDb2dVertex
 10
106.3204814542052
 20
-152.9639505173143
 30
0.0
  0
VERTEX
  5
FC
330
FA
100
AcDbEntity
  8
_U+30EC_U+30A4_U+30E4_U+30FC 1
 62
   179
420
  2234388
370
     9
100
AcDbVertex
100
AcDb2dVertex
 10
122.78113052486
 20
-152.9639505173143
 30
0.0
  0
SEQEND
  5
FD
330
FA
100
AcDbEntity
  8
_U+30EC_U+30A4_U+30E4_U+30FC 1
 62
   179
420
  2234388
370
     9
  0
INSERT
  5
FF
330
41
100
AcDbEntity
  8
_U+30EC_U+30A4_U+30E4_U+30FC 1
100
AcDbBlockReference
  2
block 8
 10
0.0
 20
0.0
 30
0.0
  0
ENDBLK
  5
44
330
41
100
AcDbEntity
  8
0
100
AcDbBlockEnd
  0
BLOCK
  5
98
330
96
100
AcDbEntity
  8
0
100
AcDbBlockBegin
  2
block 3
 70
     0
 10
0.0
 20
0.0
 30
0.0
  3
block 3
  1

  0
SPLINE
  5
9A
330
96
100
AcDbEntity
  8
_U+30EC_U+30A4_U+30E4_U+30FC 1
370
     0
100
AcDbSpline
210
0.0
220
0.0
230
1.0
 70
    11
 71
     3
 72
    26
 73
    22
 74
     0
 42
0.0000000001
 43
0.0000000001
 12
1.0
 22
0.0
 32
0.0
 13
1.0
 23
0.0
 33
0.0
 40
0.0
 40
0.0
 40
0.0
 40
0.0
 40
1.0
 40
1.0
 40
1.0
 40
2.0
 40
2.0
 40
2.0
 40
3.0
 40
3.0
 40
3.0
 40
4.0
 40
4.0
 40
4.0
 40
5.0
 40
5.0
 40
5.0
 40
6.0
 40
6.0
 40
6.0
 40
7.0
 40
7.0
 40
7.0
 40
7.0
 10
120.4791232337691
 20
-142.4731295759269
 30
0.0
 10
120.4791232337691
 20
-142.4731295759269
 30
0.0
 10
119.3749701307465
 20
-142.4731295759269
 30
0.0
 10
119.3749701307465
 20
-142.4731295759269
 30
0.0
 10
119.3749701307465
 20
-142.4731295759269
 30
0.0
 10
119.3749701307465
 20
-142.8259073536165
 30
0.0
 10
119.3749701307465
 20
-142.8259073536165
 30
0.0
 10
119.3749701307465
 20
-142.8259073536165
 30
0.0
 10
119.2268310248808
 20
-142.8259073536165
 30
0.0
 10
119.2268310248808
 20
-142.8259073536165
 30
0.0
 10
119.2120171142942
 20
-142.4708902638615
 30
0.0
 10
119.0490640978419
 20
-142.4211086340996
 30
0.0
 10
118.9346869277316
 20
-142.3895860104095
 30
0.0
 10
118.9346869277316
 20
-142.3895860104095
 30
0.0
 10
118.9346869277316
 20
-142.2335231849277
 30
0.0
 10
118.9346869277316
 20
-142.2335231849277
 30
0.0
 10
118.9346869277316
 20
-142.2335231849277
 30
0.0
 10
120.4791232337691
 20
-142.2335231849277
 30
0.0
 10
120.4791232337691
 20
-142.2335231849277
 30
0.0
 10
120.4791232337691
 20
-142.2335231849277
 30
0.0
 10
120.4791232337691
 20
-142.4731295759269
 30
0.0
 10
120.4791232337691
 20
-142.4731295759269
 30
0.0
  0
HATCH
  5
9B
330
96
100
AcDbEntity
  8
_U+30EC_U+30A4_U+30E4_U+30FC 1
 62
   179
420
  2234388
100
AcDbHatch
 10
0.0
 20
0.0
 30
0.0
210
0.0
220
0.0
230
1.0
  2
SOLID
 70
     1
 71
     0
 91
        1
 92
        1
 93
        1
 72
     4
 94
        3
 73
     0
 74
     1
 95
       26
 96
       22
 40
0.0
 40
0.0
 40
0.0
 40
0.0
 40
1.0
 40
1.0
 40
1.0
 40
2.0
 40
2.0
 40
2.0
 40
3.0
 40
3.0
 40
3.0
 40
4.0
 40
4.0
 40
4.0
 40
5.0
 40
5.0
 40
5.0
 40
6.0
 40
6.0
 40
6.0
 40
7.0
 40
7.0
 40
7.0
 40
7.0
 10
120.4791232337691
 20
-142.4731295759269
 10
120.4791232337691
 20
-142.4731295759269
 10
119.3749701307465
 20
-142.4731295759269
 10
119.3749701307465
 20
-142.4731295759269
 10
119.3749701307465
 20
-142.4731295759269
 10
119.3749701307465
 20
-142.8259073536165
 10
119.3749701307465
 20
-142.8259073536165
 10
119.3749701307465
 20
-142.8259073536165
 10
119.2268310248808
 20
-142.8259073536165
 10
119.2268310248808
 20
-142.8259073536165
 10
119.2120171142942
 20
-142.4708902638615
 10
119.0490640978419
 20
-142.4211086340996
 10
118.9346869277316
 20
-142.3895860104095
 10
118.9346869277316
 20
-142.3895860104095
 10
118.9346869277316
 20
-142.2335231849277
 10
118.9346869277316
 20
-142.2335231849277
 10
118.9346869277316
 20
-142.2335231849277
 10
120.4791232337691
 20
-142.2335231849277
 10
120.4791232337691
 20
-142.2335231849277
 10
120.4791232337691
 20
-142.2335231849277
 10
120.4791232337691
 20
-142.4731295759269
 10
120.4791232337691
 20
-142.4731295759269
 97
        0
 97
        0
 75
     2
 76
     1
 98
        0
  0
ENDBLK
  5
99
330
96
100
AcDbEntity
  8
0
100
AcDbBlockEnd
  0
BLOCK
  5
AA
330
A8
100
AcDbEntity
  8
0
100
AcDbBlockBegin
  2
block 4
 70
     0
 10
0.0
 20
0.0
 30
0.0
  3
block 4
  1

  0
SPLINE
  5
AC
330
A8
100
AcDbEntity
  8
_U+30EC_U+30A4_U+30E4_U+30FC 1
370
     0
100
AcDbSpline
210
0.0
220
0.0
230
1.0
 70
    11
 71
     3
 72
    26
 73
    22
 74
     0
 42
0.0000000001
 43
0.0000000001
 12
1.0
 22
0.0
 32
0.0
 13
1.0
 23
0.0
 33
0.0
 40
0.0
 40
0.0
 40
0.0
 40
0.0
 40
1.0
 40
1.0
 40
1.0
 40
2.0
 40
2.0
 40
2.0
 40
3.0
 40
3.0
 40
3.0
 40
4.0
 40
4.0
 40
4.0
 40
5.0
 40
5.0
 40
5.0
 40
6.0
 40
6.0
 40
6.0
 40
7.0
 40
7.0
 40
7.0
 40
7.0
 10
98.10443384049125
 20
-156.6619275867026
 30
0.0
 10
98.10443384049125
 20
-156.6619275867026
 30
0.0
 10
98.10443384049125
 20
-155.55777448368
 30
0.0
 10
98.10443384049125
 20
-155.55777448368
 30
0.0
 10
98.10443384049125
 20
-155.55777448368
 30
0.0
 10
97.7520005723502
 20
-155.55777448368
 30
0.0
 10
97.7520005723502
 20
-155.55777448368
 30
0.0
 10
97.7520005723502
 20
-155.55777448368
 30
0.0
 10
97.7520005723502
 20
-155.4096353778143
 30
0.0
 10
97.7520005723502
 20
-155.4096353778143
 30
0.0
 10
98.10684540733094
 20
-155.3948214672277
 30
0.0
 10
98.15645478231853
 20
-155.2318684507754
 30
0.0
 10
98.18814966078283
 20
-155.1174912806651
 30
0.0
 10
98.18814966078283
 20
-155.1174912806651
 30
0.0
 10
98.34421248626465
 20
-155.1174912806651
 30
0.0
 10
98.34421248626465
 20
-155.1174912806651
 30
0.0
 10
98.34421248626465
 20
-155.1174912806651
 30
0.0
 10
98.34421248626465
 20
-156.6619275867026
 30
0.0
 10
98.34421248626465
 20
-156.6619275867026
 30
0.0
 10
98.34421248626465
 20
-156.6619275867026
 30
0.0
 10
98.10443384049125
 20
-156.6619275867026
 30
0.0
 10
98.10443384049125
 20
-156.6619275867026
 30
0.0
  0
HATCH
  5
AD
330
A8
100
AcDbEntity
  8
_U+30EC_U+30A4_U+30E4_U+30FC 1
 62
   179
420
  2234388
100
AcDbHatch
 10
0.0
 20
0.0
 30
0.0
210
0.0
220
0.0
230
1.0
  2
SOLID
 70
     1
 71
     0
 91
        1
 92
        1
 93
        1
 72
     4
 94
        3
 73
     0
 74
     1
 95
       26
 96
       22
 40
0.0
 40
0.0
 40
0.0
 40
0.0
 40
1.0
 40
1.0
 40
1.0
 40
2.0
 40
2.0
 40
2.0
 40
3.0
 40
3.0
 40
3.0
 40
4.0
 40
4.0
 40
4.0
 40
5.0
 40
5.0
 40
5.0
 40
6.0
 40
6.0
 40
6.0
 40
7.0
 40
7.0
 40
7.0
 40
7.0
 10
98.10443384049125
 20
-156.6619275867026
 10
98.10443384049125
 20
-156.6619275867026
 10
98.10443384049125
 20
-155.55777448368
 10
98.10443384049125
 20
-155.55777448368
 10
98.10443384049125
 20
-155.55777448368
 10
97.7520005723502
 20
-155.55777448368
 10
97.7520005723502
 20
-155.55777448368
 10
97.7520005723502
 20
-155.55777448368
 10
97.7520005723502
 20
-155.4096353778143
 10
97.7520005723502
 20
-155.4096353778143
 10
98.10684540733094
 20
-155.3948214672277
 10
98.15645478231853
 20
-155.2318684507754
 10
98.18814966078283
 20
-155.1174912806651
 10
98.18814966078283
 20
-155.1174912806651
 10
98.34421248626465
 20
-155.1174912806651
 10
98.34421248626465
 20
-155.1174912806651
 10
98.34421248626465
 20
-155.1174912806651
 10
98.34421248626465
 20
-156.6619275867026
 10
98.34421248626465
 20
-156.6619275867026
 10
98.34421248626465
 20
-156.6619275867026
 10
98.10443384049125
 20
-156.6619275867026
 10
98.10443384049125
 20
-156.6619275867026
 97
        0
 97
        0
 75
     2
 76
     1
 98
        0
  0
SPLINE
  5
AE
330
A8
100
AcDbEntity
  8
_U+30EC_U+30A4_U+30E4_U+30FC 1
370
     0
100
AcDbSpline
210
0.0
220
0.0
230
1.0
 70
    11
 71
     3
 72
    29
 73
    25
 74
     0
 42
0.0000000001
 43
0.0000000001
 12
1.0
 22
0.0
 32
0.0
 13
1.0
 23
0.0
 33
0.0
 40
0.0
 40
0.0
 40
0.0
 40
0.0
 40
1.0
 40
1.0
 40
1.0
 40
2.0
 40
2.0
 40
2.0
 40
3.0
 40
3.0
 40
3.0
 40
4.0
 40
4.0
 40
4.0
 40
5.0
 40
5.0
 40
5.0
 40
6.0
 40
6.0
 40
6.0
 40
7.0
 40
7.0
 40
7.0
 40
8.0
 40
8.0
 40
8.0
 40
8.0
 10
99.83938392686308
 20
-156.4841606596637
 30
0.0
 10
99.72397322810721
 20
-156.6936224651669
 30
0.0
 10
99.53862709100076
 20
-156.7125704903358
 30
0.0
 10
99.41425914398324
 20
-156.7125704903358
 30
0.0
 10
99.2426933888178
 20
-156.7125704903358
 30
0.0
 10
99.09110918746681
 20
-156.6660617012849
 30
0.0
 10
98.98947887065194
 20
-156.4841606596637
 30
0.0
 10
98.8785467960269
 20
-156.2895127647471
 30
0.0
 10
98.85822073266392
 20
-156.0528347049104
 30
0.0
 10
98.85822073266392
 20
-155.8898816884581
 30
0.0
 10
98.85822073266392
 20
-155.7458766971747
 30
0.0
 10
98.87647973873574
 20
-155.4940402172029
 30
0.0
 10
98.98947887065194
 20
-155.295258207704
 30
0.0
 10
99.10454505985929
 20
-155.0923420836228
 30
0.0
 10
99.27645532457325
 20
-155.0689154343231
 30
0.0
 10
99.41425914398324
 20
-155.0689154343231
 30
0.0
 10
99.58410235140606
 20
-155.0689154343231
 30
0.0
 10
99.7377536100482
 20
-155.1133571660828
 30
0.0
 10
99.83938392686308
 20
-155.295258207704
 30
0.0
 10
99.9458373773573
 20
-155.4878390453294
 30
0.0
 10
99.97064206485109
 20
-155.7162488760015
 30
0.0
 10
99.97064206485109
 20
-155.8898816884581
 30
0.0
 10
99.97064206485109
 20
-156.061102934075
 30
0.0
 10
99.94790443464845
 20
-156.2915798220382
 30
0.0
 10
99.83938392686308
 20
-156.4841606596637
 30
0.0
  0
SPLINE
  5
AF
330
A8
100
AcDbEntity
  8
_U+30EC_U+30A4_U+30E4_U+30FC 1
370
     0
100
AcDbSpline
210
0.0
220
0.0
230
1.0
 70
    11
 71
     3
 72
    17
 73
    13
 74
     0
 42
0.0000000001
 43
0.0000000001
 12
1.0
 22
0.0
 32
0.0
 13
1.0
 23
0.0
 33
0.0
 40
0.0
 40
0.0
 40
0.0
 40
0.0
 40
1.0
 40
1.0
 40
1.0
 40
2.0
 40
2.0
 40
2.0
 40
3.0
 40
3.0
 40
3.0
 40
4.0
 40
4.0
 40
4.0
 40
4.0
 10
99.41425914398324
 20
-155.2614962719485
 30
0.0
 10
99.1476087534249
 20
-155.2614962719485
 30
0.0
 10
99.09799937843731
 20
-155.5450276303846
 30
0.0
 10
99.09799937843731
 20
-155.8898816884581
 30
0.0
 10
99.09799937843731
 20
-156.2092420399408
 30
0.0
 10
99.13623993832358
 20
-156.5179225954192
 30
0.0
 10
99.41425914398324
 20
-156.5179225954192
 30
0.0
 10
99.67884247725043
 20
-156.5179225954192
 30
0.0
 10
99.7308634190777
 20
-156.2368028038227
 30
0.0
 10
99.7308634190777
 20
-155.8898816884581
 30
0.0
 10
99.7308634190777
 20
-155.5701768274269
 30
0.0
 10
99.69021129235176
 20
-155.2614962719485
 30
0.0
 10
99.41425914398324
 20
-155.2614962719485
 30
0.0
  0
HATCH
  5
B0
330
A8
100
AcDbEntity
  8
_U+30EC_U+30A4_U+30E4_U+30FC 1
 62
   179
420
  2234388
100
AcDbHatch
 10
0.0
 20
0.0
 30
0.0
210
0.0
220
0.0
230
1.0
  2
SOLID
 70
     1
 71
     0
 91
        2
 92
        1
 93
        1
 72
     4
 94
        3
 73
     0
 74
     1
 95
       29
 96
       25
 40
0.0
 40
0.0
 40
0.0
 40
0.0
 40
1.0
 40
1.0
 40
1.0
 40
2.0
 40
2.0
 40
2.0
 40
3.0
 40
3.0
 40
3.0
 40
4.0
 40
4.0
 40
4.0
 40
5.0
 40
5.0
 40
5.0
 40
6.0
 40
6.0
 40
6.0
 40
7.0
 40
7.0
 40
7.0
 40
8.0
 40
8.0
 40
8.0
 40
8.0
 10
99.83938392686308
 20
-156.4841606596637
 10
99.72397322810721
 20
-156.6936224651669
 10
99.53862709100076
 20
-156.7125704903358
 10
99.41425914398324
 20
-156.7125704903358
 10
99.2426933888178
 20
-156.7125704903358
 10
99.09110918746681
 20
-156.6660617012849
 10
98.98947887065194
 20
-156.4841606596637
 10
98.8785467960269
 20
-156.2895127647471
 10
98.85822073266392
 20
-156.0528347049104
 10
98.85822073266392
 20
-155.8898816884581
 10
98.85822073266392
 20
-155.7458766971747
 10
98.87647973873574
 20
-155.4940402172029
 10
98.98947887065194
 20
-155.295258207704
 10
99.10454505985929
 20
-155.0923420836228
 10
99.27645532457325
 20
-155.0689154343231
 10
99.41425914398324
 20
-155.0689154343231
 10
99.58410235140606
 20
-155.0689154343231
 10
99.7377536100482
 20
-155.1133571660828
 10
99.83938392686308
 20
-155.295258207704
 10
99.9458373773573
 20
-155.4878390453294
 10
99.97064206485109
 20
-155.7162488760015
 10
99.97064206485109
 20
-155.8898816884581
 10
99.97064206485109
 20
-156.061102934075
 10
99.94790443464845
 20
-156.2915798220382
 10
99.83938392686308
 20
-156.4841606596637
 97
        0
 97
        0
 92
        1
 93
        1
 72
     4
 94
        3
 73
     0
 74
     1
 95
       17
 96
       13
 40
0.0
 40
0.0
 40
0.0
 40
0.0
 40
1.0
 40
1.0
 40
1.0
 40
2.0
 40
2.0
 40
2.0
 40
3.0
 40
3.0
 40
3.0
 40
4.0
 40
4.0
 40
4.0
 40
4.0
 10
99.41425914398324
 20
-155.2614962719485
 10
99.1476087534249
 20
-155.2614962719485
 10
99.09799937843731
 20
-155.5450276303846
 10
99.09799937843731
 20
-155.8898816884581
 10
99.09799937843731
 20
-156.2092420399408
 10
99.13623993832358
 20
-156.5179225954192
 10
99.41425914398324
 20
-156.5179225954192
 10
99.67884247725043
 20
-156.5179225954192
 10
99.7308634190777
 20
-156.2368028038227
 10
99.7308634190777
 20
-155.8898816884581
 10
99.7308634190777
 20
-155.5701768274269
 10
99.69021129235176
 20
-155.2614962719485
 10
99.41425914398324
 20
-155.2614962719485
 97
        0
 97
        0
 75
     2
 76
     1
 98
        0
  0
ENDBLK
  5
AB
330
A8
100
AcDbEntity
  8
0
100
AcDbBlockEnd
  0
BLOCK
  5
BB
330
B9
100
AcDbEntity
  8
0
100
AcDbBlockBegin
  2
block 5
 70
     0
 10
0.0
 20
0.0
 30
0.0
  3
block 5
  1

  0
SPLINE
  5
BD
330
B9
100
AcDbEntity
  8
_U+30EC_U+30A4_U+30E4_U+30FC 1
370
     0
100
AcDbSpline
210
0.0
220
0.0
230
1.0
 70
    11
 71
     3
 72
    32
 73
    28
 74
     0
 42
0.0000000001
 43
0.0000000001
 12
1.0
 22
0.0
 32
0.0
 13
1.0
 23
0.0
 33
0.0
 40
0.0
 40
0.0
 40
0.0
 40
0.0
 40
1.0
 40
1.0
 40
1.0
 40
2.0
 40
2.0
 40
2.0
 40
3.0
 40
3.0
 40
3.0
 40
4.0
 40
4.0
 40
4.0
 40
5.0
 40
5.0
 40
5.0
 40
6.0
 40
6.0
 40
6.0
 40
7.0
 40
7.0
 40
7.0
 40
8.0
 40
8.0
 40
8.0
 40
9.0
 40
9.0
 40
9.0
 40
9.0
 10
90.82770315654655
 20
-156.7125704903358
 30
0.0
 10
90.27597111458378
 20
-156.7125704903358
 30
0.0
 10
90.26701386632215
 20
-156.1585991363076
 30
0.0
 10
90.26701386632215
 20
-155.9446587066736
 30
0.0
 10
90.26701386632215
 20
-155.7141818187104
 30
0.0
 10
90.28733992968512
 20
-155.0668483770319
 30
0.0
 10
90.86835528327249
 20
-155.0668483770319
 30
0.0
 10
91.0538736751532
 20
-155.0668483770319
 30
0.0
 10
91.31604544158071
 20
-155.1367838153825
 30
0.0
 10
91.35669756830666
 20
-155.4688910201606
 30
0.0
 10
91.35669756830666
 20
-155.4688910201606
 30
0.0
 10
91.12845999240886
 20
-155.4688910201606
 30
0.0
 10
91.12845999240886
 20
-155.4688910201606
 30
0.0
 10
91.11709117730754
 20
-155.4117024351054
 30
0.0
 10
91.08315698677782
 20
-155.2635633292397
 30
0.0
 10
90.86611597120708
 20
-155.2635633292397
 30
0.0
 10
90.55416257501771
 20
-155.2635633292397
 30
0.0
 10
90.51127113622636
 20
-155.5915364194354
 30
0.0
 10
90.49766300905962
 20
-155.7965196008078
 30
0.0
 10
90.59705401380907
 20
-155.7183159332926
 30
0.0
 10
90.66940101899932
 20
-155.6590602909463
 30
0.0
 10
90.86387665914167
 20
-155.6590602909463
 30
0.0
 10
91.05611298721861
 20
-155.6590602909463
 30
0.0
 10
91.37943519850931
 20
-155.7672362891832
 30
0.0
 10
91.37943519850931
 20
-156.1734130468942
 30
0.0
 10
91.37943519850931
 20
-156.4927733983768
 30
0.0
 10
91.1668728070694
 20
-156.7125704903358
 30
0.0
 10
90.82770315654655
 20
-156.7125704903358
 30
0.0
  0
SPLINE
  5
BE
330
B9
100
AcDbEntity
  8
_U+30EC_U+30A4_U+30E4_U+30FC 1
370
     0
100
AcDbSpline
210
0.0
220
0.0
230
1.0
 70
    11
 71
     3
 72
    17
 73
    13
 74
     0
 42
0.0000000001
 43
0.0000000001
 12
1.0
 22
0.0
 32
0.0
 13
1.0
 23
0.0
 33
0.0
 40
0.0
 40
0.0
 40
0.0
 40
0.0
 40
1.0
 40
1.0
 40
1.0
 40
2.0
 40
2.0
 40
2.0
 40
3.0
 40
3.0
 40
3.0
 40
4.0
 40
4.0
 40
4.0
 40
4.0
 10
90.84578990784411
 20
-155.853708185863
 30
0.0
 10
90.56535913534478
 20
-155.853708185863
 30
0.0
 10
90.52470700861883
 20
-156.0652370486573
 30
0.0
 10
90.52470700861883
 20
-156.1816812760588
 30
0.0
 10
90.52470700861883
 20
-156.3573811458065
 30
0.0
 10
90.62650958020797
 20
-156.5203341622588
 30
0.0
 10
90.82322453241572
 20
-156.5203341622588
 30
0.0
 10
90.95207110356407
 20
-156.5203341622588
 30
0.0
 10
91.13965655273593
 20
-156.4610785199125
 30
0.0
 10
91.13965655273593
 20
-156.1754801041853
 30
0.0
 10
91.13965655273593
 20
-155.9512043880955
 30
0.0
 10
90.99048391822461
 20
-155.853708185863
 30
0.0
 10
90.84578990784411
 20
-155.853708185863
 30
0.0
  0
HATCH
  5
BF
330
B9
100
AcDbEntity
  8
_U+30EC_U+30A4_U+30E4_U+30FC 1
 62
   179
420
  2234388
100
AcDbHatch
 10
0.0
 20
0.0
 30
0.0
210
0.0
220
0.0
230
1.0
  2
SOLID
 70
     1
 71
     0
 91
        2
 92
        1
 93
        1
 72
     4
 94
        3
 73
     0
 74
     1
 95
       32
 96
       28
 40
0.0
 40
0.0
 40
0.0
 40
0.0
 40
1.0
 40
1.0
 40
1.0
 40
2.0
 40
2.0
 40
2.0
 40
3.0
 40
3.0
 40
3.0
 40
4.0
 40
4.0
 40
4.0
 40
5.0
 40
5.0
 40
5.0
 40
6.0
 40
6.0
 40
6.0
 40
7.0
 40
7.0
 40
7.0
 40
8.0
 40
8.0
 40
8.0
 40
9.0
 40
9.0
 40
9.0
 40
9.0
 10
90.82770315654655
 20
-156.7125704903358
 10
90.27597111458378
 20
-156.7125704903358
 10
90.26701386632215
 20
-156.1585991363076
 10
90.26701386632215
 20
-155.9446587066736
 10
90.26701386632215
 20
-155.7141818187104
 10
90.28733992968512
 20
-155.0668483770319
 10
90.86835528327249
 20
-155.0668483770319
 10
91.0538736751532
 20
-155.0668483770319
 10
91.31604544158071
 20
-155.1367838153825
 10
91.35669756830666
 20
-155.4688910201606
 10
91.35669756830666
 20
-155.4688910201606
 10
91.12845999240886
 20
-155.4688910201606
 10
91.12845999240886
 20
-155.4688910201606
 10
91.11709117730754
 20
-155.4117024351054
 10
91.08315698677782
 20
-155.2635633292397
 10
90.86611597120708
 20
-155.2635633292397
 10
90.55416257501771
 20
-155.2635633292397
 10
90.51127113622636
 20
-155.5915364194354
 10
90.49766300905962
 20
-155.7965196008078
 10
90.59705401380907
 20
-155.7183159332926
 10
90.66940101899932
 20
-155.6590602909463
 10
90.86387665914167
 20
-155.6590602909463
 10
91.05611298721861
 20
-155.6590602909463
 10
91.37943519850931
 20
-155.7672362891832
 10
91.37943519850931
 20
-156.1734130468942
 10
91.37943519850931
 20
-156.4927733983768
 10
91.1668728070694
 20
-156.7125704903358
 10
90.82770315654655
 20
-156.7125704903358
 97
        0
 97
        0
 92
        1
 93
        1
 72
     4
 94
        3
 73
     0
 74
     1
 95
       17
 96
       13
 40
0.0
 40
0.0
 40
0.0
 40
0.0
 40
1.0
 40
1.0
 40
1.0
 40
2.0
 40
2.0
 40
2.0
 40
3.0
 40
3.0
 40
3.0
 40
4.0
 40
4.0
 40
4.0
 40
4.0
 10
90.84578990784411
 20
-155.853708185863
 10
90.56535913534478
 20
-155.853708185863
 10
90.52470700861883
 20
-156.0652370486573
 10
90.52470700861883
 20
-156.1816812760588
 10
90.52470700861883
 20
-156.3573811458065
 10
90.62650958020797
 20
-156.5203341622588
 10
90.82322453241572
 20
-156.5203341622588
 10
90.95207110356407
 20
-156.5203341622588
 10
91.13965655273593
 20
-156.4610785199125
 10
91.13965655273593
 20
-156.1754801041853
 10
91.13965655273593
 20
-155.9512043880955
 10
90.99048391822461
 20
-155.853708185863
 10
90.84578990784411
 20
-155.853708185863
 97
        0
 97
        0
 75
     2
 76
     1
 98
        0
  0
ENDBLK
  5
BC
330
B9
100
AcDbEntity
  8
0
100
AcDbBlockEnd
  0
BLOCK
  5
D2
330
D0
100
AcDbEntity
  8
0
100
AcDbBlockBegin
  2
block 6
 70
     0
 10
0.0
 20
0.0
 30
0.0
  3
block 6
  1

  0
SPLINE
  5
D4
330
D0
100
AcDbEntity
  8
_U+30EC_U+30A4_U+30E4_U+30FC 1
370
     0
100
AcDbSpline
210
0.0
220
0.0
230
1.0
 70
    11
 71
     3
 72
    29
 73
    25
 74
     0
 42
0.0000000001
 43
0.0000000001
 12
1.0
 22
0.0
 32
0.0
 13
1.0
 23
0.0
 33
0.0
 40
0.0
 40
0.0
 40
0.0
 40
0.0
 40
1.0
 40
1.0
 40
1.0
 40
2.0
 40
2.0
 40
2.0
 40
3.0
 40
3.0
 40
3.0
 40
4.0
 40
4.0
 40
4.0
 40
5.0
 40
5.0
 40
5.0
 40
6.0
 40
6.0
 40
6.0
 40
7.0
 40
7.0
 40
7.0
 40
8.0
 40
8.0
 40
8.0
 40
8.0
 10
106.3008327642234
 20
-150.3133056264842
 30
0.0
 10
106.5102945697266
 20
-150.4287163252401
 30
0.0
 10
106.5292425948955
 20
-150.6140624623465
 30
0.0
 10
106.5292425948955
 20
-150.738430409364
 30
0.0
 10
106.5292425948955
 20
-150.9099961645294
 30
0.0
 10
106.4827338058446
 20
-151.0615803658804
 30
0.0
 10
106.3008327642234
 20
-151.1632106826953
 30
0.0
 10
106.1061848693068
 20
-151.2741427573204
 30
0.0
 10
105.8695068094701
 20
-151.2944688206833
 30
0.0
 10
105.7065537930178
 20
-151.2944688206833
 30
0.0
 10
105.5625488017344
 20
-151.2944688206833
 30
0.0
 10
105.3105400669883
 20
-151.27655432416
 30
0.0
 10
105.1117580574894
 20
-151.1632106826953
 30
0.0
 10
104.9088419334082
 20
-151.048144493488
 30
0.0
 10
104.8854152841085
 20
-150.876234228774
 30
0.0
 10
104.8854152841085
 20
-150.738430409364
 30
0.0
 10
104.8854152841085
 20
-150.5685872019412
 30
0.0
 10
104.9298570158682
 20
-150.414935943299
 30
0.0
 10
105.1117580574894
 20
-150.3133056264842
 30
0.0
 10
105.3043388951149
 20
-150.20685217599
 30
0.0
 10
105.5329209805612
 20
-150.1820474884962
 30
0.0
 10
105.7065537930178
 20
-150.1820474884962
 30
0.0
 10
105.8777750386347
 20
-150.1820474884962
 30
0.0
 10
106.1082519265979
 20
-150.2047851186988
 30
0.0
 10
106.3008327642234
 20
-150.3133056264842
 30
0.0
  0
SPLINE
  5
D5
330
D0
100
AcDbEntity
  8
_U+30EC_U+30A4_U+30E4_U+30FC 1
370
     0
100
AcDbSpline
210
0.0
220
0.0
230
1.0
 70
    11
 71
     3
 72
    17
 73
    13
 74
     0
 42
0.0000000001
 43
0.0000000001
 12
1.0
 22
0.0
 32
0.0
 13
1.0
 23
0.0
 33
0.0
 40
0.0
 40
0.0
 40
0.0
 40
0.0
 40
1.0
 40
1.0
 40
1.0
 40
2.0
 40
2.0
 40
2.0
 40
3.0
 40
3.0
 40
3.0
 40
4.0
 40
4.0
 40
4.0
 40
4.0
 10
105.077996121734
 20
-150.738430409364
 30
0.0
 10
105.077996121734
 20
-151.0050807999224
 30
0.0
 10
105.36152748017
 20
-151.05469017491
 30
0.0
 10
105.7065537930178
 20
-151.05469017491
 30
0.0
 10
106.0259141445005
 20
-151.05469017491
 30
0.0
 10
106.3345946999789
 20
-151.0164496150237
 30
0.0
 10
106.3345946999789
 20
-150.738430409364
 30
0.0
 10
106.3345946999789
 20
-150.4738470760968
 30
0.0
 10
106.0534749083825
 20
-150.4218261342695
 30
0.0
 10
105.7065537930178
 20
-150.4218261342695
 30
0.0
 10
105.3866766772124
 20
-150.4218261342695
 30
0.0
 10
105.077996121734
 20
-150.4624782609955
 30
0.0
 10
105.077996121734
 20
-150.738430409364
 30
0.0
  0
HATCH
  5
D6
330
D0
100
AcDbEntity
  8
_U+30EC_U+30A4_U+30E4_U+30FC 1
 62
   179
420
  2234388
100
AcDbHatch
 10
0.0
 20
0.0
 30
0.0
210
0.0
220
0.0
230
1.0
  2
SOLID
 70
     1
 71
     0
 91
        2
 92
        1
 93
        1
 72
     4
 94
        3
 73
     0
 74
     1
 95
       29
 96
       25
 40
0.0
 40
0.0
 40
0.0
 40
0.0
 40
1.0
 40
1.0
 40
1.0
 40
2.0
 40
2.0
 40
2.0
 40
3.0
 40
3.0
 40
3.0
 40
4.0
 40
4.0
 40
4.0
 40
5.0
 40
5.0
 40
5.0
 40
6.0
 40
6.0
 40
6.0
 40
7.0
 40
7.0
 40
7.0
 40
8.0
 40
8.0
 40
8.0
 40
8.0
 10
106.3008327642234
 20
-150.3133056264842
 10
106.5102945697266
 20
-150.4287163252401
 10
106.5292425948955
 20
-150.6140624623465
 10
106.5292425948955
 20
-150.738430409364
 10
106.5292425948955
 20
-150.9099961645294
 10
106.4827338058446
 20
-151.0615803658804
 10
106.3008327642234
 20
-151.1632106826953
 10
106.1061848693068
 20
-151.2741427573204
 10
105.8695068094701
 20
-151.2944688206833
 10
105.7065537930178
 20
-151.2944688206833
 10
105.5625488017344
 20
-151.2944688206833
 10
105.3105400669883
 20
-151.27655432416
 10
105.1117580574894
 20
-151.1632106826953
 10
104.9088419334082
 20
-151.048144493488
 10
104.8854152841085
 20
-150.876234228774
 10
104.8854152841085
 20
-150.738430409364
 10
104.8854152841085
 20
-150.5685872019412
 10
104.9298570158682
 20
-150.414935943299
 10
105.1117580574894
 20
-150.3133056264842
 10
105.3043388951149
 20
-150.20685217599
 10
105.5329209805612
 20
-150.1820474884962
 10
105.7065537930178
 20
-150.1820474884962
 10
105.8777750386347
 20
-150.1820474884962
 10
106.1082519265979
 20
-150.2047851186988
 10
106.3008327642234
 20
-150.3133056264842
 97
        0
 97
        0
 92
        1
 93
        1
 72
     4
 94
        3
 73
     0
 74
     1
 95
       17
 96
       13
 40
0.0
 40
0.0
 40
0.0
 40
0.0
 40
1.0
 40
1.0
 40
1.0
 40
2.0
 40
2.0
 40
2.0
 40
3.0
 40
3.0
 40
3.0
 40
4.0
 40
4.0
 40
4.0
 40
4.0
 10
105.077996121734
 20
-150.738430409364
 10
105.077996121734
 20
-151.0050807999224
 10
105.36152748017
 20
-151.05469017491
 10
105.7065537930178
 20
-151.05469017491
 10
106.0259141445005
 20
-151.05469017491
 10
106.3345946999789
 20
-151.0164496150237
 10
106.3345946999789
 20
-150.738430409364
 10
106.3345946999789
 20
-150.4738470760968
 10
106.0534749083825
 20
-150.4218261342695
 10
105.7065537930178
 20
-150.4218261342695
 10
105.3866766772124
 20
-150.4218261342695
 10
105.077996121734
 20
-150.4624782609955
 10
105.077996121734
 20
-150.738430409364
 97
        0
 97
        0
 75
     2
 76
     1
 98
        0
  0
POLYLINE
  5
D7
330
D0
100
AcDbEntity
  8
_U+30EC_U+30A4_U+30E4_U+30FC 1
370
     0
100
AcDb2dPolyline
 66
     1
 10
0.0
 20
0.0
 30
0.0
  0
VERTEX
  5
D8
330
D7
100
AcDbEntity
  8
_U+30EC_U+30A4_U+30E4_U+30FC 1
370
     0
100
AcDbVertex
100
AcDb2dVertex
 10
106.4785996912623
 20
-149.9508815814359
 30
0.0
  0
VERTEX
  5
D9
330
D7
100
AcDbEntity
  8
_U+30EC_U+30A4_U+30E4_U+30FC 1
370
     0
100
AcDbVertex
100
AcDb2dVertex
 10
106.2267632112905
 20
-149.9508815814359
 30
0.0
  0
VERTEX
  5
DA
330
D7
100
AcDbEntity
  8
_U+30EC_U+30A4_U+30E4_U+30FC 1
370
     0
100
AcDbVertex
100
AcDb2dVertex
 10
106.2267632112905
 20
-149.6818196240379
 30
0.0
  0
VERTEX
  5
DB
330
D7
100
AcDbEntity
  8
_U+30EC_U+30A4_U+30E4_U+30FC 1
370
     0
100
AcDbVertex
100
AcDb2dVertex
 10
106.4785996912623
 20
-149.6818196240379
 30
0.0
  0
VERTEX
  5
DC
330
D7
100
AcDbEntity
  8
_U+30EC_U+30A4_U+30E4_U+30FC 1
370
     0
100
AcDbVertex
100
AcDb2dVertex
 10
106.4785996912623
 20
-149.9508815814359
 30
0.0
  0
SEQEND
  5
DD
330
D7
100
AcDbEntity
  8
_U+30EC_U+30A4_U+30E4_U+30FC 1
370
     0
  0
HATCH
  5
DE
330
D0
100
AcDbEntity
  8
_U+30EC_U+30A4_U+30E4_U+30FC 1
 62
   179
420
  2234388
100
AcDbHatch
 10
0.0
 20
0.0
 30
0.0
210
0.0
220
0.0
230
1.0
  2
SOLID
 70
     1
 71
     0
 91
        1
 92
        1
 93
        4
 72
     1
 10
106.4785996912623
 20
-149.9508815814359
 11
106.2267632112905
 21
-149.9508815814359
 72
     1
 10
106.2267632112905
 20
-149.9508815814359
 11
106.2267632112905
 21
-149.6818196240379
 72
     1
 10
106.2267632112905
 20
-149.6818196240379
 11
106.4785996912623
 21
-149.6818196240379
 72
     1
 10
106.4785996912623
 20
-149.6818196240379
 11
106.4785996912623
 21
-149.9508815814359
 97
        0
 75
     2
 76
     1
 98
        0
  0
SPLINE
  5
DF
330
D0
100
AcDbEntity
  8
_U+30EC_U+30A4_U+30E4_U+30FC 1
370
     0
100
AcDbSpline
210
0.0
220
0.0
230
1.0
 70
    11
 71
     3
 72
    53
 73
    49
 74
     0
 42
0.0000000001
 43
0.0000000001
 12
1.0
 22
0.0
 32
0.0
 13
1.0
 23
0.0
 33
0.0
 40
0.0
 40
0.0
 40
0.0
 40
0.0
 40
1.0
 40
1.0
 40
1.0
 40
2.0
 40
2.0
 40
2.0
 40
3.0
 40
3.0
 40
3.0
 40
4.0
 40
4.0
 40
4.0
 40
5.0
 40
5.0
 40
5.0
 40
6.0
 40
6.0
 40
6.0
 40
7.0
 40
7.0
 40
7.0
 40
8.0
 40
8.0
 40
8.0
 40
9.0
 40
9.0
 40
9.0
 40
10.0
 40
10.0
 40
10.0
 40
11.0
 40
11.0
 40
11.0
 40
12.0
 40
12.0
 40
12.0
 40
13.0
 40
13.0
 40
13.0
 40
14.0
 40
14.0
 40
14.0
 40
15.0
 40
15.0
 40
15.0
 40
16.0
 40
16.0
 40
16.0
 40
16.0
 10
106.5292425948955
 20
-148.9149413690213
 30
0.0
 10
106.5292425948955
 20
-148.9986571893128
 30
0.0
 10
106.5123616270178
 20
-149.1068331875497
 30
0.0
 10
106.4489718700892
 20
-149.2156982048836
 30
0.0
 10
106.3390733241097
 20
-149.40104434199
 30
0.0
 10
106.2078151861217
 20
-149.4234374626442
 30
0.0
 10
106.0999836974333
 20
-149.4437635260071
 30
0.0
 10
106.0999836974333
 20
-149.4437635260071
 30
0.0
 10
106.0999836974333
 20
-149.2063964470734
 30
0.0
 10
106.0999836974333
 20
-149.2063964470734
 30
0.0
 10
106.2987657069323
 20
-149.1478298238242
 30
0.0
 10
106.3283935281054
 20
-149.0120930617053
 30
0.0
 10
106.3283935281054
 20
-148.9125298021816
 30
0.0
 10
106.3283935281054
 20
-148.7633571676703
 30
0.0
 10
106.2288302685817
 20
-148.600404151218
 30
0.0
 10
105.9962863233273
 20
-148.600404151218
 30
0.0
 10
105.7403157287733
 20
-148.600404151218
 30
0.0
 10
105.6703802904227
 20
-148.7926404792949
 30
0.0
 10
105.6703802904227
 20
-148.9214870504432
 30
0.0
 10
105.6703802904227
 20
-148.9555934957472
 30
0.0
 10
105.6703802904227
 20
-149.1068331875497
 30
0.0
 10
105.7995713711196
 20
-149.2019178229426
 30
0.0
 10
105.7995713711196
 20
-149.2019178229426
 30
0.0
 10
105.7806233459507
 20
-149.3896755268887
 30
0.0
 10
105.7806233459507
 20
-149.3896755268887
 30
0.0
 10
105.7806233459507
 20
-149.3896755268887
 30
0.0
 10
104.9339911304505
 20
-149.2608289557404
 30
0.0
 10
104.9339911304505
 20
-149.2608289557404
 30
0.0
 10
104.9339911304505
 20
-149.2608289557404
 30
0.0
 10
104.9339911304505
 20
-148.4288383960525
 30
0.0
 10
104.9339911304505
 20
-148.4288383960525
 30
0.0
 10
104.9339911304505
 20
-148.4288383960525
 30
0.0
 10
105.1286390253671
 20
-148.4288383960525
 30
0.0
 10
105.1286390253671
 20
-148.4288383960525
 30
0.0
 10
105.1286390253671
 20
-148.4288383960525
 30
0.0
 10
105.1286390253671
 20
-149.0865071241867
 30
0.0
 10
105.1286390253671
 20
-149.0865071241867
 30
0.0
 10
105.1286390253671
 20
-149.0865071241867
 30
0.0
 10
105.5518690057301
 20
-149.1567870720858
 30
0.0
 10
105.5518690057301
 20
-149.1567870720858
 30
0.0
 10
105.5181070699746
 20
-149.0913302578661
 30
0.0
 10
105.477627198023
 20
-149.0031358134437
 30
0.0
 10
105.477627198023
 20
-148.8763562995865
 30
0.0
 10
105.477627198023
 20
-148.6052272848973
 30
0.0
 10
105.6641791185492
 20
-148.3520127667314
 30
0.0
 10
105.9773382981584
 20
-148.3520127667314
 30
0.0
 10
106.29463159235
 20
-148.3520127667314
 30
0.0
 10
106.5292425948955
 20
-148.5914469029563
 30
0.0
 10
106.5292425948955
 20
-148.9149413690213
 30
0.0
  0
HATCH
  5
E0
330
D0
100
AcDbEntity
  8
_U+30EC_U+30A4_U+30E4_U+30FC 1
 62
   179
420
  2234388
100
AcDbHatch
 10
0.0
 20
0.0
 30
0.0
210
0.0
220
0.0
230
1.0
  2
SOLID
 70
     1
 71
     0
 91
        1
 92
        1
 93
        1
 72
     4
 94
        3
 73
     0
 74
     1
 95
       53
 96
       49
 40
0.0
 40
0.0
 40
0.0
 40
0.0
 40
1.0
 40
1.0
 40
1.0
 40
2.0
 40
2.0
 40
2.0
 40
3.0
 40
3.0
 40
3.0
 40
4.0
 40
4.0
 40
4.0
 40
5.0
 40
5.0
 40
5.0
 40
6.0
 40
6.0
 40
6.0
 40
7.0
 40
7.0
 40
7.0
 40
8.0
 40
8.0
 40
8.0
 40
9.0
 40
9.0
 40
9.0
 40
10.0
 40
10.0
 40
10.0
 40
11.0
 40
11.0
 40
11.0
 40
12.0
 40
12.0
 40
12.0
 40
13.0
 40
13.0
 40
13.0
 40
14.0
 40
14.0
 40
14.0
 40
15.0
 40
15.0
 40
15.0
 40
16.0
 40
16.0
 40
16.0
 40
16.0
 10
106.5292425948955
 20
-148.9149413690213
 10
106.5292425948955
 20
-148.9986571893128
 10
106.5123616270178
 20
-149.1068331875497
 10
106.4489718700892
 20
-149.2156982048836
 10
106.3390733241097
 20
-149.40104434199
 10
106.2078151861217
 20
-149.4234374626442
 10
106.0999836974333
 20
-149.4437635260071
 10
106.0999836974333
 20
-149.4437635260071
 10
106.0999836974333
 20
-149.2063964470734
 10
106.0999836974333
 20
-149.2063964470734
 10
106.2987657069323
 20
-149.1478298238242
 10
106.3283935281054
 20
-149.0120930617053
 10
106.3283935281054
 20
-148.9125298021816
 10
106.3283935281054
 20
-148.7633571676703
 10
106.2288302685817
 20
-148.600404151218
 10
105.9962863233273
 20
-148.600404151218
 10
105.7403157287733
 20
-148.600404151218
 10
105.6703802904227
 20
-148.7926404792949
 10
105.6703802904227
 20
-148.9214870504432
 10
105.6703802904227
 20
-148.9555934957472
 10
105.6703802904227
 20
-149.1068331875497
 10
105.7995713711196
 20
-149.2019178229426
 10
105.7995713711196
 20
-149.2019178229426
 10
105.7806233459507
 20
-149.3896755268887
 10
105.7806233459507
 20
-149.3896755268887
 10
105.7806233459507
 20
-149.3896755268887
 10
104.9339911304505
 20
-149.2608289557404
 10
104.9339911304505
 20
-149.2608289557404
 10
104.9339911304505
 20
-149.2608289557404
 10
104.9339911304505
 20
-148.4288383960525
 10
104.9339911304505
 20
-148.4288383960525
 10
104.9339911304505
 20
-148.4288383960525
 10
105.1286390253671
 20
-148.4288383960525
 10
105.1286390253671
 20
-148.4288383960525
 10
105.1286390253671
 20
-148.4288383960525
 10
105.1286390253671
 20
-149.0865071241867
 10
105.1286390253671
 20
-149.0865071241867
 10
105.1286390253671
 20
-149.0865071241867
 10
105.5518690057301
 20
-149.1567870720858
 10
105.5518690057301
 20
-149.1567870720858
 10
105.5181070699746
 20
-149.0913302578661
 10
105.477627198023
 20
-149.0031358134437
 10
105.477627198023
 20
-148.8763562995865
 10
105.477627198023
 20
-148.6052272848973
 10
105.6641791185492
 20
-148.3520127667314
 10
105.9773382981584
 20
-148.3520127667314
 10
106.29463159235
 20
-148.3520127667314
 10
106.5292425948955
 20
-148.5914469029563
 10
106.5292425948955
 20
-148.9149413690213
 97
        0
 97
        0
 75
     2
 76
     1
 98
        0
  0
ENDBLK
  5
D3
330
D0
100
AcDbEntity
  8
0
100
AcDbBlockEnd
  0
BLOCK
  5
EF
330
ED
100
AcDbEntity
  8
0
100
AcDbBlockBegin
  2
block 7
 70
     0
 10
0.0
 20
0.0
 30
0.0
  3
block 7
  1

  0
SPLINE
  5
F1
330
ED
100
AcDbEntity
  8
_U+30EC_U+30A4_U+30E4_U+30FC 1
370
     0
100
AcDbSpline
210
0.0
220
0.0
230
1.0
 70
    11
 71
     3
 72
    62
 73
    58
 74
     0
 42
0.0000000001
 43
0.0000000001
 12
1.0
 22
0.0
 32
0.0
 13
1.0
 23
0.0
 33
0.0
 40
0.0
 40
0.0
 40
0.0
 40
0.0
 40
1.0
 40
1.0
 40
1.0
 40
2.0
 40
2.0
 40
2.0
 40
3.0
 40
3.0
 40
3.0
 40
4.0
 40
4.0
 40
4.0
 40
5.0
 40
5.0
 40
5.0
 40
6.0
 40
6.0
 40
6.0
 40
7.0
 40
7.0
 40
7.0
 40
8.0
 40
8.0
 40
8.0
 40
9.0
 40
9.0
 40
9.0
 40
10.0
 40
10.0
 40
10.0
 40
11.0
 40
11.0
 40
11.0
 40
12.0
 40
12.0
 40
12.0
 40
13.0
 40
13.0
 40
13.0
 40
14.0
 40
14.0
 40
14.0
 40
15.0
 40
15.0
 40
15.0
 40
16.0
 40
16.0
 40
16.0
 40
17.0
 40
17.0
 40
17.0
 40
18.0
 40
18.0
 40
18.0
 40
19.0
 40
19.0
 40
19.0
 40
19.0
 10
102.1475979019805
 20
-140.2126301732802
 30
0.0
 10
102.0459675851656
 20
-140.2126301732802
 30
0.0
 10
101.8130791303627
 20
-140.1916150908202
 30
0.0
 10
101.6797539350835
 20
-140.0055799346167
 30
0.0
 10
101.6005167389228
 20
-139.8932698217975
 30
0.0
 10
101.596038114792
 20
-139.7940510718223
 30
0.0
 10
101.5915594906611
 20
-139.7093017228852
 30
0.0
 10
101.5915594906611
 20
-139.7093017228852
 30
0.0
 10
101.8265150027552
 20
-139.7093017228852
 30
0.0
 10
101.8265150027552
 20
-139.7093017228852
 30
0.0
 10
101.8289265695949
 20
-139.783371275818
 30
0.0
 10
101.8402953846962
 20
-140.0179822783636
 30
0.0
 10
102.1431192778496
 20
-140.0179822783636
 30
0.0
 10
102.2902248550698
 20
-140.0179822783636
 30
0.0
 10
102.4528333619736
 20
-139.9483913495615
 30
0.0
 10
102.4528333619736
 20
-139.7199815188895
 30
0.0
 10
102.4528333619736
 20
-139.603537291488
 30
0.0
 10
102.4121812352477
 20
-139.554961445146
 30
0.0
 10
102.3780747899437
 20
-139.5232665666817
 30
0.0
 10
102.2991821033315
 20
-139.4491970137488
 30
0.0
 10
102.1748141563139
 20
-139.4364501604534
 30
0.0
 10
102.1159030235162
 20
-139.4364501604534
 30
0.0
 10
102.0955769601532
 20
-139.4364501604534
 30
0.0
 10
102.0573364002669
 20
-139.4385172177445
 30
0.0
 10
102.0277085790938
 20
-139.4426513323268
 30
0.0
 10
102.0277085790938
 20
-139.4426513323268
 30
0.0
 10
102.0277085790938
 20
-139.2480034374102
 30
0.0
 10
102.0277085790938
 20
-139.2480034374102
 30
0.0
 10
102.0683607058197
 20
-139.2545491188322
 30
0.0
 10
102.113835966225
 20
-139.2566161761233
 30
0.0
 10
102.120381647647
 20
-139.2566161761233
 30
0.0
 10
102.1906615955461
 20
-139.2566161761233
 30
0.0
 10
102.403223986986
 20
-139.2352565841148
 30
0.0
 10
102.403223986986
 20
-138.9985785242781
 30
0.0
 10
102.403223986986
 20
-138.8208115972392
 30
0.0
 10
102.2630086007363
 20
-138.7656900694753
 30
0.0
 10
102.1455308446893
 20
-138.7656900694753
 30
0.0
 10
101.8626885053503
 20
-138.7656900694753
 30
0.0
 10
101.8537312570887
 20
-138.9985785242781
 30
0.0
 10
101.8492526329578
 20
-139.0702365103713
 30
0.0
 10
101.8492526329578
 20
-139.0702365103713
 30
0.0
 10
101.6322116173871
 20
-139.0702365103713
 30
0.0
 10
101.6322116173871
 20
-139.0702365103713
 30
0.0
 10
101.6411688656487
 20
-138.9455240538053
 30
0.0
 10
101.6704521772734
 20
-138.5689751172675
 30
0.0
 10
102.1589667170818
 20
-138.5689751172675
 30
0.0
 10
102.3987453628552
 20
-138.5689751172675
 30
0.0
 10
102.6564385051519
 20
-138.6960991406732
 30
0.0
 10
102.6564385051519
 20
-138.9920328428562
 30
0.0
 10
102.6564385051519
 20
-139.1784125086082
 30
0.0
 10
102.5544636787885
 20
-139.2607502907057
 30
0.0
 10
102.4483547378428
 20
-139.3220729903431
 30
0.0
 10
102.5138115520625
 20
-139.3496337542251
 30
0.0
 10
102.7084594469791
 20
-139.4299044790314
 30
0.0
 10
102.7084594469791
 20
-139.707234665594
 30
0.0
 10
102.7084594469791
 20
-140.0455430422456
 30
0.0
 10
102.443876113712
 20
-140.2126301732802
 30
0.0
 10
102.1475979019805
 20
-140.2126301732802
 30
0.0
  0
HATCH
  5
F2
330
ED
100
AcDbEntity
  8
_U+30EC_U+30A4_U+30E4_U+30FC 1
 62
   179
420
  2234388
100
AcDbHatch
 10
0.0
 20
0.0
 30
0.0
210
0.0
220
0.0
230
1.0
  2
SOLID
 70
     1
 71
     0
 91
        1
 92
        1
 93
        1
 72
     4
 94
        3
 73
     0
 74
     1
 95
       62
 96
       58
 40
0.0
 40
0.0
 40
0.0
 40
0.0
 40
1.0
 40
1.0
 40
1.0
 40
2.0
 40
2.0
 40
2.0
 40
3.0
 40
3.0
 40
3.0
 40
4.0
 40
4.0
 40
4.0
 40
5.0
 40
5.0
 40
5.0
 40
6.0
 40
6.0
 40
6.0
 40
7.0
 40
7.0
 40
7.0
 40
8.0
 40
8.0
 40
8.0
 40
9.0
 40
9.0
 40
9.0
 40
10.0
 40
10.0
 40
10.0
 40
11.0
 40
11.0
 40
11.0
 40
12.0
 40
12.0
 40
12.0
 40
13.0
 40
13.0
 40
13.0
 40
14.0
 40
14.0
 40
14.0
 40
15.0
 40
15.0
 40
15.0
 40
16.0
 40
16.0
 40
16.0
 40
17.0
 40
17.0
 40
17.0
 40
18.0
 40
18.0
 40
18.0
 40
19.0
 40
19.0
 40
19.0
 40
19.0
 10
102.1475979019805
 20
-140.2126301732802
 10
102.0459675851656
 20
-140.2126301732802
 10
101.8130791303627
 20
-140.1916150908202
 10
101.6797539350835
 20
-140.0055799346167
 10
101.6005167389228
 20
-139.8932698217975
 10
101.596038114792
 20
-139.7940510718223
 10
101.5915594906611
 20
-139.7093017228852
 10
101.5915594906611
 20
-139.7093017228852
 10
101.8265150027552
 20
-139.7093017228852
 10
101.8265150027552
 20
-139.7093017228852
 10
101.8289265695949
 20
-139.783371275818
 10
101.8402953846962
 20
-140.0179822783636
 10
102.1431192778496
 20
-140.0179822783636
 10
102.2902248550698
 20
-140.0179822783636
 10
102.4528333619736
 20
-139.9483913495615
 10
102.4528333619736
 20
-139.7199815188895
 10
102.4528333619736
 20
-139.603537291488
 10
102.4121812352477
 20
-139.554961445146
 10
102.3780747899437
 20
-139.5232665666817
 10
102.2991821033315
 20
-139.4491970137488
 10
102.1748141563139
 20
-139.4364501604534
 10
102.1159030235162
 20
-139.4364501604534
 10
102.0955769601532
 20
-139.4364501604534
 10
102.0573364002669
 20
-139.4385172177445
 10
102.0277085790938
 20
-139.4426513323268
 10
102.0277085790938
 20
-139.4426513323268
 10
102.0277085790938
 20
-139.2480034374102
 10
102.0277085790938
 20
-139.2480034374102
 10
102.0683607058197
 20
-139.2545491188322
 10
102.113835966225
 20
-139.2566161761233
 10
102.120381647647
 20
-139.2566161761233
 10
102.1906615955461
 20
-139.2566161761233
 10
102.403223986986
 20
-139.2352565841148
 10
102.403223986986
 20
-138.9985785242781
 10
102.403223986986
 20
-138.8208115972392
 10
102.2630086007363
 20
-138.7656900694753
 10
102.1455308446893
 20
-138.7656900694753
 10
101.8626885053503
 20
-138.7656900694753
 10
101.8537312570887
 20
-138.9985785242781
 10
101.8492526329578
 20
-139.0702365103713
 10
101.8492526329578
 20
-139.0702365103713
 10
101.6322116173871
 20
-139.0702365103713
 10
101.6322116173871
 20
-139.0702365103713
 10
101.6411688656487
 20
-138.9455240538053
 10
101.6704521772734
 20
-138.5689751172675
 10
102.1589667170818
 20
-138.5689751172675
 10
102.3987453628552
 20
-138.5689751172675
 10
102.6564385051519
 20
-138.6960991406732
 10
102.6564385051519
 20
-138.9920328428562
 10
102.6564385051519
 20
-139.1784125086082
 10
102.5544636787885
 20
-139.2607502907057
 10
102.4483547378428
 20
-139.3220729903431
 10
102.5138115520625
 20
-139.3496337542251
 10
102.7084594469791
 20
-139.4299044790314
 10
102.7084594469791
 20
-139.707234665594
 10
102.7084594469791
 20
-140.0455430422456
 10
102.443876113712
 20
-140.2126301732802
 10
102.1475979019805
 20
-140.2126301732802
 97
        0
 97
        0
 75
     2
 76
     1
 98
        0
  0
SPLINE
  5
F3
330
ED
100
AcDbEntity
  8
_U+30EC_U+30A4_U+30E4_U+30FC 1
370
     0
100
AcDbSpline
210
0.0
220
0.0
230
1.0
 70
    11
 71
     3
 72
    29
 73
    25
 74
     0
 42
0.0000000001
 43
0.0000000001
 12
1.0
 22
0.0
 32
0.0
 13
1.0
 23
0.0
 33
0.0
 40
0.0
 40
0.0
 40
0.0
 40
0.0
 40
1.0
 40
1.0
 40
1.0
 40
2.0
 40
2.0
 40
2.0
 40
3.0
 40
3.0
 40
3.0
 40
4.0
 40
4.0
 40
4.0
 40
5.0
 40
5.0
 40
5.0
 40
6.0
 40
6.0
 40
6.0
 40
7.0
 40
7.0
 40
7.0
 40
8.0
 40
8.0
 40
8.0
 40
8.0
 10
103.8394842947867
 20
-139.9842203426081
 30
0.0
 10
103.7240735960308
 20
-140.1936821481113
 30
0.0
 10
103.5387274589244
 20
-140.2126301732802
 30
0.0
 10
103.4143595119068
 20
-140.2126301732802
 30
0.0
 10
103.2427937567414
 20
-140.2126301732802
 30
0.0
 10
103.0912095553904
 20
-140.1661213842293
 30
0.0
 10
102.9895792385755
 20
-139.9842203426081
 30
0.0
 10
102.8786471639505
 20
-139.7895724476915
 30
0.0
 10
102.8583211005875
 20
-139.5528943878548
 30
0.0
 10
102.8583211005875
 20
-139.3899413714025
 30
0.0
 10
102.8583211005875
 20
-139.2459363801191
 30
0.0
 10
102.8762355971108
 20
-138.9940999001473
 30
0.0
 10
102.9895792385755
 20
-138.7953178906484
 30
0.0
 10
103.1046454277829
 20
-138.5924017665672
 30
0.0
 10
103.2765556924968
 20
-138.5689751172675
 30
0.0
 10
103.4143595119068
 20
-138.5689751172675
 30
0.0
 10
103.5842027193297
 20
-138.5689751172675
 30
0.0
 10
103.7378539779718
 20
-138.6134168490272
 30
0.0
 10
103.8394842947867
 20
-138.7953178906484
 30
0.0
 10
103.9459377452809
 20
-138.9878987282739
 30
0.0
 10
103.9707424327747
 20
-139.2163085589459
 30
0.0
 10
103.9707424327747
 20
-139.3899413714025
 30
0.0
 10
103.9707424327747
 20
-139.5611626170194
 30
0.0
 10
103.948004802572
 20
-139.7916395049826
 30
0.0
 10
103.8394842947867
 20
-139.9842203426081
 30
0.0
  0
SPLINE
  5
F4
330
ED
100
AcDbEntity
  8
_U+30EC_U+30A4_U+30E4_U+30FC 1
370
     0
100
AcDbSpline
210
0.0
220
0.0
230
1.0
 70
    11
 71
     3
 72
    17
 73
    13
 74
     0
 42
0.0000000001
 43
0.0000000001
 12
1.0
 22
0.0
 32
0.0
 13
1.0
 23
0.0
 33
0.0
 40
0.0
 40
0.0
 40
0.0
 40
0.0
 40
1.0
 40
1.0
 40
1.0
 40
2.0
 40
2.0
 40
2.0
 40
3.0
 40
3.0
 40
3.0
 40
4.0
 40
4.0
 40
4.0
 40
4.0
 10
103.4143595119068
 20
-138.7615559548929
 30
0.0
 10
103.1477091213485
 20
-138.7615559548929
 30
0.0
 10
103.0980997463609
 20
-139.045087313329
 30
0.0
 10
103.0980997463609
 20
-139.3899413714025
 30
0.0
 10
103.0980997463609
 20
-139.7093017228852
 30
0.0
 10
103.1363403062472
 20
-140.0179822783636
 30
0.0
 10
103.4143595119068
 20
-140.0179822783636
 30
0.0
 10
103.678942845174
 20
-140.0179822783636
 30
0.0
 10
103.7309637870013
 20
-139.7368624867672
 30
0.0
 10
103.7309637870013
 20
-139.3899413714025
 30
0.0
 10
103.7309637870013
 20
-139.0702365103713
 30
0.0
 10
103.6903116602753
 20
-138.7615559548929
 30
0.0
 10
103.4143595119068
 20
-138.7615559548929
 30
0.0
  0
HATCH
  5
F5
330
ED
100
AcDbEntity
  8
_U+30EC_U+30A4_U+30E4_U+30FC 1
 62
   179
420
  2234388
100
AcDbHatch
 10
0.0
 20
0.0
 30
0.0
210
0.0
220
0.0
230
1.0
  2
SOLID
 70
     1
 71
     0
 91
        2
 92
        1
 93
        1
 72
     4
 94
        3
 73
     0
 74
     1
 95
       29
 96
       25
 40
0.0
 40
0.0
 40
0.0
 40
0.0
 40
1.0
 40
1.0
 40
1.0
 40
2.0
 40
2.0
 40
2.0
 40
3.0
 40
3.0
 40
3.0
 40
4.0
 40
4.0
 40
4.0
 40
5.0
 40
5.0
 40
5.0
 40
6.0
 40
6.0
 40
6.0
 40
7.0
 40
7.0
 40
7.0
 40
8.0
 40
8.0
 40
8.0
 40
8.0
 10
103.8394842947867
 20
-139.9842203426081
 10
103.7240735960308
 20
-140.1936821481113
 10
103.5387274589244
 20
-140.2126301732802
 10
103.4143595119068
 20
-140.2126301732802
 10
103.2427937567414
 20
-140.2126301732802
 10
103.0912095553904
 20
-140.1661213842293
 10
102.9895792385755
 20
-139.9842203426081
 10
102.8786471639505
 20
-139.7895724476915
 10
102.8583211005875
 20
-139.5528943878548
 10
102.8583211005875
 20
-139.3899413714025
 10
102.8583211005875
 20
-139.2459363801191
 10
102.8762355971108
 20
-138.9940999001473
 10
102.9895792385755
 20
-138.7953178906484
 10
103.1046454277829
 20
-138.5924017665672
 10
103.2765556924968
 20
-138.5689751172675
 10
103.4143595119068
 20
-138.5689751172675
 10
103.5842027193297
 20
-138.5689751172675
 10
103.7378539779718
 20
-138.6134168490272
 10
103.8394842947867
 20
-138.7953178906484
 10
103.9459377452809
 20
-138.9878987282739
 10
103.9707424327747
 20
-139.2163085589459
 10
103.9707424327747
 20
-139.3899413714025
 10
103.9707424327747
 20
-139.5611626170194
 10
103.948004802572
 20
-139.7916395049826
 10
103.8394842947867
 20
-139.9842203426081
 97
        0
 97
        0
 92
        1
 93
        1
 72
     4
 94
        3
 73
     0
 74
     1
 95
       17
 96
       13
 40
0.0
 40
0.0
 40
0.0
 40
0.0
 40
1.0
 40
1.0
 40
1.0
 40
2.0
 40
2.0
 40
2.0
 40
3.0
 40
3.0
 40
3.0
 40
4.0
 40
4.0
 40
4.0
 40
4.0
 10
103.4143595119068
 20
-138.7615559548929
 10
103.1477091213485
 20
-138.7615559548929
 10
103.0980997463609
 20
-139.045087313329
 10
103.0980997463609
 20
-139.3899413714025
 10
103.0980997463609
 20
-139.7093017228852
 10
103.1363403062472
 20
-140.0179822783636
 10
103.4143595119068
 20
-140.0179822783636
 10
103.678942845174
 20
-140.0179822783636
 10
103.7309637870013
 20
-139.7368624867672
 10
103.7309637870013
 20
-139.3899413714025
 10
103.7309637870013
 20
-139.0702365103713
 10
103.6903116602753
 20
-138.7615559548929
 10
103.4143595119068
 20
-138.7615559548929
 97
        0
 97
        0
 75
     2
 76
     1
 98
        0
  0
ENDBLK
  5
F0
330
ED
100
AcDbEntity
  8
0
100
AcDbBlockEnd
  0
BLOCK
  5
100
330
FE
100
AcDbEntity
  8
0
100
AcDbBlockBegin
  2
block 8
 70
     0
 10
0.0
 20
0.0
 30
0.0
  3
block 8
  1

  0
SPLINE
  5
102
330
FE
100
AcDbEntity
  8
_U+30EC_U+30A4_U+30E4_U+30FC 1
370
     0
100
AcDbSpline
210
0.0
220
0.0
230
1.0
 70
    11
 71
     3
 72
    32
 73
    28
 74
     0
 42
0.0000000001
 43
0.0000000001
 12
1.0
 22
0.0
 32
0.0
 13
1.0
 23
0.0
 33
0.0
 40
0.0
 40
0.0
 40
0.0
 40
0.0
 40
1.0
 40
1.0
 40
1.0
 40
2.0
 40
2.0
 40
2.0
 40
3.0
 40
3.0
 40
3.0
 40
4.0
 40
4.0
 40
4.0
 40
5.0
 40
5.0
 40
5.0
 40
6.0
 40
6.0
 40
6.0
 40
7.0
 40
7.0
 40
7.0
 40
8.0
 40
8.0
 40
8.0
 40
9.0
 40
9.0
 40
9.0
 40
9.0
 10
120.5297661374023
 20
-150.4841823625526
 30
0.0
 10
120.5297661374023
 20
-151.0357421497411
 30
0.0
 10
119.9757947833741
 20
-151.0446993980027
 30
0.0
 10
119.7618543537401
 20
-151.0446993980027
 30
0.0
 10
119.5313774657769
 20
-151.0446993980027
 30
0.0
 10
118.8840440240984
 20
-151.0243733346397
 30
0.0
 10
118.8840440240984
 20
-150.4431857262781
 30
0.0
 10
118.8840440240984
 20
-150.2578395891717
 30
0.0
 10
118.953979462449
 20
-149.9956678227441
 30
0.0
 10
119.2860866672271
 20
-149.9550156960182
 30
0.0
 10
119.2860866672271
 20
-149.9550156960182
 30
0.0
 10
119.2860866672271
 20
-150.1834255266903
 30
0.0
 10
119.2860866672271
 20
-150.1834255266903
 30
0.0
 10
119.228898082172
 20
-150.1947943417916
 30
0.0
 10
119.0807589763062
 20
-150.228556277547
 30
0.0
 10
119.0807589763062
 20
-150.4455972931178
 30
0.0
 10
119.0807589763062
 20
-150.7577229440814
 30
0.0
 10
119.408732066502
 20
-150.8004421280985
 30
0.0
 10
119.6137152478744
 20
-150.8142225100395
 30
0.0
 10
119.5355115803592
 20
-150.7146592505158
 30
0.0
 10
119.4762559380129
 20
-150.6423122453255
 30
0.0
 10
119.4762559380129
 20
-150.4476643504089
 30
0.0
 10
119.4762559380129
 20
-150.2557725318805
 30
0.0
 10
119.5844319362497
 20
-149.9322780658156
 30
0.0
 10
119.9906086939607
 20
-149.9322780658156
 30
0.0
 10
120.3099690454434
 20
-149.9322780658156
 30
0.0
 10
120.5297661374023
 20
-150.1448404572555
 30
0.0
 10
120.5297661374023
 20
-150.4841823625526
 30
0.0
  0
SPLINE
  5
103
330
FE
100
AcDbEntity
  8
_U+30EC_U+30A4_U+30E4_U+30FC 1
370
     0
100
AcDbSpline
210
0.0
220
0.0
230
1.0
 70
    11
 71
     3
 72
    17
 73
    13
 74
     0
 42
0.0000000001
 43
0.0000000001
 12
1.0
 22
0.0
 32
0.0
 13
1.0
 23
0.0
 33
0.0
 40
0.0
 40
0.0
 40
0.0
 40
0.0
 40
1.0
 40
1.0
 40
1.0
 40
2.0
 40
2.0
 40
2.0
 40
3.0
 40
3.0
 40
3.0
 40
4.0
 40
4.0
 40
4.0
 40
4.0
 10
119.6709038329295
 20
-150.4659233564807
 30
0.0
 10
119.6709038329295
 20
-150.7463541289801
 30
0.0
 10
119.8824326957238
 20
-150.787006255706
 30
0.0
 10
119.9988769231253
 20
-150.787006255706
 30
0.0
 10
120.174576792873
 20
-150.787006255706
 30
0.0
 10
120.3375298093253
 20
-150.6853759388912
 30
0.0
 10
120.3375298093253
 20
-150.4886609866834
 30
0.0
 10
120.3375298093253
 20
-150.3598144155351
 30
0.0
 10
120.278274166979
 20
-150.1720567115889
 30
0.0
 10
119.9926757512518
 20
-150.1720567115889
 30
0.0
 10
119.7684000351621
 20
-150.1720567115889
 30
0.0
 10
119.6709038329295
 20
-150.3212293461003
 30
0.0
 10
119.6709038329295
 20
-150.4659233564807
 30
0.0
  0
HATCH
  5
104
330
FE
100
AcDbEntity
  8
_U+30EC_U+30A4_U+30E4_U+30FC 1
 62
   179
420
  2234388
100
AcDbHatch
 10
0.0
 20
0.0
 30
0.0
210
0.0
220
0.0
230
1.0
  2
SOLID
 70
     1
 71
     0
 91
        2
 92
        1
 93
        1
 72
     4
 94
        3
 73
     0
 74
     1
 95
       32
 96
       28
 40
0.0
 40
0.0
 40
0.0
 40
0.0
 40
1.0
 40
1.0
 40
1.0
 40
2.0
 40
2.0
 40
2.0
 40
3.0
 40
3.0
 40
3.0
 40
4.0
 40
4.0
 40
4.0
 40
5.0
 40
5.0
 40
5.0
 40
6.0
 40
6.0
 40
6.0
 40
7.0
 40
7.0
 40
7.0
 40
8.0
 40
8.0
 40
8.0
 40
9.0
 40
9.0
 40
9.0
 40
9.0
 10
120.5297661374023
 20
-150.4841823625526
 10
120.5297661374023
 20
-151.0357421497411
 10
119.9757947833741
 20
-151.0446993980027
 10
119.7618543537401
 20
-151.0446993980027
 10
119.5313774657769
 20
-151.0446993980027
 10
118.8840440240984
 20
-151.0243733346397
 10
118.8840440240984
 20
-150.4431857262781
 10
118.8840440240984
 20
-150.2578395891717
 10
118.953979462449
 20
-149.9956678227441
 10
119.2860866672271
 20
-149.9550156960182
 10
119.2860866672271
 20
-149.9550156960182
 10
119.2860866672271
 20
-150.1834255266903
 10
119.2860866672271
 20
-150.1834255266903
 10
119.228898082172
 20
-150.1947943417916
 10
119.0807589763062
 20
-150.228556277547
 10
119.0807589763062
 20
-150.4455972931178
 10
119.0807589763062
 20
-150.7577229440814
 10
119.408732066502
 20
-150.8004421280985
 10
119.6137152478744
 20
-150.8142225100395
 10
119.5355115803592
 20
-150.7146592505158
 10
119.4762559380129
 20
-150.6423122453255
 10
119.4762559380129
 20
-150.4476643504089
 10
119.4762559380129
 20
-150.2557725318805
 10
119.5844319362497
 20
-149.9322780658156
 10
119.9906086939607
 20
-149.9322780658156
 10
120.3099690454434
 20
-149.9322780658156
 10
120.5297661374023
 20
-150.1448404572555
 10
120.5297661374023
 20
-150.4841823625526
 97
        0
 97
        0
 92
        1
 93
        1
 72
     4
 94
        3
 73
     0
 74
     1
 95
       17
 96
       13
 40
0.0
 40
0.0
 40
0.0
 40
0.0
 40
1.0
 40
1.0
 40
1.0
 40
2.0
 40
2.0
 40
2.0
 40
3.0
 40
3.0
 40
3.0
 40
4.0
 40
4.0
 40
4.0
 40
4.0
 10
119.6709038329295
 20
-150.4659233564807
 10
119.6709038329295
 20
-150.7463541289801
 10
119.8824326957238
 20
-150.787006255706
 10
119.9988769231253
 20
-150.787006255706
 10
120.174576792873
 20
-150.787006255706
 10
120.3375298093253
 20
-150.6853759388912
 10
120.3375298093253
 20
-150.4886609866834
 10
120.3375298093253
 20
-150.3598144155351
 10
120.278274166979
 20
-150.1720567115889
 10
119.9926757512518
 20
-150.1720567115889
 10
119.7684000351621
 20
-150.1720567115889
 10
119.6709038329295
 20
-150.3212293461003
 10
119.6709038329295
 20
-150.4659233564807
 97
        0
 97
        0
 75
     2
 76
     1
 98
        0
  0
POLYLINE
  5
105
330
FE
100
AcDbEntity
  8
_U+30EC_U+30A4_U+30E4_U+30FC 1
370
     0
100
AcDb2dPolyline
 66
     1
 10
0.0
 20
0.0
 30
0.0
  0
VERTEX
  5
106
330
105
100
AcDbEntity
  8
_U+30EC_U+30A4_U+30E4_U+30FC 1
370
     0
100
AcDbVertex
100
AcDb2dVertex
 10
120.4791232337691
 20
-149.7011121587553
 30
0.0
  0
VERTEX
  5
107
330
105
100
AcDbEntity
  8
_U+30EC_U+30A4_U+30E4_U+30FC 1
370
     0
100
AcDbVertex
100
AcDb2dVertex
 10
120.2272867537973
 20
-149.7011121587553
 30
0.0
  0
VERTEX
  5
108
330
105
100
AcDbEntity
  8
_U+30EC_U+30A4_U+30E4_U+30FC 1
370
     0
100
AcDbVertex
100
AcDb2dVertex
 10
120.2272867537973
 20
-149.4320502013573
 30
0.0
  0
VERTEX
  5
109
330
105
100
AcDbEntity
  8
_U+30EC_U+30A4_U+30E4_U+30FC 1
370
     0
100
AcDbVertex
100
AcDb2dVertex
 10
120.4791232337691
 20
-149.4320502013573
 30
0.0
  0
VERTEX
  5
10A
330
105
100
AcDbEntity
  8
_U+30EC_U+30A4_U+30E4_U+30FC 1
370
     0
100
AcDbVertex
100
AcDb2dVertex
 10
120.4791232337691
 20
-149.7011121587553
 30
0.0
  0
SEQEND
  5
10B
330
105
100
AcDbEntity
  8
_U+30EC_U+30A4_U+30E4_U+30FC 1
370
     0
  0
HATCH
  5
10C
330
FE
100
AcDbEntity
  8
_U+30EC_U+30A4_U+30E4_U+30FC 1
 62
   179
420
  2234388
100
AcDbHatch
 10
0.0
 20
0.0
 30
0.0
210
0.0
220
0.0
230
1.0
  2
SOLID
 70
     1
 71
     0
 91
        1
 92
        1
 93
        4
 72
     1
 10
120.4791232337691
 20
-149.7011121587553
 11
120.2272867537973
 21
-149.7011121587553
 72
     1
 10
120.2272867537973
 20
-149.7011121587553
 11
120.2272867537973
 21
-149.4320502013573
 72
     1
 10
120.2272867537973
 20
-149.4320502013573
 11
120.4791232337691
 21
-149.4320502013573
 72
     1
 10
120.4791232337691
 20
-149.4320502013573
 11
120.4791232337691
 21
-149.7011121587553
 97
        0
 75
     2
 76
     1
 98
        0
  0
SPLINE
  5
10D
330
FE
100
AcDbEntity
  8
_U+30EC_U+30A4_U+30E4_U+30FC 1
370
     0
100
AcDbSpline
210
0.0
220
0.0
230
1.0
 70
    11
 71
     3
 72
    53
 73
    49
 74
     0
 42
0.0000000001
 43
0.0000000001
 12
1.0
 22
0.0
 32
0.0
 13
1.0
 23
0.0
 33
0.0
 40
0.0
 40
0.0
 40
0.0
 40
0.0
 40
1.0
 40
1.0
 40
1.0
 40
2.0
 40
2.0
 40
2.0
 40
3.0
 40
3.0
 40
3.0
 40
4.0
 40
4.0
 40
4.0
 40
5.0
 40
5.0
 40
5.0
 40
6.0
 40
6.0
 40
6.0
 40
7.0
 40
7.0
 40
7.0
 40
8.0
 40
8.0
 40
8.0
 40
9.0
 40
9.0
 40
9.0
 40
10.0
 40
10.0
 40
10.0
 40
11.0
 40
11.0
 40
11.0
 40
12.0
 40
12.0
 40
12.0
 40
13.0
 40
13.0
 40
13.0
 40
14.0
 40
14.0
 40
14.0
 40
15.0
 40
15.0
 40
15.0
 40
16.0
 40
16.0
 40
16.0
 40
16.0
 10
120.5297661374023
 20
-148.6651719463406
 30
0.0
 10
120.5297661374023
 20
-148.7485432570837
 30
0.0
 10
120.5128851695246
 20
-148.8574082744176
 30
0.0
 10
120.449495412596
 20
-148.9655842726544
 30
0.0
 10
120.3395968666165
 20
-149.1512749193094
 30
0.0
 10
120.2083387286285
 20
-149.1736680399635
 30
0.0
 10
120.1005072399402
 20
-149.1939941033265
 30
0.0
 10
120.1005072399402
 20
-149.1939941033265
 30
0.0
 10
120.1005072399402
 20
-148.9566270243928
 30
0.0
 10
120.1005072399402
 20
-148.9566270243928
 30
0.0
 10
120.2992892494391
 20
-148.8980604011435
 30
0.0
 10
120.3289170706122
 20
-148.7623236390247
 30
0.0
 10
120.3289170706122
 20
-148.662760379501
 30
0.0
 10
120.3289170706122
 20
-148.5135877449897
 30
0.0
 10
120.2293538110885
 20
-148.3509792380859
 30
0.0
 10
119.9968098658341
 20
-148.3509792380859
 30
0.0
 10
119.7408392712801
 20
-148.3509792380859
 30
0.0
 10
119.6709038329295
 20
-148.5428710566143
 30
0.0
 10
119.6709038329295
 20
-148.6717176277626
 30
0.0
 10
119.6709038329295
 20
-148.7058240730666
 30
0.0
 10
119.6709038329295
 20
-148.8574082744176
 30
0.0
 10
119.8000949136264
 20
-148.952148400262
 30
0.0
 10
119.8000949136264
 20
-148.952148400262
 30
0.0
 10
119.7811468884575
 20
-149.1399061042081
 30
0.0
 10
119.7811468884575
 20
-149.1399061042081
 30
0.0
 10
119.7811468884575
 20
-149.1399061042081
 30
0.0
 10
118.9346869277316
 20
-149.0110595330598
 30
0.0
 10
118.9346869277316
 20
-149.0110595330598
 30
0.0
 10
118.9346869277316
 20
-149.0110595330598
 30
0.0
 10
118.9346869277316
 20
-148.1790689733719
 30
0.0
 10
118.9346869277316
 20
-148.1790689733719
 30
0.0
 10
118.9346869277316
 20
-148.1790689733719
 30
0.0
 10
119.1293348226482
 20
-148.1790689733719
 30
0.0
 10
119.1293348226482
 20
-148.1790689733719
 30
0.0
 10
119.1293348226482
 20
-148.1790689733719
 30
0.0
 10
119.1293348226482
 20
-148.8367377015061
 30
0.0
 10
119.1293348226482
 20
-148.8367377015061
 30
0.0
 10
119.1293348226482
 20
-148.8367377015061
 30
0.0
 10
119.5523925482369
 20
-148.9070176494052
 30
0.0
 10
119.5523925482369
 20
-148.9070176494052
 30
0.0
 10
119.5186306124815
 20
-148.8415608351854
 30
0.0
 10
119.478322995304
 20
-148.7533663907631
 30
0.0
 10
119.478322995304
 20
-148.6265868769059
 30
0.0
 10
119.478322995304
 20
-148.3554578622167
 30
0.0
 10
119.6647026610561
 20
-148.1022433440508
 30
0.0
 10
119.9778618406653
 20
-148.1022433440508
 30
0.0
 10
120.2951551348568
 20
-148.1022433440508
 30
0.0
 10
120.5297661374023
 20
-148.3416774802757
 30
0.0
 10
120.5297661374023
 20
-148.6651719463406
 30
0.0
  0
HATCH
  5
10E
330
FE
100
AcDbEntity
  8
_U+30EC_U+30A4_U+30E4_U+30FC 1
 62
   179
420
  2234388
100
AcDbHatch
 10
0.0
 20
0.0
 30
0.0
210
0.0
220
0.0
230
1.0
  2
SOLID
 70
     1
 71
     0
 91
        1
 92
        1
 93
        1
 72
     4
 94
        3
 73
     0
 74
     1
 95
       53
 96
       49
 40
0.0
 40
0.0
 40
0.0
 40
0.0
 40
1.0
 40
1.0
 40
1.0
 40
2.0
 40
2.0
 40
2.0
 40
3.0
 40
3.0
 40
3.0
 40
4.0
 40
4.0
 40
4.0
 40
5.0
 40
5.0
 40
5.0
 40
6.0
 40
6.0
 40
6.0
 40
7.0
 40
7.0
 40
7.0
 40
8.0
 40
8.0
 40
8.0
 40
9.0
 40
9.0
 40
9.0
 40
10.0
 40
10.0
 40
10.0
 40
11.0
 40
11.0
 40
11.0
 40
12.0
 40
12.0
 40
12.0
 40
13.0
 40
13.0
 40
13.0
 40
14.0
 40
14.0
 40
14.0
 40
15.0
 40
15.0
 40
15.0
 40
16.0
 40
16.0
 40
16.0
 40
16.0
 10
120.5297661374023
 20
-148.6651719463406
 10
120.5297661374023
 20
-148.7485432570837
 10
120.5128851695246
 20
-148.8574082744176
 10
120.449495412596
 20
-148.9655842726544
 10
120.3395968666165
 20
-149.1512749193094
 10
120.2083387286285
 20
-149.1736680399635
 10
120.1005072399402
 20
-149.1939941033265
 10
120.1005072399402
 20
-149.1939941033265
 10
120.1005072399402
 20
-148.9566270243928
 10
120.1005072399402
 20
-148.9566270243928
 10
120.2992892494391
 20
-148.8980604011435
 10
120.3289170706122
 20
-148.7623236390247
 10
120.3289170706122
 20
-148.662760379501
 10
120.3289170706122
 20
-148.5135877449897
 10
120.2293538110885
 20
-148.3509792380859
 10
119.9968098658341
 20
-148.3509792380859
 10
119.7408392712801
 20
-148.3509792380859
 10
119.6709038329295
 20
-148.5428710566143
 10
119.6709038329295
 20
-148.6717176277626
 10
119.6709038329295
 20
-148.7058240730666
 10
119.6709038329295
 20
-148.8574082744176
 10
119.8000949136264
 20
-148.952148400262
 10
119.8000949136264
 20
-148.952148400262
 10
119.7811468884575
 20
-149.1399061042081
 10
119.7811468884575
 20
-149.1399061042081
 10
119.7811468884575
 20
-149.1399061042081
 10
118.9346869277316
 20
-149.0110595330598
 10
118.9346869277316
 20
-149.0110595330598
 10
118.9346869277316
 20
-149.0110595330598
 10
118.9346869277316
 20
-148.1790689733719
 10
118.9346869277316
 20
-148.1790689733719
 10
118.9346869277316
 20
-148.1790689733719
 10
119.1293348226482
 20
-148.1790689733719
 10
119.1293348226482
 20
-148.1790689733719
 10
119.1293348226482
 20
-148.1790689733719
 10
119.1293348226482
 20
-148.8367377015061
 10
119.1293348226482
 20
-148.8367377015061
 10
119.1293348226482
 20
-148.8367377015061
 10
119.5523925482369
 20
-148.9070176494052
 10
119.5523925482369
 20
-148.9070176494052
 10
119.5186306124815
 20
-148.8415608351854
 10
119.478322995304
 20
-148.7533663907631
 10
119.478322995304
 20
-148.6265868769059
 10
119.478322995304
 20
-148.3554578622167
 10
119.6647026610561
 20
-148.1022433440508
 10
119.9778618406653
 20
-148.1022433440508
 10
120.2951551348568
 20
-148.1022433440508
 10
120.5297661374023
 20
-148.3416774802757
 10
120.5297661374023
 20
-148.6651719463406
 97
        0
 97
        0
 75
     2
 76
     1
 98
        0
  0
ENDBLK
  5
101
330
FE
100
AcDbEntity
  8
0
100
AcDbBlockEnd
  0
ENDSEC
  0
SECTION
  2
ENTITIES
  0
INSERT
  5
42
330
1F
100
AcDbEntity
  8
_U+30EC_U+30A4_U+30E4_U+30FC 1
100
AcDbBlockReference
  2
block 2
 10
0.0
 20
0.0
 30
0.0
  0
ENDSEC
  0
SECTION
  2
OBJECTS
  0
DICTIONARY
  5
C
330
0
100
AcDbDictionary
281
     1
  3
ACAD_GROUP
350
D
  3
ACAD_LAYOUT
350
1A
  3
ACAD_MATERIAL
350
3B
  3
ACAD_MLEADERSTYLE
350
110
  3
ACAD_MLINESTYLE
350
17
  3
ACAD_PLOTSETTINGS
350
19
  3
ACAD_PLOTSTYLENAME
350
E
  3
ACAD_TABLESTYLE
350
10F
  3
ACAD_VISUALSTYLE
350
2A
  0
SUN
  5
3F
330
29
100
AcDbSun
 90
        1
290
     0
 63
     7
421
 16777215
 40
1.0
291
     1
 91
  2455826
 92
 54000000
292
     0
 70
     2
 71
   256
280
     1
  0
DICTIONARY
  5
D
102
{ACAD_REACTORS
330
C
102
}
330
C
100
AcDbDictionary
281
     1
  0
DICTIONARY
  5
1A
102
{ACAD_REACTORS
330
C
102
}
330
C
100
AcDbDictionary
281
     1
  3
Layout1
350
1E
  3
Layout2
350
26
  3
Model
350
22
  0
DICTIONARY
  5
3B
102
{ACAD_REACTORS
330
C
102
}
330
C
100
AcDbDictionary
281
     1
  3
ByBlock
350
3D
  3
ByLayer
350
3C
  3
Global
350
3E
  0
DICTIONARY
  5
110
102
{ACAD_REACTORS
330
C
102
}
330
C
100
AcDbDictionary
281
     1
  0
DICTIONARY
  5
17
102
{ACAD_REACTORS
330
C
102
}
330
C
100
AcDbDictionary
281
     1
  3
Standard
350
18
  0
DICTIONARY
  5
19
102
{ACAD_REACTORS
330
C
102
}
330
C
100
AcDbDictionary
281
     1
  0
ACDBDICTIONARYWDFLT
  5
E
102
{ACAD_REACTORS
330
C
102
}
330
C
100
AcDbDictionary
281
     1
  3
Normal
350
F
100
AcDbDictionaryWithDefault
340
F
  0
DICTIONARY
  5
10F
102
{ACAD_REACTORS
330
C
102
}
330
C
100
AcDbDictionary
281
     1
  0
DICTIONARY
  5
2A
102
{ACAD_REACTORS
330
C
102
}
330
C
100
AcDbDictionary
281
     1
  3
2dWireframe
350
2F
  3
3D Hidden
350
31
  3
3dWireframe
350
30
  3
Basic
350
32
  3
Brighten
350
36
  3
ColorChange
350
3A
  3
Conceptual
350
34
  3
Dim
350
35
  3
Facepattern
350
39
  3
Flat
350
2B
  3
FlatWithEdges
350
2C
  3
Gouraud
350
2D
  3
GouraudWithEdges
350
2E
  3
Linepattern
350
38
  3
Realistic
350
33
  3
Thicken
350
37
  0
LAYOUT
  5
1E
102
{ACAD_REACTORS
330
1A
102
}
330
1A
100
AcDbPlotSettings
  1

  2
none_device
  4

  6

 40
0.0
 41
0.0
 42
0.0
 43
0.0
 44
0.0
 45
0.0
 46
0.0
 47
0.0
 48
0.0
 49
0.0
140
0.0
141
0.0
142
1.0
143
1.0
 70
   688
 72
     0
 73
     0
 74
     5
  7

 75
    16
 76
     0
 77
     2
 78
   300
147
1.0
148
0.0
149
0.0
100
AcDbLayout
  1
Layout1
 70
     1
 71
     1
 10
0.0
 20
0.0
 11
12.0
 21
9.0
 12
0.0
 22
0.0
 32
0.0
 14
1.000000000000000E+20
 24
1.000000000000000E+20
 34
1.000000000000000E+20
 15
-1.000000000000000E+20
 25
-1.000000000000000E+20
 35
-1.000000000000000E+20
146
0.0
 13
0.0
 23
0.0
 33
0.0
 16
1.0
 26
0.0
 36
0.0
 17
0.0
 27
1.0
 37
0.0
 76
     0
330
1B
  0
LAYOUT
  5
26
102
{ACAD_REACTORS
330
1A
102
}
330
1A
100
AcDbPlotSettings
  1

  2
none_device
  4

  6

 40
0.0
 41
0.0
 42
0.0
 43
0.0
 44
0.0
 45
0.0
 46
0.0
 47
0.0
 48
0.0
 49
0.0
140
0.0
141
0.0
142
1.0
143
1.0
 70
   688
 72
     0
 73
     0
 74
     5
  7

 75
    16
 76
     0
 77
     2
 78
   300
147
1.0
148
0.0
149
0.0
100
AcDbLayout
  1
Layout2
 70
     1
 71
     2
 10
0.0
 20
0.0
 11
0.0
 21
0.0
 12
0.0
 22
0.0
 32
0.0
 14
0.0
 24
0.0
 34
0.0
 15
0.0
 25
0.0
 35
0.0
146
0.0
 13
0.0
 23
0.0
 33
0.0
 16
1.0
 26
0.0
 36
0.0
 17
0.0
 27
1.0
 37
0.0
 76
     0
330
23
  0
LAYOUT
  5
22
102
{ACAD_REACTORS
330
1A
102
}
330
1A
100
AcDbPlotSettings
  1

  2
none_device
  4

  6

 40
0.0
 41
0.0
 42
0.0
 43
0.0
 44
0.0
 45
0.0
 46
0.0
 47
0.0
 48
0.0
 49
0.0
140
0.0
141
0.0
142
1.0
143
1.0
 70
  1712
 72
     0
 73
     0
 74
     0
  7

 75
     0
 76
     0
 77
     2
 78
   300
147
1.0
148
0.0
149
0.0
100
AcDbLayout
  1
Model
 70
     1
 71
     0
 10
0.0
 20
0.0
 11
12.0
 21
9.0
 12
0.0
 22
0.0
 32
0.0
 14
1.000000000000000E+20
 24
1.000000000000000E+20
 34
1.000000000000000E+20
 15
-1.000000000000000E+20
 25
-1.000000000000000E+20
 35
-1.000000000000000E+20
146
0.0
 13
0.0
 23
0.0
 33
0.0
 16
1.0
 26
0.0
 36
0.0
 17
0.0
 27
1.0
 37
0.0
 76
     0
330
1F
331
29
  0
MATERIAL
  5
3D
102
{ACAD_REACTORS
330
3B
102
}
330
3B
100
AcDbMaterial
  1
ByBlock
 72
     1
 94
      127
  0
MATERIAL
  5
3C
102
{ACAD_REACTORS
330
3B
102
}
330
3B
100
AcDbMaterial
  1
ByLayer
 72
     1
 94
      127
  0
MATERIAL
  5
3E
102
{ACAD_REACTORS
330
3B
102
}
330
3B
100
AcDbMaterial
  1
Global
 72
     1
 94
      127
  0
MLINESTYLE
  5
18
102
{ACAD_REACTORS
330
17
102
}
330
17
100
AcDbMlineStyle
  2
Standard
 70
     0
  3

 62
   256
 51
90.0
 52
90.0
 71
     2
 49
0.5
 62
   256
  6
BYLAYER
 49
-0.5
 62
   256
  6
BYLAYER
  0
ACDBPLACEHOLDER
  5
F
102
{ACAD_REACTORS
330
E
102
}
330
E
  0
VISUALSTYLE
  5
2F
102
{ACAD_REACTORS
330
2A
102
}
330
2A
100
AcDbVisualStyle
  2
2dWireframe
 70
     4
177
     2
291
     0
 71
     0
176
     1
 72
     2
176
     1
 73
     0
176
     1
 90
        0
176
     1
 40
-0.6
176
     1
 41
-30.0
176
     1
 62
     5
 63
     7
421
 16777215
176
     1
 74
     1
176
     1
 91
        4
176
     1
 64
     7
176
     1
 65
   257
176
     1
 75
     1
176
     1
175
     1
176
     1
 42
1.0
176
     1
 92
        0
176
     1
 66
   257
176
     1
 43
1.0
176
     1
 76
     1
176
     1
 77
     6
176
     1
 78
     2
176
     1
 67
     7
176
     1
 79
     5
176
     1
170
     0
176
     1
171
     0
176
     1
290
     0
176
     1
 93
        1
176
     1
 44
0.0
176
     1
173
     0
176
     1
  0
VISUALSTYLE
  5
31
102
{ACAD_REACTORS
330
2A
102
}
330
2A
100
AcDbVisualStyle
  2
3D Hidden
 70
     6
177
     2
291
     0
 71
     1
176
     1
 72
     2
176
     1
 73
     2
176
     1
 90
        0
176
     1
 40
-0.6
176
     1
 41
-30.0
176
     1
 62
     5
 63
     7
421
 16777215
176
     1
 74
     2
176
     1
 91
        2
176
     1
 64
     7
176
     1
 65
   257
176
     1
 75
     2
176
     1
175
     1
176
     1
 42
40.0
176
     1
 92
        0
176
     1
 66
   257
176
     1
 43
1.0
176
     1
 76
     1
176
     1
 77
     6
176
     1
 78
     2
176
     1
 67
     7
176
     1
 79
     3
176
     1
170
     0
176
     1
171
     0
176
     1
290
     0
176
     1
 93
        1
176
     1
 44
0.0
176
     1
173
     0
176
     1
  0
VISUALSTYLE
  5
30
102
{ACAD_REACTORS
330
2A
102
}
330
2A
100
AcDbVisualStyle
  2
3dWireframe
 70
     5
177
     2
291
     0
 71
     0
176
     1
 72
     2
176
     1
 73
     0
176
     1
 90
        0
176
     1
 40
-0.6
176
     1
 41
-30.0
176
     1
 62
     5
 63
     7
421
 16777215
176
     1
 74
     1
176
     1
 91
        4
176
     1
 64
     7
176
     1
 65
   257
176
     1
 75
     1
176
     1
175
     1
176
     1
 42
1.0
176
     1
 92
        0
176
     1
 66
   257
176
     1
 43
1.0
176
     1
 76
     1
176
     1
 77
     6
176
     1
 78
     2
176
     1
 67
     7
176
     1
 79
     5
176
     1
170
     0
176
     1
171
     0
176
     1
290
     0
176
     1
 93
        1
176
     1
 44
0.0
176
     1
173
     0
176
     1
  0
VISUALSTYLE
  5
32
102
{ACAD_REACTORS
330
2A
102
}
330
2A
100
AcDbVisualStyle
  2
Basic
 70
     7
177
     2
291
     1
 71
     1
176
     1
 72
     0
176
     1
 73
     1
176
     1
 90
        0
176
     1
 40
-0.6
176
     1
 41
-30.0
176
     1
 62
     5
 63
     7
421
 16777215
176
     1
 74
     0
176
     1
 91
        4
176
     1
 64
     7
176
     1
 65
   257
176
     1
 75
     1
176
     1
175
     1
176
     1
 42
1.0
176
     1
 92
        8
176
     1
 66
     7
176
     1
 43
1.0
176
     1
 76
     1
176
     1
 77
     6
176
     1
 78
     2
176
     1
 67
     7
176
     1
 79
     5
176
     1
170
     0
176
     1
171
     0
176
     1
290
     0
176
     1
 93
        1
176
     1
 44
0.0
176
     1
173
     0
176
     1
  0
VISUALSTYLE
  5
36
102
{ACAD_REACTORS
330
2A
102
}
330
2A
100
AcDbVisualStyle
  2
Brighten
 70
    12
177
     2
291
     1
 71
     2
176
     1
 72
     2
176
     1
 73
     0
176
     1
 90
        0
176
     1
 40
-0.6
176
     1
 41
-30.0
176
     1
 62
     5
 63
     7
421
 16777215
176
     1
 74
     1
176
     1
 91
        4
176
     1
 64
     7
176
     1
 65
   257
176
     1
 75
     1
176
     1
175
     1
176
     1
 42
1.0
176
     1
 92
        8
176
     1
 66
     7
176
     1
 43
1.0
176
     1
 76
     1
176
     1
 77
     6
176
     1
 78
     2
176
     1
 67
     7
176
     1
 79
     5
176
     1
170
     0
176
     1
171
     0
176
     1
290
     0
176
     1
 93
        1
176
     1
 44
50.0
176
     1
173
     0
176
     1
  0
VISUALSTYLE
  5
3A
102
{ACAD_REACTORS
330
2A
102
}
330
2A
100
AcDbVisualStyle
  2
ColorChange
 70
    16
177
     2
291
     1
 71
     2
176
     1
 72
     2
176
     1
 73
     3
176
     1
 90
        0
176
     1
 40
-0.6
176
     1
 41
-30.0
176
     1
 62
     5
 63
     8
421
  8421504
176
     1
 74
     1
176
     1
 91
        4
176
     1
 64
     7
176
     1
 65
   257
176
     1
 75
     1
176
     1
175
     1
176
     1
 42
1.0
176
     1
 92
        8
176
     1
 66
     8
424
  8421504
176
     1
 43
1.0
176
     1
 76
     1
176
     1
 77
     6
176
     1
 78
     2
176
     1
 67
     7
176
     1
 79
     5
176
     1
170
     0
176
     1
171
     0
176
     1
290
     0
176
     1
 93
        1
176
     1
 44
0.0
176
     1
173
     0
176
     1
  0
VISUALSTYLE
  5
34
102
{ACAD_REACTORS
330
2A
102
}
330
2A
100
AcDbVisualStyle
  2
Conceptual
 70
     9
177
     2
291
     0
 71
     3
176
     1
 72
     2
176
     1
 73
     0
176
     1
 90
        0
176
     1
 40
-0.6
176
     1
 41
-30.0
176
     1
 62
     5
 63
     7
421
 16777215
176
     1
 74
     2
176
     1
 91
        2
176
     1
 64
     7
176
     1
 65
   257
176
     1
 75
     1
176
     1
175
     1
176
     1
 42
40.0
176
     1
 92
        8
176
     1
 66
     7
176
     1
 43
1.0
176
     1
 76
     1
176
     1
 77
     6
176
     1
 78
     2
176
     1
 67
     7
176
     1
 79
     3
176
     1
170
     0
176
     1
171
     0
176
     1
290
     0
176
     1
 93
        1
176
     1
 44
0.0
176
     1
173
     0
176
     1
  0
VISUALSTYLE
  5
35
102
{ACAD_REACTORS
330
2A
102
}
330
2A
100
AcDbVisualStyle
  2
Dim
 70
    11
177
     2
291
     1
 71
     2
176
     1
 72
     2
176
     1
 73
     0
176
     1
 90
        0
176
     1
 40
-0.6
176
     1
 41
-30.0
176
     1
 62
     5
 63
     7
421
 16777215
176
     1
 74
     1
176
     1
 91
        4
176
     1
 64
     7
176
     1
 65
   257
176
     1
 75
     1
176
     1
175
     1
176
     1
 42
1.0
176
     1
 92
        8
176
     1
 66
     7
176
     1
 43
1.0
176
     1
 76
     1
176
     1
 77
     6
176
     1
 78
     2
176
     1
 67
     7
176
     1
 79
     5
176
     1
170
     0
176
     1
171
     0
176
     1
290
     0
176
     1
 93
        1
176
     1
 44
-50.0
176
     1
173
     0
176
     1
  0
VISUALSTYLE
  5
39
102
{ACAD_REACTORS
330
2A
102
}
330
2A
100
AcDbVisualStyle
  2
Facepattern
 70
    15
177
     2
291
     1
 71
     2
176
     1
 72
     2
176
     1
 73
     0
176
     1
 90
        0
176
     1
 40
-0.6
176
     1
 41
-30.0
176
     1
 62
     5
 63
     7
421
 16777215
176
     1
 74
     1
176
     1
 91
        4
176
     1
 64
     7
176
     1
 65
   257
176
     1
 75
     1
176
     1
175
     1
176
     1
 42
1.0
176
     1
 92
        8
176
     1
 66
     7
176
     1
 43
1.0
176
     1
 76
     1
176
     1
 77
     6
176
     1
 78
     2
176
     1
 67
     7
176
     1
 79
     5
176
     1
170
     0
176
     1
171
     0
176
     1
290
     0
176
     1
 93
        1
176
     1
 44
0.0
176
     1
173
     0
176
     1
  0
VISUALSTYLE
  5
2B
102
{ACAD_REACTORS
330
2A
102
}
330
2A
100
AcDbVisualStyle
  2
Flat
 70
     0
177
     2
291
     1
 71
     2
176
     1
 72
     1
176
     1
 73
     1
176
     1
 90
        2
176
     1
 40
-0.6
176
     1
 41
30.0
176
     1
 62
     5
 63
     7
421
 16777215
176
     1
 74
     0
176
     1
 91
        4
176
     1
 64
     7
176
     1
 65
   257
176
     1
 75
     1
176
     1
175
     1
176
     1
 42
1.0
176
     1
 92
        8
176
     1
 66
     7
176
     1
 43
1.0
176
     1
 76
     1
176
     1
 77
     6
176
     1
 78
     2
176
     1
 67
     7
176
     1
 79
     5
176
     1
170
     0
176
     1
171
     0
176
     1
290
     0
176
     1
 93
       13
176
     1
 44
0.0
176
     1
173
     0
176
     1
  0
VISUALSTYLE
  5
2C
102
{ACAD_REACTORS
330
2A
102
}
330
2A
100
AcDbVisualStyle
  2
FlatWithEdges
 70
     1
177
     2
291
     1
 71
     2
176
     1
 72
     1
176
     1
 73
     1
176
     1
 90
        2
176
     1
 40
-0.6
176
     1
 41
30.0
176
     1
 62
     5
 63
     7
421
 16777215
176
     1
 74
     1
176
     1
 91
        4
176
     1
 64
     7
176
     1
 65
   257
176
     1
 75
     1
176
     1
175
     1
176
     1
 42
1.0
176
     1
 92
        0
176
     1
 66
   257
176
     1
 43
1.0
176
     1
 76
     1
176
     1
 77
     6
176
     1
 78
     2
176
     1
 67
     7
176
     1
 79
     5
176
     1
170
     0
176
     1
171
     0
176
     1
290
     0
176
     1
 93
       13
176
     1
 44
0.0
176
     1
173
     0
176
     1
  0
VISUALSTYLE
  5
2D
102
{ACAD_REACTORS
330
2A
102
}
330
2A
100
AcDbVisualStyle
  2
Gouraud
 70
     2
177
     2
291
     1
 71
     2
176
     1
 72
     2
176
     1
 73
     1
176
     1
 90
        2
176
     1
 40
-0.6
176
     1
 41
30.0
176
     1
 62
     5
 63
     7
421
 16777215
176
     1
 74
     0
176
     1
 91
        4
176
     1
 64
     7
176
     1
 65
   257
176
     1
 75
     1
176
     1
175
     1
176
     1
 42
1.0
176
     1
 92
        0
176
     1
 66
     7
176
     1
 43
1.0
176
     1
 76
     1
176
     1
 77
     6
176
     1
 78
     2
176
     1
 67
     7
176
     1
 79
     5
176
     1
170
     0
176
     1
171
     0
176
     1
290
     0
176
     1
 93
       13
176
     1
 44
0.0
176
     1
173
     0
176
     1
  0
VISUALSTYLE
  5
2E
102
{ACAD_REACTORS
330
2A
102
}
330
2A
100
AcDbVisualStyle
  2
GouraudWithEdges
 70
     3
177
     2
291
     1
 71
     2
176
     1
 72
     2
176
     1
 73
     1
176
     1
 90
        2
176
     1
 40
-0.6
176
     1
 41
30.0
176
     1
 62
     5
 63
     7
421
 16777215
176
     1
 74
     1
176
     1
 91
        4
176
     1
 64
     7
176
     1
 65
   257
176
     1
 75
     1
176
     1
175
     1
176
     1
 42
1.0
176
     1
 92
        0
176
     1
 66
   257
176
     1
 43
1.0
176
     1
 76
     1
176
     1
 77
     6
176
     1
 78
     2
176
     1
 67
     7
176
     1
 79
     5
176
     1
170
     0
176
     1
171
     0
176
     1
290
     0
176
     1
 93
       13
176
     1
 44
0.0
176
     1
173
     0
176
     1
  0
VISUALSTYLE
  5
38
102
{ACAD_REACTORS
330
2A
102
}
330
2A
100
AcDbVisualStyle
  2
Linepattern
 70
    14
177
     2
291
     1
 71
     2
176
     1
 72
     2
176
     1
 73
     0
176
     1
 90
        0
176
     1
 40
-0.6
176
     1
 41
-30.0
176
     1
 62
     5
 63
     7
421
 16777215
176
     1
 74
     1
176
     1
 91
        4
176
     1
 64
     7
176
     1
 65
   257
176
     1
 75
     7
176
     1
175
     7
176
     1
 42
1.0
176
     1
 92
        8
176
     1
 66
     7
176
     1
 43
1.0
176
     1
 76
     1
176
     1
 77
     6
176
     1
 78
     2
176
     1
 67
     7
176
     1
 79
     5
176
     1
170
     0
176
     1
171
     0
176
     1
290
     0
176
     1
 93
        1
176
     1
 44
0.0
176
     1
173
     0
176
     1
  0
VISUALSTYLE
  5
33
102
{ACAD_REACTORS
330
2A
102
}
330
2A
100
AcDbVisualStyle
  2
Realistic
 70
     8
177
     2
291
     0
 71
     2
176
     1
 72
     2
176
     1
 73
     0
176
     1
 90
        0
176
     1
 40
-0.6
176
     1
 41
-30.0
176
     1
 62
     5
 63
     7
421
 16777215
176
     1
 74
     1
176
     1
 91
        0
176
     1
 64
     7
176
     1
 65
   257
176
     1
 75
     1
176
     1
175
     1
176
     1
 42
1.0
176
     1
 92
        8
176
     1
 66
     8
424
  7895160
176
     1
 43
1.0
176
     1
 76
     1
176
     1
 77
     6
176
     1
 78
     2
176
     1
 67
     7
176
     1
 79
     5
176
     1
170
     0
176
     1
171
     0
176
     1
290
     0
176
     1
 93
       13
176
     1
 44
0.0
176
     1
173
     0
176
     1
  0
VISUALSTYLE
  5
37
102
{ACAD_REACTORS
330
2A
102
}
330
2A
100
AcDbVisualStyle
  2
Thicken
 70
    13
177
     2
291
     1
 71
     2
176
     1
 72
     2
176
     1
 73
     0
176
     1
 90
        0
176
     1
 40
-0.6
176
     1
 41
-30.0
176
     1
 62
     5
 63
     7
421
 16777215
176
     1
 74
     1
176
     1
 91
        4
176
     1
 64
     7
176
     1
 65
   257
176
     1
 75
     1
176
     1
175
     1
176
     1
 42
1.0
176
     1
 92
       12
176
     1
 66
     7
176
     1
 43
1.0
176
     1
 76
     1
176
     1
 77
     6
176
     1
 78
     2
176
     1
 67
     7
176
     1
 79
     5
176
     1
170
     0
176
     1
171
     0
176
     1
290
     0
176
     1
 93
        1
176
     1
 44
0.0
176
     1
173
     0
176
     1
  0
ENDSEC
  0
EOF
