  0
SECTION
  2
HEADER
  9
$ACADVER
  1
AC1024
  9
$ACADMAINTVER
 70
     6
  9
$DWGCODEPAGE
  3
UNDEFINED
  9
$INSBASE
 10
0.0
 20
0.0
 30
0.0
  9
$EXTMIN
 10
1.000000000000000E+20
 20
1.000000000000000E+20
 30
1.000000000000000E+20
  9
$EXTMAX
 10
-1.000000000000000E+20
 20
-1.000000000000000E+20
 30
-1.000000000000000E+20
  9
$LIMMIN
 10
0.0
 20
0.0
  9
$LIMMAX
 10
12.0
 20
9.0
  9
$ORTHOMODE
 70
     0
  9
$REGENMODE
 70
     1
  9
$FILLMODE
 70
     1
  9
$QTEXTMODE
 70
     0
  9
$MIRRTEXT
 70
     1
  9
$LTSCALE
 40
1.0
  9
$ATTMODE
 70
     1
  9
$TEXTSIZE
 40
0.2
  9
$TRACEWID
 40
0.05
  9
$TEXTSTYLE
  7
Standard
  9
$CLAYER
  8
0
  9
$CELTYPE
  6
ByLayer
  9
$CECOLOR
 62
   256
  9
$CELTSCALE
 40
1.0
  9
$DISPSILH
 70
     0
  9
$DIMSCALE
 40
1.0
  9
$DIMASZ
 40
0.18
  9
$DIMEXO
 40
0.0625
  9
$DIMDLI
 40
0.38
  9
$DIMRND
 40
0.0
  9
$DIMDLE
 40
0.0
  9
$DIMEXE
 40
0.18
  9
$DIMTP
 40
0.0
  9
$DIMTM
 40
0.0
  9
$DIMTXT
 40
0.18
  9
$DIMCEN
 40
0.09
  9
$DIMTSZ
 40
0.0
  9
$DIMTOL
 70
     0
  9
$DIMLIM
 70
     0
  9
$DIMTIH
 70
     1
  9
$DIMTOH
 70
     1
  9
$DIMSE1
 70
     0
  9
$DIMSE2
 70
     0
  9
$DIMTAD
 70
     0
  9
$DIMZIN
 70
     0
  9
$DIMBLK
  1

  9
$DIMASO
 70
     1
  9
$DIMSHO
 70
     1
  9
$DIMPOST
  1

  9
$DIMAPOST
  1

  9
$DIMALT
 70
     0
  9
$DIMALTD
 70
     2
  9
$DIMALTF
 40
25.4
  9
$DIMLFAC
 40
1.0
  9
$DIMTOFL
 70
     0
  9
$DIMTVP
 40
0.0
  9
$DIMTIX
 70
     0
  9
$DIMSOXD
 70
     0
  9
$DIMSAH
 70
     0
  9
$DIMBLK1
  1

  9
$DIMBLK2
  1

  9
$DIMSTYLE
  2
Standard
  9
$DIMCLRD
 70
     0
  9
$DIMCLRE
 70
     0
  9
$DIMCLRT
 70
     0
  9
$DIMTFAC
 40
1.0
  9
$DIMGAP
 40
0.09
  9
$DIMJUST
 70
     0
  9
$DIMSD1
 70
     0
  9
$DIMSD2
 70
     0
  9
$DIMTOLJ
 70
     1
  9
$DIMTZIN
 70
     0
  9
$DIMALTZ
 70
     0
  9
$DIMALTTZ
 70
     0
  9
$DIMUPT
 70
     0
  9
$DIMDEC
 70
     4
  9
$DIMTDEC
 70
     4
  9
$DIMALTU
 70
     2
  9
$DIMALTTD
 70
     2
  9
$DIMTXSTY
  7
Standard
  9
$DIMAUNIT
 70
     0
  9
$DIMADEC
 70
     0
  9
$DIMALTRND
 40
0.0
  9
$DIMAZIN
 70
     0
  9
$DIMDSEP
 70
    46
  9
$DIMATFIT
 70
     3
  9
$DIMFRAC
 70
     0
  9
$DIMLDRBLK
  1

  9
$DIMLUNIT
 70
     2
  9
$DIMLWD
 70
    -2
  9
$DIMLWE
 70
    -2
  9
$DIMTMOVE
 70
     0
  9
$DIMFXL
 40
1.0
  9
$DIMFXLON
 70
     0
  9
$DIMJOGANG
 40
0.7853981633974483
  9
$DIMTFILL
 70
     0
  9
$DIMTFILLCLR
 70
     0
  9
$DIMARCSYM
 70
     0
  9
$DIMLTYPE
  6

  9
$DIMLTEX1
  6

  9
$DIMLTEX2
  6

  9
$DIMTXTDIRECTION
 70
     0
  9
$LUNITS
 70
     2
  9
$LUPREC
 70
     4
  9
$SKETCHINC
 40
0.1
  9
$FILLETRAD
 40
0.5
  9
$AUNITS
 70
     0
  9
$AUPREC
 70
     0
  9
$MENU
  1
.
  9
$ELEVATION
 40
0.0
  9
$PELEVATION
 40
0.0
  9
$THICKNESS
 40
0.0
  9
$LIMCHECK
 70
     0
  9
$CHAMFERA
 40
0.5
  9
$CHAMFERB
 40
0.5
  9
$CHAMFERC
 40
1.0
  9
$CHAMFERD
 40
0.0
  9
$SKPOLY
 70
     0
  9
$TDCREATE
 40
2458263.574502315
  9
$TDUCREATE
 40
2458263.199502315
  9
$TDUPDATE
 40
2458263.574513889
  9
$TDUUPDATE
 40
2458263.199513889
  9
$TDINDWG
 40
0.0000000116
  9
$TDUSRTIMER
 40
0.0000000116
  9
$USRTIMER
 70
     1
  9
$ANGBASE
 50
0.0
  9
$ANGDIR
 70
     0
  9
$PDMODE
 70
     0
  9
$PDSIZE
 40
0.0
  9
$PLINEWID
 40
0.0
  9
$SPLFRAME
 70
     0
  9
$SPLINETYPE
 70
     6
  9
$SPLINESEGS
 70
     8
  9
$HANDSEED
  5
121
  9
$SURFTAB1
 70
     6
  9
$SURFTAB2
 70
     6
  9
$SURFTYPE
 70
     6
  9
$SURFU
 70
     6
  9
$SURFV
 70
     6
  9
$UCSBASE
  2

  9
$UCSNAME
  2

  9
$UCSORG
 10
0.0
 20
0.0
 30
0.0
  9
$UCSXDIR
 10
1.0
 20
0.0
 30
0.0
  9
$UCSYDIR
 10
0.0
 20
1.0
 30
0.0
  9
$UCSORTHOREF
  2

  9
$UCSORTHOVIEW
 70
     0
  9
$UCSORGTOP
 10
0.0
 20
0.0
 30
0.0
  9
$UCSORGBOTTOM
 10
0.0
 20
0.0
 30
0.0
  9
$UCSORGLEFT
 10
0.0
 20
0.0
 30
0.0
  9
$UCSORGRIGHT
 10
0.0
 20
0.0
 30
0.0
  9
$UCSORGFRONT
 10
0.0
 20
0.0
 30
0.0
  9
$UCSORGBACK
 10
0.0
 20
0.0
 30
0.0
  9
$PUCSBASE
  2

  9
$PUCSNAME
  2

  9
$PUCSORG
 10
0.0
 20
0.0
 30
0.0
  9
$PUCSXDIR
 10
1.0
 20
0.0
 30
0.0
  9
$PUCSYDIR
 10
0.0
 20
1.0
 30
0.0
  9
$PUCSORTHOREF
  2

  9
$PUCSORTHOVIEW
 70
     0
  9
$PUCSORGTOP
 10
0.0
 20
0.0
 30
0.0
  9
$PUCSORGBOTTOM
 10
0.0
 20
0.0
 30
0.0
  9
$PUCSORGLEFT
 10
0.0
 20
0.0
 30
0.0
  9
$PUCSORGRIGHT
 10
0.0
 20
0.0
 30
0.0
  9
$PUCSORGFRONT
 10
0.0
 20
0.0
 30
0.0
  9
$PUCSORGBACK
 10
0.0
 20
0.0
 30
0.0
  9
$USERI1
 70
     0
  9
$USERI2
 70
     0
  9
$USERI3
 70
     0
  9
$USERI4
 70
     0
  9
$USERI5
 70
     0
  9
$USERR1
 40
0.0
  9
$USERR2
 40
0.0
  9
$USERR3
 40
0.0
  9
$USERR4
 40
0.0
  9
$USERR5
 40
0.0
  9
$WORLDVIEW
 70
     1
  9
$SHADEDGE
 70
     3
  9
$SHADEDIF
 70
    70
  9
$TILEMODE
 70
     1
  9
$MAXACTVP
 70
    64
  9
$PINSBASE
 10
0.0
 20
0.0
 30
0.0
  9
$PLIMCHECK
 70
     0
  9
$PEXTMIN
 10
1.000000000000000E+20
 20
1.000000000000000E+20
 30
1.000000000000000E+20
  9
$PEXTMAX
 10
-1.000000000000000E+20
 20
-1.000000000000000E+20
 30
-1.000000000000000E+20
  9
$PLIMMIN
 10
0.0
 20
0.0
  9
$PLIMMAX
 10
12.0
 20
9.0
  9
$UNITMODE
 70
     0
  9
$VISRETAIN
 70
     1
  9
$PLINEGEN
 70
     0
  9
$PSLTSCALE
 70
     1
  9
$TREEDEPTH
 70
  3020
  9
$CMLSTYLE
  2
Standard
  9
$CMLJUST
 70
     0
  9
$CMLSCALE
 40
1.0
  9
$PROXYGRAPHICS
 70
     1
  9
$MEASUREMENT
 70
     0
  9
$CELWEIGHT
370
    -1
  9
$ENDCAPS
280
     0
  9
$JOINSTYLE
280
     0
  9
$LWDISPLAY
290
     1
  9
$INSUNITS
 70
     1
  9
$HYPERLINKBASE
  1

  9
$STYLESHEET
  1

  9
$XEDIT
290
     1
  9
$CEPSNTYPE
380
     0
  9
$PSTYLEMODE
290
     1
  9
$FINGERPRINTGUID
  2
{408EEDC8-932E-DE67-8419-BD2BE61DC233}
  9
$VERSIONGUID
  2
{FAEB1C32-E019-11D5-929B-00C0DF256EC4}
  9
$EXTNAMES
290
     1
  9
$PSVPSCALE
 40
0.0
  9
$OLESTARTUP
290
     0
  9
$SORTENTS
280
   127
  9
$INDEXCTL
280
     0
  9
$HIDETEXT
280
     1
  9
$XCLIPFRAME
280
     2
  9
$HALOGAP
280
     0
  9
$OBSCOLOR
 70
   257
  9
$OBSLTYPE
280
     0
  9
$INTERSECTIONDISPLAY
280
     0
  9
$INTERSECTIONCOLOR
 70
   257
  9
$DIMASSOC
280
     2
  9
$PROJECTNAME
  1

  9
$CAMERADISPLAY
290
     0
  9
$LENSLENGTH
 40
50.0
  9
$CAMERAHEIGHT
 40
0.0
  9
$STEPSPERSEC
 40
2.0
  9
$STEPSIZE
 40
6.0
  9
$3DDWFPREC
 40
2.0
  9
$PSOLWIDTH
 40
0.25
  9
$PSOLHEIGHT
 40
4.0
  9
$LOFTANG1
 40
1.570796326794897
  9
$LOFTANG2
 40
1.570796326794897
  9
$LOFTMAG1
 40
0.0
  9
$LOFTMAG2
 40
0.0
  9
$LOFTPARAM
 70
     7
  9
$LOFTNORMALS
280
     1
  9
$LATITUDE
 40
37.795
  9
$LONGITUDE
 40
-122.394
  9
$NORTHDIRECTION
 40
0.0
  9
$TIMEZONE
 70
 -8000
  9
$LIGHTGLYPHDISPLAY
280
     1
  9
$TILEMODELIGHTSYNCH
280
     1
  9
$CMATERIAL
347
3C
  9
$SOLIDHIST
280
     1
  9
$SHOWHIST
280
     1
  9
$DWFFRAME
280
     2
  9
$DGNFRAME
280
     2
  9
$REALWORLDSCALE
290
     1
  9
$INTERFERECOLOR
 62
   256
  9
$CSHADOW
280
     0
  9
$SHADOWPLANELOCATION
 40
0.0
  0
ENDSEC
  0
SECTION
  2
CLASSES
  0
CLASS
  1
ACDBDICTIONARYWDFLT
  2
AcDbDictionaryWithDefault
  3
ObjectDBX Classes
 90
        0
 91
        4
280
     0
281
     0
  0
CLASS
  1
VISUALSTYLE
  2
AcDbVisualStyle
  3
ObjectDBX Classes
 90
     4095
 91
        4
280
     0
281
     0
  0
CLASS
  1
MATERIAL
  2
AcDbMaterial
  3
ObjectDBX Classes
 90
     1153
 91
        4
280
     0
281
     0
  0
CLASS
  1
SUN
  2
AcDbSun
  3
SCENEOE
 90
     1024
 91
        4
280
     0
281
     0
  0
ENDSEC
  0
SECTION
  2
TABLES
  0
TABLE
  2
VPORT
  5
8
330
0
100
AcDbSymbolTable
 70
     1
  0
VPORT
  5
29
330
8
100
AcDbSymbolTableRecord
100
AcDbViewportTableRecord
  2
*Active
 70
     0
 10
0.0
 20
0.0
 11
1.0
 21
1.0
 12
0.0
 22
0.0
 13
0.0
 23
0.0
 14
0.5
 24
0.5
 15
0.5
 25
0.5
 16
0.0
 26
0.0
 36
1.0
 17
105.0007777515277
 27
-148.5000416295416
 37
0.0
 40
297.0000832590831
 41
0.7070757462376333
 42
50.0
 43
0.0
 44
0.0
 50
0.0
 51
0.0
 71
     0
 72
   100
 73
     1
 74
     3
 75
     0
 76
     0
 77
     0
 78
     0
281
     0
 65
     1
110
0.0
120
0.0
130
0.0
111
1.0
121
0.0
131
0.0
112
0.0
122
1.0
132
0.0
 79
     0
146
0.0
 60
     3
 61
     5
292
     1
282
     1
141
0.0
142
0.0
 63
   250
361
3F
  0
ENDTAB
  0
TABLE
  2
LTYPE
  5
5
330
0
100
AcDbSymbolTable
 70
     1
  0
LTYPE
  5
14
330
5
100
AcDbSymbolTableRecord
100
AcDbLinetypeTableRecord
  2
ByBlock
 70
     0
  3

 72
    65
 73
     0
 40
0.0
  0
LTYPE
  5
15
330
5
100
AcDbSymbolTableRecord
100
AcDbLinetypeTableRecord
  2
ByLayer
 70
     0
  3

 72
    65
 73
     0
 40
0.0
  0
LTYPE
  5
16
330
5
100
AcDbSymbolTableRecord
100
AcDbLinetypeTableRecord
  2
Continuous
 70
     0
  3
Solid line
 72
    65
 73
     0
 40
0.0
  0
ENDTAB
  0
TABLE
  2
LAYER
  5
2
330
0
100
AcDbSymbolTable
 70
     2
  0
LAYER
  5
10
330
2
100
AcDbSymbolTableRecord
100
AcDbLayerTableRecord
  2
0
 70
     0
 62
     7
  6
Continuous
370
    -3
390
F
347
3E
  0
LAYER
  5
40
330
2
100
AcDbSymbolTableRecord
100
AcDbLayerTableRecord
  2
_U+30EC_U+30A4_U+30E4_U+30FC 1
 70
     0
 62
     7
  6
Continuous
370
    -3
390
F
347
3E
  0
ENDTAB
  0
TABLE
  2
STYLE
  5
3
330
0
100
AcDbSymbolTable
 70
     1
  0
STYLE
  5
11
330
3
100
AcDbSymbolTableRecord
100
AcDbTextStyleTableRecord
  2
Standard
 70
     0
 40
0.0
 41
1.0
 50
0.0
 71
     0
 42
0.2
  3
txt
  4

  0
ENDTAB
  0
TABLE
  2
VIEW
  5
6
330
0
100
AcDbSymbolTable
 70
     0
  0
ENDTAB
  0
TABLE
  2
UCS
  5
7
330
0
100
AcDbSymbolTable
 70
     0
  0
ENDTAB
  0
TABLE
  2
APPID
  5
9
330
0
100
AcDbSymbolTable
 70
     1
  0
APPID
  5
12
330
9
100
AcDbSymbolTableRecord
100
AcDbRegAppTableRecord
  2
ACAD
 70
     0
  0
ENDTAB
  0
TABLE
  2
DIMSTYLE
  5
A
330
0
100
AcDbSymbolTable
 70
     1
100
AcDbDimStyleTable
  0
DIMSTYLE
105
27
330
A
100
AcDbSymbolTableRecord
100
AcDbDimStyleTableRecord
  2
Standard
 70
     0
178
     0
340
11
  0
ENDTAB
  0
TABLE
  2
BLOCK_RECORD
  5
1
330
0
100
AcDbSymbolTable
 70
     7
  0
BLOCK_RECORD
  5
1F
330
1
100
AcDbSymbolTableRecord
100
AcDbBlockTableRecord
  2
*Model_Space
340
22
 70
     0
280
     1
281
     0
  0
BLOCK_RECORD
  5
1B
330
1
100
AcDbSymbolTableRecord
100
AcDbBlockTableRecord
  2
*Paper_Space
340
1E
 70
     0
280
     1
281
     0
  0
BLOCK_RECORD
  5
23
330
1
100
AcDbSymbolTableRecord
100
AcDbBlockTableRecord
  2
*Paper_Space0
340
26
 70
     0
280
     1
281
     0
  0
BLOCK_RECORD
  5
93
330
1
100
AcDbSymbolTableRecord
100
AcDbBlockTableRecord
  2
block 2
340
0
102
{BLKREFS
331
94
102
}
 70
     0
280
     1
281
     0
  0
BLOCK_RECORD
  5
A9
330
1
100
AcDbSymbolTableRecord
100
AcDbBlockTableRecord
  2
block 3
340
0
102
{BLKREFS
331
AA
102
}
 70
     0
280
     1
281
     0
  0
BLOCK_RECORD
  5
C6
330
1
100
AcDbSymbolTableRecord
100
AcDbBlockTableRecord
  2
block 4
340
0
102
{BLKREFS
331
C7
102
}
 70
     0
280
     1
281
     0
  0
BLOCK_RECORD
  5
D7
330
1
100
AcDbSymbolTableRecord
100
AcDbBlockTableRecord
  2
block 5
340
0
102
{BLKREFS
331
D8
102
}
 70
     0
280
     1
281
     0
  0
BLOCK_RECORD
  5
EB
330
1
100
AcDbSymbolTableRecord
100
AcDbBlockTableRecord
  2
block 6
340
0
102
{BLKREFS
331
EC
102
}
 70
     0
280
     1
281
     0
  0
BLOCK_RECORD
  5
10E
330
1
100
AcDbSymbolTableRecord
100
AcDbBlockTableRecord
  2
block 7
340
0
102
{BLKREFS
331
10F
102
}
 70
     0
280
     1
281
     0
  0
ENDTAB
  0
ENDSEC
  0
SECTION
  2
BLOCKS
  0
BLOCK
  5
20
330
1F
100
AcDbEntity
  8
0
100
AcDbBlockBegin
  2
*Model_Space
 70
     0
 10
0.0
 20
0.0
 30
0.0
  3
*Model_Space
  1

  0
ENDBLK
  5
21
330
1F
100
AcDbEntity
  8
0
100
AcDbBlockEnd
  0
BLOCK
  5
1C
330
1B
100
AcDbEntity
 67
     1
  8
0
100
AcDbBlockBegin
  2
*Paper_Space
 70
     0
 10
0.0
 20
0.0
 30
0.0
  3
*Paper_Space
  1

  0
ENDBLK
  5
1D
330
1B
100
AcDbEntity
 67
     1
  8
0
100
AcDbBlockEnd
  0
BLOCK
  5
24
330
23
100
AcDbEntity
  8
0
100
AcDbBlockBegin
  2
*Paper_Space0
 70
     0
 10
0.0
 20
0.0
 30
0.0
  3
*Paper_Space0
  1

  0
ENDBLK
  5
25
330
23
100
AcDbEntity
  8
0
100
AcDbBlockEnd
  0
BLOCK
  5
95
330
93
100
AcDbEntity
  8
0
100
AcDbBlockBegin
  2
block 2
 70
     0
 10
0.0
 20
0.0
 30
0.0
  3
block 2
  1

  0
SPLINE
  5
97
330
93
100
AcDbEntity
  8
_U+30EC_U+30A4_U+30E4_U+30FC 1
370
     0
100
AcDbSpline
210
0.0
220
0.0
230
1.0
 70
    11
 71
     3
 72
    26
 73
    22
 74
     0
 42
0.0000000001
 43
0.0000000001
 12
1.0
 22
0.0
 32
0.0
 13
1.0
 23
0.0
 33
0.0
 40
0.0
 40
0.0
 40
0.0
 40
0.0
 40
1.0
 40
1.0
 40
1.0
 40
2.0
 40
2.0
 40
2.0
 40
3.0
 40
3.0
 40
3.0
 40
4.0
 40
4.0
 40
4.0
 40
5.0
 40
5.0
 40
5.0
 40
6.0
 40
6.0
 40
6.0
 40
7.0
 40
7.0
 40
7.0
 40
7.0
 10
122.1279459330097
 20
-142.7244492915758
 30
0.0
 10
122.1279459330097
 20
-142.7244492915758
 30
0.0
 10
121.0237928299871
 20
-142.7244492915758
 30
0.0
 10
121.0237928299871
 20
-142.7244492915758
 30
0.0
 10
121.0237928299871
 20
-142.7244492915758
 30
0.0
 10
121.0237928299871
 20
-143.0768825597169
 30
0.0
 10
121.0237928299871
 20
-143.0768825597169
 30
0.0
 10
121.0237928299871
 20
-143.0768825597169
 30
0.0
 10
120.8756537241214
 20
-143.0768825597169
 30
0.0
 10
120.8756537241214
 20
-143.0768825597169
 30
0.0
 10
120.8608398135348
 20
-142.7220377247362
 30
0.0
 10
120.6978867970825
 20
-142.6724283497486
 30
0.0
 10
120.5838541365207
 20
-142.6407334712843
 30
0.0
 10
120.5838541365207
 20
-142.6407334712843
 30
0.0
 10
120.5838541365207
 20
-142.4846706458025
 30
0.0
 10
120.5838541365207
 20
-142.4846706458025
 30
0.0
 10
120.5838541365207
 20
-142.4846706458025
 30
0.0
 10
122.1279459330097
 20
-142.4846706458025
 30
0.0
 10
122.1279459330097
 20
-142.4846706458025
 30
0.0
 10
122.1279459330097
 20
-142.4846706458025
 30
0.0
 10
122.1279459330097
 20
-142.7244492915758
 30
0.0
 10
122.1279459330097
 20
-142.7244492915758
 30
0.0
  0
HATCH
  5
98
330
93
100
AcDbEntity
  8
_U+30EC_U+30A4_U+30E4_U+30FC 1
 62
   179
420
  2234388
100
AcDbHatch
 10
0.0
 20
0.0
 30
0.0
210
0.0
220
0.0
230
1.0
  2
SOLID
 70
     1
 71
     0
 91
        1
 92
        1
 93
        1
 72
     4
 94
        3
 73
     0
 74
     1
 95
       26
 96
       22
 40
0.0
 40
0.0
 40
0.0
 40
0.0
 40
1.0
 40
1.0
 40
1.0
 40
2.0
 40
2.0
 40
2.0
 40
3.0
 40
3.0
 40
3.0
 40
4.0
 40
4.0
 40
4.0
 40
5.0
 40
5.0
 40
5.0
 40
6.0
 40
6.0
 40
6.0
 40
7.0
 40
7.0
 40
7.0
 40
7.0
 10
122.1279459330097
 20
-142.7244492915758
 10
122.1279459330097
 20
-142.7244492915758
 10
121.0237928299871
 20
-142.7244492915758
 10
121.0237928299871
 20
-142.7244492915758
 10
121.0237928299871
 20
-142.7244492915758
 10
121.0237928299871
 20
-143.0768825597169
 10
121.0237928299871
 20
-143.0768825597169
 10
121.0237928299871
 20
-143.0768825597169
 10
120.8756537241214
 20
-143.0768825597169
 10
120.8756537241214
 20
-143.0768825597169
 10
120.8608398135348
 20
-142.7220377247362
 10
120.6978867970825
 20
-142.6724283497486
 10
120.5838541365207
 20
-142.6407334712843
 10
120.5838541365207
 20
-142.6407334712843
 10
120.5838541365207
 20
-142.4846706458025
 10
120.5838541365207
 20
-142.4846706458025
 10
120.5838541365207
 20
-142.4846706458025
 10
122.1279459330097
 20
-142.4846706458025
 10
122.1279459330097
 20
-142.4846706458025
 10
122.1279459330097
 20
-142.4846706458025
 10
122.1279459330097
 20
-142.7244492915758
 10
122.1279459330097
 20
-142.7244492915758
 97
        0
 97
        0
 75
     2
 76
     1
 98
        0
  0
ENDBLK
  5
96
330
93
100
AcDbEntity
  8
0
100
AcDbBlockEnd
  0
BLOCK
  5
AB
330
A9
100
AcDbEntity
  8
0
100
AcDbBlockBegin
  2
block 3
 70
     0
 10
0.0
 20
0.0
 30
0.0
  3
block 3
  1

  0
SPLINE
  5
AD
330
A9
100
AcDbEntity
  8
_U+30EC_U+30A4_U+30E4_U+30FC 1
370
     0
100
AcDbSpline
210
0.0
220
0.0
230
1.0
 70
    11
 71
     3
 72
    29
 73
    25
 74
     0
 42
0.0000000001
 43
0.0000000001
 12
1.0
 22
0.0
 32
0.0
 13
1.0
 23
0.0
 33
0.0
 40
0.0
 40
0.0
 40
0.0
 40
0.0
 40
1.0
 40
1.0
 40
1.0
 40
2.0
 40
2.0
 40
2.0
 40
3.0
 40
3.0
 40
3.0
 40
4.0
 40
4.0
 40
4.0
 40
5.0
 40
5.0
 40
5.0
 40
6.0
 40
6.0
 40
6.0
 40
7.0
 40
7.0
 40
7.0
 40
8.0
 40
8.0
 40
8.0
 40
8.0
 10
109.9498779022
 20
-150.5641085778104
 30
0.0
 10
110.1593397077032
 20
-150.6795192765662
 30
0.0
 10
110.1782877328721
 20
-150.8648654136727
 30
0.0
 10
110.1782877328721
 20
-150.9888888511417
 30
0.0
 10
110.1782877328721
 20
-151.1611436254042
 30
0.0
 10
110.1321234533698
 20
-151.3123833172066
 30
0.0
 10
109.9498779022
 20
-151.4140136340215
 30
0.0
 10
109.7552300072834
 20
-151.5249457086466
 30
0.0
 10
109.5182074378982
 20
-151.5452717720095
 30
0.0
 10
109.3555989309944
 20
-151.5452717720095
 30
0.0
 10
109.211593939711
 20
-151.5452717720095
 30
0.0
 10
108.9601019692878
 20
-151.5270127659377
 30
0.0
 10
108.7609754502403
 20
-151.4140136340215
 30
0.0
 10
108.5577148166106
 20
-151.2989474448142
 30
0.0
 10
108.5346326768594
 20
-151.1270371801002
 30
0.0
 10
108.5346326768594
 20
-150.9888888511417
 30
0.0
 10
108.5346326768594
 20
-150.8193901532674
 30
0.0
 10
108.5790744086191
 20
-150.6657388946252
 30
0.0
 10
108.7609754502403
 20
-150.5641085778104
 30
0.0
 10
108.9535562878658
 20
-150.4576551273161
 30
0.0
 10
109.1819661185378
 20
-150.4328504398223
 30
0.0
 10
109.3555989309944
 20
-150.4328504398223
 30
0.0
 10
109.5268201766114
 20
-150.4328504398223
 30
0.0
 10
109.7572970645746
 20
-150.455588070025
 30
0.0
 10
109.9498779022
 20
-150.5641085778104
 30
0.0
  0
SPLINE
  5
AE
330
A9
100
AcDbEntity
  8
_U+30EC_U+30A4_U+30E4_U+30FC 1
370
     0
100
AcDbSpline
210
0.0
220
0.0
230
1.0
 70
    11
 71
     3
 72
    17
 73
    13
 74
     0
 42
0.0000000001
 43
0.0000000001
 12
1.0
 22
0.0
 32
0.0
 13
1.0
 23
0.0
 33
0.0
 40
0.0
 40
0.0
 40
0.0
 40
0.0
 40
1.0
 40
1.0
 40
1.0
 40
2.0
 40
2.0
 40
2.0
 40
3.0
 40
3.0
 40
3.0
 40
4.0
 40
4.0
 40
4.0
 40
4.0
 10
108.7272135144849
 20
-150.9888888511417
 30
0.0
 10
108.7272135144849
 20
-151.2558837512485
 30
0.0
 10
109.0107448729209
 20
-151.3058376357847
 30
0.0
 10
109.3555989309944
 20
-151.3058376357847
 30
0.0
 10
109.6749592824771
 20
-151.3058376357847
 30
0.0
 10
109.983984347504
 20
-151.2672525663499
 30
0.0
 10
109.983984347504
 20
-150.9888888511417
 30
0.0
 10
109.983984347504
 20
-150.724650027423
 30
0.0
 10
109.7021755368106
 20
-150.6726290855957
 30
0.0
 10
109.3555989309944
 20
-150.6726290855957
 30
0.0
 10
109.0358940699632
 20
-150.6726290855957
 30
0.0
 10
108.7272135144849
 20
-150.7132812123217
 30
0.0
 10
108.7272135144849
 20
-150.9888888511417
 30
0.0
  0
HATCH
  5
AF
330
A9
100
AcDbEntity
  8
_U+30EC_U+30A4_U+30E4_U+30FC 1
 62
   179
420
  2234388
100
AcDbHatch
 10
0.0
 20
0.0
 30
0.0
210
0.0
220
0.0
230
1.0
  2
SOLID
 70
     1
 71
     0
 91
        2
 92
        1
 93
        1
 72
     4
 94
        3
 73
     0
 74
     1
 95
       29
 96
       25
 40
0.0
 40
0.0
 40
0.0
 40
0.0
 40
1.0
 40
1.0
 40
1.0
 40
2.0
 40
2.0
 40
2.0
 40
3.0
 40
3.0
 40
3.0
 40
4.0
 40
4.0
 40
4.0
 40
5.0
 40
5.0
 40
5.0
 40
6.0
 40
6.0
 40
6.0
 40
7.0
 40
7.0
 40
7.0
 40
8.0
 40
8.0
 40
8.0
 40
8.0
 10
109.9498779022
 20
-150.5641085778104
 10
110.1593397077032
 20
-150.6795192765662
 10
110.1782877328721
 20
-150.8648654136727
 10
110.1782877328721
 20
-150.9888888511417
 10
110.1782877328721
 20
-151.1611436254042
 10
110.1321234533698
 20
-151.3123833172066
 10
109.9498779022
 20
-151.4140136340215
 10
109.7552300072834
 20
-151.5249457086466
 10
109.5182074378982
 20
-151.5452717720095
 10
109.3555989309944
 20
-151.5452717720095
 10
109.211593939711
 20
-151.5452717720095
 10
108.9601019692878
 20
-151.5270127659377
 10
108.7609754502403
 20
-151.4140136340215
 10
108.5577148166106
 20
-151.2989474448142
 10
108.5346326768594
 20
-151.1270371801002
 10
108.5346326768594
 20
-150.9888888511417
 10
108.5346326768594
 20
-150.8193901532674
 10
108.5790744086191
 20
-150.6657388946252
 10
108.7609754502403
 20
-150.5641085778104
 10
108.9535562878658
 20
-150.4576551273161
 10
109.1819661185378
 20
-150.4328504398223
 10
109.3555989309944
 20
-150.4328504398223
 10
109.5268201766114
 20
-150.4328504398223
 10
109.7572970645746
 20
-150.455588070025
 10
109.9498779022
 20
-150.5641085778104
 97
        0
 97
        0
 92
        1
 93
        1
 72
     4
 94
        3
 73
     0
 74
     1
 95
       17
 96
       13
 40
0.0
 40
0.0
 40
0.0
 40
0.0
 40
1.0
 40
1.0
 40
1.0
 40
2.0
 40
2.0
 40
2.0
 40
3.0
 40
3.0
 40
3.0
 40
4.0
 40
4.0
 40
4.0
 40
4.0
 10
108.7272135144849
 20
-150.9888888511417
 10
108.7272135144849
 20
-151.2558837512485
 10
109.0107448729209
 20
-151.3058376357847
 10
109.3555989309944
 20
-151.3058376357847
 10
109.6749592824771
 20
-151.3058376357847
 10
109.983984347504
 20
-151.2672525663499
 10
109.983984347504
 20
-150.9888888511417
 10
109.983984347504
 20
-150.724650027423
 10
109.7021755368106
 20
-150.6726290855957
 10
109.3555989309944
 20
-150.6726290855957
 10
109.0358940699632
 20
-150.6726290855957
 10
108.7272135144849
 20
-150.7132812123217
 10
108.7272135144849
 20
-150.9888888511417
 97
        0
 97
        0
 75
     2
 76
     1
 98
        0
  0
POLYLINE
  5
B0
330
A9
100
AcDbEntity
  8
_U+30EC_U+30A4_U+30E4_U+30FC 1
370
     0
100
AcDb2dPolyline
 66
     1
 10
0.0
 20
0.0
 30
0.0
  0
VERTEX
  5
B1
330
B0
100
AcDbEntity
  8
_U+30EC_U+30A4_U+30E4_U+30FC 1
370
     0
100
AcDbVertex
100
AcDb2dVertex
 10
110.1276448292389
 20
-150.2013400232136
 30
0.0
  0
VERTEX
  5
B2
330
B0
100
AcDbEntity
  8
_U+30EC_U+30A4_U+30E4_U+30FC 1
370
     0
100
AcDbVertex
100
AcDb2dVertex
 10
109.8758083492672
 20
-150.2013400232136
 30
0.0
  0
VERTEX
  5
B3
330
B0
100
AcDbEntity
  8
_U+30EC_U+30A4_U+30E4_U+30FC 1
370
     0
100
AcDbVertex
100
AcDb2dVertex
 10
109.8758083492672
 20
-149.9326225753641
 30
0.0
  0
VERTEX
  5
B4
330
B0
100
AcDbEntity
  8
_U+30EC_U+30A4_U+30E4_U+30FC 1
370
     0
100
AcDbVertex
100
AcDb2dVertex
 10
110.1276448292389
 20
-149.9326225753641
 30
0.0
  0
VERTEX
  5
B5
330
B0
100
AcDbEntity
  8
_U+30EC_U+30A4_U+30E4_U+30FC 1
370
     0
100
AcDbVertex
100
AcDb2dVertex
 10
110.1276448292389
 20
-150.2013400232136
 30
0.0
  0
SEQEND
  5
B6
330
B0
100
AcDbEntity
  8
_U+30EC_U+30A4_U+30E4_U+30FC 1
370
     0
  0
HATCH
  5
B7
330
A9
100
AcDbEntity
  8
_U+30EC_U+30A4_U+30E4_U+30FC 1
 62
   179
420
  2234388
100
AcDbHatch
 10
0.0
 20
0.0
 30
0.0
210
0.0
220
0.0
230
1.0
  2
SOLID
 70
     1
 71
     0
 91
        1
 92
        1
 93
        4
 72
     1
 10
110.1276448292389
 20
-150.2013400232136
 11
109.8758083492672
 21
-150.2013400232136
 72
     1
 10
109.8758083492672
 20
-150.2013400232136
 11
109.8758083492672
 21
-149.9326225753641
 72
     1
 10
109.8758083492672
 20
-149.9326225753641
 11
110.1276448292389
 21
-149.9326225753641
 72
     1
 10
110.1276448292389
 20
-149.9326225753641
 11
110.1276448292389
 21
-150.2013400232136
 97
        0
 75
     2
 76
     1
 98
        0
  0
SPLINE
  5
B8
330
A9
100
AcDbEntity
  8
_U+30EC_U+30A4_U+30E4_U+30FC 1
370
     0
100
AcDbSpline
210
0.0
220
0.0
230
1.0
 70
    11
 71
     3
 72
    62
 73
    58
 74
     0
 42
0.0000000001
 43
0.0000000001
 12
1.0
 22
0.0
 32
0.0
 13
1.0
 23
0.0
 33
0.0
 40
0.0
 40
0.0
 40
0.0
 40
0.0
 40
1.0
 40
1.0
 40
1.0
 40
2.0
 40
2.0
 40
2.0
 40
3.0
 40
3.0
 40
3.0
 40
4.0
 40
4.0
 40
4.0
 40
5.0
 40
5.0
 40
5.0
 40
6.0
 40
6.0
 40
6.0
 40
7.0
 40
7.0
 40
7.0
 40
8.0
 40
8.0
 40
8.0
 40
9.0
 40
9.0
 40
9.0
 40
10.0
 40
10.0
 40
10.0
 40
11.0
 40
11.0
 40
11.0
 40
12.0
 40
12.0
 40
12.0
 40
13.0
 40
13.0
 40
13.0
 40
14.0
 40
14.0
 40
14.0
 40
15.0
 40
15.0
 40
15.0
 40
16.0
 40
16.0
 40
16.0
 40
17.0
 40
17.0
 40
17.0
 40
18.0
 40
18.0
 40
18.0
 40
19.0
 40
19.0
 40
19.0
 40
19.0
 10
110.1782877328721
 20
-149.1543755052461
 30
0.0
 10
110.1782877328721
 20
-149.256005822061
 30
0.0
 10
110.1572726504121
 20
-149.4888942768639
 30
0.0
 10
109.9708929846601
 20
-149.6225639816916
 30
0.0
 10
109.8589273813894
 20
-149.7014566683038
 30
0.0
 10
109.7593641218657
 20
-149.7059352924346
 30
0.0
 10
109.6749592824771
 20
-149.7104139165655
 30
0.0
 10
109.6749592824771
 20
-149.7104139165655
 30
0.0
 10
109.6749592824771
 20
-149.4754584044714
 30
0.0
 10
109.6749592824771
 20
-149.4754584044714
 30
0.0
 10
109.74902883541
 20
-149.4730468376318
 30
0.0
 10
109.983984347504
 20
-149.4620225320789
 30
0.0
 10
109.983984347504
 20
-149.1588541293769
 30
0.0
 10
109.983984347504
 20
-149.0120930617053
 30
0.0
 10
109.9140489091534
 20
-148.849140045253
 30
0.0
 10
109.6856390784814
 20
-148.849140045253
 30
0.0
 10
109.5691948510799
 20
-148.849140045253
 30
0.0
 10
109.5202744951894
 20
-148.8897921719789
 30
0.0
 10
109.4885796167251
 20
-148.9238986172829
 30
0.0
 10
109.4148545733407
 20
-149.0027913038952
 30
0.0
 10
109.4021077200453
 20
-149.1271592509127
 30
0.0
 10
109.4021077200453
 20
-149.1860703837104
 30
0.0
 10
109.4021077200453
 20
-149.2063964470734
 30
0.0
 10
109.4041747773365
 20
-149.2449815165082
 30
0.0
 10
109.4083088919188
 20
-149.2739203185843
 30
0.0
 10
109.4083088919188
 20
-149.2739203185843
 30
0.0
 10
109.2136609970022
 20
-149.2739203185843
 30
0.0
 10
109.2136609970022
 20
-149.2739203185843
 30
0.0
 10
109.2198621688756
 20
-149.2332681918583
 30
0.0
 10
109.2222737357153
 20
-149.1884819505501
 30
0.0
 10
109.2222737357153
 20
-149.1815917595796
 30
0.0
 10
109.2222737357153
 20
-149.1113118116805
 30
0.0
 10
109.2012586532553
 20
-148.8990939297891
 30
0.0
 10
108.9642360838701
 20
-148.8990939297891
 30
0.0
 10
108.7864691568312
 20
-148.8990939297891
 30
0.0
 10
108.7313476290672
 20
-149.0389648064903
 30
0.0
 10
108.7313476290672
 20
-149.1567870720858
 30
0.0
 10
108.7313476290672
 20
-149.4392849018763
 30
0.0
 10
108.9642360838701
 20
-149.448242150138
 30
0.0
 10
109.0358940699632
 20
-149.4527207742688
 30
0.0
 10
109.0358940699632
 20
-149.4527207742688
 30
0.0
 10
109.0358940699632
 20
-149.6697617898395
 30
0.0
 10
109.0358940699632
 20
-149.6697617898395
 30
0.0
 10
108.9111816133972
 20
-149.6608045415779
 30
0.0
 10
108.5346326768594
 20
-149.6315212299533
 30
0.0
 10
108.5346326768594
 20
-149.1430066901448
 30
0.0
 10
108.5346326768594
 20
-148.9032280443714
 30
0.0
 10
108.6617567002651
 20
-148.6455349020747
 30
0.0
 10
108.9576904024481
 20
-148.6455349020747
 30
0.0
 10
109.1440700682001
 20
-148.6455349020747
 30
0.0
 10
109.2264078502976
 20
-148.7475097284381
 30
0.0
 10
109.287730549935
 20
-148.8536186693838
 30
0.0
 10
109.315291313817
 20
-148.7881618551641
 30
0.0
 10
109.3955620386233
 20
-148.5935139602475
 30
0.0
 10
109.6728922251859
 20
-148.5935139602475
 30
0.0
 10
110.011545111386
 20
-148.5935139602475
 30
0.0
 10
110.1782877328721
 20
-148.8580972935146
 30
0.0
 10
110.1782877328721
 20
-149.1543755052461
 30
0.0
  0
HATCH
  5
B9
330
A9
100
AcDbEntity
  8
_U+30EC_U+30A4_U+30E4_U+30FC 1
 62
   179
420
  2234388
100
AcDbHatch
 10
0.0
 20
0.0
 30
0.0
210
0.0
220
0.0
230
1.0
  2
SOLID
 70
     1
 71
     0
 91
        1
 92
        1
 93
        1
 72
     4
 94
        3
 73
     0
 74
     1
 95
       62
 96
       58
 40
0.0
 40
0.0
 40
0.0
 40
0.0
 40
1.0
 40
1.0
 40
1.0
 40
2.0
 40
2.0
 40
2.0
 40
3.0
 40
3.0
 40
3.0
 40
4.0
 40
4.0
 40
4.0
 40
5.0
 40
5.0
 40
5.0
 40
6.0
 40
6.0
 40
6.0
 40
7.0
 40
7.0
 40
7.0
 40
8.0
 40
8.0
 40
8.0
 40
9.0
 40
9.0
 40
9.0
 40
10.0
 40
10.0
 40
10.0
 40
11.0
 40
11.0
 40
11.0
 40
12.0
 40
12.0
 40
12.0
 40
13.0
 40
13.0
 40
13.0
 40
14.0
 40
14.0
 40
14.0
 40
15.0
 40
15.0
 40
15.0
 40
16.0
 40
16.0
 40
16.0
 40
17.0
 40
17.0
 40
17.0
 40
18.0
 40
18.0
 40
18.0
 40
19.0
 40
19.0
 40
19.0
 40
19.0
 10
110.1782877328721
 20
-149.1543755052461
 10
110.1782877328721
 20
-149.256005822061
 10
110.1572726504121
 20
-149.4888942768639
 10
109.9708929846601
 20
-149.6225639816916
 10
109.8589273813894
 20
-149.7014566683038
 10
109.7593641218657
 20
-149.7059352924346
 10
109.6749592824771
 20
-149.7104139165655
 10
109.6749592824771
 20
-149.7104139165655
 10
109.6749592824771
 20
-149.4754584044714
 10
109.6749592824771
 20
-149.4754584044714
 10
109.74902883541
 20
-149.4730468376318
 10
109.983984347504
 20
-149.4620225320789
 10
109.983984347504
 20
-149.1588541293769
 10
109.983984347504
 20
-149.0120930617053
 10
109.9140489091534
 20
-148.849140045253
 10
109.6856390784814
 20
-148.849140045253
 10
109.5691948510799
 20
-148.849140045253
 10
109.5202744951894
 20
-148.8897921719789
 10
109.4885796167251
 20
-148.9238986172829
 10
109.4148545733407
 20
-149.0027913038952
 10
109.4021077200453
 20
-149.1271592509127
 10
109.4021077200453
 20
-149.1860703837104
 10
109.4021077200453
 20
-149.2063964470734
 10
109.4041747773365
 20
-149.2449815165082
 10
109.4083088919188
 20
-149.2739203185843
 10
109.4083088919188
 20
-149.2739203185843
 10
109.2136609970022
 20
-149.2739203185843
 10
109.2136609970022
 20
-149.2739203185843
 10
109.2198621688756
 20
-149.2332681918583
 10
109.2222737357153
 20
-149.1884819505501
 10
109.2222737357153
 20
-149.1815917595796
 10
109.2222737357153
 20
-149.1113118116805
 10
109.2012586532553
 20
-148.8990939297891
 10
108.9642360838701
 20
-148.8990939297891
 10
108.7864691568312
 20
-148.8990939297891
 10
108.7313476290672
 20
-149.0389648064903
 10
108.7313476290672
 20
-149.1567870720858
 10
108.7313476290672
 20
-149.4392849018763
 10
108.9642360838701
 20
-149.448242150138
 10
109.0358940699632
 20
-149.4527207742688
 10
109.0358940699632
 20
-149.4527207742688
 10
109.0358940699632
 20
-149.6697617898395
 10
109.0358940699632
 20
-149.6697617898395
 10
108.9111816133972
 20
-149.6608045415779
 10
108.5346326768594
 20
-149.6315212299533
 10
108.5346326768594
 20
-149.1430066901448
 10
108.5346326768594
 20
-148.9032280443714
 10
108.6617567002651
 20
-148.6455349020747
 10
108.9576904024481
 20
-148.6455349020747
 10
109.1440700682001
 20
-148.6455349020747
 10
109.2264078502976
 20
-148.7475097284381
 10
109.287730549935
 20
-148.8536186693838
 10
109.315291313817
 20
-148.7881618551641
 10
109.3955620386233
 20
-148.5935139602475
 10
109.6728922251859
 20
-148.5935139602475
 10
110.011545111386
 20
-148.5935139602475
 10
110.1782877328721
 20
-148.8580972935146
 10
110.1782877328721
 20
-149.1543755052461
 97
        0
 97
        0
 75
     2
 76
     1
 98
        0
  0
ENDBLK
  5
AC
330
A9
100
AcDbEntity
  8
0
100
AcDbBlockEnd
  0
BLOCK
  5
C8
330
C6
100
AcDbEntity
  8
0
100
AcDbBlockBegin
  2
block 4
 70
     0
 10
0.0
 20
0.0
 30
0.0
  3
block 4
  1

  0
SPLINE
  5
CA
330
C6
100
AcDbEntity
  8
_U+30EC_U+30A4_U+30E4_U+30FC 1
370
     0
100
AcDbSpline
210
0.0
220
0.0
230
1.0
 70
    11
 71
     3
 72
    26
 73
    22
 74
     0
 42
0.0000000001
 43
0.0000000001
 12
1.0
 22
0.0
 32
0.0
 13
1.0
 23
0.0
 33
0.0
 40
0.0
 40
0.0
 40
0.0
 40
0.0
 40
1.0
 40
1.0
 40
1.0
 40
2.0
 40
2.0
 40
2.0
 40
3.0
 40
3.0
 40
3.0
 40
4.0
 40
4.0
 40
4.0
 40
5.0
 40
5.0
 40
5.0
 40
6.0
 40
6.0
 40
6.0
 40
7.0
 40
7.0
 40
7.0
 40
7.0
 10
101.7538234880164
 20
-156.9127305380288
 30
0.0
 10
101.7538234880164
 20
-156.9127305380288
 30
0.0
 10
101.7538234880164
 20
-155.8085774350062
 30
0.0
 10
101.7538234880164
 20
-155.8085774350062
 30
0.0
 10
101.7538234880164
 20
-155.8085774350062
 30
0.0
 10
101.4010457103268
 20
-155.8085774350062
 30
0.0
 10
101.4010457103268
 20
-155.8085774350062
 30
0.0
 10
101.4010457103268
 20
-155.8085774350062
 30
0.0
 10
101.4010457103268
 20
-155.6604383291404
 30
0.0
 10
101.4010457103268
 20
-155.6604383291404
 30
0.0
 10
101.7560628000818
 20
-155.6456244185539
 30
0.0
 10
101.8058444298437
 20
-155.4826714021016
 30
0.0
 10
101.8373670535337
 20
-155.3686387415398
 30
0.0
 10
101.8373670535337
 20
-155.3686387415398
 30
0.0
 10
101.9934298790155
 20
-155.3686387415398
 30
0.0
 10
101.9934298790155
 20
-155.3686387415398
 30
0.0
 10
101.9934298790155
 20
-155.3686387415398
 30
0.0
 10
101.9934298790155
 20
-156.9127305380288
 30
0.0
 10
101.9934298790155
 20
-156.9127305380288
 30
0.0
 10
101.9934298790155
 20
-156.9127305380288
 30
0.0
 10
101.7538234880164
 20
-156.9127305380288
 30
0.0
 10
101.7538234880164
 20
-156.9127305380288
 30
0.0
  0
HATCH
  5
CB
330
C6
100
AcDbEntity
  8
_U+30EC_U+30A4_U+30E4_U+30FC 1
 62
   179
420
  2234388
100
AcDbHatch
 10
0.0
 20
0.0
 30
0.0
210
0.0
220
0.0
230
1.0
  2
SOLID
 70
     1
 71
     0
 91
        1
 92
        1
 93
        1
 72
     4
 94
        3
 73
     0
 74
     1
 95
       26
 96
       22
 40
0.0
 40
0.0
 40
0.0
 40
0.0
 40
1.0
 40
1.0
 40
1.0
 40
2.0
 40
2.0
 40
2.0
 40
3.0
 40
3.0
 40
3.0
 40
4.0
 40
4.0
 40
4.0
 40
5.0
 40
5.0
 40
5.0
 40
6.0
 40
6.0
 40
6.0
 40
7.0
 40
7.0
 40
7.0
 40
7.0
 10
101.7538234880164
 20
-156.9127305380288
 10
101.7538234880164
 20
-156.9127305380288
 10
101.7538234880164
 20
-155.8085774350062
 10
101.7538234880164
 20
-155.8085774350062
 10
101.7538234880164
 20
-155.8085774350062
 10
101.4010457103268
 20
-155.8085774350062
 10
101.4010457103268
 20
-155.8085774350062
 10
101.4010457103268
 20
-155.8085774350062
 10
101.4010457103268
 20
-155.6604383291404
 10
101.4010457103268
 20
-155.6604383291404
 10
101.7560628000818
 20
-155.6456244185539
 10
101.8058444298437
 20
-155.4826714021016
 10
101.8373670535337
 20
-155.3686387415398
 10
101.8373670535337
 20
-155.3686387415398
 10
101.9934298790155
 20
-155.3686387415398
 10
101.9934298790155
 20
-155.3686387415398
 10
101.9934298790155
 20
-155.3686387415398
 10
101.9934298790155
 20
-156.9127305380288
 10
101.9934298790155
 20
-156.9127305380288
 10
101.9934298790155
 20
-156.9127305380288
 10
101.7538234880164
 20
-156.9127305380288
 10
101.7538234880164
 20
-156.9127305380288
 97
        0
 97
        0
 75
     2
 76
     1
 98
        0
  0
SPLINE
  5
CC
330
C6
100
AcDbEntity
  8
_U+30EC_U+30A4_U+30E4_U+30FC 1
370
     0
100
AcDbSpline
210
0.0
220
0.0
230
1.0
 70
    11
 71
     3
 72
    29
 73
    25
 74
     0
 42
0.0000000001
 43
0.0000000001
 12
1.0
 22
0.0
 32
0.0
 13
1.0
 23
0.0
 33
0.0
 40
0.0
 40
0.0
 40
0.0
 40
0.0
 40
1.0
 40
1.0
 40
1.0
 40
2.0
 40
2.0
 40
2.0
 40
3.0
 40
3.0
 40
3.0
 40
4.0
 40
4.0
 40
4.0
 40
5.0
 40
5.0
 40
5.0
 40
6.0
 40
6.0
 40
6.0
 40
7.0
 40
7.0
 40
7.0
 40
8.0
 40
8.0
 40
8.0
 40
8.0
 10
103.488601319614
 20
-156.7349636109899
 30
0.0
 10
103.3733628756324
 20
-156.9444254164931
 30
0.0
 10
103.1880167385259
 20
-156.9637179512105
 30
0.0
 10
103.0636487915084
 20
-156.9637179512105
 30
0.0
 10
102.8917385267944
 20
-156.9637179512105
 30
0.0
 10
102.7403265802177
 20
-156.9172091621596
 30
0.0
 10
102.6385240086286
 20
-156.7349636109899
 30
0.0
 10
102.5277641887778
 20
-156.5403157160733
 30
0.0
 10
102.5074381254148
 20
-156.3036376562366
 30
0.0
 10
102.5074381254148
 20
-156.1406846397843
 30
0.0
 10
102.5074381254148
 20
-155.9966796485008
 30
0.0
 10
102.5255248767124
 20
-155.7451876780776
 30
0.0
 10
102.6385240086286
 20
-155.5460611590302
 30
0.0
 10
102.7539347073844
 20
-155.3431450349489
 30
0.0
 10
102.9256727173241
 20
-155.3197183856493
 30
0.0
 10
103.0636487915084
 20
-155.3197183856493
 30
0.0
 10
103.2331474893827
 20
-155.3197183856493
 30
0.0
 10
103.3869710027991
 20
-155.364160117409
 30
0.0
 10
103.488601319614
 20
-155.5460611590302
 30
0.0
 10
103.5948825153339
 20
-155.7386419966556
 30
0.0
 10
103.619859457602
 20
-155.9670518273277
 30
0.0
 10
103.619859457602
 20
-156.1406846397843
 30
0.0
 10
103.619859457602
 20
-156.3119058854012
 30
0.0
 10
103.5971218273993
 20
-156.5427272829129
 30
0.0
 10
103.488601319614
 20
-156.7349636109899
 30
0.0
  0
SPLINE
  5
CD
330
C6
100
AcDbEntity
  8
_U+30EC_U+30A4_U+30E4_U+30FC 1
370
     0
100
AcDbSpline
210
0.0
220
0.0
230
1.0
 70
    11
 71
     3
 72
    17
 73
    13
 74
     0
 42
0.0000000001
 43
0.0000000001
 12
1.0
 22
0.0
 32
0.0
 13
1.0
 23
0.0
 33
0.0
 40
0.0
 40
0.0
 40
0.0
 40
0.0
 40
1.0
 40
1.0
 40
1.0
 40
2.0
 40
2.0
 40
2.0
 40
3.0
 40
3.0
 40
3.0
 40
4.0
 40
4.0
 40
4.0
 40
4.0
 10
103.0636487915084
 20
-155.5122992232747
 30
0.0
 10
102.7968261461758
 20
-155.5122992232747
 30
0.0
 10
102.7470445164139
 20
-155.7958305817108
 30
0.0
 10
102.7470445164139
 20
-156.1406846397843
 30
0.0
 10
102.7470445164139
 20
-156.4600449912669
 30
0.0
 10
102.7854573310745
 20
-156.7690700562939
 30
0.0
 10
103.0636487915084
 20
-156.7690700562939
 30
0.0
 10
103.3280598700013
 20
-156.7690700562939
 30
0.0
 10
103.3800808118286
 20
-156.4876057551489
 30
0.0
 10
103.3800808118286
 20
-156.1406846397843
 30
0.0
 10
103.3800808118286
 20
-155.8213242883016
 30
0.0
 10
103.3394286851026
 20
-155.5122992232747
 30
0.0
 10
103.0636487915084
 20
-155.5122992232747
 30
0.0
  0
HATCH
  5
CE
330
C6
100
AcDbEntity
  8
_U+30EC_U+30A4_U+30E4_U+30FC 1
 62
   179
420
  2234388
100
AcDbHatch
 10
0.0
 20
0.0
 30
0.0
210
0.0
220
0.0
230
1.0
  2
SOLID
 70
     1
 71
     0
 91
        2
 92
        1
 93
        1
 72
     4
 94
        3
 73
     0
 74
     1
 95
       29
 96
       25
 40
0.0
 40
0.0
 40
0.0
 40
0.0
 40
1.0
 40
1.0
 40
1.0
 40
2.0
 40
2.0
 40
2.0
 40
3.0
 40
3.0
 40
3.0
 40
4.0
 40
4.0
 40
4.0
 40
5.0
 40
5.0
 40
5.0
 40
6.0
 40
6.0
 40
6.0
 40
7.0
 40
7.0
 40
7.0
 40
8.0
 40
8.0
 40
8.0
 40
8.0
 10
103.488601319614
 20
-156.7349636109899
 10
103.3733628756324
 20
-156.9444254164931
 10
103.1880167385259
 20
-156.9637179512105
 10
103.0636487915084
 20
-156.9637179512105
 10
102.8917385267944
 20
-156.9637179512105
 10
102.7403265802177
 20
-156.9172091621596
 10
102.6385240086286
 20
-156.7349636109899
 10
102.5277641887778
 20
-156.5403157160733
 10
102.5074381254148
 20
-156.3036376562366
 10
102.5074381254148
 20
-156.1406846397843
 10
102.5074381254148
 20
-155.9966796485008
 10
102.5255248767124
 20
-155.7451876780776
 10
102.6385240086286
 20
-155.5460611590302
 10
102.7539347073844
 20
-155.3431450349489
 10
102.9256727173241
 20
-155.3197183856493
 10
103.0636487915084
 20
-155.3197183856493
 10
103.2331474893827
 20
-155.3197183856493
 10
103.3869710027991
 20
-155.364160117409
 10
103.488601319614
 20
-155.5460611590302
 10
103.5948825153339
 20
-155.7386419966556
 10
103.619859457602
 20
-155.9670518273277
 10
103.619859457602
 20
-156.1406846397843
 10
103.619859457602
 20
-156.3119058854012
 10
103.5971218273993
 20
-156.5427272829129
 10
103.488601319614
 20
-156.7349636109899
 97
        0
 97
        0
 92
        1
 93
        1
 72
     4
 94
        3
 73
     0
 74
     1
 95
       17
 96
       13
 40
0.0
 40
0.0
 40
0.0
 40
0.0
 40
1.0
 40
1.0
 40
1.0
 40
2.0
 40
2.0
 40
2.0
 40
3.0
 40
3.0
 40
3.0
 40
4.0
 40
4.0
 40
4.0
 40
4.0
 10
103.0636487915084
 20
-155.5122992232747
 10
102.7968261461758
 20
-155.5122992232747
 10
102.7470445164139
 20
-155.7958305817108
 10
102.7470445164139
 20
-156.1406846397843
 10
102.7470445164139
 20
-156.4600449912669
 10
102.7854573310745
 20
-156.7690700562939
 10
103.0636487915084
 20
-156.7690700562939
 10
103.3280598700013
 20
-156.7690700562939
 10
103.3800808118286
 20
-156.4876057551489
 10
103.3800808118286
 20
-156.1406846397843
 10
103.3800808118286
 20
-155.8213242883016
 10
103.3394286851026
 20
-155.5122992232747
 10
103.0636487915084
 20
-155.5122992232747
 97
        0
 97
        0
 75
     2
 76
     1
 98
        0
  0
ENDBLK
  5
C9
330
C6
100
AcDbEntity
  8
0
100
AcDbBlockEnd
  0
BLOCK
  5
D9
330
D7
100
AcDbEntity
  8
0
100
AcDbBlockBegin
  2
block 5
 70
     0
 10
0.0
 20
0.0
 30
0.0
  3
block 5
  1

  0
SPLINE
  5
DB
330
D7
100
AcDbEntity
  8
_U+30EC_U+30A4_U+30E4_U+30FC 1
370
     0
100
AcDbSpline
210
0.0
220
0.0
230
1.0
 70
    11
 71
     3
 72
    26
 73
    22
 74
     0
 42
0.0000000001
 43
0.0000000001
 12
1.0
 22
0.0
 32
0.0
 13
1.0
 23
0.0
 33
0.0
 40
0.0
 40
0.0
 40
0.0
 40
0.0
 40
1.0
 40
1.0
 40
1.0
 40
2.0
 40
2.0
 40
2.0
 40
3.0
 40
3.0
 40
3.0
 40
4.0
 40
4.0
 40
4.0
 40
5.0
 40
5.0
 40
5.0
 40
6.0
 40
6.0
 40
6.0
 40
7.0
 40
7.0
 40
7.0
 40
7.0
 10
90.7539781131622
 20
-156.9127305380288
 30
0.0
 10
90.7539781131622
 20
-156.9127305380288
 30
0.0
 10
90.7539781131622
 20
-155.8085774350062
 30
0.0
 10
90.7539781131622
 20
-155.8085774350062
 30
0.0
 10
90.7539781131622
 20
-155.8085774350062
 30
0.0
 10
90.40120033547262
 20
-155.8085774350062
 30
0.0
 10
90.40120033547262
 20
-155.8085774350062
 30
0.0
 10
90.40120033547262
 20
-155.8085774350062
 30
0.0
 10
90.40120033547262
 20
-155.6604383291404
 30
0.0
 10
90.40120033547262
 20
-155.6604383291404
 30
0.0
 10
90.75621742522762
 20
-155.6456244185539
 30
0.0
 10
90.80599905498947
 20
-155.4826714021016
 30
0.0
 10
90.83752167867951
 20
-155.3686387415398
 30
0.0
 10
90.83752167867951
 20
-155.3686387415398
 30
0.0
 10
90.99358450416133
 20
-155.3686387415398
 30
0.0
 10
90.99358450416133
 20
-155.3686387415398
 30
0.0
 10
90.99358450416133
 20
-155.3686387415398
 30
0.0
 10
90.99358450416133
 20
-156.9127305380288
 30
0.0
 10
90.99358450416133
 20
-156.9127305380288
 30
0.0
 10
90.99358450416133
 20
-156.9127305380288
 30
0.0
 10
90.7539781131622
 20
-156.9127305380288
 30
0.0
 10
90.7539781131622
 20
-156.9127305380288
 30
0.0
  0
HATCH
  5
DC
330
D7
100
AcDbEntity
  8
_U+30EC_U+30A4_U+30E4_U+30FC 1
 62
   179
420
  2234388
100
AcDbHatch
 10
0.0
 20
0.0
 30
0.0
210
0.0
220
0.0
230
1.0
  2
SOLID
 70
     1
 71
     0
 91
        1
 92
        1
 93
        1
 72
     4
 94
        3
 73
     0
 74
     1
 95
       26
 96
       22
 40
0.0
 40
0.0
 40
0.0
 40
0.0
 40
1.0
 40
1.0
 40
1.0
 40
2.0
 40
2.0
 40
2.0
 40
3.0
 40
3.0
 40
3.0
 40
4.0
 40
4.0
 40
4.0
 40
5.0
 40
5.0
 40
5.0
 40
6.0
 40
6.0
 40
6.0
 40
7.0
 40
7.0
 40
7.0
 40
7.0
 10
90.7539781131622
 20
-156.9127305380288
 10
90.7539781131622
 20
-156.9127305380288
 10
90.7539781131622
 20
-155.8085774350062
 10
90.7539781131622
 20
-155.8085774350062
 10
90.7539781131622
 20
-155.8085774350062
 10
90.40120033547262
 20
-155.8085774350062
 10
90.40120033547262
 20
-155.8085774350062
 10
90.40120033547262
 20
-155.8085774350062
 10
90.40120033547262
 20
-155.6604383291404
 10
90.40120033547262
 20
-155.6604383291404
 10
90.75621742522762
 20
-155.6456244185539
 10
90.80599905498947
 20
-155.4826714021016
 10
90.83752167867951
 20
-155.3686387415398
 10
90.83752167867951
 20
-155.3686387415398
 10
90.99358450416133
 20
-155.3686387415398
 10
90.99358450416133
 20
-155.3686387415398
 10
90.99358450416133
 20
-155.3686387415398
 10
90.99358450416133
 20
-156.9127305380288
 10
90.99358450416133
 20
-156.9127305380288
 10
90.99358450416133
 20
-156.9127305380288
 10
90.7539781131622
 20
-156.9127305380288
 10
90.7539781131622
 20
-156.9127305380288
 97
        0
 97
        0
 75
     2
 76
     1
 98
        0
  0
SPLINE
  5
DD
330
D7
100
AcDbEntity
  8
_U+30EC_U+30A4_U+30E4_U+30FC 1
370
     0
100
AcDbSpline
210
0.0
220
0.0
230
1.0
 70
    11
 71
     3
 72
    44
 73
    40
 74
     0
 42
0.0000000001
 43
0.0000000001
 12
1.0
 22
0.0
 32
0.0
 13
1.0
 23
0.0
 33
0.0
 40
0.0
 40
0.0
 40
0.0
 40
0.0
 40
1.0
 40
1.0
 40
1.0
 40
2.0
 40
2.0
 40
2.0
 40
3.0
 40
3.0
 40
3.0
 40
4.0
 40
4.0
 40
4.0
 40
5.0
 40
5.0
 40
5.0
 40
6.0
 40
6.0
 40
6.0
 40
7.0
 40
7.0
 40
7.0
 40
8.0
 40
8.0
 40
8.0
 40
9.0
 40
9.0
 40
9.0
 40
10.0
 40
10.0
 40
10.0
 40
11.0
 40
11.0
 40
11.0
 40
12.0
 40
12.0
 40
12.0
 40
13.0
 40
13.0
 40
13.0
 40
13.0
 10
92.16319442140365
 20
-156.3311984201186
 30
0.0
 10
91.93030596660076
 20
-156.4896728124401
 30
0.0
 10
91.8309149618513
 20
-156.563742365373
 30
0.0
 10
91.77889402002403
 20
-156.7077473566564
 30
0.0
 10
91.77889402002403
 20
-156.7077473566564
 30
0.0
 10
92.61088457971186
 20
-156.7077473566564
 30
0.0
 10
92.61088457971186
 20
-156.7077473566564
 30
0.0
 10
92.61088457971186
 20
-156.7077473566564
 30
0.0
 10
92.61088457971186
 20
-156.9127305380288
 30
0.0
 10
92.61088457971186
 20
-156.9127305380288
 30
0.0
 10
92.61088457971186
 20
-156.9127305380288
 30
0.0
 10
91.51207137469143
 20
-156.9127305380288
 30
0.0
 10
91.51207137469143
 20
-156.9127305380288
 30
0.0
 10
91.54600556522114
 20
-156.5551296266598
 30
0.0
 10
91.61611325834598
 20
-156.4769259591447
 30
0.0
 10
92.02762991405906
 20
-156.178580690122
 30
0.0
 10
92.30117049558791
 20
-155.9797986806231
 30
0.0
 10
92.37127818871274
 20
-155.9122748091122
 30
0.0
 10
92.37127818871274
 20
-155.7748154992507
 30
0.0
 10
92.37127818871274
 20
-155.6563042145582
 30
0.0
 10
92.29445255939167
 20
-155.5250460765701
 30
0.0
 10
92.08412948001717
 20
-155.5250460765701
 30
0.0
 10
91.80593801958324
 20
-155.5250460765701
 30
0.0
 10
91.79698077132159
 20
-155.7555229645334
 30
0.0
 10
91.79250214719077
 20
-155.8719671919348
 30
0.0
 10
91.79250214719077
 20
-155.8719671919348
 30
0.0
 10
91.55272350141738
 20
-155.8719671919348
 30
0.0
 10
91.55272350141738
 20
-155.8719671919348
 30
0.0
 10
91.5618530044533
 20
-155.7451876780776
 30
0.0
 10
91.57322181955462
 20
-155.6328775652585
 30
0.0
 10
91.65900469713733
 20
-155.5143662805659
 30
0.0
 10
91.77665470795861
 20
-155.3538248309532
 30
0.0
 10
91.9756089722318
 20
-155.3197183856493
 30
0.0
 10
92.09997691924931
 20
-155.3197183856493
 30
0.0
 10
92.39608287620653
 20
-155.3197183856493
 30
0.0
 10
92.6176025159081
 20
-155.5040309941101
 30
0.0
 10
92.6176025159081
 20
-155.7768825565419
 30
0.0
 10
92.6176025159081
 20
-156.005292387214
 30
0.0
 10
92.49323456889059
 20
-156.1048556467377
 30
0.0
 10
92.16319442140365
 20
-156.3311984201186
 30
0.0
  0
HATCH
  5
DE
330
D7
100
AcDbEntity
  8
_U+30EC_U+30A4_U+30E4_U+30FC 1
 62
   179
420
  2234388
100
AcDbHatch
 10
0.0
 20
0.0
 30
0.0
210
0.0
220
0.0
230
1.0
  2
SOLID
 70
     1
 71
     0
 91
        1
 92
        1
 93
        1
 72
     4
 94
        3
 73
     0
 74
     1
 95
       44
 96
       40
 40
0.0
 40
0.0
 40
0.0
 40
0.0
 40
1.0
 40
1.0
 40
1.0
 40
2.0
 40
2.0
 40
2.0
 40
3.0
 40
3.0
 40
3.0
 40
4.0
 40
4.0
 40
4.0
 40
5.0
 40
5.0
 40
5.0
 40
6.0
 40
6.0
 40
6.0
 40
7.0
 40
7.0
 40
7.0
 40
8.0
 40
8.0
 40
8.0
 40
9.0
 40
9.0
 40
9.0
 40
10.0
 40
10.0
 40
10.0
 40
11.0
 40
11.0
 40
11.0
 40
12.0
 40
12.0
 40
12.0
 40
13.0
 40
13.0
 40
13.0
 40
13.0
 10
92.16319442140365
 20
-156.3311984201186
 10
91.93030596660076
 20
-156.4896728124401
 10
91.8309149618513
 20
-156.563742365373
 10
91.77889402002403
 20
-156.7077473566564
 10
91.77889402002403
 20
-156.7077473566564
 10
92.61088457971186
 20
-156.7077473566564
 10
92.61088457971186
 20
-156.7077473566564
 10
92.61088457971186
 20
-156.7077473566564
 10
92.61088457971186
 20
-156.9127305380288
 10
92.61088457971186
 20
-156.9127305380288
 10
92.61088457971186
 20
-156.9127305380288
 10
91.51207137469143
 20
-156.9127305380288
 10
91.51207137469143
 20
-156.9127305380288
 10
91.54600556522114
 20
-156.5551296266598
 10
91.61611325834598
 20
-156.4769259591447
 10
92.02762991405906
 20
-156.178580690122
 10
92.30117049558791
 20
-155.9797986806231
 10
92.37127818871274
 20
-155.9122748091122
 10
92.37127818871274
 20
-155.7748154992507
 10
92.37127818871274
 20
-155.6563042145582
 10
92.29445255939167
 20
-155.5250460765701
 10
92.08412948001717
 20
-155.5250460765701
 10
91.80593801958324
 20
-155.5250460765701
 10
91.79698077132159
 20
-155.7555229645334
 10
91.79250214719077
 20
-155.8719671919348
 10
91.79250214719077
 20
-155.8719671919348
 10
91.55272350141738
 20
-155.8719671919348
 10
91.55272350141738
 20
-155.8719671919348
 10
91.5618530044533
 20
-155.7451876780776
 10
91.57322181955462
 20
-155.6328775652585
 10
91.65900469713733
 20
-155.5143662805659
 10
91.77665470795861
 20
-155.3538248309532
 10
91.9756089722318
 20
-155.3197183856493
 10
92.09997691924931
 20
-155.3197183856493
 10
92.39608287620653
 20
-155.3197183856493
 10
92.6176025159081
 20
-155.5040309941101
 10
92.6176025159081
 20
-155.7768825565419
 10
92.6176025159081
 20
-156.005292387214
 10
92.49323456889059
 20
-156.1048556467377
 10
92.16319442140365
 20
-156.3311984201186
 97
        0
 97
        0
 75
     2
 76
     1
 98
        0
  0
ENDBLK
  5
DA
330
D7
100
AcDbEntity
  8
0
100
AcDbBlockEnd
  0
BLOCK
  5
ED
330
EB
100
AcDbEntity
  8
0
100
AcDbBlockBegin
  2
block 6
 70
     0
 10
0.0
 20
0.0
 30
0.0
  3
block 6
  1

  0
SPLINE
  5
EF
330
EB
100
AcDbEntity
  8
_U+30EC_U+30A4_U+30E4_U+30FC 1
370
     0
100
AcDbSpline
210
0.0
220
0.0
230
1.0
 70
    11
 71
     3
 72
    62
 73
    58
 74
     0
 42
0.0000000001
 43
0.0000000001
 12
1.0
 22
0.0
 32
0.0
 13
1.0
 23
0.0
 33
0.0
 40
0.0
 40
0.0
 40
0.0
 40
0.0
 40
1.0
 40
1.0
 40
1.0
 40
2.0
 40
2.0
 40
2.0
 40
3.0
 40
3.0
 40
3.0
 40
4.0
 40
4.0
 40
4.0
 40
5.0
 40
5.0
 40
5.0
 40
6.0
 40
6.0
 40
6.0
 40
7.0
 40
7.0
 40
7.0
 40
8.0
 40
8.0
 40
8.0
 40
9.0
 40
9.0
 40
9.0
 40
10.0
 40
10.0
 40
10.0
 40
11.0
 40
11.0
 40
11.0
 40
12.0
 40
12.0
 40
12.0
 40
13.0
 40
13.0
 40
13.0
 40
14.0
 40
14.0
 40
14.0
 40
15.0
 40
15.0
 40
15.0
 40
16.0
 40
16.0
 40
16.0
 40
17.0
 40
17.0
 40
17.0
 40
18.0
 40
18.0
 40
18.0
 40
19.0
 40
19.0
 40
19.0
 40
19.0
 10
101.796887181582
 20
-140.4637776341549
 30
0.0
 10
101.6952568647672
 20
-140.4637776341549
 30
0.0
 10
101.4623684099643
 20
-140.4425902969206
 30
0.0
 10
101.3288709599108
 20
-140.2563828859429
 30
0.0
 10
101.2498060185244
 20
-140.144245027898
 30
0.0
 10
101.2453273943935
 20
-140.0448540231485
 30
0.0
 10
101.2406765154884
 20
-139.9602769289856
 30
0.0
 10
101.2406765154884
 20
-139.9602769289856
 30
0.0
 10
101.475976537131
 20
-139.9602769289856
 30
0.0
 10
101.475976537131
 20
-139.9602769289856
 30
0.0
 10
101.4782158491964
 20
-140.0343464819185
 30
0.0
 10
101.4894124095235
 20
-140.2691297392383
 30
0.0
 10
101.7924085574512
 20
-140.2691297392383
 30
0.0
 10
101.9393418798971
 20
-140.2691297392383
 30
0.0
 10
102.1021226415752
 20
-140.199366555662
 30
0.0
 10
102.1021226415752
 20
-139.9707844702156
 30
0.0
 10
102.1021226415752
 20
-139.8545124975885
 30
0.0
 10
102.0614705148492
 20
-139.8057643964722
 30
0.0
 10
102.0275363243195
 20
-139.7740695180079
 30
0.0
 10
101.948471382933
 20
-139.699999965075
 30
0.0
 10
101.8241034359155
 20
-139.6874253665538
 30
0.0
 10
101.765364557892
 20
-139.6874253665538
 30
0.0
 10
101.7448662397548
 20
-139.6874253665538
 30
0.0
 10
101.7064534250942
 20
-139.689492423845
 30
0.0
 10
101.6771701134696
 20
-139.6936265384273
 30
0.0
 10
101.6771701134696
 20
-139.6936265384273
 30
0.0
 10
101.6771701134696
 20
-139.4989786435107
 30
0.0
 10
101.6771701134696
 20
-139.4989786435107
 30
0.0
 10
101.7178222401955
 20
-139.5053520701584
 30
0.0
 10
101.7629529910523
 20
-139.5075913822238
 30
0.0
 10
101.7698431820228
 20
-139.5075913822238
 30
0.0
 10
101.8399508751477
 20
-139.5075913822238
 30
0.0
 10
102.0523410118133
 20
-139.4864040449895
 30
0.0
 10
102.0523410118133
 20
-139.2493814756043
 30
0.0
 10
102.0523410118133
 20
-139.0717868033397
 30
0.0
 10
101.9122978803379
 20
-139.0166652755757
 30
0.0
 10
101.7946478695166
 20
-139.0166652755757
 30
0.0
 10
101.5121500397261
 20
-139.0166652755757
 30
0.0
 10
101.5030205366902
 20
-139.2493814756043
 30
0.0
 10
101.4985419125594
 20
-139.321383971246
 30
0.0
 10
101.4985419125594
 20
-139.321383971246
 30
0.0
 10
101.2815008969887
 20
-139.321383971246
 30
0.0
 10
101.2815008969887
 20
-139.321383971246
 30
0.0
 10
101.2904581452503
 20
-139.1964992599057
 30
0.0
 10
101.3199137116492
 20
-138.8199503233679
 30
0.0
 10
101.8082559966834
 20
-138.8199503233679
 30
0.0
 10
102.0478623876825
 20
-138.8199503233679
 30
0.0
 10
102.3055555299792
 20
-138.9469020919994
 30
0.0
 10
102.3055555299792
 20
-139.2430080489566
 30
0.0
 10
102.3055555299792
 20
-139.4292154599344
 30
0.0
 10
102.2039252131643
 20
-139.5117254968061
 30
0.0
 10
102.0976440174443
 20
-139.5730481964436
 30
0.0
 10
102.1632730864384
 20
-139.6006089603256
 30
0.0
 10
102.3575764718064
 20
-139.6810519399061
 30
0.0
 10
102.3575764718064
 20
-139.9582098716945
 30
0.0
 10
102.3575764718064
 20
-140.2966905031203
 30
0.0
 10
102.0931653933135
 20
-140.4637776341549
 30
0.0
 10
101.796887181582
 20
-140.4637776341549
 30
0.0
  0
HATCH
  5
F0
330
EB
100
AcDbEntity
  8
_U+30EC_U+30A4_U+30E4_U+30FC 1
 62
   179
420
  2234388
100
AcDbHatch
 10
0.0
 20
0.0
 30
0.0
210
0.0
220
0.0
230
1.0
  2
SOLID
 70
     1
 71
     0
 91
        1
 92
        1
 93
        1
 72
     4
 94
        3
 73
     0
 74
     1
 95
       62
 96
       58
 40
0.0
 40
0.0
 40
0.0
 40
0.0
 40
1.0
 40
1.0
 40
1.0
 40
2.0
 40
2.0
 40
2.0
 40
3.0
 40
3.0
 40
3.0
 40
4.0
 40
4.0
 40
4.0
 40
5.0
 40
5.0
 40
5.0
 40
6.0
 40
6.0
 40
6.0
 40
7.0
 40
7.0
 40
7.0
 40
8.0
 40
8.0
 40
8.0
 40
9.0
 40
9.0
 40
9.0
 40
10.0
 40
10.0
 40
10.0
 40
11.0
 40
11.0
 40
11.0
 40
12.0
 40
12.0
 40
12.0
 40
13.0
 40
13.0
 40
13.0
 40
14.0
 40
14.0
 40
14.0
 40
15.0
 40
15.0
 40
15.0
 40
16.0
 40
16.0
 40
16.0
 40
17.0
 40
17.0
 40
17.0
 40
18.0
 40
18.0
 40
18.0
 40
19.0
 40
19.0
 40
19.0
 40
19.0
 10
101.796887181582
 20
-140.4637776341549
 10
101.6952568647672
 20
-140.4637776341549
 10
101.4623684099643
 20
-140.4425902969206
 10
101.3288709599108
 20
-140.2563828859429
 10
101.2498060185244
 20
-140.144245027898
 10
101.2453273943935
 20
-140.0448540231485
 10
101.2406765154884
 20
-139.9602769289856
 10
101.2406765154884
 20
-139.9602769289856
 10
101.475976537131
 20
-139.9602769289856
 10
101.475976537131
 20
-139.9602769289856
 10
101.4782158491964
 20
-140.0343464819185
 10
101.4894124095235
 20
-140.2691297392383
 10
101.7924085574512
 20
-140.2691297392383
 10
101.9393418798971
 20
-140.2691297392383
 10
102.1021226415752
 20
-140.199366555662
 10
102.1021226415752
 20
-139.9707844702156
 10
102.1021226415752
 20
-139.8545124975885
 10
102.0614705148492
 20
-139.8057643964722
 10
102.0275363243195
 20
-139.7740695180079
 10
101.948471382933
 20
-139.699999965075
 10
101.8241034359155
 20
-139.6874253665538
 10
101.765364557892
 20
-139.6874253665538
 10
101.7448662397548
 20
-139.6874253665538
 10
101.7064534250942
 20
-139.689492423845
 10
101.6771701134696
 20
-139.6936265384273
 10
101.6771701134696
 20
-139.6936265384273
 10
101.6771701134696
 20
-139.4989786435107
 10
101.6771701134696
 20
-139.4989786435107
 10
101.7178222401955
 20
-139.5053520701584
 10
101.7629529910523
 20
-139.5075913822238
 10
101.7698431820228
 20
-139.5075913822238
 10
101.8399508751477
 20
-139.5075913822238
 10
102.0523410118133
 20
-139.4864040449895
 10
102.0523410118133
 20
-139.2493814756043
 10
102.0523410118133
 20
-139.0717868033397
 10
101.9122978803379
 20
-139.0166652755757
 10
101.7946478695166
 20
-139.0166652755757
 10
101.5121500397261
 20
-139.0166652755757
 10
101.5030205366902
 20
-139.2493814756043
 10
101.4985419125594
 20
-139.321383971246
 10
101.4985419125594
 20
-139.321383971246
 10
101.2815008969887
 20
-139.321383971246
 10
101.2815008969887
 20
-139.321383971246
 10
101.2904581452503
 20
-139.1964992599057
 10
101.3199137116492
 20
-138.8199503233679
 10
101.8082559966834
 20
-138.8199503233679
 10
102.0478623876825
 20
-138.8199503233679
 10
102.3055555299792
 20
-138.9469020919994
 10
102.3055555299792
 20
-139.2430080489566
 10
102.3055555299792
 20
-139.4292154599344
 10
102.2039252131643
 20
-139.5117254968061
 10
102.0976440174443
 20
-139.5730481964436
 10
102.1632730864384
 20
-139.6006089603256
 10
102.3575764718064
 20
-139.6810519399061
 10
102.3575764718064
 20
-139.9582098716945
 10
102.3575764718064
 20
-140.2966905031203
 10
102.0931653933135
 20
-140.4637776341549
 10
101.796887181582
 20
-140.4637776341549
 97
        0
 97
        0
 75
     2
 76
     1
 98
        0
  0
POLYLINE
  5
F1
330
EB
100
AcDbEntity
  8
_U+30EC_U+30A4_U+30E4_U+30FC 1
370
     0
100
AcDb2dPolyline
 66
     1
 10
0.0
 20
0.0
 30
0.0
  0
VERTEX
  5
F2
330
F1
100
AcDbEntity
  8
_U+30EC_U+30A4_U+30E4_U+30FC 1
370
     0
100
AcDbVertex
100
AcDb2dVertex
 10
103.4186658812634
 20
-140.0660413603828
 30
0.0
  0
VERTEX
  5
F3
330
F1
100
AcDbEntity
  8
_U+30EC_U+30A4_U+30E4_U+30FC 1
370
     0
100
AcDbVertex
100
AcDb2dVertex
 10
103.4186658812634
 20
-140.4129624757475
 30
0.0
  0
VERTEX
  5
F4
330
F1
100
AcDbEntity
  8
_U+30EC_U+30A4_U+30E4_U+30FC 1
370
     0
100
AcDbVertex
100
AcDb2dVertex
 10
103.1857774264605
 20
-140.4129624757475
 30
0.0
  0
VERTEX
  5
F5
330
F1
100
AcDbEntity
  8
_U+30EC_U+30A4_U+30E4_U+30FC 1
370
     0
100
AcDbVertex
100
AcDb2dVertex
 10
103.1857774264605
 20
-140.0660413603828
 30
0.0
  0
VERTEX
  5
F6
330
F1
100
AcDbEntity
  8
_U+30EC_U+30A4_U+30E4_U+30FC 1
370
     0
100
AcDbVertex
100
AcDb2dVertex
 10
102.4850450047607
 20
-140.0660413603828
 30
0.0
  0
VERTEX
  5
F7
330
F1
100
AcDbEntity
  8
_U+30EC_U+30A4_U+30E4_U+30FC 1
370
     0
100
AcDbVertex
100
AcDb2dVertex
 10
102.4850450047607
 20
-139.841765644293
 30
0.0
  0
VERTEX
  5
F8
330
F1
100
AcDbEntity
  8
_U+30EC_U+30A4_U+30E4_U+30FC 1
370
     0
100
AcDbVertex
100
AcDb2dVertex
 10
103.2107543687286
 20
-138.8686984244842
 30
0.0
  0
VERTEX
  5
F9
330
F1
100
AcDbEntity
  8
_U+30EC_U+30A4_U+30E4_U+30FC 1
370
     0
100
AcDbVertex
100
AcDb2dVertex
 10
103.4186658812634
 20
-138.8686984244842
 30
0.0
  0
VERTEX
  5
FA
330
F1
100
AcDbEntity
  8
_U+30EC_U+30A4_U+30E4_U+30FC 1
370
     0
100
AcDbVertex
100
AcDb2dVertex
 10
103.4186658812634
 20
-139.8670870961096
 30
0.0
  0
VERTEX
  5
FB
330
F1
100
AcDbEntity
  8
_U+30EC_U+30A4_U+30E4_U+30FC 1
370
     0
100
AcDbVertex
100
AcDb2dVertex
 10
103.6403577757392
 20
-139.8670870961096
 30
0.0
  0
VERTEX
  5
FC
330
F1
100
AcDbEntity
  8
_U+30EC_U+30A4_U+30E4_U+30FC 1
370
     0
100
AcDbVertex
100
AcDb2dVertex
 10
103.6403577757392
 20
-140.0660413603828
 30
0.0
  0
VERTEX
  5
FD
330
F1
100
AcDbEntity
  8
_U+30EC_U+30A4_U+30E4_U+30FC 1
370
     0
100
AcDbVertex
100
AcDb2dVertex
 10
103.4186658812634
 20
-140.0660413603828
 30
0.0
  0
SEQEND
  5
FE
330
F1
100
AcDbEntity
  8
_U+30EC_U+30A4_U+30E4_U+30FC 1
370
     0
  0
POLYLINE
  5
FF
330
EB
100
AcDbEntity
  8
_U+30EC_U+30A4_U+30E4_U+30FC 1
370
     0
100
AcDb2dPolyline
 66
     1
 10
0.0
 20
0.0
 30
0.0
  0
VERTEX
  5
100
330
FF
100
AcDbEntity
  8
_U+30EC_U+30A4_U+30E4_U+30FC 1
370
     0
100
AcDbVertex
100
AcDb2dVertex
 10
103.1857774264605
 20
-139.2113131704923
 30
0.0
  0
VERTEX
  5
101
330
FF
100
AcDbEntity
  8
_U+30EC_U+30A4_U+30E4_U+30FC 1
370
     0
100
AcDbVertex
100
AcDb2dVertex
 10
102.6976073962006
 20
-139.8670870961096
 30
0.0
  0
VERTEX
  5
102
330
FF
100
AcDbEntity
  8
_U+30EC_U+30A4_U+30E4_U+30FC 1
370
     0
100
AcDbVertex
100
AcDb2dVertex
 10
103.1857774264605
 20
-139.8670870961096
 30
0.0
  0
VERTEX
  5
103
330
FF
100
AcDbEntity
  8
_U+30EC_U+30A4_U+30E4_U+30FC 1
370
     0
100
AcDbVertex
100
AcDb2dVertex
 10
103.1857774264605
 20
-139.2113131704923
 30
0.0
  0
SEQEND
  5
104
330
FF
100
AcDbEntity
  8
_U+30EC_U+30A4_U+30E4_U+30FC 1
370
     0
  0
HATCH
  5
105
330
EB
100
AcDbEntity
  8
_U+30EC_U+30A4_U+30E4_U+30FC 1
 62
   179
420
  2234388
100
AcDbHatch
 10
0.0
 20
0.0
 30
0.0
210
0.0
220
0.0
230
1.0
  2
SOLID
 70
     1
 71
     0
 91
        2
 92
        1
 93
       11
 72
     1
 10
103.4186658812634
 20
-140.0660413603828
 11
103.4186658812634
 21
-140.4129624757475
 72
     1
 10
103.4186658812634
 20
-140.4129624757475
 11
103.1857774264605
 21
-140.4129624757475
 72
     1
 10
103.1857774264605
 20
-140.4129624757475
 11
103.1857774264605
 21
-140.0660413603828
 72
     1
 10
103.1857774264605
 20
-140.0660413603828
 11
102.4850450047607
 21
-140.0660413603828
 72
     1
 10
102.4850450047607
 20
-140.0660413603828
 11
102.4850450047607
 21
-139.841765644293
 72
     1
 10
102.4850450047607
 20
-139.841765644293
 11
103.2107543687286
 21
-138.8686984244842
 72
     1
 10
103.2107543687286
 20
-138.8686984244842
 11
103.4186658812634
 21
-138.8686984244842
 72
     1
 10
103.4186658812634
 20
-138.8686984244842
 11
103.4186658812634
 21
-139.8670870961096
 72
     1
 10
103.4186658812634
 20
-139.8670870961096
 11
103.6403577757392
 21
-139.8670870961096
 72
     1
 10
103.6403577757392
 20
-139.8670870961096
 11
103.6403577757392
 21
-140.0660413603828
 72
     1
 10
103.6403577757392
 20
-140.0660413603828
 11
103.4186658812634
 21
-140.0660413603828
 97
        0
 92
        1
 93
        3
 72
     1
 10
103.1857774264605
 20
-139.2113131704923
 11
102.6976073962006
 21
-139.8670870961096
 72
     1
 10
102.6976073962006
 20
-139.8670870961096
 11
103.1857774264605
 21
-139.8670870961096
 72
     1
 10
103.1857774264605
 20
-139.8670870961096
 11
103.1857774264605
 21
-139.2113131704923
 97
        0
 75
     2
 76
     1
 98
        0
  0
ENDBLK
  5
EE
330
EB
100
AcDbEntity
  8
0
100
AcDbBlockEnd
  0
BLOCK
  5
110
330
10E
100
AcDbEntity
  8
0
100
AcDbBlockBegin
  2
block 7
 70
     0
 10
0.0
 20
0.0
 30
0.0
  3
block 7
  1

  0
SPLINE
  5
112
330
10E
100
AcDbEntity
  8
_U+30EC_U+30A4_U+30E4_U+30FC 1
370
     0
100
AcDbSpline
210
0.0
220
0.0
230
1.0
 70
    11
 71
     3
 72
    32
 73
    28
 74
     0
 42
0.0000000001
 43
0.0000000001
 12
1.0
 22
0.0
 32
0.0
 13
1.0
 23
0.0
 33
0.0
 40
0.0
 40
0.0
 40
0.0
 40
0.0
 40
1.0
 40
1.0
 40
1.0
 40
2.0
 40
2.0
 40
2.0
 40
3.0
 40
3.0
 40
3.0
 40
4.0
 40
4.0
 40
4.0
 40
5.0
 40
5.0
 40
5.0
 40
6.0
 40
6.0
 40
6.0
 40
7.0
 40
7.0
 40
7.0
 40
8.0
 40
8.0
 40
8.0
 40
9.0
 40
9.0
 40
9.0
 40
9.0
 10
122.1789333461914
 20
-150.7346408043302
 30
0.0
 10
122.1789333461914
 20
-151.2865451010672
 30
0.0
 10
121.6246174826147
 20
-151.2955023493289
 30
0.0
 10
121.4110215625292
 20
-151.2955023493289
 30
0.0
 10
121.180544674566
 20
-151.2955023493289
 30
0.0
 10
120.532866723339
 20
-151.2751762859659
 30
0.0
 10
120.532866723339
 20
-150.6939886776043
 30
0.0
 10
120.532866723339
 20
-150.5086425404978
 30
0.0
 10
120.6028021616896
 20
-150.2464707740703
 30
0.0
 10
120.9349093664677
 20
-150.2058186473444
 30
0.0
 10
120.9349093664677
 20
-150.2058186473444
 30
0.0
 10
120.9349093664677
 20
-150.4342284780165
 30
0.0
 10
120.9349093664677
 20
-150.4342284780165
 30
0.0
 10
120.878065290961
 20
-150.4452527835693
 30
0.0
 10
120.7299261850953
 20
-150.4793592288732
 30
0.0
 10
120.7299261850953
 20
-150.696400244444
 30
0.0
 10
120.7299261850953
 20
-151.0085258954076
 30
0.0
 10
121.0578992752911
 20
-151.0512450794247
 30
0.0
 10
121.2628824566634
 20
-151.0650254613657
 30
0.0
 10
121.1846787891483
 20
-150.965462201842
 30
0.0
 10
121.125423146802
 20
-150.8931151966517
 30
0.0
 10
121.125423146802
 20
-150.6988118112836
 30
0.0
 10
121.125423146802
 20
-150.5065754832067
 30
0.0
 10
121.2332546354903
 20
-150.1830810171417
 30
0.0
 10
121.6394313932013
 20
-150.1830810171417
 30
0.0
 10
121.9591362542324
 20
-150.1830810171417
 30
0.0
 10
122.1789333461914
 20
-150.3956434085817
 30
0.0
 10
122.1789333461914
 20
-150.7346408043302
 30
0.0
  0
SPLINE
  5
113
330
10E
100
AcDbEntity
  8
_U+30EC_U+30A4_U+30E4_U+30FC 1
370
     0
100
AcDbSpline
210
0.0
220
0.0
230
1.0
 70
    11
 71
     3
 72
    17
 73
    13
 74
     0
 42
0.0000000001
 43
0.0000000001
 12
1.0
 22
0.0
 32
0.0
 13
1.0
 23
0.0
 33
0.0
 40
0.0
 40
0.0
 40
0.0
 40
0.0
 40
1.0
 40
1.0
 40
1.0
 40
2.0
 40
2.0
 40
2.0
 40
3.0
 40
3.0
 40
3.0
 40
4.0
 40
4.0
 40
4.0
 40
4.0
 10
121.3200710417186
 20
-150.7167263078069
 30
0.0
 10
121.3200710417186
 20
-150.9971570803063
 30
0.0
 10
121.5315999045129
 20
-151.0378092070322
 30
0.0
 10
121.6476996223659
 20
-151.0378092070322
 30
0.0
 10
121.8233994921136
 20
-151.0378092070322
 30
0.0
 10
121.9863525085659
 20
-150.9361788902173
 30
0.0
 10
121.9863525085659
 20
-150.7394639380096
 30
0.0
 10
121.9863525085659
 20
-150.6106173668612
 30
0.0
 10
121.9270968662196
 20
-150.4228596629151
 30
0.0
 10
121.6414984504924
 20
-150.4228596629151
 30
0.0
 10
121.4175672439512
 20
-150.4228596629151
 30
0.0
 10
121.3200710417186
 20
-150.5720322974264
 30
0.0
 10
121.3200710417186
 20
-150.7167263078069
 30
0.0
  0
HATCH
  5
114
330
10E
100
AcDbEntity
  8
_U+30EC_U+30A4_U+30E4_U+30FC 1
 62
   179
420
  2234388
100
AcDbHatch
 10
0.0
 20
0.0
 30
0.0
210
0.0
220
0.0
230
1.0
  2
SOLID
 70
     1
 71
     0
 91
        2
 92
        1
 93
        1
 72
     4
 94
        3
 73
     0
 74
     1
 95
       32
 96
       28
 40
0.0
 40
0.0
 40
0.0
 40
0.0
 40
1.0
 40
1.0
 40
1.0
 40
2.0
 40
2.0
 40
2.0
 40
3.0
 40
3.0
 40
3.0
 40
4.0
 40
4.0
 40
4.0
 40
5.0
 40
5.0
 40
5.0
 40
6.0
 40
6.0
 40
6.0
 40
7.0
 40
7.0
 40
7.0
 40
8.0
 40
8.0
 40
8.0
 40
9.0
 40
9.0
 40
9.0
 40
9.0
 10
122.1789333461914
 20
-150.7346408043302
 10
122.1789333461914
 20
-151.2865451010672
 10
121.6246174826147
 20
-151.2955023493289
 10
121.4110215625292
 20
-151.2955023493289
 10
121.180544674566
 20
-151.2955023493289
 10
120.532866723339
 20
-151.2751762859659
 10
120.532866723339
 20
-150.6939886776043
 10
120.532866723339
 20
-150.5086425404978
 10
120.6028021616896
 20
-150.2464707740703
 10
120.9349093664677
 20
-150.2058186473444
 10
120.9349093664677
 20
-150.2058186473444
 10
120.9349093664677
 20
-150.4342284780165
 10
120.9349093664677
 20
-150.4342284780165
 10
120.878065290961
 20
-150.4452527835693
 10
120.7299261850953
 20
-150.4793592288732
 10
120.7299261850953
 20
-150.696400244444
 10
120.7299261850953
 20
-151.0085258954076
 10
121.0578992752911
 20
-151.0512450794247
 10
121.2628824566634
 20
-151.0650254613657
 10
121.1846787891483
 20
-150.965462201842
 10
121.125423146802
 20
-150.8931151966517
 10
121.125423146802
 20
-150.6988118112836
 10
121.125423146802
 20
-150.5065754832067
 10
121.2332546354903
 20
-150.1830810171417
 10
121.6394313932013
 20
-150.1830810171417
 10
121.9591362542324
 20
-150.1830810171417
 10
122.1789333461914
 20
-150.3956434085817
 10
122.1789333461914
 20
-150.7346408043302
 97
        0
 97
        0
 92
        1
 93
        1
 72
     4
 94
        3
 73
     0
 74
     1
 95
       17
 96
       13
 40
0.0
 40
0.0
 40
0.0
 40
0.0
 40
1.0
 40
1.0
 40
1.0
 40
2.0
 40
2.0
 40
2.0
 40
3.0
 40
3.0
 40
3.0
 40
4.0
 40
4.0
 40
4.0
 40
4.0
 10
121.3200710417186
 20
-150.7167263078069
 10
121.3200710417186
 20
-150.9971570803063
 10
121.5315999045129
 20
-151.0378092070322
 10
121.6476996223659
 20
-151.0378092070322
 10
121.8233994921136
 20
-151.0378092070322
 10
121.9863525085659
 20
-150.9361788902173
 10
121.9863525085659
 20
-150.7394639380096
 10
121.9863525085659
 20
-150.6106173668612
 10
121.9270968662196
 20
-150.4228596629151
 10
121.6414984504924
 20
-150.4228596629151
 10
121.4175672439512
 20
-150.4228596629151
 10
121.3200710417186
 20
-150.5720322974264
 10
121.3200710417186
 20
-150.7167263078069
 97
        0
 97
        0
 75
     2
 76
     1
 98
        0
  0
POLYLINE
  5
115
330
10E
100
AcDbEntity
  8
_U+30EC_U+30A4_U+30E4_U+30FC 1
370
     0
100
AcDb2dPolyline
 66
     1
 10
0.0
 20
0.0
 30
0.0
  0
VERTEX
  5
116
330
115
100
AcDbEntity
  8
_U+30EC_U+30A4_U+30E4_U+30FC 1
370
     0
100
AcDbVertex
100
AcDb2dVertex
 10
122.1279459330097
 20
-149.9519151100815
 30
0.0
  0
VERTEX
  5
117
330
115
100
AcDbEntity
  8
_U+30EC_U+30A4_U+30E4_U+30FC 1
370
     0
100
AcDbVertex
100
AcDb2dVertex
 10
121.8764539625865
 20
-149.9519151100815
 30
0.0
  0
VERTEX
  5
118
330
115
100
AcDbEntity
  8
_U+30EC_U+30A4_U+30E4_U+30FC 1
370
     0
100
AcDbVertex
100
AcDb2dVertex
 10
121.8764539625865
 20
-149.6828531526835
 30
0.0
  0
VERTEX
  5
119
330
115
100
AcDbEntity
  8
_U+30EC_U+30A4_U+30E4_U+30FC 1
370
     0
100
AcDbVertex
100
AcDb2dVertex
 10
122.1279459330097
 20
-149.6828531526835
 30
0.0
  0
VERTEX
  5
11A
330
115
100
AcDbEntity
  8
_U+30EC_U+30A4_U+30E4_U+30FC 1
370
     0
100
AcDbVertex
100
AcDb2dVertex
 10
122.1279459330097
 20
-149.9519151100815
 30
0.0
  0
SEQEND
  5
11B
330
115
100
AcDbEntity
  8
_U+30EC_U+30A4_U+30E4_U+30FC 1
370
     0
  0
HATCH
  5
11C
330
10E
100
AcDbEntity
  8
_U+30EC_U+30A4_U+30E4_U+30FC 1
 62
   179
420
  2234388
100
AcDbHatch
 10
0.0
 20
0.0
 30
0.0
210
0.0
220
0.0
230
1.0
  2
SOLID
 70
     1
 71
     0
 91
        1
 92
        1
 93
        4
 72
     1
 10
122.1279459330097
 20
-149.9519151100815
 11
121.8764539625865
 21
-149.9519151100815
 72
     1
 10
121.8764539625865
 20
-149.9519151100815
 11
121.8764539625865
 21
-149.6828531526835
 72
     1
 10
121.8764539625865
 20
-149.6828531526835
 11
122.1279459330097
 21
-149.6828531526835
 72
     1
 10
122.1279459330097
 20
-149.6828531526835
 11
122.1279459330097
 21
-149.9519151100815
 97
        0
 75
     2
 76
     1
 98
        0
  0
SPLINE
  5
11D
330
10E
100
AcDbEntity
  8
_U+30EC_U+30A4_U+30E4_U+30FC 1
370
     0
100
AcDbSpline
210
0.0
220
0.0
230
1.0
 70
    11
 71
     3
 72
    53
 73
    49
 74
     0
 42
0.0000000001
 43
0.0000000001
 12
1.0
 22
0.0
 32
0.0
 13
1.0
 23
0.0
 33
0.0
 40
0.0
 40
0.0
 40
0.0
 40
0.0
 40
1.0
 40
1.0
 40
1.0
 40
2.0
 40
2.0
 40
2.0
 40
3.0
 40
3.0
 40
3.0
 40
4.0
 40
4.0
 40
4.0
 40
5.0
 40
5.0
 40
5.0
 40
6.0
 40
6.0
 40
6.0
 40
7.0
 40
7.0
 40
7.0
 40
8.0
 40
8.0
 40
8.0
 40
9.0
 40
9.0
 40
9.0
 40
10.0
 40
10.0
 40
10.0
 40
11.0
 40
11.0
 40
11.0
 40
12.0
 40
12.0
 40
12.0
 40
13.0
 40
13.0
 40
13.0
 40
14.0
 40
14.0
 40
14.0
 40
15.0
 40
15.0
 40
15.0
 40
16.0
 40
16.0
 40
16.0
 40
16.0
 10
122.1789333461914
 20
-148.9159748976668
 30
0.0
 10
122.1789333461914
 20
-148.9996907179584
 30
0.0
 10
122.1617078687651
 20
-149.1078667161953
 30
0.0
 10
122.0983181118365
 20
-149.2167317335291
 30
0.0
 10
121.9884195658571
 20
-149.4020778706356
 30
0.0
 10
121.857161427869
 20
-149.4244709912897
 30
0.0
 10
121.7496744487293
 20
-149.4447970546527
 30
0.0
 10
121.7496744487293
 20
-149.4447970546527
 30
0.0
 10
121.7496744487293
 20
-149.207429975719
 30
0.0
 10
121.7496744487293
 20
-149.207429975719
 30
0.0
 10
121.9481119486796
 20
-149.1488633524697
 30
0.0
 10
121.9777397698528
 20
-149.0131265903509
 30
0.0
 10
121.9777397698528
 20
-148.9135633308272
 30
0.0
 10
121.9777397698528
 20
-148.7643906963158
 30
0.0
 10
121.8785210198776
 20
-148.6014376798635
 30
0.0
 10
121.6456325650747
 20
-148.6014376798635
 30
0.0
 10
121.3900064800692
 20
-148.6014376798635
 30
0.0
 10
121.3200710417186
 20
-148.7936740079405
 30
0.0
 10
121.3200710417186
 20
-148.9225205790888
 30
0.0
 10
121.3200710417186
 20
-148.9566270243928
 30
0.0
 10
121.3200710417186
 20
-149.1078667161953
 30
0.0
 10
121.4492621224155
 20
-149.2029513515882
 30
0.0
 10
121.4492621224155
 20
-149.2029513515882
 30
0.0
 10
121.4299695876981
 20
-149.3907090555343
 30
0.0
 10
121.4299695876981
 20
-149.3907090555343
 30
0.0
 10
121.4299695876981
 20
-149.3907090555343
 30
0.0
 10
120.5838541365207
 20
-149.2618624843859
 30
0.0
 10
120.5838541365207
 20
-149.2618624843859
 30
0.0
 10
120.5838541365207
 20
-149.2618624843859
 30
0.0
 10
120.5838541365207
 20
-148.4298719246981
 30
0.0
 10
120.5838541365207
 20
-148.4298719246981
 30
0.0
 10
120.5838541365207
 20
-148.4298719246981
 30
0.0
 10
120.7785020314373
 20
-148.4298719246981
 30
0.0
 10
120.7785020314373
 20
-148.4298719246981
 30
0.0
 10
120.7785020314373
 20
-148.4298719246981
 30
0.0
 10
120.7785020314373
 20
-149.0875406528323
 30
0.0
 10
120.7785020314373
 20
-149.0875406528323
 30
0.0
 10
120.7785020314373
 20
-149.0875406528323
 30
0.0
 10
121.201559757026
 20
-149.1578206007314
 30
0.0
 10
121.201559757026
 20
-149.1578206007314
 30
0.0
 10
121.167453311722
 20
-149.0923637865116
 30
0.0
 10
121.1274902040931
 20
-149.0041693420893
 30
0.0
 10
121.1274902040931
 20
-148.8773898282321
 30
0.0
 10
121.1274902040931
 20
-148.6062608135429
 30
0.0
 10
121.3135253602966
 20
-148.353046295377
 30
0.0
 10
121.6266845399058
 20
-148.353046295377
 30
0.0
 10
121.9439778340973
 20
-148.353046295377
 30
0.0
 10
122.1789333461914
 20
-148.5924804316019
 30
0.0
 10
122.1789333461914
 20
-148.9159748976668
 30
0.0
  0
HATCH
  5
11E
330
10E
100
AcDbEntity
  8
_U+30EC_U+30A4_U+30E4_U+30FC 1
 62
   179
420
  2234388
100
AcDbHatch
 10
0.0
 20
0.0
 30
0.0
210
0.0
220
0.0
230
1.0
  2
SOLID
 70
     1
 71
     0
 91
        1
 92
        1
 93
        1
 72
     4
 94
        3
 73
     0
 74
     1
 95
       53
 96
       49
 40
0.0
 40
0.0
 40
0.0
 40
0.0
 40
1.0
 40
1.0
 40
1.0
 40
2.0
 40
2.0
 40
2.0
 40
3.0
 40
3.0
 40
3.0
 40
4.0
 40
4.0
 40
4.0
 40
5.0
 40
5.0
 40
5.0
 40
6.0
 40
6.0
 40
6.0
 40
7.0
 40
7.0
 40
7.0
 40
8.0
 40
8.0
 40
8.0
 40
9.0
 40
9.0
 40
9.0
 40
10.0
 40
10.0
 40
10.0
 40
11.0
 40
11.0
 40
11.0
 40
12.0
 40
12.0
 40
12.0
 40
13.0
 40
13.0
 40
13.0
 40
14.0
 40
14.0
 40
14.0
 40
15.0
 40
15.0
 40
15.0
 40
16.0
 40
16.0
 40
16.0
 40
16.0
 10
122.1789333461914
 20
-148.9159748976668
 10
122.1789333461914
 20
-148.9996907179584
 10
122.1617078687651
 20
-149.1078667161953
 10
122.0983181118365
 20
-149.2167317335291
 10
121.9884195658571
 20
-149.4020778706356
 10
121.857161427869
 20
-149.4244709912897
 10
121.7496744487293
 20
-149.4447970546527
 10
121.7496744487293
 20
-149.4447970546527
 10
121.7496744487293
 20
-149.207429975719
 10
121.7496744487293
 20
-149.207429975719
 10
121.9481119486796
 20
-149.1488633524697
 10
121.9777397698528
 20
-149.0131265903509
 10
121.9777397698528
 20
-148.9135633308272
 10
121.9777397698528
 20
-148.7643906963158
 10
121.8785210198776
 20
-148.6014376798635
 10
121.6456325650747
 20
-148.6014376798635
 10
121.3900064800692
 20
-148.6014376798635
 10
121.3200710417186
 20
-148.7936740079405
 10
121.3200710417186
 20
-148.9225205790888
 10
121.3200710417186
 20
-148.9566270243928
 10
121.3200710417186
 20
-149.1078667161953
 10
121.4492621224155
 20
-149.2029513515882
 10
121.4492621224155
 20
-149.2029513515882
 10
121.4299695876981
 20
-149.3907090555343
 10
121.4299695876981
 20
-149.3907090555343
 10
121.4299695876981
 20
-149.3907090555343
 10
120.5838541365207
 20
-149.2618624843859
 10
120.5838541365207
 20
-149.2618624843859
 10
120.5838541365207
 20
-149.2618624843859
 10
120.5838541365207
 20
-148.4298719246981
 10
120.5838541365207
 20
-148.4298719246981
 10
120.5838541365207
 20
-148.4298719246981
 10
120.7785020314373
 20
-148.4298719246981
 10
120.7785020314373
 20
-148.4298719246981
 10
120.7785020314373
 20
-148.4298719246981
 10
120.7785020314373
 20
-149.0875406528323
 10
120.7785020314373
 20
-149.0875406528323
 10
120.7785020314373
 20
-149.0875406528323
 10
121.201559757026
 20
-149.1578206007314
 10
121.201559757026
 20
-149.1578206007314
 10
121.167453311722
 20
-149.0923637865116
 10
121.1274902040931
 20
-149.0041693420893
 10
121.1274902040931
 20
-148.8773898282321
 10
121.1274902040931
 20
-148.6062608135429
 10
121.3135253602966
 20
-148.353046295377
 10
121.6266845399058
 20
-148.353046295377
 10
121.9439778340973
 20
-148.353046295377
 10
122.1789333461914
 20
-148.5924804316019
 10
122.1789333461914
 20
-148.9159748976668
 97
        0
 97
        0
 75
     2
 76
     1
 98
        0
  0
ENDBLK
  5
111
330
10E
100
AcDbEntity
  8
0
100
AcDbBlockEnd
  0
ENDSEC
  0
SECTION
  2
ENTITIES
  0
POLYLINE
  5
41
330
1F
100
AcDbEntity
  8
_U+30EC_U+30A4_U+30E4_U+30FC 1
 62
   179
420
  2234388
370
    25
100
AcDb2dPolyline
 66
     1
 10
0.0
 20
0.0
 30
0.0
  0
VERTEX
  5
42
330
41
100
AcDbEntity
  8
_U+30EC_U+30A4_U+30E4_U+30FC 1
 62
   179
420
  2234388
370
    25
100
AcDbVertex
100
AcDb2dVertex
 10
85.43004597541442
 20
-145.7150720867809
 30
0.0
  0
VERTEX
  5
43
330
41
100
AcDbEntity
  8
_U+30EC_U+30A4_U+30E4_U+30FC 1
 62
   179
420
  2234388
370
    25
100
AcDbVertex
100
AcDb2dVertex
 10
98.43025374600876
 20
-145.7150720867809
 30
0.0
  0
SEQEND
  5
44
330
41
100
AcDbEntity
  8
_U+30EC_U+30A4_U+30E4_U+30FC 1
 62
   179
420
  2234388
370
    25
  0
POLYLINE
  5
45
330
1F
100
AcDbEntity
  8
_U+30EC_U+30A4_U+30E4_U+30FC 1
 62
   179
420
  2234388
370
    25
100
AcDb2dPolyline
 66
     1
 10
0.0
 20
0.0
 30
0.0
  0
VERTEX
  5
46
330
45
100
AcDbEntity
  8
_U+30EC_U+30A4_U+30E4_U+30FC 1
 62
   179
420
  2234388
370
    25
100
AcDbVertex
100
AcDb2dVertex
 10
100.4299809522688
 20
-146.7147742010604
 30
0.0
  0
VERTEX
  5
47
330
45
100
AcDbEntity
  8
_U+30EC_U+30A4_U+30E4_U+30FC 1
 62
   179
420
  2234388
370
    25
100
AcDbVertex
100
AcDb2dVertex
 10
119.4298871059661
 20
-146.7147742010604
 30
0.0
  0
SEQEND
  5
48
330
45
100
AcDbEntity
  8
_U+30EC_U+30A4_U+30E4_U+30FC 1
 62
   179
420
  2234388
370
    25
  0
POLYLINE
  5
49
330
1F
100
AcDbEntity
  8
_U+30EC_U+30A4_U+30E4_U+30FC 1
 62
   179
420
  2234388
370
    25
100
AcDb2dPolyline
 66
     1
 10
0.0
 20
0.0
 30
0.0
  0
VERTEX
  5
4A
330
49
100
AcDbEntity
  8
_U+30EC_U+30A4_U+30E4_U+30FC 1
 62
   179
420
  2234388
370
    25
100
AcDbVertex
100
AcDb2dVertex
 10
85.43004597541442
 20
-145.7150720867809
 30
0.0
  0
VERTEX
  5
4B
330
49
100
AcDbEntity
  8
_U+30EC_U+30A4_U+30E4_U+30FC 1
 62
   179
420
  2234388
370
    25
100
AcDbVertex
100
AcDb2dVertex
 10
85.43004597541442
 20
-146.7148603284475
 30
0.0
  0
SEQEND
  5
4C
330
49
100
AcDbEntity
  8
_U+30EC_U+30A4_U+30E4_U+30FC 1
 62
   179
420
  2234388
370
    25
  0
POLYLINE
  5
4D
330
1F
100
AcDbEntity
  8
_U+30EC_U+30A4_U+30E4_U+30FC 1
 62
   179
420
  2234388
370
    25
100
AcDb2dPolyline
 66
     1
 10
0.0
 20
0.0
 30
0.0
  0
VERTEX
  5
4E
330
4D
100
AcDbEntity
  8
_U+30EC_U+30A4_U+30E4_U+30FC 1
 62
   179
420
  2234388
370
    25
100
AcDbVertex
100
AcDb2dVertex
 10
97.43002410148343
 20
-146.7147742010604
 30
0.0
  0
VERTEX
  5
4F
330
4D
100
AcDbEntity
  8
_U+30EC_U+30A4_U+30E4_U+30FC 1
 62
   179
420
  2234388
370
    25
100
AcDbVertex
100
AcDb2dVertex
 10
97.43002410148343
 20
-154.2148331998361
 30
0.0
  0
SEQEND
  5
50
330
4D
100
AcDbEntity
  8
_U+30EC_U+30A4_U+30E4_U+30FC 1
 62
   179
420
  2234388
370
    25
  0
POLYLINE
  5
51
330
1F
100
AcDbEntity
  8
_U+30EC_U+30A4_U+30E4_U+30FC 1
 62
   179
420
  2234388
370
    25
100
AcDb2dPolyline
 66
     1
 10
0.0
 20
0.0
 30
0.0
  0
VERTEX
  5
52
330
51
100
AcDbEntity
  8
_U+30EC_U+30A4_U+30E4_U+30FC 1
 62
   179
420
  2234388
370
    25
100
AcDbVertex
100
AcDb2dVertex
 10
107.4300812346713
 20
-153.215023426323
 30
0.0
  0
VERTEX
  5
53
330
51
100
AcDbEntity
  8
_U+30EC_U+30A4_U+30E4_U+30FC 1
 62
   179
420
  2234388
370
    25
100
AcDbVertex
100
AcDb2dVertex
 10
107.4300812346713
 20
-153.5148974564672
 30
0.0
  0
SEQEND
  5
54
330
51
100
AcDbEntity
  8
_U+30EC_U+30A4_U+30E4_U+30FC 1
 62
   179
420
  2234388
370
    25
  0
POLYLINE
  5
55
330
1F
100
AcDbEntity
  8
_U+30EC_U+30A4_U+30E4_U+30FC 1
 62
   179
420
  2234388
370
    25
100
AcDb2dPolyline
 66
     1
 10
0.0
 20
0.0
 30
0.0
  0
VERTEX
  5
56
330
55
100
AcDbEntity
  8
_U+30EC_U+30A4_U+30E4_U+30FC 1
 62
   179
420
  2234388
370
    25
100
AcDbVertex
100
AcDb2dVertex
 10
100.4299809522688
 20
-153.215023426323
 30
0.0
  0
VERTEX
  5
57
330
55
100
AcDbEntity
  8
_U+30EC_U+30A4_U+30E4_U+30FC 1
 62
   179
420
  2234388
370
    25
100
AcDbVertex
100
AcDb2dVertex
 10
107.4301458302117
 20
-153.215023426323
 30
0.0
  0
SEQEND
  5
58
330
55
100
AcDbEntity
  8
_U+30EC_U+30A4_U+30E4_U+30FC 1
 62
   179
420
  2234388
370
    25
  0
POLYLINE
  5
59
330
1F
100
AcDbEntity
  8
_U+30EC_U+30A4_U+30E4_U+30FC 1
 62
   179
420
  2234388
370
    25
100
AcDb2dPolyline
 66
     1
 10
0.0
 20
0.0
 30
0.0
  0
VERTEX
  5
5A
330
59
100
AcDbEntity
  8
_U+30EC_U+30A4_U+30E4_U+30FC 1
 62
   179
420
  2234388
370
    25
100
AcDbVertex
100
AcDb2dVertex
 10
99.429848201054
 20
-145.7150720867809
 30
0.0
  0
VERTEX
  5
5B
330
59
100
AcDbEntity
  8
_U+30EC_U+30A4_U+30E4_U+30FC 1
 62
   179
420
  2234388
370
    25
100
AcDbVertex
100
AcDb2dVertex
 10
119.4298763400427
 20
-145.7150720867809
 30
0.0
  0
SEQEND
  5
5C
330
59
100
AcDbEntity
  8
_U+30EC_U+30A4_U+30E4_U+30FC 1
 62
   179
420
  2234388
370
    25
  0
POLYLINE
  5
5D
330
1F
100
AcDbEntity
  8
_U+30EC_U+30A4_U+30E4_U+30FC 1
 62
   179
420
  2234388
370
    25
100
AcDb2dPolyline
 66
     1
 10
0.0
 20
0.0
 30
0.0
  0
VERTEX
  5
5E
330
5D
100
AcDbEntity
  8
_U+30EC_U+30A4_U+30E4_U+30FC 1
 62
   179
420
  2234388
370
    25
100
AcDbVertex
100
AcDb2dVertex
 10
98.43011378900468
 20
-145.7150720867809
 30
0.0
  0
VERTEX
  5
5F
330
5D
100
AcDbEntity
  8
_U+30EC_U+30A4_U+30E4_U+30FC 1
 62
   179
420
  2234388
370
    25
100
AcDbVertex
100
AcDb2dVertex
 10
98.43011378900468
 20
-153.2151310855569
 30
0.0
  0
SEQEND
  5
60
330
5D
100
AcDbEntity
  8
_U+30EC_U+30A4_U+30E4_U+30FC 1
 62
   179
420
  2234388
370
    25
  0
POLYLINE
  5
61
330
1F
100
AcDbEntity
  8
_U+30EC_U+30A4_U+30E4_U+30FC 1
 62
   179
420
  2234388
370
    25
100
AcDb2dPolyline
 66
     1
 10
0.0
 20
0.0
 30
0.0
  0
VERTEX
  5
62
330
61
100
AcDbEntity
  8
_U+30EC_U+30A4_U+30E4_U+30FC 1
 62
   179
420
  2234388
370
    25
100
AcDbVertex
100
AcDb2dVertex
 10
99.429848201054
 20
-145.7150720867809
 30
0.0
  0
VERTEX
  5
63
330
61
100
AcDbEntity
  8
_U+30EC_U+30A4_U+30E4_U+30FC 1
 62
   179
420
  2234388
370
    25
100
AcDbVertex
100
AcDb2dVertex
 10
99.429848201054
 20
-153.2151310855569
 30
0.0
  0
SEQEND
  5
64
330
61
100
AcDbEntity
  8
_U+30EC_U+30A4_U+30E4_U+30FC 1
 62
   179
420
  2234388
370
    25
  0
POLYLINE
  5
65
330
1F
100
AcDbEntity
  8
_U+30EC_U+30A4_U+30E4_U+30FC 1
 62
   179
420
  2234388
370
    25
100
AcDb2dPolyline
 66
     1
 10
0.0
 20
0.0
 30
0.0
  0
VERTEX
  5
66
330
65
100
AcDbEntity
  8
_U+30EC_U+30A4_U+30E4_U+30FC 1
 62
   179
420
  2234388
370
    25
100
AcDbVertex
100
AcDb2dVertex
 10
100.4299809522688
 20
-146.7147742010604
 30
0.0
  0
VERTEX
  5
67
330
65
100
AcDbEntity
  8
_U+30EC_U+30A4_U+30E4_U+30FC 1
 62
   179
420
  2234388
370
    25
100
AcDbVertex
100
AcDb2dVertex
 10
100.4299809522688
 20
-153.2150664900165
 30
0.0
  0
SEQEND
  5
68
330
65
100
AcDbEntity
  8
_U+30EC_U+30A4_U+30E4_U+30FC 1
 62
   179
420
  2234388
370
    25
  0
POLYLINE
  5
69
330
1F
100
AcDbEntity
  8
_U+30EC_U+30A4_U+30E4_U+30FC 1
 62
   179
420
  2234388
370
    25
100
AcDb2dPolyline
 66
     1
 10
0.0
 20
0.0
 30
0.0
  0
VERTEX
  5
6A
330
69
100
AcDbEntity
  8
_U+30EC_U+30A4_U+30E4_U+30FC 1
 62
   179
420
  2234388
370
    25
100
AcDbVertex
100
AcDb2dVertex
 10
98.43011378900468
 20
-153.215023426323
 30
0.0
  0
VERTEX
  5
6B
330
69
100
AcDbEntity
  8
_U+30EC_U+30A4_U+30E4_U+30FC 1
 62
   179
420
  2234388
370
    25
100
AcDbVertex
100
AcDb2dVertex
 10
99.42988049882418
 20
-153.215023426323
 30
0.0
  0
SEQEND
  5
6C
330
69
100
AcDbEntity
  8
_U+30EC_U+30A4_U+30E4_U+30FC 1
 62
   179
420
  2234388
370
    25
  0
POLYLINE
  5
6D
330
1F
100
AcDbEntity
  8
_U+30EC_U+30A4_U+30E4_U+30FC 1
 62
   179
420
  2234388
370
    25
100
AcDb2dPolyline
 66
     1
 10
0.0
 20
0.0
 30
0.0
  0
VERTEX
  5
6E
330
6D
100
AcDbEntity
  8
_U+30EC_U+30A4_U+30E4_U+30FC 1
 62
   179
420
  2234388
370
    25
100
AcDbVertex
100
AcDb2dVertex
 10
97.43002410148343
 20
-154.2148116679893
 30
0.0
  0
VERTEX
  5
6F
330
6D
100
AcDbEntity
  8
_U+30EC_U+30A4_U+30E4_U+30FC 1
 62
   179
420
  2234388
370
    25
100
AcDbVertex
100
AcDb2dVertex
 10
107.4302104257521
 20
-153.514918988314
 30
0.0
  0
SEQEND
  5
70
330
6D
100
AcDbEntity
  8
_U+30EC_U+30A4_U+30E4_U+30FC 1
 62
   179
420
  2234388
370
    25
  0
POLYLINE
  5
71
330
1F
100
AcDbEntity
  8
_U+30EC_U+30A4_U+30E4_U+30FC 1
 62
   179
420
  2234388
370
    25
100
AcDb2dPolyline
 66
     1
 10
0.0
 20
0.0
 30
0.0
  0
VERTEX
  5
72
330
71
100
AcDbEntity
  8
_U+30EC_U+30A4_U+30E4_U+30FC 1
 62
   179
420
  2234388
370
    25
100
AcDbVertex
100
AcDb2dVertex
 10
119.4298871059661
 20
-145.7150720867809
 30
0.0
  0
VERTEX
  5
73
330
71
100
AcDbEntity
  8
_U+30EC_U+30A4_U+30E4_U+30FC 1
 62
   179
420
  2234388
370
    25
100
AcDbVertex
100
AcDb2dVertex
 10
119.4298871059661
 20
-146.7148603284475
 30
0.0
  0
SEQEND
  5
74
330
71
100
AcDbEntity
  8
_U+30EC_U+30A4_U+30E4_U+30FC 1
 62
   179
420
  2234388
370
    25
  0
POLYLINE
  5
75
330
1F
100
AcDbEntity
  8
_U+30EC_U+30A4_U+30E4_U+30FC 1
 62
   179
420
  2234388
370
    25
100
AcDb2dPolyline
 66
     1
 10
0.0
 20
0.0
 30
0.0
  0
VERTEX
  5
76
330
75
100
AcDbEntity
  8
_U+30EC_U+30A4_U+30E4_U+30FC 1
 62
   179
420
  2234388
370
    25
100
AcDbVertex
100
AcDb2dVertex
 10
85.43004597541442
 20
-146.7147742010604
 30
0.0
  0
VERTEX
  5
77
330
75
100
AcDbEntity
  8
_U+30EC_U+30A4_U+30E4_U+30FC 1
 62
   179
420
  2234388
370
    25
100
AcDbVertex
100
AcDb2dVertex
 10
97.43013176071734
 20
-146.7147742010604
 30
0.0
  0
SEQEND
  5
78
330
75
100
AcDbEntity
  8
_U+30EC_U+30A4_U+30E4_U+30FC 1
 62
   179
420
  2234388
370
    25
  0
SPLINE
  5
79
330
1F
100
AcDbEntity
  8
_U+30EC_U+30A4_U+30E4_U+30FC 1
 62
   179
420
  2234388
370
     9
100
AcDbSpline
210
0.0
220
0.0
230
1.0
 70
    11
 71
     3
 72
    17
 73
    13
 74
     0
 42
0.0000000001
 43
0.0000000001
 12
1.0
 22
0.0
 32
0.0
 13
1.0
 23
0.0
 33
0.0
 40
0.0
 40
0.0
 40
0.0
 40
0.0
 40
1.0
 40
1.0
 40
1.0
 40
2.0
 40
2.0
 40
2.0
 40
3.0
 40
3.0
 40
3.0
 40
4.0
 40
4.0
 40
4.0
 40
4.0
 10
123.5295184356432
 20
-145.7150720867809
 30
0.0
 10
123.5295184356432
 20
-145.6596921768555
 30
0.0
 10
123.4847106624882
 20
-145.6148844037004
 30
0.0
 10
123.4296752621113
 20
-145.6148844037004
 30
0.0
 10
123.3746398617345
 20
-145.6148844037004
 30
0.0
 10
123.3298428545028
 20
-145.6596921768555
 30
0.0
 10
123.3298428545028
 20
-145.7150720867809
 30
0.0
 10
123.3298428545028
 20
-145.7701074871577
 30
0.0
 10
123.3746398617345
 20
-145.8149152603131
 30
0.0
 10
123.4296752621113
 20
-145.8149152603131
 30
0.0
 10
123.4847106624882
 20
-145.8149152603131
 30
0.0
 10
123.5295184356432
 20
-145.7701074871577
 30
0.0
 10
123.5295184356432
 20
-145.7150720867809
 30
0.0
  0
SPLINE
  5
7A
330
1F
100
AcDbEntity
  8
_U+30EC_U+30A4_U+30E4_U+30FC 1
 62
   179
420
  2234388
370
     9
100
AcDbSpline
210
0.0
220
0.0
230
1.0
 70
    11
 71
     3
 72
    17
 73
    13
 74
     0
 42
0.0000000001
 43
0.0000000001
 12
1.0
 22
0.0
 32
0.0
 13
1.0
 23
0.0
 33
0.0
 40
0.0
 40
0.0
 40
0.0
 40
0.0
 40
1.0
 40
1.0
 40
1.0
 40
2.0
 40
2.0
 40
2.0
 40
3.0
 40
3.0
 40
3.0
 40
4.0
 40
4.0
 40
4.0
 40
4.0
 10
123.5295184356432
 20
-146.7147742010604
 30
0.0
 10
123.5295184356432
 20
-146.6597603325299
 30
0.0
 10
123.4847106624882
 20
-146.6149525593752
 30
0.0
 10
123.4296752621113
 20
-146.6149525593752
 30
0.0
 10
123.3746398617345
 20
-146.6149525593752
 30
0.0
 10
123.3298428545028
 20
-146.6597603325299
 30
0.0
 10
123.3298428545028
 20
-146.7147742010604
 30
0.0
 10
123.3298428545028
 20
-146.7698096014372
 30
0.0
 10
123.3746398617345
 20
-146.8146173745919
 30
0.0
 10
123.4296752621113
 20
-146.8146173745919
 30
0.0
 10
123.4847106624882
 20
-146.8146173745919
 30
0.0
 10
123.5295184356432
 20
-146.7698096014372
 30
0.0
 10
123.5295184356432
 20
-146.7147742010604
 30
0.0
  0
SPLINE
  5
7B
330
1F
100
AcDbEntity
  8
_U+30EC_U+30A4_U+30E4_U+30FC 1
 62
   179
420
  2234388
370
     9
100
AcDbSpline
210
0.0
220
0.0
230
1.0
 70
    11
 71
     3
 72
    17
 73
    13
 74
     0
 42
0.0000000001
 43
0.0000000001
 12
1.0
 22
0.0
 32
0.0
 13
1.0
 23
0.0
 33
0.0
 40
0.0
 40
0.0
 40
0.0
 40
0.0
 40
1.0
 40
1.0
 40
1.0
 40
2.0
 40
2.0
 40
2.0
 40
3.0
 40
3.0
 40
3.0
 40
4.0
 40
4.0
 40
4.0
 40
4.0
 10
85.52995374448666
 20
-141.714605677462
 30
0.0
 10
85.52995374448666
 20
-141.6595918089319
 30
0.0
 10
85.48514597133162
 20
-141.6147840357769
 30
0.0
 10
85.43011057095475
 20
-141.6147840357769
 30
0.0
 10
85.37473066102937
 20
-141.6147840357769
 30
0.0
 10
85.32992288787433
 20
-141.6595918089319
 30
0.0
 10
85.32992288787433
 20
-141.714605677462
 30
0.0
 10
85.32992288787433
 20
-141.7700071192342
 30
0.0
 10
85.37473066102937
 20
-141.8148148923895
 30
0.0
 10
85.43011057095475
 20
-141.8148148923895
 30
0.0
 10
85.48514597133162
 20
-141.8148148923895
 30
0.0
 10
85.52995374448666
 20
-141.7700071192342
 30
0.0
 10
85.52995374448666
 20
-141.714605677462
 30
0.0
  0
SPLINE
  5
7C
330
1F
100
AcDbEntity
  8
_U+30EC_U+30A4_U+30E4_U+30FC 1
 62
   179
420
  2234388
370
     9
100
AcDbSpline
210
0.0
220
0.0
230
1.0
 70
    11
 71
     3
 72
    17
 73
    13
 74
     0
 42
0.0000000001
 43
0.0000000001
 12
1.0
 22
0.0
 32
0.0
 13
1.0
 23
0.0
 33
0.0
 40
0.0
 40
0.0
 40
0.0
 40
0.0
 40
1.0
 40
1.0
 40
1.0
 40
2.0
 40
2.0
 40
2.0
 40
3.0
 40
3.0
 40
3.0
 40
4.0
 40
4.0
 40
4.0
 40
4.0
 10
107.5299782378202
 20
-158.2148689722193
 30
0.0
 10
107.5299782378202
 20
-158.1598551036892
 30
0.0
 10
107.4851704646652
 20
-158.1150473305342
 30
0.0
 10
107.4301350642883
 20
-158.1150473305342
 30
0.0
 10
107.3750996639114
 20
-158.1150473305342
 30
0.0
 10
107.3303026566798
 20
-158.1598551036892
 30
0.0
 10
107.3303026566798
 20
-158.2148689722193
 30
0.0
 10
107.3303026566798
 20
-158.2699043725962
 30
0.0
 10
107.3750996639114
 20
-158.3147121457512
 30
0.0
 10
107.4301350642883
 20
-158.3147121457512
 30
0.0
 10
107.4851704646652
 20
-158.3147121457512
 30
0.0
 10
107.5299782378202
 20
-158.2699043725962
 30
0.0
 10
107.5299782378202
 20
-158.2148689722193
 30
0.0
  0
SPLINE
  5
7D
330
1F
100
AcDbEntity
  8
_U+30EC_U+30A4_U+30E4_U+30FC 1
 62
   179
420
  2234388
370
     9
100
AcDbSpline
210
0.0
220
0.0
230
1.0
 70
    11
 71
     3
 72
    17
 73
    13
 74
     0
 42
0.0000000001
 43
0.0000000001
 12
1.0
 22
0.0
 32
0.0
 13
1.0
 23
0.0
 33
0.0
 40
0.0
 40
0.0
 40
0.0
 40
0.0
 40
1.0
 40
1.0
 40
1.0
 40
2.0
 40
2.0
 40
2.0
 40
3.0
 40
3.0
 40
3.0
 40
4.0
 40
4.0
 40
4.0
 40
4.0
 10
97.52993187055567
 20
-158.2148689722193
 30
0.0
 10
97.52993187055567
 20
-158.1598551036892
 30
0.0
 10
97.48512409740064
 20
-158.1150473305342
 30
0.0
 10
97.43008869702378
 20
-158.1150473305342
 30
0.0
 10
97.37470878709838
 20
-158.1150473305342
 30
0.0
 10
97.32990101394336
 20
-158.1598551036892
 30
0.0
 10
97.32990101394336
 20
-158.2148689722193
 30
0.0
 10
97.32990101394336
 20
-158.2699043725962
 30
0.0
 10
97.37470878709838
 20
-158.3147121457512
 30
0.0
 10
97.43008869702378
 20
-158.3147121457512
 30
0.0
 10
97.48512409740064
 20
-158.3147121457512
 30
0.0
 10
97.52993187055567
 20
-158.2699043725962
 30
0.0
 10
97.52993187055567
 20
-158.2148689722193
 30
0.0
  0
SPLINE
  5
7E
330
1F
100
AcDbEntity
  8
_U+30EC_U+30A4_U+30E4_U+30FC 1
 62
   179
420
  2234388
370
     9
100
AcDbSpline
210
0.0
220
0.0
230
1.0
 70
    11
 71
     3
 72
    17
 73
    13
 74
     0
 42
0.0000000001
 43
0.0000000001
 12
1.0
 22
0.0
 32
0.0
 13
1.0
 23
0.0
 33
0.0
 40
0.0
 40
0.0
 40
0.0
 40
0.0
 40
1.0
 40
1.0
 40
1.0
 40
2.0
 40
2.0
 40
2.0
 40
3.0
 40
3.0
 40
3.0
 40
4.0
 40
4.0
 40
4.0
 40
4.0
 10
85.52995374448666
 20
-158.2148689722193
 30
0.0
 10
85.52995374448666
 20
-158.1598551036892
 30
0.0
 10
85.48514597133162
 20
-158.1150473305342
 30
0.0
 10
85.43011057095475
 20
-158.1150473305342
 30
0.0
 10
85.37473066102937
 20
-158.1150473305342
 30
0.0
 10
85.32992288787433
 20
-158.1598551036892
 30
0.0
 10
85.32992288787433
 20
-158.2148689722193
 30
0.0
 10
85.32992288787433
 20
-158.2699043725962
 30
0.0
 10
85.37473066102937
 20
-158.3147121457512
 30
0.0
 10
85.43011057095475
 20
-158.3147121457512
 30
0.0
 10
85.48514597133162
 20
-158.3147121457512
 30
0.0
 10
85.52995374448666
 20
-158.2699043725962
 30
0.0
 10
85.52995374448666
 20
-158.2148689722193
 30
0.0
  0
SPLINE
  5
7F
330
1F
100
AcDbEntity
  8
_U+30EC_U+30A4_U+30E4_U+30FC 1
 62
   179
420
  2234388
370
     9
100
AcDbSpline
210
0.0
220
0.0
230
1.0
 70
    11
 71
     3
 72
    17
 73
    13
 74
     0
 42
0.0000000001
 43
0.0000000001
 12
1.0
 22
0.0
 32
0.0
 13
1.0
 23
0.0
 33
0.0
 40
0.0
 40
0.0
 40
0.0
 40
0.0
 40
1.0
 40
1.0
 40
1.0
 40
2.0
 40
2.0
 40
2.0
 40
3.0
 40
3.0
 40
3.0
 40
4.0
 40
4.0
 40
4.0
 40
4.0
 10
111.5297448621186
 20
-153.215023426323
 30
0.0
 10
111.5297448621186
 20
-153.1596435163976
 30
0.0
 10
111.4849370889636
 20
-153.1148357432426
 30
0.0
 10
111.4299016885868
 20
-153.1148357432426
 30
0.0
 10
111.3748662882099
 20
-153.1148357432426
 30
0.0
 10
111.3300692809783
 20
-153.1596435163976
 30
0.0
 10
111.3300692809783
 20
-153.215023426323
 30
0.0
 10
111.3300692809783
 20
-153.2700588266999
 30
0.0
 10
111.3748662882099
 20
-153.3148665998549
 30
0.0
 10
111.4299016885868
 20
-153.3148665998549
 30
0.0
 10
111.4849370889636
 20
-153.3148665998549
 30
0.0
 10
111.5297448621186
 20
-153.2700588266999
 30
0.0
 10
111.5297448621186
 20
-153.215023426323
 30
0.0
  0
SPLINE
  5
80
330
1F
100
AcDbEntity
  8
_U+30EC_U+30A4_U+30E4_U+30FC 1
 62
   179
420
  2234388
370
     9
100
AcDbSpline
210
0.0
220
0.0
230
1.0
 70
    11
 71
     3
 72
    17
 73
    13
 74
     0
 42
0.0000000001
 43
0.0000000001
 12
1.0
 22
0.0
 32
0.0
 13
1.0
 23
0.0
 33
0.0
 40
0.0
 40
0.0
 40
0.0
 40
0.0
 40
1.0
 40
1.0
 40
1.0
 40
2.0
 40
2.0
 40
2.0
 40
3.0
 40
3.0
 40
3.0
 40
4.0
 40
4.0
 40
4.0
 40
4.0
 10
111.5297448621186
 20
-153.5147467335397
 30
0.0
 10
111.5297448621186
 20
-153.4597328650096
 30
0.0
 10
111.4849370889636
 20
-153.4149250918546
 30
0.0
 10
111.4299016885868
 20
-153.4149250918546
 30
0.0
 10
111.3748662882099
 20
-153.4149250918546
 30
0.0
 10
111.3300692809783
 20
-153.4597328650096
 30
0.0
 10
111.3300692809783
 20
-153.5147467335397
 30
0.0
 10
111.3300692809783
 20
-153.5701481753119
 30
0.0
 10
111.3748662882099
 20
-153.6149559484669
 30
0.0
 10
111.4299016885868
 20
-153.6149559484669
 30
0.0
 10
111.4849370889636
 20
-153.6149559484669
 30
0.0
 10
111.5297448621186
 20
-153.5701481753119
 30
0.0
 10
111.5297448621186
 20
-153.5147467335397
 30
0.0
  0
SPLINE
  5
81
330
1F
100
AcDbEntity
  8
_U+30EC_U+30A4_U+30E4_U+30FC 1
 62
   179
420
  2234388
370
     9
100
AcDbSpline
210
0.0
220
0.0
230
1.0
 70
    11
 71
     3
 72
    17
 73
    13
 74
     0
 42
0.0000000001
 43
0.0000000001
 12
1.0
 22
0.0
 32
0.0
 13
1.0
 23
0.0
 33
0.0
 40
0.0
 40
0.0
 40
0.0
 40
0.0
 40
1.0
 40
1.0
 40
1.0
 40
2.0
 40
2.0
 40
2.0
 40
3.0
 40
3.0
 40
3.0
 40
4.0
 40
4.0
 40
4.0
 40
4.0
 10
123.5295184356432
 20
-153.215023426323
 30
0.0
 10
123.5295184356432
 20
-153.1596435163976
 30
0.0
 10
123.4847106624882
 20
-153.1148357432426
 30
0.0
 10
123.4296752621113
 20
-153.1148357432426
 30
0.0
 10
123.3746398617345
 20
-153.1148357432426
 30
0.0
 10
123.3298428545028
 20
-153.1596435163976
 30
0.0
 10
123.3298428545028
 20
-153.215023426323
 30
0.0
 10
123.3298428545028
 20
-153.2700588266999
 30
0.0
 10
123.3746398617345
 20
-153.3148665998549
 30
0.0
 10
123.4296752621113
 20
-153.3148665998549
 30
0.0
 10
123.4847106624882
 20
-153.3148665998549
 30
0.0
 10
123.5295184356432
 20
-153.2700588266999
 30
0.0
 10
123.5295184356432
 20
-153.215023426323
 30
0.0
  0
SPLINE
  5
82
330
1F
100
AcDbEntity
  8
_U+30EC_U+30A4_U+30E4_U+30FC 1
 62
   179
420
  2234388
370
     9
100
AcDbSpline
210
0.0
220
0.0
230
1.0
 70
    11
 71
     3
 72
    17
 73
    13
 74
     0
 42
0.0000000001
 43
0.0000000001
 12
1.0
 22
0.0
 32
0.0
 13
1.0
 23
0.0
 33
0.0
 40
0.0
 40
0.0
 40
0.0
 40
0.0
 40
1.0
 40
1.0
 40
1.0
 40
2.0
 40
2.0
 40
2.0
 40
3.0
 40
3.0
 40
3.0
 40
4.0
 40
4.0
 40
4.0
 40
4.0
 10
119.529784109115
 20
-141.714605677462
 30
0.0
 10
119.529784109115
 20
-141.6595918089319
 30
0.0
 10
119.4849763359599
 20
-141.6147840357769
 30
0.0
 10
119.4299409355831
 20
-141.6147840357769
 30
0.0
 10
119.3749055352062
 20
-141.6147840357769
 30
0.0
 10
119.3301085279746
 20
-141.6595918089319
 30
0.0
 10
119.3301085279746
 20
-141.714605677462
 30
0.0
 10
119.3301085279746
 20
-141.7700071192342
 30
0.0
 10
119.3749055352062
 20
-141.8148148923895
 30
0.0
 10
119.4299409355831
 20
-141.8148148923895
 30
0.0
 10
119.4849763359599
 20
-141.8148148923895
 30
0.0
 10
119.529784109115
 20
-141.7700071192342
 30
0.0
 10
119.529784109115
 20
-141.714605677462
 30
0.0
  0
POLYLINE
  5
83
330
1F
100
AcDbEntity
  8
_U+30EC_U+30A4_U+30E4_U+30FC 1
 62
   179
420
  2234388
370
     9
100
AcDb2dPolyline
 66
     1
 10
0.0
 20
0.0
 30
0.0
  0
VERTEX
  5
84
330
83
100
AcDbEntity
  8
_U+30EC_U+30A4_U+30E4_U+30FC 1
 62
   179
420
  2234388
370
     9
100
AcDbVertex
100
AcDb2dVertex
 10
123.429610666571
 20
-145.7150720867809
 30
0.0
  0
VERTEX
  5
85
330
83
100
AcDbEntity
  8
_U+30EC_U+30A4_U+30E4_U+30FC 1
 62
   179
420
  2234388
370
     9
100
AcDbVertex
100
AcDb2dVertex
 10
123.429610666571
 20
-141.9445873329492
 30
0.0
  0
SEQEND
  5
86
330
83
100
AcDbEntity
  8
_U+30EC_U+30A4_U+30E4_U+30FC 1
 62
   179
420
  2234388
370
     9
  0
POLYLINE
  5
87
330
1F
100
AcDbEntity
  8
_U+30EC_U+30A4_U+30E4_U+30FC 1
 62
   179
420
  2234388
370
     9
100
AcDb2dPolyline
 66
     1
 10
0.0
 20
0.0
 30
0.0
  0
VERTEX
  5
88
330
87
100
AcDbEntity
  8
_U+30EC_U+30A4_U+30E4_U+30FC 1
 62
   179
420
  2234388
370
     9
100
AcDbVertex
100
AcDb2dVertex
 10
123.429610666571
 20
-145.7150720867809
 30
0.0
  0
VERTEX
  5
89
330
87
100
AcDbEntity
  8
_U+30EC_U+30A4_U+30E4_U+30FC 1
 62
   179
420
  2234388
370
     9
100
AcDbVertex
100
AcDb2dVertex
 10
123.429610666571
 20
-146.7148603284475
 30
0.0
  0
SEQEND
  5
8A
330
87
100
AcDbEntity
  8
_U+30EC_U+30A4_U+30E4_U+30FC 1
 62
   179
420
  2234388
370
     9
  0
POLYLINE
  5
8B
330
1F
100
AcDbEntity
  8
_U+30EC_U+30A4_U+30E4_U+30FC 1
 62
   179
420
  2234388
370
     9
100
AcDb2dPolyline
 66
     1
 10
0.0
 20
0.0
 30
0.0
  0
VERTEX
  5
8C
330
8B
100
AcDbEntity
  8
_U+30EC_U+30A4_U+30E4_U+30FC 1
 62
   179
420
  2234388
370
     9
100
AcDbVertex
100
AcDb2dVertex
 10
121.9695684339987
 20
-145.7150720867809
 30
0.0
  0
VERTEX
  5
8D
330
8B
100
AcDbEntity
  8
_U+30EC_U+30A4_U+30E4_U+30FC 1
 62
   179
420
  2234388
370
     9
100
AcDbVertex
100
AcDb2dVertex
 10
124.4301848206448
 20
-145.7150720867809
 30
0.0
  0
SEQEND
  5
8E
330
8B
100
AcDbEntity
  8
_U+30EC_U+30A4_U+30E4_U+30FC 1
 62
   179
420
  2234388
370
     9
  0
POLYLINE
  5
8F
330
1F
100
AcDbEntity
  8
_U+30EC_U+30A4_U+30E4_U+30FC 1
 62
   179
420
  2234388
370
     9
100
AcDb2dPolyline
 66
     1
 10
0.0
 20
0.0
 30
0.0
  0
VERTEX
  5
90
330
8F
100
AcDbEntity
  8
_U+30EC_U+30A4_U+30E4_U+30FC 1
 62
   179
420
  2234388
370
     9
100
AcDbVertex
100
AcDb2dVertex
 10
121.9695684339987
 20
-146.7147742010604
 30
0.0
  0
VERTEX
  5
91
330
8F
100
AcDbEntity
  8
_U+30EC_U+30A4_U+30E4_U+30FC 1
 62
   179
420
  2234388
370
     9
100
AcDbVertex
100
AcDb2dVertex
 10
124.4301848206448
 20
-146.7147742010604
 30
0.0
  0
SEQEND
  5
92
330
8F
100
AcDbEntity
  8
_U+30EC_U+30A4_U+30E4_U+30FC 1
 62
   179
420
  2234388
370
     9
  0
INSERT
  5
94
330
1F
100
AcDbEntity
  8
_U+30EC_U+30A4_U+30E4_U+30FC 1
100
AcDbBlockReference
  2
block 2
 10
0.0
 20
0.0
 30
0.0
  0
POLYLINE
  5
99
330
1F
100
AcDbEntity
  8
_U+30EC_U+30A4_U+30E4_U+30FC 1
 62
   179
420
  2234388
370
     9
100
AcDb2dPolyline
 66
     1
 10
0.0
 20
0.0
 30
0.0
  0
VERTEX
  5
9A
330
99
100
AcDbEntity
  8
_U+30EC_U+30A4_U+30E4_U+30FC 1
 62
   179
420
  2234388
370
     9
100
AcDbVertex
100
AcDb2dVertex
 10
111.4298693908166
 20
-153.215023426323
 30
0.0
  0
VERTEX
  5
9B
330
99
100
AcDbEntity
  8
_U+30EC_U+30A4_U+30E4_U+30FC 1
 62
   179
420
  2234388
370
     9
100
AcDbVertex
100
AcDb2dVertex
 10
111.4298693908166
 20
-147.9572263559686
 30
0.0
  0
SEQEND
  5
9C
330
99
100
AcDbEntity
  8
_U+30EC_U+30A4_U+30E4_U+30FC 1
 62
   179
420
  2234388
370
     9
  0
POLYLINE
  5
9D
330
1F
100
AcDbEntity
  8
_U+30EC_U+30A4_U+30E4_U+30FC 1
 62
   179
420
  2234388
370
     9
100
AcDb2dPolyline
 66
     1
 10
0.0
 20
0.0
 30
0.0
  0
VERTEX
  5
9E
330
9D
100
AcDbEntity
  8
_U+30EC_U+30A4_U+30E4_U+30FC 1
 62
   179
420
  2234388
370
     9
100
AcDbVertex
100
AcDb2dVertex
 10
111.4298693908166
 20
-153.215023426323
 30
0.0
  0
VERTEX
  5
9F
330
9D
100
AcDbEntity
  8
_U+30EC_U+30A4_U+30E4_U+30FC 1
 62
   179
420
  2234388
370
     9
100
AcDbVertex
100
AcDb2dVertex
 10
111.4298693908166
 20
-154.515030207682
 30
0.0
  0
SEQEND
  5
A0
330
9D
100
AcDbEntity
  8
_U+30EC_U+30A4_U+30E4_U+30FC 1
 62
   179
420
  2234388
370
     9
  0
POLYLINE
  5
A1
330
1F
100
AcDbEntity
  8
_U+30EC_U+30A4_U+30E4_U+30FC 1
 62
   179
420
  2234388
370
     9
100
AcDb2dPolyline
 66
     1
 10
0.0
 20
0.0
 30
0.0
  0
VERTEX
  5
A2
330
A1
100
AcDbEntity
  8
_U+30EC_U+30A4_U+30E4_U+30FC 1
 62
   179
420
  2234388
370
     9
100
AcDbVertex
100
AcDb2dVertex
 10
109.9698271582443
 20
-153.215023426323
 30
0.0
  0
VERTEX
  5
A3
330
A1
100
AcDbEntity
  8
_U+30EC_U+30A4_U+30E4_U+30FC 1
 62
   179
420
  2234388
370
     9
100
AcDbVertex
100
AcDb2dVertex
 10
112.4300990353419
 20
-153.215023426323
 30
0.0
  0
SEQEND
  5
A4
330
A1
100
AcDbEntity
  8
_U+30EC_U+30A4_U+30E4_U+30FC 1
 62
   179
420
  2234388
370
     9
  0
POLYLINE
  5
A5
330
1F
100
AcDbEntity
  8
_U+30EC_U+30A4_U+30E4_U+30FC 1
 62
   179
420
  2234388
370
     9
100
AcDb2dPolyline
 66
     1
 10
0.0
 20
0.0
 30
0.0
  0
VERTEX
  5
A6
330
A5
100
AcDbEntity
  8
_U+30EC_U+30A4_U+30E4_U+30FC 1
 62
   179
420
  2234388
370
     9
100
AcDbVertex
100
AcDb2dVertex
 10
109.9698271582443
 20
-153.5147467335397
 30
0.0
  0
VERTEX
  5
A7
330
A5
100
AcDbEntity
  8
_U+30EC_U+30A4_U+30E4_U+30FC 1
 62
   179
420
  2234388
370
     9
100
AcDbVertex
100
AcDb2dVertex
 10
112.4300990353419
 20
-153.5147467335397
 30
0.0
  0
SEQEND
  5
A8
330
A5
100
AcDbEntity
  8
_U+30EC_U+30A4_U+30E4_U+30FC 1
 62
   179
420
  2234388
370
     9
  0
INSERT
  5
AA
330
1F
100
AcDbEntity
  8
_U+30EC_U+30A4_U+30E4_U+30FC 1
100
AcDbBlockReference
  2
block 3
 10
0.0
 20
0.0
 30
0.0
  0
POLYLINE
  5
BA
330
1F
100
AcDbEntity
  8
_U+30EC_U+30A4_U+30E4_U+30FC 1
 62
   179
420
  2234388
370
     9
100
AcDb2dPolyline
 66
     1
 10
0.0
 20
0.0
 30
0.0
  0
VERTEX
  5
BB
330
BA
100
AcDbEntity
  8
_U+30EC_U+30A4_U+30E4_U+30FC 1
 62
   179
420
  2234388
370
     9
100
AcDbVertex
100
AcDb2dVertex
 10
97.43002410148343
 20
-158.2148689722193
 30
0.0
  0
VERTEX
  5
BC
330
BA
100
AcDbEntity
  8
_U+30EC_U+30A4_U+30E4_U+30FC 1
 62
   179
420
  2234388
370
     9
100
AcDbVertex
100
AcDb2dVertex
 10
107.4302104257521
 20
-158.2148689722193
 30
0.0
  0
SEQEND
  5
BD
330
BA
100
AcDbEntity
  8
_U+30EC_U+30A4_U+30E4_U+30FC 1
 62
   179
420
  2234388
370
     9
  0
POLYLINE
  5
BE
330
1F
100
AcDbEntity
  8
_U+30EC_U+30A4_U+30E4_U+30FC 1
 62
   179
420
  2234388
370
     9
100
AcDb2dPolyline
 66
     1
 10
0.0
 20
0.0
 30
0.0
  0
VERTEX
  5
BF
330
BE
100
AcDbEntity
  8
_U+30EC_U+30A4_U+30E4_U+30FC 1
 62
   179
420
  2234388
370
     9
100
AcDbVertex
100
AcDb2dVertex
 10
97.43002410148343
 20
-156.754880569264
 30
0.0
  0
VERTEX
  5
C0
330
BE
100
AcDbEntity
  8
_U+30EC_U+30A4_U+30E4_U+30FC 1
 62
   179
420
  2234388
370
     9
100
AcDbVertex
100
AcDb2dVertex
 10
97.43002410148343
 20
-159.2151739782084
 30
0.0
  0
SEQEND
  5
C1
330
BE
100
AcDbEntity
  8
_U+30EC_U+30A4_U+30E4_U+30FC 1
 62
   179
420
  2234388
370
     9
  0
POLYLINE
  5
C2
330
1F
100
AcDbEntity
  8
_U+30EC_U+30A4_U+30E4_U+30FC 1
 62
   179
420
  2234388
370
     9
100
AcDb2dPolyline
 66
     1
 10
0.0
 20
0.0
 30
0.0
  0
VERTEX
  5
C3
330
C2
100
AcDbEntity
  8
_U+30EC_U+30A4_U+30E4_U+30FC 1
 62
   179
420
  2234388
370
     9
100
AcDbVertex
100
AcDb2dVertex
 10
107.4300812346713
 20
-156.0548156348144
 30
0.0
  0
VERTEX
  5
C4
330
C2
100
AcDbEntity
  8
_U+30EC_U+30A4_U+30E4_U+30FC 1
 62
   179
420
  2234388
370
     9
100
AcDbVertex
100
AcDb2dVertex
 10
107.4300812346713
 20
-159.2150017234341
 30
0.0
  0
SEQEND
  5
C5
330
C2
100
AcDbEntity
  8
_U+30EC_U+30A4_U+30E4_U+30FC 1
 62
   179
420
  2234388
370
     9
  0
INSERT
  5
C7
330
1F
100
AcDbEntity
  8
_U+30EC_U+30A4_U+30E4_U+30FC 1
100
AcDbBlockReference
  2
block 4
 10
0.0
 20
0.0
 30
0.0
  0
POLYLINE
  5
CF
330
1F
100
AcDbEntity
  8
_U+30EC_U+30A4_U+30E4_U+30FC 1
 62
   179
420
  2234388
370
     9
100
AcDb2dPolyline
 66
     1
 10
0.0
 20
0.0
 30
0.0
  0
VERTEX
  5
D0
330
CF
100
AcDbEntity
  8
_U+30EC_U+30A4_U+30E4_U+30FC 1
 62
   179
420
  2234388
370
     9
100
AcDbVertex
100
AcDb2dVertex
 10
85.43004597541442
 20
-158.2148689722193
 30
0.0
  0
VERTEX
  5
D1
330
CF
100
AcDbEntity
  8
_U+30EC_U+30A4_U+30E4_U+30FC 1
 62
   179
420
  2234388
370
     9
100
AcDbVertex
100
AcDb2dVertex
 10
97.43013176071734
 20
-158.2148689722193
 30
0.0
  0
SEQEND
  5
D2
330
CF
100
AcDbEntity
  8
_U+30EC_U+30A4_U+30E4_U+30FC 1
 62
   179
420
  2234388
370
     9
  0
POLYLINE
  5
D3
330
1F
100
AcDbEntity
  8
_U+30EC_U+30A4_U+30E4_U+30FC 1
 62
   179
420
  2234388
370
     9
100
AcDb2dPolyline
 66
     1
 10
0.0
 20
0.0
 30
0.0
  0
VERTEX
  5
D4
330
D3
100
AcDbEntity
  8
_U+30EC_U+30A4_U+30E4_U+30FC 1
 62
   179
420
  2234388
370
     9
100
AcDbVertex
100
AcDb2dVertex
 10
85.43004597541442
 20
-149.2548431023347
 30
0.0
  0
VERTEX
  5
D5
330
D3
100
AcDbEntity
  8
_U+30EC_U+30A4_U+30E4_U+30FC 1
 62
   179
420
  2234388
370
     9
100
AcDbVertex
100
AcDb2dVertex
 10
85.43004597541442
 20
-159.2148294686598
 30
0.0
  0
SEQEND
  5
D6
330
D3
100
AcDbEntity
  8
_U+30EC_U+30A4_U+30E4_U+30FC 1
 62
   179
420
  2234388
370
     9
  0
INSERT
  5
D8
330
1F
100
AcDbEntity
  8
_U+30EC_U+30A4_U+30E4_U+30FC 1
100
AcDbBlockReference
  2
block 5
 10
0.0
 20
0.0
 30
0.0
  0
POLYLINE
  5
DF
330
1F
100
AcDbEntity
  8
_U+30EC_U+30A4_U+30E4_U+30FC 1
 62
   179
420
  2234388
370
     9
100
AcDb2dPolyline
 66
     1
 10
0.0
 20
0.0
 30
0.0
  0
VERTEX
  5
E0
330
DF
100
AcDbEntity
  8
_U+30EC_U+30A4_U+30E4_U+30FC 1
 62
   179
420
  2234388
370
     9
100
AcDbVertex
100
AcDb2dVertex
 10
85.43004597541442
 20
-141.714605677462
 30
0.0
  0
VERTEX
  5
E1
330
DF
100
AcDbEntity
  8
_U+30EC_U+30A4_U+30E4_U+30FC 1
 62
   179
420
  2234388
370
     9
100
AcDbVertex
100
AcDb2dVertex
 10
119.4297040852684
 20
-141.714605677462
 30
0.0
  0
SEQEND
  5
E2
330
DF
100
AcDbEntity
  8
_U+30EC_U+30A4_U+30E4_U+30FC 1
 62
   179
420
  2234388
370
     9
  0
POLYLINE
  5
E3
330
1F
100
AcDbEntity
  8
_U+30EC_U+30A4_U+30E4_U+30FC 1
 62
   179
420
  2234388
370
     9
100
AcDb2dPolyline
 66
     1
 10
0.0
 20
0.0
 30
0.0
  0
VERTEX
  5
E4
330
E3
100
AcDbEntity
  8
_U+30EC_U+30A4_U+30E4_U+30FC 1
 62
   179
420
  2234388
370
     9
100
AcDbVertex
100
AcDb2dVertex
 10
85.43004597541442
 20
-143.1746156122641
 30
0.0
  0
VERTEX
  5
E5
330
E3
100
AcDbEntity
  8
_U+30EC_U+30A4_U+30E4_U+30FC 1
 62
   179
420
  2234388
370
     9
100
AcDbVertex
100
AcDb2dVertex
 10
85.43004597541442
 20
-140.7147097765621
 30
0.0
  0
SEQEND
  5
E6
330
E3
100
AcDbEntity
  8
_U+30EC_U+30A4_U+30E4_U+30FC 1
 62
   179
420
  2234388
370
     9
  0
POLYLINE
  5
E7
330
1F
100
AcDbEntity
  8
_U+30EC_U+30A4_U+30E4_U+30FC 1
 62
   179
420
  2234388
370
     9
100
AcDb2dPolyline
 66
     1
 10
0.0
 20
0.0
 30
0.0
  0
VERTEX
  5
E8
330
E7
100
AcDbEntity
  8
_U+30EC_U+30A4_U+30E4_U+30FC 1
 62
   179
420
  2234388
370
     9
100
AcDbVertex
100
AcDb2dVertex
 10
119.4298871059661
 20
-143.1746156122641
 30
0.0
  0
VERTEX
  5
E9
330
E7
100
AcDbEntity
  8
_U+30EC_U+30A4_U+30E4_U+30FC 1
 62
   179
420
  2234388
370
     9
100
AcDbVertex
100
AcDb2dVertex
 10
119.4298871059661
 20
-140.7147097765621
 30
0.0
  0
SEQEND
  5
EA
330
E7
100
AcDbEntity
  8
_U+30EC_U+30A4_U+30E4_U+30FC 1
 62
   179
420
  2234388
370
     9
  0
INSERT
  5
EC
330
1F
100
AcDbEntity
  8
_U+30EC_U+30A4_U+30E4_U+30FC 1
100
AcDbBlockReference
  2
block 6
 10
0.0
 20
0.0
 30
0.0
  0
POLYLINE
  5
106
330
1F
100
AcDbEntity
  8
_U+30EC_U+30A4_U+30E4_U+30FC 1
 62
   179
420
  2234388
370
     9
100
AcDb2dPolyline
 66
     1
 10
0.0
 20
0.0
 30
0.0
  0
VERTEX
  5
107
330
106
100
AcDbEntity
  8
_U+30EC_U+30A4_U+30E4_U+30FC 1
 62
   179
420
  2234388
370
     9
100
AcDbVertex
100
AcDb2dVertex
 10
123.429610666571
 20
-153.215023426323
 30
0.0
  0
VERTEX
  5
108
330
106
100
AcDbEntity
  8
_U+30EC_U+30A4_U+30E4_U+30FC 1
 62
   179
420
  2234388
370
     9
100
AcDbVertex
100
AcDb2dVertex
 10
123.429610666571
 20
-146.7147526692133
 30
0.0
  0
SEQEND
  5
109
330
106
100
AcDbEntity
  8
_U+30EC_U+30A4_U+30E4_U+30FC 1
 62
   179
420
  2234388
370
     9
  0
POLYLINE
  5
10A
330
1F
100
AcDbEntity
  8
_U+30EC_U+30A4_U+30E4_U+30FC 1
 62
   179
420
  2234388
370
     9
100
AcDb2dPolyline
 66
     1
 10
0.0
 20
0.0
 30
0.0
  0
VERTEX
  5
10B
330
10A
100
AcDbEntity
  8
_U+30EC_U+30A4_U+30E4_U+30FC 1
 62
   179
420
  2234388
370
     9
100
AcDbVertex
100
AcDb2dVertex
 10
109.9698271582443
 20
-153.215023426323
 30
0.0
  0
VERTEX
  5
10C
330
10A
100
AcDbEntity
  8
_U+30EC_U+30A4_U+30E4_U+30FC 1
 62
   179
420
  2234388
370
     9
100
AcDbVertex
100
AcDb2dVertex
 10
124.4301848206448
 20
-153.215023426323
 30
0.0
  0
SEQEND
  5
10D
330
10A
100
AcDbEntity
  8
_U+30EC_U+30A4_U+30E4_U+30FC 1
 62
   179
420
  2234388
370
     9
  0
INSERT
  5
10F
330
1F
100
AcDbEntity
  8
_U+30EC_U+30A4_U+30E4_U+30FC 1
100
AcDbBlockReference
  2
block 7
 10
0.0
 20
0.0
 30
0.0
  0
ENDSEC
  0
SECTION
  2
OBJECTS
  0
DICTIONARY
  5
C
330
0
100
AcDbDictionary
281
     1
  3
ACAD_GROUP
350
D
  3
ACAD_LAYOUT
350
1A
  3
ACAD_MATERIAL
350
3B
  3
ACAD_MLEADERSTYLE
350
120
  3
ACAD_MLINESTYLE
350
17
  3
ACAD_PLOTSETTINGS
350
19
  3
ACAD_PLOTSTYLENAME
350
E
  3
ACAD_TABLESTYLE
350
11F
  3
ACAD_VISUALSTYLE
350
2A
  0
SUN
  5
3F
330
29
100
AcDbSun
 90
        1
290
     0
 63
     7
421
 16777215
 40
1.0
291
     1
 91
  2455826
 92
 54000000
292
     0
 70
     2
 71
   256
280
     1
  0
DICTIONARY
  5
D
102
{ACAD_REACTORS
330
C
102
}
330
C
100
AcDbDictionary
281
     1
  0
DICTIONARY
  5
1A
102
{ACAD_REACTORS
330
C
102
}
330
C
100
AcDbDictionary
281
     1
  3
Layout1
350
1E
  3
Layout2
350
26
  3
Model
350
22
  0
DICTIONARY
  5
3B
102
{ACAD_REACTORS
330
C
102
}
330
C
100
AcDbDictionary
281
     1
  3
ByBlock
350
3D
  3
ByLayer
350
3C
  3
Global
350
3E
  0
DICTIONARY
  5
120
102
{ACAD_REACTORS
330
C
102
}
330
C
100
AcDbDictionary
281
     1
  0
DICTIONARY
  5
17
102
{ACAD_REACTORS
330
C
102
}
330
C
100
AcDbDictionary
281
     1
  3
Standard
350
18
  0
DICTIONARY
  5
19
102
{ACAD_REACTORS
330
C
102
}
330
C
100
AcDbDictionary
281
     1
  0
ACDBDICTIONARYWDFLT
  5
E
102
{ACAD_REACTORS
330
C
102
}
330
C
100
AcDbDictionary
281
     1
  3
Normal
350
F
100
AcDbDictionaryWithDefault
340
F
  0
DICTIONARY
  5
11F
102
{ACAD_REACTORS
330
C
102
}
330
C
100
AcDbDictionary
281
     1
  0
DICTIONARY
  5
2A
102
{ACAD_REACTORS
330
C
102
}
330
C
100
AcDbDictionary
281
     1
  3
2dWireframe
350
2F
  3
3D Hidden
350
31
  3
3dWireframe
350
30
  3
Basic
350
32
  3
Brighten
350
36
  3
ColorChange
350
3A
  3
Conceptual
350
34
  3
Dim
350
35
  3
Facepattern
350
39
  3
Flat
350
2B
  3
FlatWithEdges
350
2C
  3
Gouraud
350
2D
  3
GouraudWithEdges
350
2E
  3
Linepattern
350
38
  3
Realistic
350
33
  3
Thicken
350
37
  0
LAYOUT
  5
1E
102
{ACAD_REACTORS
330
1A
102
}
330
1A
100
AcDbPlotSettings
  1

  2
none_device
  4

  6

 40
0.0
 41
0.0
 42
0.0
 43
0.0
 44
0.0
 45
0.0
 46
0.0
 47
0.0
 48
0.0
 49
0.0
140
0.0
141
0.0
142
1.0
143
1.0
 70
   688
 72
     0
 73
     0
 74
     5
  7

 75
    16
 76
     0
 77
     2
 78
   300
147
1.0
148
0.0
149
0.0
100
AcDbLayout
  1
Layout1
 70
     1
 71
     1
 10
0.0
 20
0.0
 11
12.0
 21
9.0
 12
0.0
 22
0.0
 32
0.0
 14
1.000000000000000E+20
 24
1.000000000000000E+20
 34
1.000000000000000E+20
 15
-1.000000000000000E+20
 25
-1.000000000000000E+20
 35
-1.000000000000000E+20
146
0.0
 13
0.0
 23
0.0
 33
0.0
 16
1.0
 26
0.0
 36
0.0
 17
0.0
 27
1.0
 37
0.0
 76
     0
330
1B
  0
LAYOUT
  5
26
102
{ACAD_REACTORS
330
1A
102
}
330
1A
100
AcDbPlotSettings
  1

  2
none_device
  4

  6

 40
0.0
 41
0.0
 42
0.0
 43
0.0
 44
0.0
 45
0.0
 46
0.0
 47
0.0
 48
0.0
 49
0.0
140
0.0
141
0.0
142
1.0
143
1.0
 70
   688
 72
     0
 73
     0
 74
     5
  7

 75
    16
 76
     0
 77
     2
 78
   300
147
1.0
148
0.0
149
0.0
100
AcDbLayout
  1
Layout2
 70
     1
 71
     2
 10
0.0
 20
0.0
 11
0.0
 21
0.0
 12
0.0
 22
0.0
 32
0.0
 14
0.0
 24
0.0
 34
0.0
 15
0.0
 25
0.0
 35
0.0
146
0.0
 13
0.0
 23
0.0
 33
0.0
 16
1.0
 26
0.0
 36
0.0
 17
0.0
 27
1.0
 37
0.0
 76
     0
330
23
  0
LAYOUT
  5
22
102
{ACAD_REACTORS
330
1A
102
}
330
1A
100
AcDbPlotSettings
  1

  2
none_device
  4

  6

 40
0.0
 41
0.0
 42
0.0
 43
0.0
 44
0.0
 45
0.0
 46
0.0
 47
0.0
 48
0.0
 49
0.0
140
0.0
141
0.0
142
1.0
143
1.0
 70
  1712
 72
     0
 73
     0
 74
     0
  7

 75
     0
 76
     0
 77
     2
 78
   300
147
1.0
148
0.0
149
0.0
100
AcDbLayout
  1
Model
 70
     1
 71
     0
 10
0.0
 20
0.0
 11
12.0
 21
9.0
 12
0.0
 22
0.0
 32
0.0
 14
1.000000000000000E+20
 24
1.000000000000000E+20
 34
1.000000000000000E+20
 15
-1.000000000000000E+20
 25
-1.000000000000000E+20
 35
-1.000000000000000E+20
146
0.0
 13
0.0
 23
0.0
 33
0.0
 16
1.0
 26
0.0
 36
0.0
 17
0.0
 27
1.0
 37
0.0
 76
     0
330
1F
331
29
  0
MATERIAL
  5
3D
102
{ACAD_REACTORS
330
3B
102
}
330
3B
100
AcDbMaterial
  1
ByBlock
 72
     1
 94
      127
  0
MATERIAL
  5
3C
102
{ACAD_REACTORS
330
3B
102
}
330
3B
100
AcDbMaterial
  1
ByLayer
 72
     1
 94
      127
  0
MATERIAL
  5
3E
102
{ACAD_REACTORS
330
3B
102
}
330
3B
100
AcDbMaterial
  1
Global
 72
     1
 94
      127
  0
MLINESTYLE
  5
18
102
{ACAD_REACTORS
330
17
102
}
330
17
100
AcDbMlineStyle
  2
Standard
 70
     0
  3

 62
   256
 51
90.0
 52
90.0
 71
     2
 49
0.5
 62
   256
  6
BYLAYER
 49
-0.5
 62
   256
  6
BYLAYER
  0
ACDBPLACEHOLDER
  5
F
102
{ACAD_REACTORS
330
E
102
}
330
E
  0
VISUALSTYLE
  5
2F
102
{ACAD_REACTORS
330
2A
102
}
330
2A
100
AcDbVisualStyle
  2
2dWireframe
 70
     4
177
     2
291
     0
 71
     0
176
     1
 72
     2
176
     1
 73
     0
176
     1
 90
        0
176
     1
 40
-0.6
176
     1
 41
-30.0
176
     1
 62
     5
 63
     7
421
 16777215
176
     1
 74
     1
176
     1
 91
        4
176
     1
 64
     7
176
     1
 65
   257
176
     1
 75
     1
176
     1
175
     1
176
     1
 42
1.0
176
     1
 92
        0
176
     1
 66
   257
176
     1
 43
1.0
176
     1
 76
     1
176
     1
 77
     6
176
     1
 78
     2
176
     1
 67
     7
176
     1
 79
     5
176
     1
170
     0
176
     1
171
     0
176
     1
290
     0
176
     1
 93
        1
176
     1
 44
0.0
176
     1
173
     0
176
     1
  0
VISUALSTYLE
  5
31
102
{ACAD_REACTORS
330
2A
102
}
330
2A
100
AcDbVisualStyle
  2
3D Hidden
 70
     6
177
     2
291
     0
 71
     1
176
     1
 72
     2
176
     1
 73
     2
176
     1
 90
        0
176
     1
 40
-0.6
176
     1
 41
-30.0
176
     1
 62
     5
 63
     7
421
 16777215
176
     1
 74
     2
176
     1
 91
        2
176
     1
 64
     7
176
     1
 65
   257
176
     1
 75
     2
176
     1
175
     1
176
     1
 42
40.0
176
     1
 92
        0
176
     1
 66
   257
176
     1
 43
1.0
176
     1
 76
     1
176
     1
 77
     6
176
     1
 78
     2
176
     1
 67
     7
176
     1
 79
     3
176
     1
170
     0
176
     1
171
     0
176
     1
290
     0
176
     1
 93
        1
176
     1
 44
0.0
176
     1
173
     0
176
     1
  0
VISUALSTYLE
  5
30
102
{ACAD_REACTORS
330
2A
102
}
330
2A
100
AcDbVisualStyle
  2
3dWireframe
 70
     5
177
     2
291
     0
 71
     0
176
     1
 72
     2
176
     1
 73
     0
176
     1
 90
        0
176
     1
 40
-0.6
176
     1
 41
-30.0
176
     1
 62
     5
 63
     7
421
 16777215
176
     1
 74
     1
176
     1
 91
        4
176
     1
 64
     7
176
     1
 65
   257
176
     1
 75
     1
176
     1
175
     1
176
     1
 42
1.0
176
     1
 92
        0
176
     1
 66
   257
176
     1
 43
1.0
176
     1
 76
     1
176
     1
 77
     6
176
     1
 78
     2
176
     1
 67
     7
176
     1
 79
     5
176
     1
170
     0
176
     1
171
     0
176
     1
290
     0
176
     1
 93
        1
176
     1
 44
0.0
176
     1
173
     0
176
     1
  0
VISUALSTYLE
  5
32
102
{ACAD_REACTORS
330
2A
102
}
330
2A
100
AcDbVisualStyle
  2
Basic
 70
     7
177
     2
291
     1
 71
     1
176
     1
 72
     0
176
     1
 73
     1
176
     1
 90
        0
176
     1
 40
-0.6
176
     1
 41
-30.0
176
     1
 62
     5
 63
     7
421
 16777215
176
     1
 74
     0
176
     1
 91
        4
176
     1
 64
     7
176
     1
 65
   257
176
     1
 75
     1
176
     1
175
     1
176
     1
 42
1.0
176
     1
 92
        8
176
     1
 66
     7
176
     1
 43
1.0
176
     1
 76
     1
176
     1
 77
     6
176
     1
 78
     2
176
     1
 67
     7
176
     1
 79
     5
176
     1
170
     0
176
     1
171
     0
176
     1
290
     0
176
     1
 93
        1
176
     1
 44
0.0
176
     1
173
     0
176
     1
  0
VISUALSTYLE
  5
36
102
{ACAD_REACTORS
330
2A
102
}
330
2A
100
AcDbVisualStyle
  2
Brighten
 70
    12
177
     2
291
     1
 71
     2
176
     1
 72
     2
176
     1
 73
     0
176
     1
 90
        0
176
     1
 40
-0.6
176
     1
 41
-30.0
176
     1
 62
     5
 63
     7
421
 16777215
176
     1
 74
     1
176
     1
 91
        4
176
     1
 64
     7
176
     1
 65
   257
176
     1
 75
     1
176
     1
175
     1
176
     1
 42
1.0
176
     1
 92
        8
176
     1
 66
     7
176
     1
 43
1.0
176
     1
 76
     1
176
     1
 77
     6
176
     1
 78
     2
176
     1
 67
     7
176
     1
 79
     5
176
     1
170
     0
176
     1
171
     0
176
     1
290
     0
176
     1
 93
        1
176
     1
 44
50.0
176
     1
173
     0
176
     1
  0
VISUALSTYLE
  5
3A
102
{ACAD_REACTORS
330
2A
102
}
330
2A
100
AcDbVisualStyle
  2
ColorChange
 70
    16
177
     2
291
     1
 71
     2
176
     1
 72
     2
176
     1
 73
     3
176
     1
 90
        0
176
     1
 40
-0.6
176
     1
 41
-30.0
176
     1
 62
     5
 63
     8
421
  8421504
176
     1
 74
     1
176
     1
 91
        4
176
     1
 64
     7
176
     1
 65
   257
176
     1
 75
     1
176
     1
175
     1
176
     1
 42
1.0
176
     1
 92
        8
176
     1
 66
     8
424
  8421504
176
     1
 43
1.0
176
     1
 76
     1
176
     1
 77
     6
176
     1
 78
     2
176
     1
 67
     7
176
     1
 79
     5
176
     1
170
     0
176
     1
171
     0
176
     1
290
     0
176
     1
 93
        1
176
     1
 44
0.0
176
     1
173
     0
176
     1
  0
VISUALSTYLE
  5
34
102
{ACAD_REACTORS
330
2A
102
}
330
2A
100
AcDbVisualStyle
  2
Conceptual
 70
     9
177
     2
291
     0
 71
     3
176
     1
 72
     2
176
     1
 73
     0
176
     1
 90
        0
176
     1
 40
-0.6
176
     1
 41
-30.0
176
     1
 62
     5
 63
     7
421
 16777215
176
     1
 74
     2
176
     1
 91
        2
176
     1
 64
     7
176
     1
 65
   257
176
     1
 75
     1
176
     1
175
     1
176
     1
 42
40.0
176
     1
 92
        8
176
     1
 66
     7
176
     1
 43
1.0
176
     1
 76
     1
176
     1
 77
     6
176
     1
 78
     2
176
     1
 67
     7
176
     1
 79
     3
176
     1
170
     0
176
     1
171
     0
176
     1
290
     0
176
     1
 93
        1
176
     1
 44
0.0
176
     1
173
     0
176
     1
  0
VISUALSTYLE
  5
35
102
{ACAD_REACTORS
330
2A
102
}
330
2A
100
AcDbVisualStyle
  2
Dim
 70
    11
177
     2
291
     1
 71
     2
176
     1
 72
     2
176
     1
 73
     0
176
     1
 90
        0
176
     1
 40
-0.6
176
     1
 41
-30.0
176
     1
 62
     5
 63
     7
421
 16777215
176
     1
 74
     1
176
     1
 91
        4
176
     1
 64
     7
176
     1
 65
   257
176
     1
 75
     1
176
     1
175
     1
176
     1
 42
1.0
176
     1
 92
        8
176
     1
 66
     7
176
     1
 43
1.0
176
     1
 76
     1
176
     1
 77
     6
176
     1
 78
     2
176
     1
 67
     7
176
     1
 79
     5
176
     1
170
     0
176
     1
171
     0
176
     1
290
     0
176
     1
 93
        1
176
     1
 44
-50.0
176
     1
173
     0
176
     1
  0
VISUALSTYLE
  5
39
102
{ACAD_REACTORS
330
2A
102
}
330
2A
100
AcDbVisualStyle
  2
Facepattern
 70
    15
177
     2
291
     1
 71
     2
176
     1
 72
     2
176
     1
 73
     0
176
     1
 90
        0
176
     1
 40
-0.6
176
     1
 41
-30.0
176
     1
 62
     5
 63
     7
421
 16777215
176
     1
 74
     1
176
     1
 91
        4
176
     1
 64
     7
176
     1
 65
   257
176
     1
 75
     1
176
     1
175
     1
176
     1
 42
1.0
176
     1
 92
        8
176
     1
 66
     7
176
     1
 43
1.0
176
     1
 76
     1
176
     1
 77
     6
176
     1
 78
     2
176
     1
 67
     7
176
     1
 79
     5
176
     1
170
     0
176
     1
171
     0
176
     1
290
     0
176
     1
 93
        1
176
     1
 44
0.0
176
     1
173
     0
176
     1
  0
VISUALSTYLE
  5
2B
102
{ACAD_REACTORS
330
2A
102
}
330
2A
100
AcDbVisualStyle
  2
Flat
 70
     0
177
     2
291
     1
 71
     2
176
     1
 72
     1
176
     1
 73
     1
176
     1
 90
        2
176
     1
 40
-0.6
176
     1
 41
30.0
176
     1
 62
     5
 63
     7
421
 16777215
176
     1
 74
     0
176
     1
 91
        4
176
     1
 64
     7
176
     1
 65
   257
176
     1
 75
     1
176
     1
175
     1
176
     1
 42
1.0
176
     1
 92
        8
176
     1
 66
     7
176
     1
 43
1.0
176
     1
 76
     1
176
     1
 77
     6
176
     1
 78
     2
176
     1
 67
     7
176
     1
 79
     5
176
     1
170
     0
176
     1
171
     0
176
     1
290
     0
176
     1
 93
       13
176
     1
 44
0.0
176
     1
173
     0
176
     1
  0
VISUALSTYLE
  5
2C
102
{ACAD_REACTORS
330
2A
102
}
330
2A
100
AcDbVisualStyle
  2
FlatWithEdges
 70
     1
177
     2
291
     1
 71
     2
176
     1
 72
     1
176
     1
 73
     1
176
     1
 90
        2
176
     1
 40
-0.6
176
     1
 41
30.0
176
     1
 62
     5
 63
     7
421
 16777215
176
     1
 74
     1
176
     1
 91
        4
176
     1
 64
     7
176
     1
 65
   257
176
     1
 75
     1
176
     1
175
     1
176
     1
 42
1.0
176
     1
 92
        0
176
     1
 66
   257
176
     1
 43
1.0
176
     1
 76
     1
176
     1
 77
     6
176
     1
 78
     2
176
     1
 67
     7
176
     1
 79
     5
176
     1
170
     0
176
     1
171
     0
176
     1
290
     0
176
     1
 93
       13
176
     1
 44
0.0
176
     1
173
     0
176
     1
  0
VISUALSTYLE
  5
2D
102
{ACAD_REACTORS
330
2A
102
}
330
2A
100
AcDbVisualStyle
  2
Gouraud
 70
     2
177
     2
291
     1
 71
     2
176
     1
 72
     2
176
     1
 73
     1
176
     1
 90
        2
176
     1
 40
-0.6
176
     1
 41
30.0
176
     1
 62
     5
 63
     7
421
 16777215
176
     1
 74
     0
176
     1
 91
        4
176
     1
 64
     7
176
     1
 65
   257
176
     1
 75
     1
176
     1
175
     1
176
     1
 42
1.0
176
     1
 92
        0
176
     1
 66
     7
176
     1
 43
1.0
176
     1
 76
     1
176
     1
 77
     6
176
     1
 78
     2
176
     1
 67
     7
176
     1
 79
     5
176
     1
170
     0
176
     1
171
     0
176
     1
290
     0
176
     1
 93
       13
176
     1
 44
0.0
176
     1
173
     0
176
     1
  0
VISUALSTYLE
  5
2E
102
{ACAD_REACTORS
330
2A
102
}
330
2A
100
AcDbVisualStyle
  2
GouraudWithEdges
 70
     3
177
     2
291
     1
 71
     2
176
     1
 72
     2
176
     1
 73
     1
176
     1
 90
        2
176
     1
 40
-0.6
176
     1
 41
30.0
176
     1
 62
     5
 63
     7
421
 16777215
176
     1
 74
     1
176
     1
 91
        4
176
     1
 64
     7
176
     1
 65
   257
176
     1
 75
     1
176
     1
175
     1
176
     1
 42
1.0
176
     1
 92
        0
176
     1
 66
   257
176
     1
 43
1.0
176
     1
 76
     1
176
     1
 77
     6
176
     1
 78
     2
176
     1
 67
     7
176
     1
 79
     5
176
     1
170
     0
176
     1
171
     0
176
     1
290
     0
176
     1
 93
       13
176
     1
 44
0.0
176
     1
173
     0
176
     1
  0
VISUALSTYLE
  5
38
102
{ACAD_REACTORS
330
2A
102
}
330
2A
100
AcDbVisualStyle
  2
Linepattern
 70
    14
177
     2
291
     1
 71
     2
176
     1
 72
     2
176
     1
 73
     0
176
     1
 90
        0
176
     1
 40
-0.6
176
     1
 41
-30.0
176
     1
 62
     5
 63
     7
421
 16777215
176
     1
 74
     1
176
     1
 91
        4
176
     1
 64
     7
176
     1
 65
   257
176
     1
 75
     7
176
     1
175
     7
176
     1
 42
1.0
176
     1
 92
        8
176
     1
 66
     7
176
     1
 43
1.0
176
     1
 76
     1
176
     1
 77
     6
176
     1
 78
     2
176
     1
 67
     7
176
     1
 79
     5
176
     1
170
     0
176
     1
171
     0
176
     1
290
     0
176
     1
 93
        1
176
     1
 44
0.0
176
     1
173
     0
176
     1
  0
VISUALSTYLE
  5
33
102
{ACAD_REACTORS
330
2A
102
}
330
2A
100
AcDbVisualStyle
  2
Realistic
 70
     8
177
     2
291
     0
 71
     2
176
     1
 72
     2
176
     1
 73
     0
176
     1
 90
        0
176
     1
 40
-0.6
176
     1
 41
-30.0
176
     1
 62
     5
 63
     7
421
 16777215
176
     1
 74
     1
176
     1
 91
        0
176
     1
 64
     7
176
     1
 65
   257
176
     1
 75
     1
176
     1
175
     1
176
     1
 42
1.0
176
     1
 92
        8
176
     1
 66
     8
424
  7895160
176
     1
 43
1.0
176
     1
 76
     1
176
     1
 77
     6
176
     1
 78
     2
176
     1
 67
     7
176
     1
 79
     5
176
     1
170
     0
176
     1
171
     0
176
     1
290
     0
176
     1
 93
       13
176
     1
 44
0.0
176
     1
173
     0
176
     1
  0
VISUALSTYLE
  5
37
102
{ACAD_REACTORS
330
2A
102
}
330
2A
100
AcDbVisualStyle
  2
Thicken
 70
    13
177
     2
291
     1
 71
     2
176
     1
 72
     2
176
     1
 73
     0
176
     1
 90
        0
176
     1
 40
-0.6
176
     1
 41
-30.0
176
     1
 62
     5
 63
     7
421
 16777215
176
     1
 74
     1
176
     1
 91
        4
176
     1
 64
     7
176
     1
 65
   257
176
     1
 75
     1
176
     1
175
     1
176
     1
 42
1.0
176
     1
 92
       12
176
     1
 66
     7
176
     1
 43
1.0
176
     1
 76
     1
176
     1
 77
     6
176
     1
 78
     2
176
     1
 67
     7
176
     1
 79
     5
176
     1
170
     0
176
     1
171
     0
176
     1
290
     0
176
     1
 93
        1
176
     1
 44
0.0
176
     1
173
     0
176
     1
  0
ENDSEC
  0
EOF
